  0
SECTION
  2
HEADER
  9
$ACADVER
  1
AC1009
  9
$INSBASE
 10
0.0
 20
0.0
 30
0.0
  9
$EXTMIN
 10
-904.147194
 20
-404.126687
 30
-0.008844
  9
$EXTMAX
 10
904.147219
 20
404.198249
 30
580.008852
  9
$LIMMIN
 10
-904.147194
 20
-404.126687
  9
$LIMMAX
 10
904.147219
 20
404.198249
  9
$ORTHOMODE
 70
     1
  9
$REGENMODE
 70
     1
  9
$FILLMODE
 70
     1
  9
$QTEXTMODE
 70
     0
  9
$MIRRTEXT
 70
     0
  9
$DRAGMODE
 70
     2
  9
$LTSCALE
 40
25.0
  9
$OSMODE
 70
     0
  9
$ATTMODE
 70
     1
  9
$TEXTSIZE
 40
200.0
  9
$TRACEWID
 40
1.0
  9
$TEXTSTYLE
  7
STANDARD
  9
$CLAYER
  8
TEAM-MAS
  9
$CELTYPE
  6
BYLAYER
  9
$CECOLOR
 62
   256
  9
$DIMSCALE
 40
0.0
  9
$DIMASZ
 40
20.0
  9
$DIMEXO
 40
10.0
  9
$DIMDLI
 40
1.0
  9
$DIMRND
 40
0.0
  9
$DIMDLE
 40
0.0
  9
$DIMEXE
 40
1.0
  9
$DIMTP
 40
0.0
  9
$DIMTM
 40
0.0
  9
$DIMTXT
 40
35.0
  9
$DIMCEN
 40
1.0
  9
$DIMTSZ
 40
0.0
  9
$DIMTOL
 70
     0
  9
$DIMLIM
 70
     0
  9
$DIMTIH
 70
     0
  9
$DIMTOH
 70
     0
  9
$DIMSE1
 70
     0
  9
$DIMSE2
 70
     0
  9
$DIMTAD
 70
     0
  9
$DIMZIN
 70
     0
  9
$DIMBLK
  1

  9
$DIMASO
 70
     1
  9
$DIMSHO
 70
     0
  9
$DIMPOST
  1

  9
$DIMAPOST
  1

  9
$DIMALT
 70
     0
  9
$DIMALTD
 70
     2
  9
$DIMALTF
 40
25.4
  9
$DIMLFAC
 40
1.0
  9
$DIMTOFL
 70
     0
  9
$DIMTVP
 40
0.0
  9
$DIMTIX
 70
     0
  9
$DIMSOXD
 70
     0
  9
$DIMSAH
 70
     0
  9
$DIMBLK1
  1

  9
$DIMBLK2
  1

  9
$DIMSTYLE
  2
TEAM
  9
$DIMCLRD
 70
     9
  9
$DIMCLRE
 70
     9
  9
$DIMCLRT
 70
    11
  9
$DIMTFAC
 40
1.0
  9
$DIMGAP
 40
15.0
  9
$LUNITS
 70
     2
  9
$LUPREC
 70
     1
  9
$SKETCHINC
 40
1.0
  9
$FILLETRAD
 40
50.0
  9
$AUNITS
 70
     0
  9
$AUPREC
 70
     0
  9
$MENU
  1
ROPLANS
  9
$ELEVATION
 40
0.0
  9
$PELEVATION
 40
0.0
  9
$THICKNESS
 40
0.0
  9
$LIMCHECK
 70
     0
  9
$BLIPMODE
 70
     1
  9
$CHAMFERA
 40
0.0
  9
$CHAMFERB
 40
0.0
  9
$SKPOLY
 70
     0
  9
$TDCREATE
 40
2450392.957851
  9
$TDUPDATE
 40
2455493.611202
  9
$TDINDWG
 40
2.088747
  9
$TDUSRTIMER
 40
2.088747
  9
$USRTIMER
 70
     1
  9
$ANGBASE
 50
0.0
  9
$ANGDIR
 70
     0
  9
$PDMODE
 70
     0
  9
$PDSIZE
 40
0.0
  9
$PLINEWID
 40
0.0
  9
$COORDS
 70
     2
  9
$SPLFRAME
 70
     0
  9
$SPLINETYPE
 70
     6
  9
$SPLINESEGS
 70
     8
  9
$ATTDIA
 70
     0
  9
$ATTREQ
 70
     0
  9
$HANDLING
 70
     1
  9
$HANDSEED
  5
35B
  9
$SURFTAB1
 70
    24
  9
$SURFTAB2
 70
    24
  9
$SURFTYPE
 70
     6
  9
$SURFU
 70
     6
  9
$SURFV
 70
     6
  9
$UCSNAME
  2

  9
$UCSORG
 10
0.0
 20
0.0
 30
0.0
  9
$UCSXDIR
 10
1.0
 20
0.0
 30
0.0
  9
$UCSYDIR
 10
0.0
 20
1.0
 30
0.0
  9
$PUCSNAME
  2

  9
$PUCSORG
 10
0.0
 20
0.0
 30
0.0
  9
$PUCSXDIR
 10
1.0
 20
0.0
 30
0.0
  9
$PUCSYDIR
 10
0.0
 20
1.0
 30
0.0
  9
$USERI1
 70
     0
  9
$USERI2
 70
     0
  9
$USERI3
 70
     0
  9
$USERI4
 70
     0
  9
$USERI5
 70
     0
  9
$USERR1
 40
0.0
  9
$USERR2
 40
0.0
  9
$USERR3
 40
0.0
  9
$USERR4
 40
0.0
  9
$USERR5
 40
0.0
  9
$WORLDVIEW
 70
     1
  9
$SHADEDGE
 70
     0
  9
$SHADEDIF
 70
    70
  9
$TILEMODE
 70
     1
  9
$MAXACTVP
 70
    16
  9
$PLIMCHECK
 70
     0
  9
$PEXTMIN
 10
-0.805942
 20
0.005011
 30
0.0
  9
$PEXTMAX
 10
20.250094
 20
11.356329
 30
0.0
  9
$PLIMMIN
 10
0.0
 20
0.0
  9
$PLIMMAX
 10
12.0
 20
9.0
  9
$UNITMODE
 70
     0
  9
$VISRETAIN
 70
     0
  9
$PLINEGEN
 70
     0
  9
$PSLTSCALE
 70
     0
  0
ENDSEC
  0
SECTION
  2
TABLES
  0
TABLE
  2
VPORT
 70
     2
  0
VPORT
  2
*ACTIVE
 70
     0
 10
0.0
 20
0.0
 11
1.0
 21
1.0
 12
0.000013
 22
0.035781
 13
0.0
 23
0.0
 14
1.0
 24
1.0
 15
50.0
 25
50.0
 16
0.0
 26
0.0
 36
1.0
 17
0.0
 27
0.0
 37
0.0
 40
972.380305
 41
1.865779
 42
50.0
 43
0.0
 44
0.0
 50
0.0
 51
0.0
 71
     0
 72
   100
 73
     1
 74
     1
 75
     0
 76
     0
 77
     0
 78
     0
  0
ENDTAB
  0
TABLE
  2
LTYPE
 70
     2
  0
LTYPE
  2
CONTINUOUS
 70
     0
  3
Solid Line
 72
    65
 73
     0
 40
0.0
  0
LTYPE
  2
31
 70
     0
  3

 72
    65
 73
     4
 40
2.1
 49
1.5
 49
-0.3
 49
0.0
 49
-0.3
  0
ENDTAB
  0
TABLE
  2
LAYER
 70
     9
  0
LAYER
  2
0
 70
     0
 62
     7
  6
CONTINUOUS
  0
LAYER
  2
TEAM-BODY
 70
     0
 62
     2
  6
CONTINUOUS
  0
LAYER
  2
TEAM-AXE
 70
     0
 62
    10
  6
31
  0
LAYER
  2
TEAM-MAS
 70
     0
 62
     9
  6
CONTINUOUS
  0
LAYER
  2
TEAM-TXT
 70
     0
 62
    11
  6
CONTINUOUS
  0
LAYER
  2
TEAM-DET1
 70
     0
 62
     4
  6
CONTINUOUS
  0
LAYER
  2
TEAM-KAN
 70
     0
 62
     6
  6
CONTINUOUS
  0
LAYER
  2
TEAM-NET
 70
     0
 62
    15
  6
CONTINUOUS
  0
LAYER
  2
TEAM-INSP
 70
     0
 62
     5
  6
CONTINUOUS
  0
ENDTAB
  0
TABLE
  2
STYLE
 70
     2
  0
STYLE
  2
STANDARD
 70
     0
 40
0.0
 41
1.0
 50
0.0
 71
     0
 42
200.0
  3
txt
  4

  0
STYLE
  2
TEAM
 70
     0
 40
0.0
 41
0.8
 50
15.0
 71
     0
 42
7.0
  3
ROMANS.shx
  4

  0
ENDTAB
  0
TABLE
  2
VIEW
 70
     0
  0
ENDTAB
  0
TABLE
  2
UCS
 70
     0
  0
ENDTAB
  0
TABLE
  2
APPID
 70
     1
  0
APPID
  2
ACAD
 70
     0
  0
ENDTAB
  0
TABLE
  2
DIMSTYLE
 70
     1
  0
DIMSTYLE
  2
TEAM
 70
     0
  3

  4

  5

  6

  7

 40
0.0
 41
20.0
 42
10.0
 43
1.0
 44
1.0
 45
0.0
 46
0.0
 47
0.0
 48
0.0
140
35.0
141
1.0
142
0.0
143
25.4
144
1.0
145
0.0
146
1.0
147
15.0
 71
     0
 72
     0
 73
     0
 74
     0
 75
     0
 76
     0
 77
     0
 78
     0
170
     0
171
     2
172
     0
173
     0
174
     0
175
     0
176
     9
177
     9
178
    11
  0
ENDTAB
  0
ENDSEC
  0
SECTION
  2
BLOCKS
  0
BLOCK
  8
0
  2
$MODEL_SPACE
 70
     0
 10
0.0
 20
0.0
 30
0.0
  3
$MODEL_SPACE
  1

  0
ENDBLK
  5
328
  8
0
  0
BLOCK
 67
     1
  8
0
  2
$PAPER_SPACE
 70
     0
 10
0.0
 20
0.0
 30
0.0
  3
$PAPER_SPACE
  1

  0
ENDBLK
  5
326
 67
     1
  8
0
  0
ENDSEC
  0
SECTION
  2
ENTITIES
  0
POLYLINE
  5
20
  8
TEAM-NET
 66
     1
 10
0.0
 20
0.0
 30
0.0
 70
    16
 71
     2
 72
    33
  0
VERTEX
  5
21
  8
TEAM-NET
 10
-850.0
 20
0.035776
 30
580.0
 70
    64
  0
VERTEX
  5
22
  8
TEAM-NET
 10
-849.402391
 20
-69.640805
 30
580.0
 70
    64
  0
VERTEX
  5
23
  8
TEAM-NET
 10
-843.721488
 20
-139.087983
 30
580.0
 70
    64
  0
VERTEX
  5
24
  8
TEAM-NET
 10
-832.987586
 20
-207.935397
 30
580.0
 70
    64
  0
VERTEX
  5
25
  8
TEAM-NET
 10
-811.372349
 20
-273.760021
 30
580.0
 70
    64
  0
VERTEX
  5
26
  8
TEAM-NET
 10
-763.711841
 20
-323.750624
 30
580.0
 70
    64
  0
VERTEX
  5
27
  8
TEAM-NET
 10
-698.703533
 20
-347.08524
 30
580.0
 70
    64
  0
VERTEX
  5
28
  8
TEAM-NET
 10
-629.175014
 20
-344.448808
 30
580.0
 70
    64
  0
VERTEX
  5
29
  8
TEAM-NET
 10
-559.681582
 20
-339.156804
 30
580.0
 70
    64
  0
VERTEX
  5
2A
  8
TEAM-NET
 10
-490.188151
 20
-333.8648
 30
580.0
 70
    64
  0
VERTEX
  5
2B
  8
TEAM-NET
 10
-420.69472
 20
-328.572796
 30
580.0
 70
    64
  0
VERTEX
  5
2C
  8
TEAM-NET
 10
-351.201288
 20
-323.280792
 30
580.0
 70
    64
  0
VERTEX
  5
2D
  8
TEAM-NET
 10
-281.707857
 20
-317.988788
 30
580.0
 70
    64
  0
VERTEX
  5
2E
  8
TEAM-NET
 10
-212.214425
 20
-312.696784
 30
580.0
 70
    64
  0
VERTEX
  5
2F
  8
TEAM-NET
 10
-142.720994
 20
-307.40478
 30
580.0
 70
    64
  0
VERTEX
  5
30
  8
TEAM-NET
 10
-73.227563
 20
-302.112775
 30
580.0
 70
    64
  0
VERTEX
  5
31
  8
TEAM-NET
 10
-5.85661
 20
-314.250621
 30
580.0
 70
    64
  0
VERTEX
  5
32
  8
TEAM-NET
 10
56.482234
 20
-345.251837
 30
580.0
 70
    64
  0
VERTEX
  5
33
  8
TEAM-NET
 10
125.691186
 20
-349.964224
 30
580.0
 70
    64
  0
VERTEX
  5
34
  8
TEAM-NET
 10
195.385823
 20
-349.964224
 30
580.0
 70
    64
  0
VERTEX
  5
35
  8
TEAM-NET
 10
265.080459
 20
-349.964224
 30
580.0
 70
    64
  0
VERTEX
  5
36
  8
TEAM-NET
 10
334.775095
 20
-349.964224
 30
580.0
 70
    64
  0
VERTEX
  5
37
  8
TEAM-NET
 10
404.469731
 20
-349.964224
 30
580.0
 70
    64
  0
VERTEX
  5
38
  8
TEAM-NET
 10
474.164367
 20
-349.964224
 30
580.0
 70
    64
  0
VERTEX
  5
39
  8
TEAM-NET
 10
543.859004
 20
-349.964224
 30
580.0
 70
    64
  0
VERTEX
  5
3A
  8
TEAM-NET
 10
613.55364
 20
-349.964224
 30
580.0
 70
    64
  0
VERTEX
  5
3B
  8
TEAM-NET
 10
683.248276
 20
-349.964224
 30
580.0
 70
    64
  0
VERTEX
  5
3C
  8
TEAM-NET
 10
749.184746
 20
-331.786674
 30
580.0
 70
    64
  0
VERTEX
  5
3D
  8
TEAM-NET
 10
788.302504
 20
-275.805679
 30
580.0
 70
    64
  0
VERTEX
  5
3E
  8
TEAM-NET
 10
804.256548
 20
-207.979688
 30
580.0
 70
    64
  0
VERTEX
  5
3F
  8
TEAM-NET
 10
814.894903
 20
-139.119526
 30
580.0
 70
    64
  0
VERTEX
  5
40
  8
TEAM-NET
 10
820.153308
 20
-69.641143
 30
580.0
 70
    64
  0
VERTEX
  5
41
  8
TEAM-NET
 10
820.0
 20
0.035776
 30
580.0
 70
    64
  0
VERTEX
  5
42
  8
TEAM-NET
 10
-540.0
 20
0.035776
 30
160.0
 70
    64
  0
VERTEX
  5
43
  8
TEAM-NET
 10
-538.729425
 20
-55.673027
 30
160.0
 70
    64
  0
VERTEX
  5
44
  8
TEAM-NET
 10
-532.73947
 20
-111.073438
 30
160.0
 70
    64
  0
VERTEX
  5
45
  8
TEAM-NET
 10
-522.073285
 20
-165.766377
 30
160.0
 70
    64
  0
VERTEX
  5
46
  8
TEAM-NET
 10
-506.036668
 20
-219.074465
 30
160.0
 70
    64
  0
VERTEX
  5
47
  8
TEAM-NET
 10
-469.893577
 20
-260.559563
 30
160.0
 70
    64
  0
VERTEX
  5
48
  8
TEAM-NET
 10
-417.276488
 20
-276.646156
 30
160.0
 70
    64
  0
VERTEX
  5
49
  8
TEAM-NET
 10
-361.666886
 20
-272.999498
 30
160.0
 70
    64
  0
VERTEX
  5
4A
  8
TEAM-NET
 10
-306.074637
 20
-268.943307
 30
160.0
 70
    64
  0
VERTEX
  5
4B
  8
TEAM-NET
 10
-250.482388
 20
-264.887116
 30
160.0
 70
    64
  0
VERTEX
  5
4C
  8
TEAM-NET
 10
-194.890139
 20
-260.830925
 30
160.0
 70
    64
  0
VERTEX
  5
4D
  8
TEAM-NET
 10
-139.29789
 20
-256.774734
 30
160.0
 70
    64
  0
VERTEX
  5
4E
  8
TEAM-NET
 10
-83.705641
 20
-252.718543
 30
160.0
 70
    64
  0
VERTEX
  5
4F
  8
TEAM-NET
 10
-28.204986
 20
-252.74059
 30
160.0
 70
    64
  0
VERTEX
  5
50
  8
TEAM-NET
 10
22.61872
 20
-275.140738
 30
160.0
 70
    64
  0
VERTEX
  5
51
  8
TEAM-NET
 10
73.411277
 20
-297.627181
 30
160.0
 70
    64
  0
VERTEX
  5
52
  8
TEAM-NET
 10
128.982292
 20
-299.964224
 30
160.0
 70
    64
  0
VERTEX
  5
53
  8
TEAM-NET
 10
184.722321
 20
-299.964224
 30
160.0
 70
    64
  0
VERTEX
  5
54
  8
TEAM-NET
 10
240.46235
 20
-299.964224
 30
160.0
 70
    64
  0
VERTEX
  5
55
  8
TEAM-NET
 10
296.202379
 20
-299.964224
 30
160.0
 70
    64
  0
VERTEX
  5
56
  8
TEAM-NET
 10
351.942408
 20
-299.964224
 30
160.0
 70
    64
  0
VERTEX
  5
57
  8
TEAM-NET
 10
407.682437
 20
-299.964224
 30
160.0
 70
    64
  0
VERTEX
  5
58
  8
TEAM-NET
 10
463.422466
 20
-299.964224
 30
160.0
 70
    64
  0
VERTEX
  5
59
  8
TEAM-NET
 10
519.162495
 20
-299.964224
 30
160.0
 70
    64
  0
VERTEX
  5
5A
  8
TEAM-NET
 10
574.902524
 20
-299.964224
 30
160.0
 70
    64
  0
VERTEX
  5
5B
  8
TEAM-NET
 10
630.642553
 20
-299.964224
 30
160.0
 70
    64
  0
VERTEX
  5
5C
  8
TEAM-NET
 10
686.382582
 20
-299.964224
 30
160.0
 70
    64
  0
VERTEX
  5
5D
  8
TEAM-NET
 10
733.997982
 20
-276.618417
 30
160.0
 70
    64
  0
VERTEX
  5
5E
  8
TEAM-NET
 10
749.922557
 20
-223.421078
 30
160.0
 70
    64
  0
VERTEX
  5
5F
  8
TEAM-NET
 10
760.414529
 20
-168.687661
 30
160.0
 70
    64
  0
VERTEX
  5
60
  8
TEAM-NET
 10
767.282326
 20
-113.382492
 30
160.0
 70
    64
  0
VERTEX
  5
61
  8
TEAM-NET
 10
770.496181
 20
-57.745278
 30
160.0
 70
    64
  0
VERTEX
  5
62
  8
TEAM-NET
 10
770.042164
 20
-2.017168
 30
160.0
 70
    64
  0
SEQEND
  5
64
  8
TEAM-NET
  0
POLYLINE
  5
65
  8
TEAM-NET
 66
     1
 10
0.0
 20
0.0
 30
0.0
 70
    16
 71
     2
 72
    33
  0
VERTEX
  5
66
  8
TEAM-NET
 10
-850.0
 20
0.035776
 30
580.0
 70
    64
  0
VERTEX
  5
67
  8
TEAM-NET
 10
-849.402391
 20
69.712356
 30
580.0
 70
    64
  0
VERTEX
  5
68
  8
TEAM-NET
 10
-843.721488
 20
139.159534
 30
580.0
 70
    64
  0
VERTEX
  5
69
  8
TEAM-NET
 10
-832.987586
 20
208.006948
 30
580.0
 70
    64
  0
VERTEX
  5
6A
  8
TEAM-NET
 10
-811.372349
 20
273.831572
 30
580.0
 70
    64
  0
VERTEX
  5
6B
  8
TEAM-NET
 10
-763.711841
 20
323.822175
 30
580.0
 70
    64
  0
VERTEX
  5
6C
  8
TEAM-NET
 10
-698.703533
 20
347.156791
 30
580.0
 70
    64
  0
VERTEX
  5
6D
  8
TEAM-NET
 10
-629.175014
 20
344.520359
 30
580.0
 70
    64
  0
VERTEX
  5
6E
  8
TEAM-NET
 10
-559.681582
 20
339.228355
 30
580.0
 70
    64
  0
VERTEX
  5
6F
  8
TEAM-NET
 10
-490.188151
 20
333.936351
 30
580.0
 70
    64
  0
VERTEX
  5
70
  8
TEAM-NET
 10
-420.69472
 20
328.644347
 30
580.0
 70
    64
  0
VERTEX
  5
71
  8
TEAM-NET
 10
-351.201288
 20
323.352343
 30
580.0
 70
    64
  0
VERTEX
  5
72
  8
TEAM-NET
 10
-281.707857
 20
318.060339
 30
580.0
 70
    64
  0
VERTEX
  5
73
  8
TEAM-NET
 10
-212.214425
 20
312.768335
 30
580.0
 70
    64
  0
VERTEX
  5
74
  8
TEAM-NET
 10
-142.720994
 20
307.476331
 30
580.0
 70
    64
  0
VERTEX
  5
75
  8
TEAM-NET
 10
-73.227563
 20
302.184326
 30
580.0
 70
    64
  0
VERTEX
  5
76
  8
TEAM-NET
 10
-5.85661
 20
314.322172
 30
580.0
 70
    64
  0
VERTEX
  5
77
  8
TEAM-NET
 10
56.482234
 20
345.323388
 30
580.0
 70
    64
  0
VERTEX
  5
78
  8
TEAM-NET
 10
125.691186
 20
350.035776
 30
580.0
 70
    64
  0
VERTEX
  5
79
  8
TEAM-NET
 10
195.385823
 20
350.035776
 30
580.0
 70
    64
  0
VERTEX
  5
7A
  8
TEAM-NET
 10
265.080459
 20
350.035776
 30
580.0
 70
    64
  0
VERTEX
  5
7B
  8
TEAM-NET
 10
334.775095
 20
350.035776
 30
580.0
 70
    64
  0
VERTEX
  5
7C
  8
TEAM-NET
 10
404.469731
 20
350.035776
 30
580.0
 70
    64
  0
VERTEX
  5
7D
  8
TEAM-NET
 10
474.164367
 20
350.035776
 30
580.0
 70
    64
  0
VERTEX
  5
7E
  8
TEAM-NET
 10
543.859004
 20
350.035776
 30
580.0
 70
    64
  0
VERTEX
  5
7F
  8
TEAM-NET
 10
613.55364
 20
350.035776
 30
580.0
 70
    64
  0
VERTEX
  5
80
  8
TEAM-NET
 10
683.248276
 20
350.035776
 30
580.0
 70
    64
  0
VERTEX
  5
81
  8
TEAM-NET
 10
749.184746
 20
331.858225
 30
580.0
 70
    64
  0
VERTEX
  5
82
  8
TEAM-NET
 10
788.302504
 20
275.87723
 30
580.0
 70
    64
  0
VERTEX
  5
83
  8
TEAM-NET
 10
804.256548
 20
208.051239
 30
580.0
 70
    64
  0
VERTEX
  5
84
  8
TEAM-NET
 10
814.894903
 20
139.191077
 30
580.0
 70
    64
  0
VERTEX
  5
85
  8
TEAM-NET
 10
820.153308
 20
69.712694
 30
580.0
 70
    64
  0
VERTEX
  5
86
  8
TEAM-NET
 10
820.0
 20
0.035776
 30
580.0
 70
    64
  0
VERTEX
  5
87
  8
TEAM-NET
 10
-540.0
 20
0.035776
 30
160.0
 70
    64
  0
VERTEX
  5
88
  8
TEAM-NET
 10
-538.729425
 20
55.744578
 30
160.0
 70
    64
  0
VERTEX
  5
89
  8
TEAM-NET
 10
-532.73947
 20
111.144989
 30
160.0
 70
    64
  0
VERTEX
  5
8A
  8
TEAM-NET
 10
-522.073285
 20
165.837928
 30
160.0
 70
    64
  0
VERTEX
  5
8B
  8
TEAM-NET
 10
-506.036668
 20
219.146016
 30
160.0
 70
    64
  0
VERTEX
  5
8C
  8
TEAM-NET
 10
-469.893577
 20
260.631114
 30
160.0
 70
    64
  0
VERTEX
  5
8D
  8
TEAM-NET
 10
-417.276488
 20
276.717707
 30
160.0
 70
    64
  0
VERTEX
  5
8E
  8
TEAM-NET
 10
-361.666886
 20
273.071049
 30
160.0
 70
    64
  0
VERTEX
  5
8F
  8
TEAM-NET
 10
-306.074637
 20
269.014858
 30
160.0
 70
    64
  0
VERTEX
  5
90
  8
TEAM-NET
 10
-250.482388
 20
264.958667
 30
160.0
 70
    64
  0
VERTEX
  5
91
  8
TEAM-NET
 10
-194.890139
 20
260.902476
 30
160.0
 70
    64
  0
VERTEX
  5
92
  8
TEAM-NET
 10
-139.29789
 20
256.846285
 30
160.0
 70
    64
  0
VERTEX
  5
93
  8
TEAM-NET
 10
-83.705641
 20
252.790094
 30
160.0
 70
    64
  0
VERTEX
  5
94
  8
TEAM-NET
 10
-28.204986
 20
252.812141
 30
160.0
 70
    64
  0
VERTEX
  5
95
  8
TEAM-NET
 10
22.61872
 20
275.212289
 30
160.0
 70
    64
  0
VERTEX
  5
96
  8
TEAM-NET
 10
73.411277
 20
297.698732
 30
160.0
 70
    64
  0
VERTEX
  5
97
  8
TEAM-NET
 10
128.982292
 20
300.035776
 30
160.0
 70
    64
  0
VERTEX
  5
98
  8
TEAM-NET
 10
184.722321
 20
300.035776
 30
160.0
 70
    64
  0
VERTEX
  5
99
  8
TEAM-NET
 10
240.46235
 20
300.035776
 30
160.0
 70
    64
  0
VERTEX
  5
9A
  8
TEAM-NET
 10
296.202379
 20
300.035776
 30
160.0
 70
    64
  0
VERTEX
  5
9B
  8
TEAM-NET
 10
351.942408
 20
300.035776
 30
160.0
 70
    64
  0
VERTEX
  5
9C
  8
TEAM-NET
 10
407.682437
 20
300.035776
 30
160.0
 70
    64
  0
VERTEX
  5
9D
  8
TEAM-NET
 10
463.422466
 20
300.035776
 30
160.0
 70
    64
  0
VERTEX
  5
9E
  8
TEAM-NET
 10
519.162495
 20
300.035776
 30
160.0
 70
    64
  0
VERTEX
  5
9F
  8
TEAM-NET
 10
574.902524
 20
300.035776
 30
160.0
 70
    64
  0
VERTEX
  5
A0
  8
TEAM-NET
 10
630.642553
 20
300.035776
 30
160.0
 70
    64
  0
VERTEX
  5
A1
  8
TEAM-NET
 10
686.382582
 20
300.035776
 30
160.0
 70
    64
  0
VERTEX
  5
A2
  8
TEAM-NET
 10
733.997982
 20
276.689968
 30
160.0
 70
    64
  0
VERTEX
  5
A3
  8
TEAM-NET
 10
749.922557
 20
223.492629
 30
160.0
 70
    64
  0
VERTEX
  5
A4
  8
TEAM-NET
 10
760.414529
 20
168.759212
 30
160.0
 70
    64
  0
VERTEX
  5
A5
  8
TEAM-NET
 10
767.282326
 20
113.454043
 30
160.0
 70
    64
  0
VERTEX
  5
A6
  8
TEAM-NET
 10
770.496181
 20
57.816829
 30
160.0
 70
    64
  0
VERTEX
  5
A7
  8
TEAM-NET
 10
770.042164
 20
2.088719
 30
160.0
 70
    64
  0
SEQEND
  5
A8
  8
TEAM-NET
  0
CIRCLE
  5
A9
  8
TEAM-INSP
 10
0.192284
 20
0.110262
 30
0.0
 40
7.1
  0
POLYLINE
  5
AB
  8
TEAM-NET
 66
     1
 10
0.0
 20
0.0
 30
0.0
 70
    16
 71
     2
 72
    33
  0
VERTEX
  5
AC
  8
TEAM-NET
 10
-540.0
 20
0.035776
 30
160.0
 70
    64
  0
VERTEX
  5
AD
  8
TEAM-NET
 10
-538.729425
 20
55.744578
 30
160.0
 70
    64
  0
VERTEX
  5
AE
  8
TEAM-NET
 10
-532.73947
 20
111.144989
 30
160.0
 70
    64
  0
VERTEX
  5
AF
  8
TEAM-NET
 10
-522.073285
 20
165.837928
 30
160.0
 70
    64
  0
VERTEX
  5
B0
  8
TEAM-NET
 10
-506.036668
 20
219.146016
 30
160.0
 70
    64
  0
VERTEX
  5
B1
  8
TEAM-NET
 10
-469.893577
 20
260.631114
 30
160.0
 70
    64
  0
VERTEX
  5
B2
  8
TEAM-NET
 10
-417.276488
 20
276.717707
 30
160.0
 70
    64
  0
VERTEX
  5
B3
  8
TEAM-NET
 10
-361.666886
 20
273.071049
 30
160.0
 70
    64
  0
VERTEX
  5
B4
  8
TEAM-NET
 10
-306.074637
 20
269.014858
 30
160.0
 70
    64
  0
VERTEX
  5
B5
  8
TEAM-NET
 10
-250.482388
 20
264.958667
 30
160.0
 70
    64
  0
VERTEX
  5
B6
  8
TEAM-NET
 10
-194.890139
 20
260.902476
 30
160.0
 70
    64
  0
VERTEX
  5
B7
  8
TEAM-NET
 10
-139.29789
 20
256.846285
 30
160.0
 70
    64
  0
VERTEX
  5
B8
  8
TEAM-NET
 10
-83.705641
 20
252.790094
 30
160.0
 70
    64
  0
VERTEX
  5
B9
  8
TEAM-NET
 10
-28.204986
 20
252.812141
 30
160.0
 70
    64
  0
VERTEX
  5
BA
  8
TEAM-NET
 10
22.61872
 20
275.212289
 30
160.0
 70
    64
  0
VERTEX
  5
BB
  8
TEAM-NET
 10
73.411277
 20
297.698732
 30
160.0
 70
    64
  0
VERTEX
  5
BC
  8
TEAM-NET
 10
128.982292
 20
300.035776
 30
160.0
 70
    64
  0
VERTEX
  5
BD
  8
TEAM-NET
 10
184.722321
 20
300.035776
 30
160.0
 70
    64
  0
VERTEX
  5
BE
  8
TEAM-NET
 10
240.46235
 20
300.035776
 30
160.0
 70
    64
  0
VERTEX
  5
BF
  8
TEAM-NET
 10
296.202379
 20
300.035776
 30
160.0
 70
    64
  0
VERTEX
  5
C0
  8
TEAM-NET
 10
351.942408
 20
300.035776
 30
160.0
 70
    64
  0
VERTEX
  5
C1
  8
TEAM-NET
 10
407.682437
 20
300.035776
 30
160.0
 70
    64
  0
VERTEX
  5
C2
  8
TEAM-NET
 10
463.422466
 20
300.035776
 30
160.0
 70
    64
  0
VERTEX
  5
C3
  8
TEAM-NET
 10
519.162495
 20
300.035776
 30
160.0
 70
    64
  0
VERTEX
  5
C4
  8
TEAM-NET
 10
574.902524
 20
300.035776
 30
160.0
 70
    64
  0
VERTEX
  5
C5
  8
TEAM-NET
 10
630.642553
 20
300.035776
 30
160.0
 70
    64
  0
VERTEX
  5
C6
  8
TEAM-NET
 10
686.382582
 20
300.035776
 30
160.0
 70
    64
  0
VERTEX
  5
C7
  8
TEAM-NET
 10
733.997982
 20
276.689968
 30
160.0
 70
    64
  0
VERTEX
  5
C8
  8
TEAM-NET
 10
749.922557
 20
223.492629
 30
160.0
 70
    64
  0
VERTEX
  5
C9
  8
TEAM-NET
 10
760.414529
 20
168.759212
 30
160.0
 70
    64
  0
VERTEX
  5
CA
  8
TEAM-NET
 10
767.282326
 20
113.454043
 30
160.0
 70
    64
  0
VERTEX
  5
CB
  8
TEAM-NET
 10
770.496181
 20
57.816829
 30
160.0
 70
    64
  0
VERTEX
  5
CC
  8
TEAM-NET
 10
770.042164
 20
2.088719
 30
160.0
 70
    64
  0
VERTEX
  5
CD
  8
TEAM-NET
 10
-540.0
 20
0.035776
 30
160.0
 70
    64
  0
VERTEX
  5
CE
  8
TEAM-NET
 10
-538.729425
 20
-55.673027
 30
160.0
 70
    64
  0
VERTEX
  5
CF
  8
TEAM-NET
 10
-532.73947
 20
-111.073438
 30
160.0
 70
    64
  0
VERTEX
  5
D0
  8
TEAM-NET
 10
-522.073285
 20
-165.766377
 30
160.0
 70
    64
  0
VERTEX
  5
D1
  8
TEAM-NET
 10
-506.036668
 20
-219.074465
 30
160.0
 70
    64
  0
VERTEX
  5
D2
  8
TEAM-NET
 10
-469.893577
 20
-260.559563
 30
160.0
 70
    64
  0
VERTEX
  5
D3
  8
TEAM-NET
 10
-417.276488
 20
-276.646156
 30
160.0
 70
    64
  0
VERTEX
  5
D4
  8
TEAM-NET
 10
-361.666886
 20
-272.999498
 30
160.0
 70
    64
  0
VERTEX
  5
D5
  8
TEAM-NET
 10
-306.074637
 20
-268.943307
 30
160.0
 70
    64
  0
VERTEX
  5
D6
  8
TEAM-NET
 10
-250.482388
 20
-264.887116
 30
160.0
 70
    64
  0
VERTEX
  5
D7
  8
TEAM-NET
 10
-194.890139
 20
-260.830925
 30
160.0
 70
    64
  0
VERTEX
  5
D8
  8
TEAM-NET
 10
-139.29789
 20
-256.774734
 30
160.0
 70
    64
  0
VERTEX
  5
D9
  8
TEAM-NET
 10
-83.705641
 20
-252.718543
 30
160.0
 70
    64
  0
VERTEX
  5
DA
  8
TEAM-NET
 10
-28.204986
 20
-252.74059
 30
160.0
 70
    64
  0
VERTEX
  5
DB
  8
TEAM-NET
 10
22.61872
 20
-275.140738
 30
160.0
 70
    64
  0
VERTEX
  5
DC
  8
TEAM-NET
 10
73.411277
 20
-297.627181
 30
160.0
 70
    64
  0
VERTEX
  5
DD
  8
TEAM-NET
 10
128.982292
 20
-299.964224
 30
160.0
 70
    64
  0
VERTEX
  5
DE
  8
TEAM-NET
 10
184.722321
 20
-299.964224
 30
160.0
 70
    64
  0
VERTEX
  5
DF
  8
TEAM-NET
 10
240.46235
 20
-299.964224
 30
160.0
 70
    64
  0
VERTEX
  5
E0
  8
TEAM-NET
 10
296.202379
 20
-299.964224
 30
160.0
 70
    64
  0
VERTEX
  5
E1
  8
TEAM-NET
 10
351.942408
 20
-299.964224
 30
160.0
 70
    64
  0
VERTEX
  5
E2
  8
TEAM-NET
 10
407.682437
 20
-299.964224
 30
160.0
 70
    64
  0
VERTEX
  5
E3
  8
TEAM-NET
 10
463.422466
 20
-299.964224
 30
160.0
 70
    64
  0
VERTEX
  5
E4
  8
TEAM-NET
 10
519.162495
 20
-299.964224
 30
160.0
 70
    64
  0
VERTEX
  5
E5
  8
TEAM-NET
 10
574.902524
 20
-299.964224
 30
160.0
 70
    64
  0
VERTEX
  5
E6
  8
TEAM-NET
 10
630.642553
 20
-299.964224
 30
160.0
 70
    64
  0
VERTEX
  5
E7
  8
TEAM-NET
 10
686.382582
 20
-299.964224
 30
160.0
 70
    64
  0
VERTEX
  5
E8
  8
TEAM-NET
 10
733.997982
 20
-276.618417
 30
160.0
 70
    64
  0
VERTEX
  5
E9
  8
TEAM-NET
 10
749.922557
 20
-223.421078
 30
160.0
 70
    64
  0
VERTEX
  5
EA
  8
TEAM-NET
 10
760.414529
 20
-168.687661
 30
160.0
 70
    64
  0
VERTEX
  5
EB
  8
TEAM-NET
 10
767.282326
 20
-113.382492
 30
160.0
 70
    64
  0
VERTEX
  5
EC
  8
TEAM-NET
 10
770.496181
 20
-57.745278
 30
160.0
 70
    64
  0
VERTEX
  5
ED
  8
TEAM-NET
 10
770.042164
 20
-2.017168
 30
160.0
 70
    64
  0
SEQEND
  5
EE
  8
TEAM-NET
  0
POLYLINE
  5
EF
  8
TEAM-DET1
 66
     1
 10
0.0
 20
0.0
 30
160.0
  0
VERTEX
  5
32E
  8
TEAM-DET1
 10
770.042164
 20
-2.017168
 30
160.0
 42
-0.078166
  0
VERTEX
  5
32F
  8
TEAM-DET1
 10
739.870573
 20
-263.347081
 30
160.0
 42
-0.336902
  0
VERTEX
  5
330
  8
TEAM-DET1
 10
691.694862
 20
-299.964224
 30
160.0
  0
VERTEX
  5
331
  8
TEAM-DET1
 10
94.904226
 20
-299.964224
 30
160.0
 42
-0.120054
  0
VERTEX
  5
332
  8
TEAM-DET1
 10
48.910167
 20
-288.759193
 30
160.0
  0
VERTEX
  5
333
  8
TEAM-DET1
 10
-3.362146
 20
-261.683157
 30
160.0
 42
0.138567
  0
VERTEX
  5
334
  8
TEAM-DET1
 10
-56.633186
 20
-250.743249
 30
160.0
  0
VERTEX
  5
335
  8
TEAM-DET1
 10
-407.481312
 20
-276.342268
 30
160.0
 42
-0.351513
  0
VERTEX
  5
336
  8
TEAM-DET1
 10
-511.046885
 20
-206.094117
 30
160.0
 42
-0.079765
  0
VERTEX
  5
337
  8
TEAM-DET1
 10
-540.0
 20
0.035776
 30
160.0
 42
-0.083607
  0
SEQEND
  5
338
  8
TEAM-DET1
  0
POLYLINE
  5
F1
  8
TEAM-DET1
 66
     1
 10
0.0
 20
0.0
 30
160.0
  0
VERTEX
  5
339
  8
TEAM-DET1
 10
770.042164
 20
2.088719
 30
160.0
 42
0.078166
  0
VERTEX
  5
33A
  8
TEAM-DET1
 10
739.870573
 20
263.418632
 30
160.0
 42
0.336902
  0
VERTEX
  5
33B
  8
TEAM-DET1
 10
691.694862
 20
300.035776
 30
160.0
  0
VERTEX
  5
33C
  8
TEAM-DET1
 10
94.904226
 20
300.035776
 30
160.0
 42
0.120054
  0
VERTEX
  5
33D
  8
TEAM-DET1
 10
48.910167
 20
288.830745
 30
160.0
  0
VERTEX
  5
33E
  8
TEAM-DET1
 10
-3.362146
 20
261.754708
 30
160.0
 42
-0.138567
  0
VERTEX
  5
33F
  8
TEAM-DET1
 10
-56.633186
 20
250.8148
 30
160.0
  0
VERTEX
  5
340
  8
TEAM-DET1
 10
-407.481312
 20
276.413819
 30
160.0
 42
0.351513
  0
VERTEX
  5
341
  8
TEAM-DET1
 10
-511.046885
 20
206.165668
 30
160.0
 42
0.079765
  0
VERTEX
  5
342
  8
TEAM-DET1
 10
-540.0
 20
0.035776
 30
160.0
 42
0.083607
  0
SEQEND
  5
343
  8
TEAM-DET1
  0
LINE
  5
F2
  8
TEAM-AXE
 10
560.0
 20
40.035776
 30
150.0
 11
560.0
 21
-39.964224
 31
150.0
  0
LINE
  5
F5
  8
TEAM-AXE
 10
512.190458
 20
0.035776
 30
150.0
 11
606.022486
 21
0.035776
 31
150.0
  0
CIRCLE
  5
F6
  8
TEAM-KAN
 39
10.1
 10
560.0
 20
0.035776
 30
150.0
 40
25.0
  0
CIRCLE
  5
F8
  8
TEAM-KAN
 10
-0.035433
 20
585.531049
 30
-743.194145
 40
20.0
210
-0.992546
220
-0.000001
230
0.121869
  0
POLYLINE
  5
F9
  8
TEAM-NET
 66
     1
 10
0.0
 20
0.0
 30
0.0
 70
    16
 71
     2
 72
    33
  0
VERTEX
  5
FA
  8
TEAM-NET
 10
-900.0
 20
0.035776
 30
580.0
 70
    64
  0
VERTEX
  5
FB
  8
TEAM-NET
 10
-900.0
 20
-80.67772
 30
580.0
 70
    64
  0
VERTEX
  5
FC
  8
TEAM-NET
 10
-900.0
 20
-161.391215
 30
580.0
 70
    64
  0
VERTEX
  5
FD
  8
TEAM-NET
 10
-900.0
 20
-242.104711
 30
580.0
 70
    64
  0
VERTEX
  5
FE
  8
TEAM-NET
 10
-900.0
 20
-322.818206
 30
580.0
 70
    64
  0
VERTEX
  5
FF
  8
TEAM-NET
 10
-887.648557
 20
-398.443931
 30
580.0
 70
    64
  0
VERTEX
  5
100
  8
TEAM-NET
 10
-807.134954
 20
-399.964224
 30
580.0
 70
    64
  0
VERTEX
  5
101
  8
TEAM-NET
 10
-726.421459
 20
-399.964224
 30
580.0
 70
    64
  0
VERTEX
  5
102
  8
TEAM-NET
 10
-645.707963
 20
-399.964224
 30
580.0
 70
    64
  0
VERTEX
  5
103
  8
TEAM-NET
 10
-564.994468
 20
-399.964224
 30
580.0
 70
    64
  0
VERTEX
  5
104
  8
TEAM-NET
 10
-484.280972
 20
-399.964224
 30
580.0
 70
    64
  0
VERTEX
  5
105
  8
TEAM-NET
 10
-403.567477
 20
-399.964224
 30
580.0
 70
    64
  0
VERTEX
  5
106
  8
TEAM-NET
 10
-322.853982
 20
-399.964224
 30
580.0
 70
    64
  0
VERTEX
  5
107
  8
TEAM-NET
 10
-242.140486
 20
-399.964224
 30
580.0
 70
    64
  0
VERTEX
  5
108
  8
TEAM-NET
 10
-161.426991
 20
-399.964224
 30
580.0
 70
    64
  0
VERTEX
  5
109
  8
TEAM-NET
 10
-80.713495
 20
-399.964224
 30
580.0
 70
    64
  0
VERTEX
  5
10A
  8
TEAM-NET
 10
0.0
 20
-399.964224
 30
580.0
 70
    64
  0
VERTEX
  5
10B
  8
TEAM-NET
 10
80.713495
 20
-399.964224
 30
580.0
 70
    64
  0
VERTEX
  5
10C
  8
TEAM-NET
 10
161.426991
 20
-399.964224
 30
580.0
 70
    64
  0
VERTEX
  5
10D
  8
TEAM-NET
 10
242.140486
 20
-399.964224
 30
580.0
 70
    64
  0
VERTEX
  5
10E
  8
TEAM-NET
 10
322.853982
 20
-399.964224
 30
580.0
 70
    64
  0
VERTEX
  5
10F
  8
TEAM-NET
 10
403.567477
 20
-399.964224
 30
580.0
 70
    64
  0
VERTEX
  5
110
  8
TEAM-NET
 10
484.280972
 20
-399.964224
 30
580.0
 70
    64
  0
VERTEX
  5
111
  8
TEAM-NET
 10
564.994468
 20
-399.964224
 30
580.0
 70
    64
  0
VERTEX
  5
112
  8
TEAM-NET
 10
645.707963
 20
-399.964224
 30
580.0
 70
    64
  0
VERTEX
  5
113
  8
TEAM-NET
 10
726.421459
 20
-399.964224
 30
580.0
 70
    64
  0
VERTEX
  5
114
  8
TEAM-NET
 10
807.134954
 20
-399.964224
 30
580.0
 70
    64
  0
VERTEX
  5
115
  8
TEAM-NET
 10
887.648557
 20
-398.443931
 30
580.0
 70
    64
  0
VERTEX
  5
116
  8
TEAM-NET
 10
900.0
 20
-322.818206
 30
580.0
 70
    64
  0
VERTEX
  5
117
  8
TEAM-NET
 10
900.0
 20
-242.104711
 30
580.0
 70
    64
  0
VERTEX
  5
118
  8
TEAM-NET
 10
900.0
 20
-161.391215
 30
580.0
 70
    64
  0
VERTEX
  5
119
  8
TEAM-NET
 10
900.0
 20
-80.67772
 30
580.0
 70
    64
  0
VERTEX
  5
11A
  8
TEAM-NET
 10
900.0
 20
0.035776
 30
580.0
 70
    64
  0
VERTEX
  5
11B
  8
TEAM-NET
 10
-850.0
 20
0.035776
 30
580.0
 70
    64
  0
VERTEX
  5
11C
  8
TEAM-NET
 10
-849.402391
 20
-69.640805
 30
580.0
 70
    64
  0
VERTEX
  5
11D
  8
TEAM-NET
 10
-843.721488
 20
-139.087983
 30
580.0
 70
    64
  0
VERTEX
  5
11E
  8
TEAM-NET
 10
-832.987586
 20
-207.935397
 30
580.0
 70
    64
  0
VERTEX
  5
11F
  8
TEAM-NET
 10
-811.372349
 20
-273.760021
 30
580.0
 70
    64
  0
VERTEX
  5
120
  8
TEAM-NET
 10
-763.711841
 20
-323.750624
 30
580.0
 70
    64
  0
VERTEX
  5
121
  8
TEAM-NET
 10
-698.703533
 20
-347.08524
 30
580.0
 70
    64
  0
VERTEX
  5
122
  8
TEAM-NET
 10
-629.175014
 20
-344.448808
 30
580.0
 70
    64
  0
VERTEX
  5
123
  8
TEAM-NET
 10
-559.681582
 20
-339.156804
 30
580.0
 70
    64
  0
VERTEX
  5
124
  8
TEAM-NET
 10
-490.188151
 20
-333.8648
 30
580.0
 70
    64
  0
VERTEX
  5
125
  8
TEAM-NET
 10
-420.69472
 20
-328.572796
 30
580.0
 70
    64
  0
VERTEX
  5
126
  8
TEAM-NET
 10
-351.201288
 20
-323.280792
 30
580.0
 70
    64
  0
VERTEX
  5
127
  8
TEAM-NET
 10
-281.707857
 20
-317.988788
 30
580.0
 70
    64
  0
VERTEX
  5
128
  8
TEAM-NET
 10
-212.214425
 20
-312.696784
 30
580.0
 70
    64
  0
VERTEX
  5
129
  8
TEAM-NET
 10
-142.720994
 20
-307.40478
 30
580.0
 70
    64
  0
VERTEX
  5
12A
  8
TEAM-NET
 10
-73.227563
 20
-302.112775
 30
580.0
 70
    64
  0
VERTEX
  5
12B
  8
TEAM-NET
 10
-5.85661
 20
-314.250621
 30
580.0
 70
    64
  0
VERTEX
  5
12C
  8
TEAM-NET
 10
56.482234
 20
-345.251837
 30
580.0
 70
    64
  0
VERTEX
  5
12D
  8
TEAM-NET
 10
125.691186
 20
-349.964224
 30
580.0
 70
    64
  0
VERTEX
  5
12E
  8
TEAM-NET
 10
195.385823
 20
-349.964224
 30
580.0
 70
    64
  0
VERTEX
  5
12F
  8
TEAM-NET
 10
265.080459
 20
-349.964224
 30
580.0
 70
    64
  0
VERTEX
  5
130
  8
TEAM-NET
 10
334.775095
 20
-349.964224
 30
580.0
 70
    64
  0
VERTEX
  5
131
  8
TEAM-NET
 10
404.469731
 20
-349.964224
 30
580.0
 70
    64
  0
VERTEX
  5
132
  8
TEAM-NET
 10
474.164367
 20
-349.964224
 30
580.0
 70
    64
  0
VERTEX
  5
133
  8
TEAM-NET
 10
543.859004
 20
-349.964224
 30
580.0
 70
    64
  0
VERTEX
  5
134
  8
TEAM-NET
 10
613.55364
 20
-349.964224
 30
580.0
 70
    64
  0
VERTEX
  5
135
  8
TEAM-NET
 10
683.248276
 20
-349.964224
 30
580.0
 70
    64
  0
VERTEX
  5
136
  8
TEAM-NET
 10
749.184746
 20
-331.786674
 30
580.0
 70
    64
  0
VERTEX
  5
137
  8
TEAM-NET
 10
788.302504
 20
-275.805679
 30
580.0
 70
    64
  0
VERTEX
  5
138
  8
TEAM-NET
 10
804.256548
 20
-207.979688
 30
580.0
 70
    64
  0
VERTEX
  5
139
  8
TEAM-NET
 10
814.894903
 20
-139.119526
 30
580.0
 70
    64
  0
VERTEX
  5
13A
  8
TEAM-NET
 10
820.153308
 20
-69.641143
 30
580.0
 70
    64
  0
VERTEX
  5
13B
  8
TEAM-NET
 10
820.0
 20
0.035776
 30
580.0
 70
    64
  0
SEQEND
  5
13C
  8
TEAM-NET
  0
POLYLINE
  5
13D
  8
TEAM-NET
 66
     1
 10
0.0
 20
0.0
 30
0.0
 70
    16
 71
     2
 72
    33
  0
VERTEX
  5
13E
  8
TEAM-NET
 10
-900.0
 20
0.035776
 30
580.0
 70
    64
  0
VERTEX
  5
13F
  8
TEAM-NET
 10
-900.0
 20
80.749271
 30
580.0
 70
    64
  0
VERTEX
  5
140
  8
TEAM-NET
 10
-900.0
 20
161.462766
 30
580.0
 70
    64
  0
VERTEX
  5
141
  8
TEAM-NET
 10
-900.0
 20
242.176262
 30
580.0
 70
    64
  0
VERTEX
  5
142
  8
TEAM-NET
 10
-900.0
 20
322.889757
 30
580.0
 70
    64
  0
VERTEX
  5
143
  8
TEAM-NET
 10
-887.648557
 20
398.515483
 30
580.0
 70
    64
  0
VERTEX
  5
144
  8
TEAM-NET
 10
-807.134954
 20
400.035776
 30
580.0
 70
    64
  0
VERTEX
  5
145
  8
TEAM-NET
 10
-726.421459
 20
400.035776
 30
580.0
 70
    64
  0
VERTEX
  5
146
  8
TEAM-NET
 10
-645.707963
 20
400.035776
 30
580.0
 70
    64
  0
VERTEX
  5
147
  8
TEAM-NET
 10
-564.994468
 20
400.035776
 30
580.0
 70
    64
  0
VERTEX
  5
148
  8
TEAM-NET
 10
-484.280972
 20
400.035776
 30
580.0
 70
    64
  0
VERTEX
  5
149
  8
TEAM-NET
 10
-403.567477
 20
400.035776
 30
580.0
 70
    64
  0
VERTEX
  5
14A
  8
TEAM-NET
 10
-322.853982
 20
400.035776
 30
580.0
 70
    64
  0
VERTEX
  5
14B
  8
TEAM-NET
 10
-242.140486
 20
400.035776
 30
580.0
 70
    64
  0
VERTEX
  5
14C
  8
TEAM-NET
 10
-161.426991
 20
400.035776
 30
580.0
 70
    64
  0
VERTEX
  5
14D
  8
TEAM-NET
 10
-80.713495
 20
400.035776
 30
580.0
 70
    64
  0
VERTEX
  5
14E
  8
TEAM-NET
 10
0.0
 20
400.035776
 30
580.0
 70
    64
  0
VERTEX
  5
14F
  8
TEAM-NET
 10
80.713495
 20
400.035776
 30
580.0
 70
    64
  0
VERTEX
  5
150
  8
TEAM-NET
 10
161.426991
 20
400.035776
 30
580.0
 70
    64
  0
VERTEX
  5
151
  8
TEAM-NET
 10
242.140486
 20
400.035776
 30
580.0
 70
    64
  0
VERTEX
  5
152
  8
TEAM-NET
 10
322.853982
 20
400.035776
 30
580.0
 70
    64
  0
VERTEX
  5
153
  8
TEAM-NET
 10
403.567477
 20
400.035776
 30
580.0
 70
    64
  0
VERTEX
  5
154
  8
TEAM-NET
 10
484.280972
 20
400.035776
 30
580.0
 70
    64
  0
VERTEX
  5
155
  8
TEAM-NET
 10
564.994468
 20
400.035776
 30
580.0
 70
    64
  0
VERTEX
  5
156
  8
TEAM-NET
 10
645.707963
 20
400.035776
 30
580.0
 70
    64
  0
VERTEX
  5
157
  8
TEAM-NET
 10
726.421459
 20
400.035776
 30
580.0
 70
    64
  0
VERTEX
  5
158
  8
TEAM-NET
 10
807.134954
 20
400.035776
 30
580.0
 70
    64
  0
VERTEX
  5
159
  8
TEAM-NET
 10
887.648557
 20
398.515483
 30
580.0
 70
    64
  0
VERTEX
  5
15A
  8
TEAM-NET
 10
900.0
 20
322.889757
 30
580.0
 70
    64
  0
VERTEX
  5
15B
  8
TEAM-NET
 10
900.0
 20
242.176262
 30
580.0
 70
    64
  0
VERTEX
  5
15C
  8
TEAM-NET
 10
900.0
 20
161.462766
 30
580.0
 70
    64
  0
VERTEX
  5
15D
  8
TEAM-NET
 10
900.0
 20
80.749271
 30
580.0
 70
    64
  0
VERTEX
  5
15E
  8
TEAM-NET
 10
900.0
 20
0.035776
 30
580.0
 70
    64
  0
VERTEX
  5
15F
  8
TEAM-NET
 10
-850.0
 20
0.035776
 30
580.0
 70
    64
  0
VERTEX
  5
160
  8
TEAM-NET
 10
-849.402391
 20
69.712356
 30
580.0
 70
    64
  0
VERTEX
  5
161
  8
TEAM-NET
 10
-843.721488
 20
139.159534
 30
580.0
 70
    64
  0
VERTEX
  5
162
  8
TEAM-NET
 10
-832.987586
 20
208.006948
 30
580.0
 70
    64
  0
VERTEX
  5
163
  8
TEAM-NET
 10
-811.372349
 20
273.831572
 30
580.0
 70
    64
  0
VERTEX
  5
164
  8
TEAM-NET
 10
-763.711841
 20
323.822175
 30
580.0
 70
    64
  0
VERTEX
  5
165
  8
TEAM-NET
 10
-698.703533
 20
347.156791
 30
580.0
 70
    64
  0
VERTEX
  5
166
  8
TEAM-NET
 10
-629.175014
 20
344.520359
 30
580.0
 70
    64
  0
VERTEX
  5
167
  8
TEAM-NET
 10
-559.681582
 20
339.228355
 30
580.0
 70
    64
  0
VERTEX
  5
168
  8
TEAM-NET
 10
-490.188151
 20
333.936351
 30
580.0
 70
    64
  0
VERTEX
  5
169
  8
TEAM-NET
 10
-420.69472
 20
328.644347
 30
580.0
 70
    64
  0
VERTEX
  5
16A
  8
TEAM-NET
 10
-351.201288
 20
323.352343
 30
580.0
 70
    64
  0
VERTEX
  5
16B
  8
TEAM-NET
 10
-281.707857
 20
318.060339
 30
580.0
 70
    64
  0
VERTEX
  5
16C
  8
TEAM-NET
 10
-212.214425
 20
312.768335
 30
580.0
 70
    64
  0
VERTEX
  5
16D
  8
TEAM-NET
 10
-142.720994
 20
307.476331
 30
580.0
 70
    64
  0
VERTEX
  5
16E
  8
TEAM-NET
 10
-73.227563
 20
302.184326
 30
580.0
 70
    64
  0
VERTEX
  5
16F
  8
TEAM-NET
 10
-5.85661
 20
314.322172
 30
580.0
 70
    64
  0
VERTEX
  5
170
  8
TEAM-NET
 10
56.482234
 20
345.323388
 30
580.0
 70
    64
  0
VERTEX
  5
171
  8
TEAM-NET
 10
125.691186
 20
350.035776
 30
580.0
 70
    64
  0
VERTEX
  5
172
  8
TEAM-NET
 10
195.385823
 20
350.035776
 30
580.0
 70
    64
  0
VERTEX
  5
173
  8
TEAM-NET
 10
265.080459
 20
350.035776
 30
580.0
 70
    64
  0
VERTEX
  5
174
  8
TEAM-NET
 10
334.775095
 20
350.035776
 30
580.0
 70
    64
  0
VERTEX
  5
175
  8
TEAM-NET
 10
404.469731
 20
350.035776
 30
580.0
 70
    64
  0
VERTEX
  5
176
  8
TEAM-NET
 10
474.164367
 20
350.035776
 30
580.0
 70
    64
  0
VERTEX
  5
177
  8
TEAM-NET
 10
543.859004
 20
350.035776
 30
580.0
 70
    64
  0
VERTEX
  5
178
  8
TEAM-NET
 10
613.55364
 20
350.035776
 30
580.0
 70
    64
  0
VERTEX
  5
179
  8
TEAM-NET
 10
683.248276
 20
350.035776
 30
580.0
 70
    64
  0
VERTEX
  5
17A
  8
TEAM-NET
 10
749.184746
 20
331.858225
 30
580.0
 70
    64
  0
VERTEX
  5
17B
  8
TEAM-NET
 10
788.302504
 20
275.87723
 30
580.0
 70
    64
  0
VERTEX
  5
17C
  8
TEAM-NET
 10
804.256548
 20
208.051239
 30
580.0
 70
    64
  0
VERTEX
  5
17D
  8
TEAM-NET
 10
814.894903
 20
139.191077
 30
580.0
 70
    64
  0
VERTEX
  5
17E
  8
TEAM-NET
 10
820.153308
 20
69.712694
 30
580.0
 70
    64
  0
VERTEX
  5
17F
  8
TEAM-NET
 10
820.0
 20
0.035776
 30
580.0
 70
    64
  0
SEQEND
  5
180
  8
TEAM-NET
  0
LINE
  5
181
  8
TEAM-BODY
 39
-20.0
 10
880.0
 20
-399.964224
 30
580.0
 11
-880.0
 21
-399.964224
 31
580.0
  0
LINE
  5
183
  8
TEAM-BODY
 39
-20.0
 10
880.0
 20
400.035776
 30
580.0
 11
-880.0
 21
400.035776
 31
580.0
  0
TEXT
  5
184
  8
TEAM-TXT
 10
-884.7049
 20
361.042548
 30
580.0
 40
30.0
  1
team 111 316
 41
0.7
 51
15.0
  7
TEAM
  0
ARC
  5
187
  8
TEAM-BODY
 39
-20.0
 10
-880.0
 20
380.035776
 30
580.0
 40
20.0
 50
90.0
 51
180.0
  0
ARC
  5
188
  8
TEAM-BODY
 39
-20.0
 10
-880.0
 20
-379.964224
 30
580.0
 40
20.0
 50
180.0
 51
270.0
  0
LINE
  5
189
  8
TEAM-BODY
 39
-20.0
 10
-900.0
 20
-379.964224
 30
580.0
 11
-900.0
 21
380.035863
 31
580.0
  0
ARC
  5
18A
  8
TEAM-BODY
 39
-20.0
 10
880.0
 20
380.035776
 30
580.0
 40
20.0
 50
0.0
 51
90.0
  0
ARC
  5
18B
  8
TEAM-BODY
 39
-20.0
 10
880.0
 20
-379.964224
 30
580.0
 40
20.0
 50
270.0
 51
0.0
  0
LINE
  5
18C
  8
TEAM-BODY
 39
-20.0
 10
900.0
 20
380.035776
 30
580.0
 11
900.0
 21
-379.964224
 31
580.0
  0
POLYLINE
  5
18D
  8
TEAM-BODY
 66
     1
 10
0.0
 20
0.0
 30
580.0
  0
VERTEX
  5
344
  8
TEAM-BODY
 10
820.0
 20
0.035776
 30
580.0
 42
-0.078166
  0
VERTEX
  5
345
  8
TEAM-BODY
 10
788.046284
 20
-276.729938
 30
580.0
 42
-0.336902
  0
VERTEX
  5
346
  8
TEAM-BODY
 10
691.694862
 20
-349.964224
 30
580.0
  0
VERTEX
  5
347
  8
TEAM-BODY
 10
86.818199
 20
-349.964224
 30
580.0
 42
-0.121466
  0
VERTEX
  5
348
  8
TEAM-BODY
 10
40.330453
 20
-338.501728
 30
580.0
  0
VERTEX
  5
349
  8
TEAM-BODY
 10
-9.143457
 20
-312.52482
 30
580.0
 42
0.140795
  0
VERTEX
  5
34A
  8
TEAM-BODY
 10
-63.224332
 20
-301.351018
 30
580.0
  0
VERTEX
  5
34B
  8
TEAM-BODY
 10
-669.900414
 20
-347.550094
 30
580.0
 42
-0.375271
  0
VERTEX
  5
34C
  8
TEAM-BODY
 10
-828.445535
 20
-230.002775
 30
580.0
 42
-0.06076
  0
VERTEX
  5
34D
  8
TEAM-BODY
 10
-850.0
 20
0.035776
 30
580.0
 42
-0.064015
  0
SEQEND
  5
34E
  8
TEAM-BODY
  0
POLYLINE
  5
18E
  8
TEAM-BODY
 66
     1
 10
0.0
 20
0.0
 30
580.0
  0
VERTEX
  5
34F
  8
TEAM-BODY
 10
820.0
 20
0.035776
 30
580.0
 42
0.078166
  0
VERTEX
  5
350
  8
TEAM-BODY
 10
788.046284
 20
276.801489
 30
580.0
 42
0.336902
  0
VERTEX
  5
351
  8
TEAM-BODY
 10
691.694862
 20
350.035776
 30
580.0
  0
VERTEX
  5
352
  8
TEAM-BODY
 10
86.818199
 20
350.035776
 30
580.0
 42
0.121466
  0
VERTEX
  5
353
  8
TEAM-BODY
 10
40.330453
 20
338.573279
 30
580.0
  0
VERTEX
  5
354
  8
TEAM-BODY
 10
-9.143457
 20
312.596371
 30
580.0
 42
-0.140795
  0
VERTEX
  5
355
  8
TEAM-BODY
 10
-63.224332
 20
301.422569
 30
580.0
  0
VERTEX
  5
356
  8
TEAM-BODY
 10
-669.900414
 20
347.621645
 30
580.0
 42
0.375271
  0
VERTEX
  5
357
  8
TEAM-BODY
 10
-828.445535
 20
230.074326
 30
580.0
 42
0.06076
  0
VERTEX
  5
358
  8
TEAM-BODY
 10
-850.0
 20
0.035776
 30
580.0
 42
0.064015
  0
SEQEND
  5
359
  8
TEAM-BODY
  0
ENDSEC
  0
EOF
