  0
SECTION
  2
HEADER
  9
$ACADVER
  1
AC1009
  9
$INSBASE
 10
0.0
 20
0.0
 30
0.0
  9
$EXTMIN
 10
-754.215643
 20
-379.106554
 30
-0.041502
  9
$EXTMAX
 10
754.15904
 20
379.208136
 30
580.003358
  9
$LIMMIN
 10
-754.215643
 20
-379.106554
  9
$LIMMAX
 10
754.15904
 20
379.208136
  9
$ORTHOMODE
 70
     1
  9
$REGENMODE
 70
     1
  9
$FILLMODE
 70
     1
  9
$QTEXTMODE
 70
     0
  9
$MIRRTEXT
 70
     0
  9
$DRAGMODE
 70
     2
  9
$LTSCALE
 40
50.0
  9
$OSMODE
 70
     0
  9
$ATTMODE
 70
     1
  9
$TEXTSIZE
 40
200.0
  9
$TRACEWID
 40
1.0
  9
$TEXTSTYLE
  7
STANDARD
  9
$CLAYER
  8
TEAM-MAS
  9
$CELTYPE
  6
BYLAYER
  9
$CECOLOR
 62
   256
  9
$DIMSCALE
 40
0.0
  9
$DIMASZ
 40
20.0
  9
$DIMEXO
 40
10.0
  9
$DIMDLI
 40
1.0
  9
$DIMRND
 40
0.0
  9
$DIMDLE
 40
0.0
  9
$DIMEXE
 40
1.0
  9
$DIMTP
 40
0.0
  9
$DIMTM
 40
0.0
  9
$DIMTXT
 40
35.0
  9
$DIMCEN
 40
1.0
  9
$DIMTSZ
 40
0.0
  9
$DIMTOL
 70
     0
  9
$DIMLIM
 70
     0
  9
$DIMTIH
 70
     0
  9
$DIMTOH
 70
     0
  9
$DIMSE1
 70
     0
  9
$DIMSE2
 70
     0
  9
$DIMTAD
 70
     0
  9
$DIMZIN
 70
     0
  9
$DIMBLK
  1

  9
$DIMASO
 70
     1
  9
$DIMSHO
 70
     0
  9
$DIMPOST
  1

  9
$DIMAPOST
  1

  9
$DIMALT
 70
     0
  9
$DIMALTD
 70
     2
  9
$DIMALTF
 40
25.4
  9
$DIMLFAC
 40
1.0
  9
$DIMTOFL
 70
     0
  9
$DIMTVP
 40
0.0
  9
$DIMTIX
 70
     0
  9
$DIMSOXD
 70
     0
  9
$DIMSAH
 70
     0
  9
$DIMBLK1
  1

  9
$DIMBLK2
  1

  9
$DIMSTYLE
  2
TEAM
  9
$DIMCLRD
 70
     9
  9
$DIMCLRE
 70
     9
  9
$DIMCLRT
 70
    11
  9
$DIMTFAC
 40
1.0
  9
$DIMGAP
 40
7.0
  9
$LUNITS
 70
     2
  9
$LUPREC
 70
     1
  9
$SKETCHINC
 40
1.0
  9
$FILLETRAD
 40
5.0
  9
$AUNITS
 70
     0
  9
$AUPREC
 70
     0
  9
$MENU
  1
ROPLANS
  9
$ELEVATION
 40
0.0
  9
$PELEVATION
 40
0.0
  9
$THICKNESS
 40
0.0
  9
$LIMCHECK
 70
     0
  9
$BLIPMODE
 70
     1
  9
$CHAMFERA
 40
0.0
  9
$CHAMFERB
 40
0.0
  9
$SKPOLY
 70
     0
  9
$TDCREATE
 40
2450392.957851
  9
$TDUPDATE
 40
2456052.474209
  9
$TDINDWG
 40
2.075828
  9
$TDUSRTIMER
 40
2.075828
  9
$USRTIMER
 70
     1
  9
$ANGBASE
 50
0.0
  9
$ANGDIR
 70
     0
  9
$PDMODE
 70
     0
  9
$PDSIZE
 40
0.0
  9
$PLINEWID
 40
0.0
  9
$COORDS
 70
     2
  9
$SPLFRAME
 70
     0
  9
$SPLINETYPE
 70
     6
  9
$SPLINESEGS
 70
     8
  9
$ATTDIA
 70
     0
  9
$ATTREQ
 70
     0
  9
$HANDLING
 70
     1
  9
$HANDSEED
  5
295
  9
$SURFTAB1
 70
    36
  9
$SURFTAB2
 70
    36
  9
$SURFTYPE
 70
     6
  9
$SURFU
 70
     6
  9
$SURFV
 70
     6
  9
$UCSNAME
  2

  9
$UCSORG
 10
0.0
 20
0.0
 30
0.0
  9
$UCSXDIR
 10
1.0
 20
0.0
 30
0.0
  9
$UCSYDIR
 10
0.0
 20
1.0
 30
0.0
  9
$PUCSNAME
  2

  9
$PUCSORG
 10
0.0
 20
0.0
 30
0.0
  9
$PUCSXDIR
 10
1.0
 20
0.0
 30
0.0
  9
$PUCSYDIR
 10
0.0
 20
1.0
 30
0.0
  9
$USERI1
 70
     0
  9
$USERI2
 70
     0
  9
$USERI3
 70
     0
  9
$USERI4
 70
     0
  9
$USERI5
 70
     0
  9
$USERR1
 40
0.0
  9
$USERR2
 40
0.0
  9
$USERR3
 40
0.0
  9
$USERR4
 40
0.0
  9
$USERR5
 40
0.0
  9
$WORLDVIEW
 70
     1
  9
$SHADEDGE
 70
     0
  9
$SHADEDIF
 70
    70
  9
$TILEMODE
 70
     1
  9
$MAXACTVP
 70
    16
  9
$PLIMCHECK
 70
     0
  9
$PEXTMIN
 10
-0.805942
 20
0.005011
 30
0.0
  9
$PEXTMAX
 10
20.250094
 20
11.356329
 30
0.0
  9
$PLIMMIN
 10
0.0
 20
0.0
  9
$PLIMMAX
 10
12.0
 20
9.0
  9
$UNITMODE
 70
     0
  9
$VISRETAIN
 70
     0
  9
$PLINEGEN
 70
     0
  9
$PSLTSCALE
 70
     0
  0
ENDSEC
  0
SECTION
  2
TABLES
  0
TABLE
  2
VPORT
 70
     2
  0
VPORT
  2
*ACTIVE
 70
     0
 10
0.0
 20
0.0
 11
1.0
 21
1.0
 12
-0.028301
 22
0.050791
 13
0.0
 23
0.0
 14
1.0
 24
1.0
 15
50.0
 25
50.0
 16
0.0
 26
0.0
 36
1.0
 17
0.0
 27
0.0
 37
0.0
 40
791.594344
 41
1.911765
 42
50.0
 43
0.0
 44
0.0
 50
0.0
 51
0.0
 71
     0
 72
   100
 73
     1
 74
     1
 75
     0
 76
     0
 77
     0
 78
     0
  0
ENDTAB
  0
TABLE
  2
LTYPE
 70
     2
  0
LTYPE
  2
CONTINUOUS
 70
     0
  3
Solid Line
 72
    65
 73
     0
 40
0.0
  0
LTYPE
  2
31
 70
     0
  3

 72
    65
 73
     4
 40
2.1
 49
1.5
 49
-0.3
 49
0.0
 49
-0.3
  0
ENDTAB
  0
TABLE
  2
LAYER
 70
     9
  0
LAYER
  2
0
 70
     0
 62
     7
  6
CONTINUOUS
  0
LAYER
  2
TEAM-BODY
 70
     0
 62
     2
  6
CONTINUOUS
  0
LAYER
  2
TEAM-AXE
 70
     0
 62
    10
  6
31
  0
LAYER
  2
TEAM-MAS
 70
     0
 62
     9
  6
CONTINUOUS
  0
LAYER
  2
TEAM-TXT
 70
     0
 62
    11
  6
CONTINUOUS
  0
LAYER
  2
TEAM-DET1
 70
     0
 62
     4
  6
CONTINUOUS
  0
LAYER
  2
TEAM-KAN
 70
     0
 62
     6
  6
CONTINUOUS
  0
LAYER
  2
TEAM-NET
 70
     0
 62
    15
  6
CONTINUOUS
  0
LAYER
  2
TEAM-INSP
 70
     0
 62
     5
  6
CONTINUOUS
  0
ENDTAB
  0
TABLE
  2
STYLE
 70
     2
  0
STYLE
  2
STANDARD
 70
     0
 40
0.0
 41
1.0
 50
0.0
 71
     0
 42
200.0
  3
txt
  4

  0
STYLE
  2
TEAM
 70
     0
 40
0.0
 41
0.8
 50
15.0
 71
     0
 42
7.0
  3
ROMANS.shx
  4

  0
ENDTAB
  0
TABLE
  2
VIEW
 70
     0
  0
ENDTAB
  0
TABLE
  2
UCS
 70
     0
  0
ENDTAB
  0
TABLE
  2
APPID
 70
     1
  0
APPID
  2
ACAD
 70
     0
  0
ENDTAB
  0
TABLE
  2
DIMSTYLE
 70
     1
  0
DIMSTYLE
  2
TEAM
 70
     0
  3

  4

  5

  6

  7

 40
0.0
 41
20.0
 42
10.0
 43
1.0
 44
1.0
 45
0.0
 46
0.0
 47
0.0
 48
0.0
140
35.0
141
1.0
142
0.0
143
25.4
144
1.0
145
0.0
146
1.0
147
7.0
 71
     0
 72
     0
 73
     0
 74
     0
 75
     0
 76
     0
 77
     0
 78
     0
170
     0
171
     2
172
     0
173
     0
174
     0
175
     0
176
     9
177
     9
178
    11
  0
ENDTAB
  0
ENDSEC
  0
SECTION
  2
BLOCKS
  0
BLOCK
  8
0
  2
$MODEL_SPACE
 70
     0
 10
0.0
 20
0.0
 30
0.0
  3
$MODEL_SPACE
  1

  0
ENDBLK
  5
254
  8
0
  0
BLOCK
 67
     1
  8
0
  2
$PAPER_SPACE
 70
     0
 10
0.0
 20
0.0
 30
0.0
  3
$PAPER_SPACE
  1

  0
ENDBLK
  5
252
 67
     1
  8
0
  0
ENDSEC
  0
SECTION
  2
ENTITIES
  0
POLYLINE
  5
20
  8
TEAM-NET
 66
     1
 10
0.0
 20
0.0
 30
0.0
 70
    16
 71
     2
 72
    37
  0
VERTEX
  5
21
  8
TEAM-NET
 10
670.0
 20
0.035776
 30
580.0
 70
    64
  0
VERTEX
  5
22
  8
TEAM-NET
 10
670.516224
 20
-52.202518
 30
580.0
 70
    64
  0
VERTEX
  5
23
  8
TEAM-NET
 10
667.369499
 20
-104.348504
 30
580.0
 70
    64
  0
VERTEX
  5
24
  8
TEAM-NET
 10
660.575306
 20
-156.145654
 30
580.0
 70
    64
  0
VERTEX
  5
25
  8
TEAM-NET
 10
650.167068
 20
-207.339153
 30
580.0
 70
    64
  0
VERTEX
  5
26
  8
TEAM-NET
 10
636.193451
 20
-257.675333
 30
580.0
 70
    64
  0
VERTEX
  5
27
  8
TEAM-NET
 10
607.259314
 20
-300.471195
 30
580.0
 70
    64
  0
VERTEX
  5
28
  8
TEAM-NET
 10
560.828187
 20
-323.116738
 30
580.0
 70
    64
  0
VERTEX
  5
29
  8
TEAM-NET
 10
508.695336
 20
-324.964224
 30
580.0
 70
    64
  0
VERTEX
  5
2A
  8
TEAM-NET
 10
456.443777
 20
-324.964224
 30
580.0
 70
    64
  0
VERTEX
  5
2B
  8
TEAM-NET
 10
404.192219
 20
-324.964224
 30
580.0
 70
    64
  0
VERTEX
  5
2C
  8
TEAM-NET
 10
351.940661
 20
-324.964224
 30
580.0
 70
    64
  0
VERTEX
  5
2D
  8
TEAM-NET
 10
299.689103
 20
-324.964224
 30
580.0
 70
    64
  0
VERTEX
  5
2E
  8
TEAM-NET
 10
247.437545
 20
-324.964224
 30
580.0
 70
    64
  0
VERTEX
  5
2F
  8
TEAM-NET
 10
195.185987
 20
-324.964224
 30
580.0
 70
    64
  0
VERTEX
  5
30
  8
TEAM-NET
 10
142.934429
 20
-324.964224
 30
580.0
 70
    64
  0
VERTEX
  5
31
  8
TEAM-NET
 10
92.302168
 20
-314.509313
 30
580.0
 70
    64
  0
VERTEX
  5
32
  8
TEAM-NET
 10
46.028707
 20
-290.24053
 30
580.0
 70
    64
  0
VERTEX
  5
33
  8
TEAM-NET
 10
-3.691485
 20
-276.081138
 30
580.0
 70
    64
  0
VERTEX
  5
34
  8
TEAM-NET
 10
-55.759157
 20
-280.229373
 30
580.0
 70
    64
  0
VERTEX
  5
35
  8
TEAM-NET
 10
-107.794852
 20
-284.974024
 30
580.0
 70
    64
  0
VERTEX
  5
36
  8
TEAM-NET
 10
-159.830548
 20
-289.718674
 30
580.0
 70
    64
  0
VERTEX
  5
37
  8
TEAM-NET
 10
-211.866243
 20
-294.463325
 30
580.0
 70
    64
  0
VERTEX
  5
38
  8
TEAM-NET
 10
-263.901939
 20
-299.207976
 30
580.0
 70
    64
  0
VERTEX
  5
39
  8
TEAM-NET
 10
-315.937635
 20
-303.952627
 30
580.0
 70
    64
  0
VERTEX
  5
3A
  8
TEAM-NET
 10
-367.97333
 20
-308.697277
 30
580.0
 70
    64
  0
VERTEX
  5
3B
  8
TEAM-NET
 10
-420.009026
 20
-313.441928
 30
580.0
 70
    64
  0
VERTEX
  5
3C
  8
TEAM-NET
 10
-472.044721
 20
-318.186579
 30
580.0
 70
    64
  0
VERTEX
  5
3D
  8
TEAM-NET
 10
-524.08847
 20
-322.827086
 30
580.0
 70
    64
  0
VERTEX
  5
3E
  8
TEAM-NET
 10
-575.689069
 20
-316.494071
 30
580.0
 70
    64
  0
VERTEX
  5
3F
  8
TEAM-NET
 10
-622.028782
 20
-292.927997
 30
580.0
 70
    64
  0
VERTEX
  5
40
  8
TEAM-NET
 10
-657.541223
 20
-254.95965
 30
580.0
 70
    64
  0
VERTEX
  5
41
  8
TEAM-NET
 10
-677.960594
 20
-207.149838
 30
580.0
 70
    64
  0
VERTEX
  5
42
  8
TEAM-NET
 10
-688.769728
 20
-156.038006
 30
580.0
 70
    64
  0
VERTEX
  5
43
  8
TEAM-NET
 10
-696.087674
 20
-104.311813
 30
580.0
 70
    64
  0
VERTEX
  5
44
  8
TEAM-NET
 10
-699.836996
 20
-52.20525
 30
580.0
 70
    64
  0
VERTEX
  5
45
  8
TEAM-NET
 10
-700.0
 20
0.035776
 30
580.0
 70
    64
  0
VERTEX
  5
46
  8
TEAM-NET
 10
620.042164
 20
-2.017168
 30
160.0
 70
    64
  0
VERTEX
  5
47
  8
TEAM-NET
 10
620.701576
 20
-41.860115
 30
160.0
 70
    64
  0
VERTEX
  5
48
  8
TEAM-NET
 10
619.077217
 20
-81.675398
 30
160.0
 70
    64
  0
VERTEX
  5
49
  8
TEAM-NET
 10
615.174425
 20
-121.332219
 30
160.0
 70
    64
  0
VERTEX
  5
4A
  8
TEAM-NET
 10
609.006019
 20
-160.700303
 30
160.0
 70
    64
  0
VERTEX
  5
4B
  8
TEAM-NET
 10
600.592263
 20
-199.650322
 30
160.0
 70
    64
  0
VERTEX
  5
4C
  8
TEAM-NET
 10
589.960798
 20
-238.054322
 30
160.0
 70
    64
  0
VERTEX
  5
4D
  8
TEAM-NET
 10
566.055073
 20
-268.628628
 30
160.0
 70
    64
  0
VERTEX
  5
4E
  8
TEAM-NET
 10
527.285274
 20
-274.964224
 30
160.0
 70
    64
  0
VERTEX
  5
4F
  8
TEAM-NET
 10
487.431414
 20
-274.964224
 30
160.0
 70
    64
  0
VERTEX
  5
50
  8
TEAM-NET
 10
447.577554
 20
-274.964224
 30
160.0
 70
    64
  0
VERTEX
  5
51
  8
TEAM-NET
 10
407.723695
 20
-274.964224
 30
160.0
 70
    64
  0
VERTEX
  5
52
  8
TEAM-NET
 10
367.869835
 20
-274.964224
 30
160.0
 70
    64
  0
VERTEX
  5
53
  8
TEAM-NET
 10
328.015975
 20
-274.964224
 30
160.0
 70
    64
  0
VERTEX
  5
54
  8
TEAM-NET
 10
288.162115
 20
-274.964224
 30
160.0
 70
    64
  0
VERTEX
  5
55
  8
TEAM-NET
 10
248.308255
 20
-274.964224
 30
160.0
 70
    64
  0
VERTEX
  5
56
  8
TEAM-NET
 10
208.454395
 20
-274.964224
 30
160.0
 70
    64
  0
VERTEX
  5
57
  8
TEAM-NET
 10
168.600535
 20
-274.964224
 30
160.0
 70
    64
  0
VERTEX
  5
58
  8
TEAM-NET
 10
128.816887
 20
-273.66173
 30
160.0
 70
    64
  0
VERTEX
  5
59
  8
TEAM-NET
 10
91.61248
 20
-259.979134
 30
160.0
 70
    64
  0
VERTEX
  5
5A
  8
TEAM-NET
 10
56.224257
 20
-241.648726
 30
160.0
 70
    64
  0
VERTEX
  5
5B
  8
TEAM-NET
 10
19.269466
 20
-227.228014
 30
160.0
 70
    64
  0
VERTEX
  5
5C
  8
TEAM-NET
 10
-20.397063
 20
-227.147851
 30
160.0
 70
    64
  0
VERTEX
  5
5D
  8
TEAM-NET
 10
-60.045007
 20
-231.193919
 30
160.0
 70
    64
  0
VERTEX
  5
5E
  8
TEAM-NET
 10
-99.692952
 20
-235.239986
 30
160.0
 70
    64
  0
VERTEX
  5
5F
  8
TEAM-NET
 10
-139.340896
 20
-239.286054
 30
160.0
 70
    64
  0
VERTEX
  5
60
  8
TEAM-NET
 10
-178.98884
 20
-243.332121
 30
160.0
 70
    64
  0
VERTEX
  5
61
  8
TEAM-NET
 10
-218.636785
 20
-247.378189
 30
160.0
 70
    64
  0
VERTEX
  5
62
  8
TEAM-NET
 10
-258.286568
 20
-251.403582
 30
160.0
 70
    64
  0
VERTEX
  5
63
  8
TEAM-NET
 10
-297.556782
 20
-246.376834
 30
160.0
 70
    64
  0
VERTEX
  5
64
  8
TEAM-NET
 10
-331.798615
 20
-226.504372
 30
160.0
 70
    64
  0
VERTEX
  5
65
  8
TEAM-NET
 10
-355.64494
 20
-194.90104
 30
160.0
 70
    64
  0
VERTEX
  5
66
  8
TEAM-NET
 10
-368.785477
 20
-157.309698
 30
160.0
 70
    64
  0
VERTEX
  5
67
  8
TEAM-NET
 10
-378.683915
 20
-118.715068
 30
160.0
 70
    64
  0
VERTEX
  5
68
  8
TEAM-NET
 10
-385.543853
 20
-79.466301
 30
160.0
 70
    64
  0
VERTEX
  5
69
  8
TEAM-NET
 10
-389.323548
 20
-39.802232
 30
160.0
 70
    64
  0
VERTEX
  5
6A
  8
TEAM-NET
 10
-390.0
 20
0.035776
 30
160.0
 70
    64
  0
SEQEND
  5
6C
  8
TEAM-NET
  0
POLYLINE
  5
6D
  8
TEAM-NET
 66
     1
 10
0.0
 20
0.0
 30
0.0
 70
    16
 71
     2
 72
    37
  0
VERTEX
  5
6E
  8
TEAM-NET
 10
620.042164
 20
2.088719
 30
160.0
 70
    64
  0
VERTEX
  5
6F
  8
TEAM-NET
 10
620.701576
 20
41.931666
 30
160.0
 70
    64
  0
VERTEX
  5
70
  8
TEAM-NET
 10
619.077217
 20
81.746949
 30
160.0
 70
    64
  0
VERTEX
  5
71
  8
TEAM-NET
 10
615.174425
 20
121.40377
 30
160.0
 70
    64
  0
VERTEX
  5
72
  8
TEAM-NET
 10
609.006019
 20
160.771854
 30
160.0
 70
    64
  0
VERTEX
  5
73
  8
TEAM-NET
 10
600.592263
 20
199.721873
 30
160.0
 70
    64
  0
VERTEX
  5
74
  8
TEAM-NET
 10
589.960798
 20
238.125873
 30
160.0
 70
    64
  0
VERTEX
  5
75
  8
TEAM-NET
 10
566.055073
 20
268.700179
 30
160.0
 70
    64
  0
VERTEX
  5
76
  8
TEAM-NET
 10
527.285274
 20
275.035776
 30
160.0
 70
    64
  0
VERTEX
  5
77
  8
TEAM-NET
 10
487.431414
 20
275.035776
 30
160.0
 70
    64
  0
VERTEX
  5
78
  8
TEAM-NET
 10
447.577554
 20
275.035776
 30
160.0
 70
    64
  0
VERTEX
  5
79
  8
TEAM-NET
 10
407.723695
 20
275.035776
 30
160.0
 70
    64
  0
VERTEX
  5
7A
  8
TEAM-NET
 10
367.869835
 20
275.035776
 30
160.0
 70
    64
  0
VERTEX
  5
7B
  8
TEAM-NET
 10
328.015975
 20
275.035776
 30
160.0
 70
    64
  0
VERTEX
  5
7C
  8
TEAM-NET
 10
288.162115
 20
275.035776
 30
160.0
 70
    64
  0
VERTEX
  5
7D
  8
TEAM-NET
 10
248.308255
 20
275.035776
 30
160.0
 70
    64
  0
VERTEX
  5
7E
  8
TEAM-NET
 10
208.454395
 20
275.035776
 30
160.0
 70
    64
  0
VERTEX
  5
7F
  8
TEAM-NET
 10
168.600535
 20
275.035776
 30
160.0
 70
    64
  0
VERTEX
  5
80
  8
TEAM-NET
 10
128.816887
 20
273.733281
 30
160.0
 70
    64
  0
VERTEX
  5
81
  8
TEAM-NET
 10
91.61248
 20
260.050685
 30
160.0
 70
    64
  0
VERTEX
  5
82
  8
TEAM-NET
 10
56.224257
 20
241.720277
 30
160.0
 70
    64
  0
VERTEX
  5
83
  8
TEAM-NET
 10
19.269466
 20
227.299565
 30
160.0
 70
    64
  0
VERTEX
  5
84
  8
TEAM-NET
 10
-20.397063
 20
227.219402
 30
160.0
 70
    64
  0
VERTEX
  5
85
  8
TEAM-NET
 10
-60.045007
 20
231.26547
 30
160.0
 70
    64
  0
VERTEX
  5
86
  8
TEAM-NET
 10
-99.692952
 20
235.311537
 30
160.0
 70
    64
  0
VERTEX
  5
87
  8
TEAM-NET
 10
-139.340896
 20
239.357605
 30
160.0
 70
    64
  0
VERTEX
  5
88
  8
TEAM-NET
 10
-178.98884
 20
243.403672
 30
160.0
 70
    64
  0
VERTEX
  5
89
  8
TEAM-NET
 10
-218.636785
 20
247.44974
 30
160.0
 70
    64
  0
VERTEX
  5
8A
  8
TEAM-NET
 10
-258.286568
 20
251.475133
 30
160.0
 70
    64
  0
VERTEX
  5
8B
  8
TEAM-NET
 10
-297.556782
 20
246.448385
 30
160.0
 70
    64
  0
VERTEX
  5
8C
  8
TEAM-NET
 10
-331.798615
 20
226.575923
 30
160.0
 70
    64
  0
VERTEX
  5
8D
  8
TEAM-NET
 10
-355.64494
 20
194.972591
 30
160.0
 70
    64
  0
VERTEX
  5
8E
  8
TEAM-NET
 10
-368.785477
 20
157.381249
 30
160.0
 70
    64
  0
VERTEX
  5
8F
  8
TEAM-NET
 10
-378.683915
 20
118.786619
 30
160.0
 70
    64
  0
VERTEX
  5
90
  8
TEAM-NET
 10
-385.543853
 20
79.537852
 30
160.0
 70
    64
  0
VERTEX
  5
91
  8
TEAM-NET
 10
-389.323548
 20
39.873783
 30
160.0
 70
    64
  0
VERTEX
  5
92
  8
TEAM-NET
 10
-390.0
 20
0.035776
 30
160.0
 70
    64
  0
VERTEX
  5
93
  8
TEAM-NET
 10
670.0
 20
0.035776
 30
580.0
 70
    64
  0
VERTEX
  5
94
  8
TEAM-NET
 10
670.516224
 20
52.274069
 30
580.0
 70
    64
  0
VERTEX
  5
95
  8
TEAM-NET
 10
667.369499
 20
104.420055
 30
580.0
 70
    64
  0
VERTEX
  5
96
  8
TEAM-NET
 10
660.575306
 20
156.217205
 30
580.0
 70
    64
  0
VERTEX
  5
97
  8
TEAM-NET
 10
650.167068
 20
207.410704
 30
580.0
 70
    64
  0
VERTEX
  5
98
  8
TEAM-NET
 10
636.193451
 20
257.746884
 30
580.0
 70
    64
  0
VERTEX
  5
99
  8
TEAM-NET
 10
607.259314
 20
300.542746
 30
580.0
 70
    64
  0
VERTEX
  5
9A
  8
TEAM-NET
 10
560.828187
 20
323.188289
 30
580.0
 70
    64
  0
VERTEX
  5
9B
  8
TEAM-NET
 10
508.695336
 20
325.035776
 30
580.0
 70
    64
  0
VERTEX
  5
9C
  8
TEAM-NET
 10
456.443777
 20
325.035776
 30
580.0
 70
    64
  0
VERTEX
  5
9D
  8
TEAM-NET
 10
404.192219
 20
325.035776
 30
580.0
 70
    64
  0
VERTEX
  5
9E
  8
TEAM-NET
 10
351.940661
 20
325.035776
 30
580.0
 70
    64
  0
VERTEX
  5
9F
  8
TEAM-NET
 10
299.689103
 20
325.035776
 30
580.0
 70
    64
  0
VERTEX
  5
A0
  8
TEAM-NET
 10
247.437545
 20
325.035776
 30
580.0
 70
    64
  0
VERTEX
  5
A1
  8
TEAM-NET
 10
195.185987
 20
325.035776
 30
580.0
 70
    64
  0
VERTEX
  5
A2
  8
TEAM-NET
 10
142.934429
 20
325.035776
 30
580.0
 70
    64
  0
VERTEX
  5
A3
  8
TEAM-NET
 10
92.302168
 20
314.580864
 30
580.0
 70
    64
  0
VERTEX
  5
A4
  8
TEAM-NET
 10
46.028707
 20
290.312081
 30
580.0
 70
    64
  0
VERTEX
  5
A5
  8
TEAM-NET
 10
-3.691485
 20
276.152689
 30
580.0
 70
    64
  0
VERTEX
  5
A6
  8
TEAM-NET
 10
-55.759157
 20
280.300924
 30
580.0
 70
    64
  0
VERTEX
  5
A7
  8
TEAM-NET
 10
-107.794852
 20
285.045575
 30
580.0
 70
    64
  0
VERTEX
  5
A8
  8
TEAM-NET
 10
-159.830548
 20
289.790225
 30
580.0
 70
    64
  0
VERTEX
  5
A9
  8
TEAM-NET
 10
-211.866243
 20
294.534876
 30
580.0
 70
    64
  0
VERTEX
  5
AA
  8
TEAM-NET
 10
-263.901939
 20
299.279527
 30
580.0
 70
    64
  0
VERTEX
  5
AB
  8
TEAM-NET
 10
-315.937635
 20
304.024178
 30
580.0
 70
    64
  0
VERTEX
  5
AC
  8
TEAM-NET
 10
-367.97333
 20
308.768828
 30
580.0
 70
    64
  0
VERTEX
  5
AD
  8
TEAM-NET
 10
-420.009026
 20
313.513479
 30
580.0
 70
    64
  0
VERTEX
  5
AE
  8
TEAM-NET
 10
-472.044721
 20
318.25813
 30
580.0
 70
    64
  0
VERTEX
  5
AF
  8
TEAM-NET
 10
-524.08847
 20
322.898637
 30
580.0
 70
    64
  0
VERTEX
  5
B0
  8
TEAM-NET
 10
-575.689069
 20
316.565622
 30
580.0
 70
    64
  0
VERTEX
  5
B1
  8
TEAM-NET
 10
-622.028782
 20
292.999548
 30
580.0
 70
    64
  0
VERTEX
  5
B2
  8
TEAM-NET
 10
-657.541223
 20
255.031201
 30
580.0
 70
    64
  0
VERTEX
  5
B3
  8
TEAM-NET
 10
-677.960594
 20
207.221389
 30
580.0
 70
    64
  0
VERTEX
  5
B4
  8
TEAM-NET
 10
-688.769728
 20
156.109557
 30
580.0
 70
    64
  0
VERTEX
  5
B5
  8
TEAM-NET
 10
-696.087674
 20
104.383364
 30
580.0
 70
    64
  0
VERTEX
  5
B6
  8
TEAM-NET
 10
-699.836996
 20
52.276801
 30
580.0
 70
    64
  0
VERTEX
  5
B7
  8
TEAM-NET
 10
-700.0
 20
0.035776
 30
580.0
 70
    64
  0
SEQEND
  5
B8
  8
TEAM-NET
  0
CIRCLE
  5
B9
  8
TEAM-KAN
 39
10.1
 10
460.0
 20
0.035776
 30
150.0
 40
25.0
  0
CIRCLE
  5
BB
  8
TEAM-INSP
 10
0.02333
 20
0.001191
 30
0.0
 40
7.1
  0
LINE
  5
BD
  8
TEAM-AXE
 10
460.0
 20
40.035776
 30
150.0
 11
460.0
 21
-39.964224
 31
150.0
  0
LINE
  5
C0
  8
TEAM-AXE
 10
412.190458
 20
0.035776
 30
150.0
 11
506.022486
 21
0.035776
 31
150.0
  0
POLYLINE
  5
C1
  8
TEAM-NET
 66
     1
 10
0.0
 20
0.0
 30
0.0
 70
    16
 71
     2
 72
    37
  0
VERTEX
  5
C2
  8
TEAM-NET
 10
620.042164
 20
-2.017168
 30
160.0
 70
    64
  0
VERTEX
  5
C3
  8
TEAM-NET
 10
620.701576
 20
-41.860115
 30
160.0
 70
    64
  0
VERTEX
  5
C4
  8
TEAM-NET
 10
619.077217
 20
-81.675398
 30
160.0
 70
    64
  0
VERTEX
  5
C5
  8
TEAM-NET
 10
615.174425
 20
-121.332219
 30
160.0
 70
    64
  0
VERTEX
  5
C6
  8
TEAM-NET
 10
609.006019
 20
-160.700303
 30
160.0
 70
    64
  0
VERTEX
  5
C7
  8
TEAM-NET
 10
600.592263
 20
-199.650322
 30
160.0
 70
    64
  0
VERTEX
  5
C8
  8
TEAM-NET
 10
589.960798
 20
-238.054322
 30
160.0
 70
    64
  0
VERTEX
  5
C9
  8
TEAM-NET
 10
566.055073
 20
-268.628628
 30
160.0
 70
    64
  0
VERTEX
  5
CA
  8
TEAM-NET
 10
527.285274
 20
-274.964224
 30
160.0
 70
    64
  0
VERTEX
  5
CB
  8
TEAM-NET
 10
487.431414
 20
-274.964224
 30
160.0
 70
    64
  0
VERTEX
  5
CC
  8
TEAM-NET
 10
447.577554
 20
-274.964224
 30
160.0
 70
    64
  0
VERTEX
  5
CD
  8
TEAM-NET
 10
407.723695
 20
-274.964224
 30
160.0
 70
    64
  0
VERTEX
  5
CE
  8
TEAM-NET
 10
367.869835
 20
-274.964224
 30
160.0
 70
    64
  0
VERTEX
  5
CF
  8
TEAM-NET
 10
328.015975
 20
-274.964224
 30
160.0
 70
    64
  0
VERTEX
  5
D0
  8
TEAM-NET
 10
288.162115
 20
-274.964224
 30
160.0
 70
    64
  0
VERTEX
  5
D1
  8
TEAM-NET
 10
248.308255
 20
-274.964224
 30
160.0
 70
    64
  0
VERTEX
  5
D2
  8
TEAM-NET
 10
208.454395
 20
-274.964224
 30
160.0
 70
    64
  0
VERTEX
  5
D3
  8
TEAM-NET
 10
168.600535
 20
-274.964224
 30
160.0
 70
    64
  0
VERTEX
  5
D4
  8
TEAM-NET
 10
128.816887
 20
-273.66173
 30
160.0
 70
    64
  0
VERTEX
  5
D5
  8
TEAM-NET
 10
91.61248
 20
-259.979134
 30
160.0
 70
    64
  0
VERTEX
  5
D6
  8
TEAM-NET
 10
56.224257
 20
-241.648726
 30
160.0
 70
    64
  0
VERTEX
  5
D7
  8
TEAM-NET
 10
19.269466
 20
-227.228014
 30
160.0
 70
    64
  0
VERTEX
  5
D8
  8
TEAM-NET
 10
-20.397063
 20
-227.147851
 30
160.0
 70
    64
  0
VERTEX
  5
D9
  8
TEAM-NET
 10
-60.045007
 20
-231.193919
 30
160.0
 70
    64
  0
VERTEX
  5
DA
  8
TEAM-NET
 10
-99.692952
 20
-235.239986
 30
160.0
 70
    64
  0
VERTEX
  5
DB
  8
TEAM-NET
 10
-139.340896
 20
-239.286054
 30
160.0
 70
    64
  0
VERTEX
  5
DC
  8
TEAM-NET
 10
-178.98884
 20
-243.332121
 30
160.0
 70
    64
  0
VERTEX
  5
DD
  8
TEAM-NET
 10
-218.636785
 20
-247.378189
 30
160.0
 70
    64
  0
VERTEX
  5
DE
  8
TEAM-NET
 10
-258.286568
 20
-251.403582
 30
160.0
 70
    64
  0
VERTEX
  5
DF
  8
TEAM-NET
 10
-297.556782
 20
-246.376834
 30
160.0
 70
    64
  0
VERTEX
  5
E0
  8
TEAM-NET
 10
-331.798615
 20
-226.504372
 30
160.0
 70
    64
  0
VERTEX
  5
E1
  8
TEAM-NET
 10
-355.64494
 20
-194.90104
 30
160.0
 70
    64
  0
VERTEX
  5
E2
  8
TEAM-NET
 10
-368.785477
 20
-157.309698
 30
160.0
 70
    64
  0
VERTEX
  5
E3
  8
TEAM-NET
 10
-378.683915
 20
-118.715068
 30
160.0
 70
    64
  0
VERTEX
  5
E4
  8
TEAM-NET
 10
-385.543853
 20
-79.466301
 30
160.0
 70
    64
  0
VERTEX
  5
E5
  8
TEAM-NET
 10
-389.323548
 20
-39.802232
 30
160.0
 70
    64
  0
VERTEX
  5
E6
  8
TEAM-NET
 10
-390.0
 20
0.035776
 30
160.0
 70
    64
  0
VERTEX
  5
E7
  8
TEAM-NET
 10
620.042164
 20
2.088719
 30
160.0
 70
    64
  0
VERTEX
  5
E8
  8
TEAM-NET
 10
620.701576
 20
41.931666
 30
160.0
 70
    64
  0
VERTEX
  5
E9
  8
TEAM-NET
 10
619.077217
 20
81.746949
 30
160.0
 70
    64
  0
VERTEX
  5
EA
  8
TEAM-NET
 10
615.174425
 20
121.40377
 30
160.0
 70
    64
  0
VERTEX
  5
EB
  8
TEAM-NET
 10
609.006019
 20
160.771854
 30
160.0
 70
    64
  0
VERTEX
  5
EC
  8
TEAM-NET
 10
600.592263
 20
199.721873
 30
160.0
 70
    64
  0
VERTEX
  5
ED
  8
TEAM-NET
 10
589.960798
 20
238.125873
 30
160.0
 70
    64
  0
VERTEX
  5
EE
  8
TEAM-NET
 10
566.055073
 20
268.700179
 30
160.0
 70
    64
  0
VERTEX
  5
EF
  8
TEAM-NET
 10
527.285274
 20
275.035776
 30
160.0
 70
    64
  0
VERTEX
  5
F0
  8
TEAM-NET
 10
487.431414
 20
275.035776
 30
160.0
 70
    64
  0
VERTEX
  5
F1
  8
TEAM-NET
 10
447.577554
 20
275.035776
 30
160.0
 70
    64
  0
VERTEX
  5
F2
  8
TEAM-NET
 10
407.723695
 20
275.035776
 30
160.0
 70
    64
  0
VERTEX
  5
F3
  8
TEAM-NET
 10
367.869835
 20
275.035776
 30
160.0
 70
    64
  0
VERTEX
  5
F4
  8
TEAM-NET
 10
328.015975
 20
275.035776
 30
160.0
 70
    64
  0
VERTEX
  5
F5
  8
TEAM-NET
 10
288.162115
 20
275.035776
 30
160.0
 70
    64
  0
VERTEX
  5
F6
  8
TEAM-NET
 10
248.308255
 20
275.035776
 30
160.0
 70
    64
  0
VERTEX
  5
F7
  8
TEAM-NET
 10
208.454395
 20
275.035776
 30
160.0
 70
    64
  0
VERTEX
  5
F8
  8
TEAM-NET
 10
168.600535
 20
275.035776
 30
160.0
 70
    64
  0
VERTEX
  5
F9
  8
TEAM-NET
 10
128.816887
 20
273.733281
 30
160.0
 70
    64
  0
VERTEX
  5
FA
  8
TEAM-NET
 10
91.61248
 20
260.050685
 30
160.0
 70
    64
  0
VERTEX
  5
FB
  8
TEAM-NET
 10
56.224257
 20
241.720277
 30
160.0
 70
    64
  0
VERTEX
  5
FC
  8
TEAM-NET
 10
19.269466
 20
227.299565
 30
160.0
 70
    64
  0
VERTEX
  5
FD
  8
TEAM-NET
 10
-20.397063
 20
227.219402
 30
160.0
 70
    64
  0
VERTEX
  5
FE
  8
TEAM-NET
 10
-60.045007
 20
231.26547
 30
160.0
 70
    64
  0
VERTEX
  5
FF
  8
TEAM-NET
 10
-99.692952
 20
235.311537
 30
160.0
 70
    64
  0
VERTEX
  5
100
  8
TEAM-NET
 10
-139.340896
 20
239.357605
 30
160.0
 70
    64
  0
VERTEX
  5
101
  8
TEAM-NET
 10
-178.98884
 20
243.403672
 30
160.0
 70
    64
  0
VERTEX
  5
102
  8
TEAM-NET
 10
-218.636785
 20
247.44974
 30
160.0
 70
    64
  0
VERTEX
  5
103
  8
TEAM-NET
 10
-258.286568
 20
251.475133
 30
160.0
 70
    64
  0
VERTEX
  5
104
  8
TEAM-NET
 10
-297.556782
 20
246.448385
 30
160.0
 70
    64
  0
VERTEX
  5
105
  8
TEAM-NET
 10
-331.798615
 20
226.575923
 30
160.0
 70
    64
  0
VERTEX
  5
106
  8
TEAM-NET
 10
-355.64494
 20
194.972591
 30
160.0
 70
    64
  0
VERTEX
  5
107
  8
TEAM-NET
 10
-368.785477
 20
157.381249
 30
160.0
 70
    64
  0
VERTEX
  5
108
  8
TEAM-NET
 10
-378.683915
 20
118.786619
 30
160.0
 70
    64
  0
VERTEX
  5
109
  8
TEAM-NET
 10
-385.543853
 20
79.537852
 30
160.0
 70
    64
  0
VERTEX
  5
10A
  8
TEAM-NET
 10
-389.323548
 20
39.873783
 30
160.0
 70
    64
  0
VERTEX
  5
10B
  8
TEAM-NET
 10
-390.0
 20
0.035776
 30
160.0
 70
    64
  0
SEQEND
  5
10C
  8
TEAM-NET
  0
POLYLINE
  5
10D
  8
TEAM-DET1
 66
     1
 10
0.0
 20
0.0
 30
160.0
  0
VERTEX
  5
25A
  8
TEAM-DET1
 10
620.042164
 20
-2.017168
 30
160.0
 42
-0.086309
  0
VERTEX
  5
25B
  8
TEAM-DET1
 10
589.870573
 20
-238.347081
 30
160.0
 42
-0.336902
  0
VERTEX
  5
25C
  8
TEAM-DET1
 10
541.694862
 20
-274.964224
 30
160.0
  0
VERTEX
  5
25D
  8
TEAM-DET1
 10
144.904226
 20
-274.964224
 30
160.0
 42
-0.120054
  0
VERTEX
  5
25E
  8
TEAM-DET1
 10
98.910167
 20
-263.759193
 30
160.0
  0
VERTEX
  5
25F
  8
TEAM-DET1
 10
46.637854
 20
-236.683157
 30
160.0
 42
0.138567
  0
VERTEX
  5
260
  8
TEAM-DET1
 10
-6.633186
 20
-225.743249
 30
160.0
  0
VERTEX
  5
261
  8
TEAM-DET1
 10
-257.481312
 20
-251.342268
 30
160.0
 42
-0.351513
  0
VERTEX
  5
262
  8
TEAM-DET1
 10
-361.046885
 20
-181.094117
 30
160.0
 42
-0.090517
  0
VERTEX
  5
263
  8
TEAM-DET1
 10
-390.0
 20
0.035776
 30
160.0
 42
-0.090517
  0
SEQEND
  5
264
  8
TEAM-DET1
  0
POLYLINE
  5
10F
  8
TEAM-DET1
 66
     1
 10
0.0
 20
0.0
 30
160.0
  0
VERTEX
  5
265
  8
TEAM-DET1
 10
620.042164
 20
2.088719
 30
160.0
 42
0.086309
  0
VERTEX
  5
266
  8
TEAM-DET1
 10
589.870573
 20
238.418632
 30
160.0
 42
0.336902
  0
VERTEX
  5
267
  8
TEAM-DET1
 10
541.694862
 20
275.035776
 30
160.0
  0
VERTEX
  5
268
  8
TEAM-DET1
 10
144.904226
 20
275.035776
 30
160.0
 42
0.120054
  0
VERTEX
  5
269
  8
TEAM-DET1
 10
98.910167
 20
263.830745
 30
160.0
  0
VERTEX
  5
26A
  8
TEAM-DET1
 10
46.637854
 20
236.754708
 30
160.0
 42
-0.138567
  0
VERTEX
  5
26B
  8
TEAM-DET1
 10
-6.633186
 20
225.8148
 30
160.0
  0
VERTEX
  5
26C
  8
TEAM-DET1
 10
-257.481312
 20
251.413819
 30
160.0
 42
0.351513
  0
VERTEX
  5
26D
  8
TEAM-DET1
 10
-361.046885
 20
181.165668
 30
160.0
 42
0.090517
  0
VERTEX
  5
26E
  8
TEAM-DET1
 10
-390.0
 20
0.035776
 30
160.0
 42
0.090517
  0
SEQEND
  5
26F
  8
TEAM-DET1
  0
CIRCLE
  5
110
  8
TEAM-KAN
 10
-0.035553
 20
567.250648
 30
-594.312222
 40
20.0
210
-0.992546
220
-0.000001
230
0.121869
  0
POLYLINE
  5
111
  8
TEAM-NET
 66
     1
 10
0.0
 20
0.0
 30
0.0
 70
    16
 71
     2
 72
    37
  0
VERTEX
  5
112
  8
TEAM-NET
 10
-750.0
 20
0.035776
 30
580.0
 70
    64
  0
VERTEX
  5
113
  8
TEAM-NET
 10
-750.0
 20
-61.987332
 30
580.0
 70
    64
  0
VERTEX
  5
114
  8
TEAM-NET
 10
-750.0
 20
-124.010439
 30
580.0
 70
    64
  0
VERTEX
  5
115
  8
TEAM-NET
 10
-750.0
 20
-186.033546
 30
580.0
 70
    64
  0
VERTEX
  5
116
  8
TEAM-NET
 10
-750.0
 20
-248.056653
 30
580.0
 70
    64
  0
VERTEX
  5
117
  8
TEAM-NET
 10
-750.0
 20
-310.07976
 30
580.0
 70
    64
  0
VERTEX
  5
118
  8
TEAM-NET
 10
-743.095187
 20
-370.080972
 30
580.0
 70
    64
  0
VERTEX
  5
119
  8
TEAM-NET
 10
-682.254177
 20
-374.964224
 30
580.0
 70
    64
  0
VERTEX
  5
11A
  8
TEAM-NET
 10
-620.23107
 20
-374.964224
 30
580.0
 70
    64
  0
VERTEX
  5
11B
  8
TEAM-NET
 10
-558.207963
 20
-374.964224
 30
580.0
 70
    64
  0
VERTEX
  5
11C
  8
TEAM-NET
 10
-496.184856
 20
-374.964224
 30
580.0
 70
    64
  0
VERTEX
  5
11D
  8
TEAM-NET
 10
-434.161749
 20
-374.964224
 30
580.0
 70
    64
  0
VERTEX
  5
11E
  8
TEAM-NET
 10
-372.138642
 20
-374.964224
 30
580.0
 70
    64
  0
VERTEX
  5
11F
  8
TEAM-NET
 10
-310.115535
 20
-374.964224
 30
580.0
 70
    64
  0
VERTEX
  5
120
  8
TEAM-NET
 10
-248.092428
 20
-374.964224
 30
580.0
 70
    64
  0
VERTEX
  5
121
  8
TEAM-NET
 10
-186.069321
 20
-374.964224
 30
580.0
 70
    64
  0
VERTEX
  5
122
  8
TEAM-NET
 10
-124.046214
 20
-374.964224
 30
580.0
 70
    64
  0
VERTEX
  5
123
  8
TEAM-NET
 10
-62.023107
 20
-374.964224
 30
580.0
 70
    64
  0
VERTEX
  5
124
  8
TEAM-NET
 10
0.0
 20
-374.964224
 30
580.0
 70
    64
  0
VERTEX
  5
125
  8
TEAM-NET
 10
62.023107
 20
-374.964224
 30
580.0
 70
    64
  0
VERTEX
  5
126
  8
TEAM-NET
 10
124.046214
 20
-374.964224
 30
580.0
 70
    64
  0
VERTEX
  5
127
  8
TEAM-NET
 10
186.069321
 20
-374.964224
 30
580.0
 70
    64
  0
VERTEX
  5
128
  8
TEAM-NET
 10
248.092428
 20
-374.964224
 30
580.0
 70
    64
  0
VERTEX
  5
129
  8
TEAM-NET
 10
310.115535
 20
-374.964224
 30
580.0
 70
    64
  0
VERTEX
  5
12A
  8
TEAM-NET
 10
372.138642
 20
-374.964224
 30
580.0
 70
    64
  0
VERTEX
  5
12B
  8
TEAM-NET
 10
434.161749
 20
-374.964224
 30
580.0
 70
    64
  0
VERTEX
  5
12C
  8
TEAM-NET
 10
496.184856
 20
-374.964224
 30
580.0
 70
    64
  0
VERTEX
  5
12D
  8
TEAM-NET
 10
558.207963
 20
-374.964224
 30
580.0
 70
    64
  0
VERTEX
  5
12E
  8
TEAM-NET
 10
620.23107
 20
-374.964224
 30
580.0
 70
    64
  0
VERTEX
  5
12F
  8
TEAM-NET
 10
682.254177
 20
-374.964224
 30
580.0
 70
    64
  0
VERTEX
  5
130
  8
TEAM-NET
 10
743.095187
 20
-370.080972
 30
580.0
 70
    64
  0
VERTEX
  5
131
  8
TEAM-NET
 10
750.0
 20
-310.07976
 30
580.0
 70
    64
  0
VERTEX
  5
132
  8
TEAM-NET
 10
750.0
 20
-248.056653
 30
580.0
 70
    64
  0
VERTEX
  5
133
  8
TEAM-NET
 10
750.0
 20
-186.033546
 30
580.0
 70
    64
  0
VERTEX
  5
134
  8
TEAM-NET
 10
750.0
 20
-124.010439
 30
580.0
 70
    64
  0
VERTEX
  5
135
  8
TEAM-NET
 10
750.0
 20
-61.987332
 30
580.0
 70
    64
  0
VERTEX
  5
136
  8
TEAM-NET
 10
750.0
 20
0.035776
 30
580.0
 70
    64
  0
VERTEX
  5
137
  8
TEAM-NET
 10
-700.0
 20
0.035776
 30
580.0
 70
    64
  0
VERTEX
  5
138
  8
TEAM-NET
 10
-699.836996
 20
-52.20525
 30
580.0
 70
    64
  0
VERTEX
  5
139
  8
TEAM-NET
 10
-696.087674
 20
-104.311813
 30
580.0
 70
    64
  0
VERTEX
  5
13A
  8
TEAM-NET
 10
-688.769728
 20
-156.038006
 30
580.0
 70
    64
  0
VERTEX
  5
13B
  8
TEAM-NET
 10
-677.960594
 20
-207.149838
 30
580.0
 70
    64
  0
VERTEX
  5
13C
  8
TEAM-NET
 10
-657.541223
 20
-254.95965
 30
580.0
 70
    64
  0
VERTEX
  5
13D
  8
TEAM-NET
 10
-622.028782
 20
-292.927997
 30
580.0
 70
    64
  0
VERTEX
  5
13E
  8
TEAM-NET
 10
-575.689069
 20
-316.494071
 30
580.0
 70
    64
  0
VERTEX
  5
13F
  8
TEAM-NET
 10
-524.08847
 20
-322.827086
 30
580.0
 70
    64
  0
VERTEX
  5
140
  8
TEAM-NET
 10
-472.044721
 20
-318.186579
 30
580.0
 70
    64
  0
VERTEX
  5
141
  8
TEAM-NET
 10
-420.009026
 20
-313.441928
 30
580.0
 70
    64
  0
VERTEX
  5
142
  8
TEAM-NET
 10
-367.97333
 20
-308.697277
 30
580.0
 70
    64
  0
VERTEX
  5
143
  8
TEAM-NET
 10
-315.937635
 20
-303.952627
 30
580.0
 70
    64
  0
VERTEX
  5
144
  8
TEAM-NET
 10
-263.901939
 20
-299.207976
 30
580.0
 70
    64
  0
VERTEX
  5
145
  8
TEAM-NET
 10
-211.866243
 20
-294.463325
 30
580.0
 70
    64
  0
VERTEX
  5
146
  8
TEAM-NET
 10
-159.830548
 20
-289.718674
 30
580.0
 70
    64
  0
VERTEX
  5
147
  8
TEAM-NET
 10
-107.794852
 20
-284.974024
 30
580.0
 70
    64
  0
VERTEX
  5
148
  8
TEAM-NET
 10
-55.759157
 20
-280.229373
 30
580.0
 70
    64
  0
VERTEX
  5
149
  8
TEAM-NET
 10
-3.691485
 20
-276.081138
 30
580.0
 70
    64
  0
VERTEX
  5
14A
  8
TEAM-NET
 10
46.028707
 20
-290.24053
 30
580.0
 70
    64
  0
VERTEX
  5
14B
  8
TEAM-NET
 10
92.302168
 20
-314.509313
 30
580.0
 70
    64
  0
VERTEX
  5
14C
  8
TEAM-NET
 10
142.934429
 20
-324.964224
 30
580.0
 70
    64
  0
VERTEX
  5
14D
  8
TEAM-NET
 10
195.185987
 20
-324.964224
 30
580.0
 70
    64
  0
VERTEX
  5
14E
  8
TEAM-NET
 10
247.437545
 20
-324.964224
 30
580.0
 70
    64
  0
VERTEX
  5
14F
  8
TEAM-NET
 10
299.689103
 20
-324.964224
 30
580.0
 70
    64
  0
VERTEX
  5
150
  8
TEAM-NET
 10
351.940661
 20
-324.964224
 30
580.0
 70
    64
  0
VERTEX
  5
151
  8
TEAM-NET
 10
404.192219
 20
-324.964224
 30
580.0
 70
    64
  0
VERTEX
  5
152
  8
TEAM-NET
 10
456.443777
 20
-324.964224
 30
580.0
 70
    64
  0
VERTEX
  5
153
  8
TEAM-NET
 10
508.695336
 20
-324.964224
 30
580.0
 70
    64
  0
VERTEX
  5
154
  8
TEAM-NET
 10
560.828187
 20
-323.116738
 30
580.0
 70
    64
  0
VERTEX
  5
155
  8
TEAM-NET
 10
607.259314
 20
-300.471195
 30
580.0
 70
    64
  0
VERTEX
  5
156
  8
TEAM-NET
 10
636.193451
 20
-257.675333
 30
580.0
 70
    64
  0
VERTEX
  5
157
  8
TEAM-NET
 10
650.167068
 20
-207.339153
 30
580.0
 70
    64
  0
VERTEX
  5
158
  8
TEAM-NET
 10
660.575306
 20
-156.145654
 30
580.0
 70
    64
  0
VERTEX
  5
159
  8
TEAM-NET
 10
667.369499
 20
-104.348504
 30
580.0
 70
    64
  0
VERTEX
  5
15A
  8
TEAM-NET
 10
670.516224
 20
-52.202518
 30
580.0
 70
    64
  0
VERTEX
  5
15B
  8
TEAM-NET
 10
670.0
 20
0.035776
 30
580.0
 70
    64
  0
SEQEND
  5
15C
  8
TEAM-NET
  0
POLYLINE
  5
15D
  8
TEAM-BODY
 66
     1
 10
0.0
 20
0.0
 30
580.0
 39
-20.0
  0
VERTEX
  5
270
  8
TEAM-BODY
 10
750.0
 20
0.035776
 30
580.0
  0
VERTEX
  5
271
  8
TEAM-BODY
 10
750.0
 20
-354.964224
 30
580.0
 42
-0.414214
  0
VERTEX
  5
272
  8
TEAM-BODY
 10
730.0
 20
-374.964224
 30
580.0
  0
VERTEX
  5
273
  8
TEAM-BODY
 10
-730.0
 20
-374.964224
 30
580.0
 42
-0.414214
  0
VERTEX
  5
274
  8
TEAM-BODY
 10
-750.0
 20
-354.964224
 30
580.0
  0
VERTEX
  5
275
  8
TEAM-BODY
 10
-750.0
 20
0.035776
 30
580.0
  0
SEQEND
  5
276
  8
TEAM-BODY
  0
POLYLINE
  5
15F
  8
TEAM-BODY
 66
     1
 10
0.0
 20
0.0
 30
580.0
  0
VERTEX
  5
277
  8
TEAM-BODY
 10
670.0
 20
0.035776
 30
580.0
 42
-0.085811
  0
VERTEX
  5
278
  8
TEAM-BODY
 10
638.046284
 20
-251.729938
 30
580.0
 42
-0.336902
  0
VERTEX
  5
279
  8
TEAM-BODY
 10
541.694862
 20
-324.964224
 30
580.0
  0
VERTEX
  5
27A
  8
TEAM-BODY
 10
136.818199
 20
-324.964224
 30
580.0
 42
-0.121466
  0
VERTEX
  5
27B
  8
TEAM-BODY
 10
90.330453
 20
-313.501728
 30
580.0
  0
VERTEX
  5
27C
  8
TEAM-BODY
 10
40.856543
 20
-287.52482
 30
580.0
 42
0.140795
  0
VERTEX
  5
27D
  8
TEAM-BODY
 10
-13.224332
 20
-276.351018
 30
580.0
  0
VERTEX
  5
27E
  8
TEAM-BODY
 10
-519.900414
 20
-322.550094
 30
580.0
 42
-0.375271
  0
VERTEX
  5
27F
  8
TEAM-BODY
 10
-678.445535
 20
-205.002775
 30
580.0
 42
-0.068092
  0
VERTEX
  5
280
  8
TEAM-BODY
 10
-700.0
 20
0.035776
 30
580.0
 42
-0.068092
  0
SEQEND
  5
281
  8
TEAM-BODY
  0
POLYLINE
  5
160
  8
TEAM-BODY
 66
     1
 10
0.0
 20
0.0
 30
580.0
 39
-20.0
  0
VERTEX
  5
282
  8
TEAM-BODY
 10
750.0
 20
0.035776
 30
580.0
  0
VERTEX
  5
283
  8
TEAM-BODY
 10
750.0
 20
355.035776
 30
580.0
 42
0.414214
  0
VERTEX
  5
284
  8
TEAM-BODY
 10
730.0
 20
375.035776
 30
580.0
  0
VERTEX
  5
285
  8
TEAM-BODY
 10
-730.0
 20
375.035776
 30
580.0
 42
0.414214
  0
VERTEX
  5
286
  8
TEAM-BODY
 10
-750.0
 20
355.035776
 30
580.0
  0
VERTEX
  5
287
  8
TEAM-BODY
 10
-750.0
 20
0.035776
 30
580.0
  0
SEQEND
  5
288
  8
TEAM-BODY
  0
POLYLINE
  5
161
  8
TEAM-NET
 66
     1
 10
0.0
 20
0.0
 30
0.0
 70
    16
 71
     2
 72
    37
  0
VERTEX
  5
162
  8
TEAM-NET
 10
-750.0
 20
0.035776
 30
580.0
 70
    64
  0
VERTEX
  5
163
  8
TEAM-NET
 10
-750.0
 20
62.058883
 30
580.0
 70
    64
  0
VERTEX
  5
164
  8
TEAM-NET
 10
-750.0
 20
124.08199
 30
580.0
 70
    64
  0
VERTEX
  5
165
  8
TEAM-NET
 10
-750.0
 20
186.105097
 30
580.0
 70
    64
  0
VERTEX
  5
166
  8
TEAM-NET
 10
-750.0
 20
248.128204
 30
580.0
 70
    64
  0
VERTEX
  5
167
  8
TEAM-NET
 10
-750.0
 20
310.151311
 30
580.0
 70
    64
  0
VERTEX
  5
168
  8
TEAM-NET
 10
-743.095187
 20
370.152523
 30
580.0
 70
    64
  0
VERTEX
  5
169
  8
TEAM-NET
 10
-682.254177
 20
375.035776
 30
580.0
 70
    64
  0
VERTEX
  5
16A
  8
TEAM-NET
 10
-620.23107
 20
375.035776
 30
580.0
 70
    64
  0
VERTEX
  5
16B
  8
TEAM-NET
 10
-558.207963
 20
375.035776
 30
580.0
 70
    64
  0
VERTEX
  5
16C
  8
TEAM-NET
 10
-496.184856
 20
375.035776
 30
580.0
 70
    64
  0
VERTEX
  5
16D
  8
TEAM-NET
 10
-434.161749
 20
375.035776
 30
580.0
 70
    64
  0
VERTEX
  5
16E
  8
TEAM-NET
 10
-372.138642
 20
375.035776
 30
580.0
 70
    64
  0
VERTEX
  5
16F
  8
TEAM-NET
 10
-310.115535
 20
375.035776
 30
580.0
 70
    64
  0
VERTEX
  5
170
  8
TEAM-NET
 10
-248.092428
 20
375.035776
 30
580.0
 70
    64
  0
VERTEX
  5
171
  8
TEAM-NET
 10
-186.069321
 20
375.035776
 30
580.0
 70
    64
  0
VERTEX
  5
172
  8
TEAM-NET
 10
-124.046214
 20
375.035776
 30
580.0
 70
    64
  0
VERTEX
  5
173
  8
TEAM-NET
 10
-62.023107
 20
375.035776
 30
580.0
 70
    64
  0
VERTEX
  5
174
  8
TEAM-NET
 10
0.0
 20
375.035776
 30
580.0
 70
    64
  0
VERTEX
  5
175
  8
TEAM-NET
 10
62.023107
 20
375.035776
 30
580.0
 70
    64
  0
VERTEX
  5
176
  8
TEAM-NET
 10
124.046214
 20
375.035776
 30
580.0
 70
    64
  0
VERTEX
  5
177
  8
TEAM-NET
 10
186.069321
 20
375.035776
 30
580.0
 70
    64
  0
VERTEX
  5
178
  8
TEAM-NET
 10
248.092428
 20
375.035776
 30
580.0
 70
    64
  0
VERTEX
  5
179
  8
TEAM-NET
 10
310.115535
 20
375.035776
 30
580.0
 70
    64
  0
VERTEX
  5
17A
  8
TEAM-NET
 10
372.138642
 20
375.035776
 30
580.0
 70
    64
  0
VERTEX
  5
17B
  8
TEAM-NET
 10
434.161749
 20
375.035776
 30
580.0
 70
    64
  0
VERTEX
  5
17C
  8
TEAM-NET
 10
496.184856
 20
375.035776
 30
580.0
 70
    64
  0
VERTEX
  5
17D
  8
TEAM-NET
 10
558.207963
 20
375.035776
 30
580.0
 70
    64
  0
VERTEX
  5
17E
  8
TEAM-NET
 10
620.23107
 20
375.035776
 30
580.0
 70
    64
  0
VERTEX
  5
17F
  8
TEAM-NET
 10
682.254177
 20
375.035776
 30
580.0
 70
    64
  0
VERTEX
  5
180
  8
TEAM-NET
 10
743.095187
 20
370.152523
 30
580.0
 70
    64
  0
VERTEX
  5
181
  8
TEAM-NET
 10
750.0
 20
310.151311
 30
580.0
 70
    64
  0
VERTEX
  5
182
  8
TEAM-NET
 10
750.0
 20
248.128204
 30
580.0
 70
    64
  0
VERTEX
  5
183
  8
TEAM-NET
 10
750.0
 20
186.105097
 30
580.0
 70
    64
  0
VERTEX
  5
184
  8
TEAM-NET
 10
750.0
 20
124.08199
 30
580.0
 70
    64
  0
VERTEX
  5
185
  8
TEAM-NET
 10
750.0
 20
62.058883
 30
580.0
 70
    64
  0
VERTEX
  5
186
  8
TEAM-NET
 10
750.0
 20
0.035776
 30
580.0
 70
    64
  0
VERTEX
  5
187
  8
TEAM-NET
 10
-700.0
 20
0.035776
 30
580.0
 70
    64
  0
VERTEX
  5
188
  8
TEAM-NET
 10
-699.836996
 20
52.276801
 30
580.0
 70
    64
  0
VERTEX
  5
189
  8
TEAM-NET
 10
-696.087674
 20
104.383364
 30
580.0
 70
    64
  0
VERTEX
  5
18A
  8
TEAM-NET
 10
-688.769728
 20
156.109557
 30
580.0
 70
    64
  0
VERTEX
  5
18B
  8
TEAM-NET
 10
-677.960594
 20
207.221389
 30
580.0
 70
    64
  0
VERTEX
  5
18C
  8
TEAM-NET
 10
-657.541223
 20
255.031201
 30
580.0
 70
    64
  0
VERTEX
  5
18D
  8
TEAM-NET
 10
-622.028782
 20
292.999548
 30
580.0
 70
    64
  0
VERTEX
  5
18E
  8
TEAM-NET
 10
-575.689069
 20
316.565622
 30
580.0
 70
    64
  0
VERTEX
  5
18F
  8
TEAM-NET
 10
-524.08847
 20
322.898637
 30
580.0
 70
    64
  0
VERTEX
  5
190
  8
TEAM-NET
 10
-472.044721
 20
318.25813
 30
580.0
 70
    64
  0
VERTEX
  5
191
  8
TEAM-NET
 10
-420.009026
 20
313.513479
 30
580.0
 70
    64
  0
VERTEX
  5
192
  8
TEAM-NET
 10
-367.97333
 20
308.768828
 30
580.0
 70
    64
  0
VERTEX
  5
193
  8
TEAM-NET
 10
-315.937635
 20
304.024178
 30
580.0
 70
    64
  0
VERTEX
  5
194
  8
TEAM-NET
 10
-263.901939
 20
299.279527
 30
580.0
 70
    64
  0
VERTEX
  5
195
  8
TEAM-NET
 10
-211.866243
 20
294.534876
 30
580.0
 70
    64
  0
VERTEX
  5
196
  8
TEAM-NET
 10
-159.830548
 20
289.790225
 30
580.0
 70
    64
  0
VERTEX
  5
197
  8
TEAM-NET
 10
-107.794852
 20
285.045575
 30
580.0
 70
    64
  0
VERTEX
  5
198
  8
TEAM-NET
 10
-55.759157
 20
280.300924
 30
580.0
 70
    64
  0
VERTEX
  5
199
  8
TEAM-NET
 10
-3.691485
 20
276.152689
 30
580.0
 70
    64
  0
VERTEX
  5
19A
  8
TEAM-NET
 10
46.028707
 20
290.312081
 30
580.0
 70
    64
  0
VERTEX
  5
19B
  8
TEAM-NET
 10
92.302168
 20
314.580864
 30
580.0
 70
    64
  0
VERTEX
  5
19C
  8
TEAM-NET
 10
142.934429
 20
325.035776
 30
580.0
 70
    64
  0
VERTEX
  5
19D
  8
TEAM-NET
 10
195.185987
 20
325.035776
 30
580.0
 70
    64
  0
VERTEX
  5
19E
  8
TEAM-NET
 10
247.437545
 20
325.035776
 30
580.0
 70
    64
  0
VERTEX
  5
19F
  8
TEAM-NET
 10
299.689103
 20
325.035776
 30
580.0
 70
    64
  0
VERTEX
  5
1A0
  8
TEAM-NET
 10
351.940661
 20
325.035776
 30
580.0
 70
    64
  0
VERTEX
  5
1A1
  8
TEAM-NET
 10
404.192219
 20
325.035776
 30
580.0
 70
    64
  0
VERTEX
  5
1A2
  8
TEAM-NET
 10
456.443777
 20
325.035776
 30
580.0
 70
    64
  0
VERTEX
  5
1A3
  8
TEAM-NET
 10
508.695336
 20
325.035776
 30
580.0
 70
    64
  0
VERTEX
  5
1A4
  8
TEAM-NET
 10
560.828187
 20
323.188289
 30
580.0
 70
    64
  0
VERTEX
  5
1A5
  8
TEAM-NET
 10
607.259314
 20
300.542746
 30
580.0
 70
    64
  0
VERTEX
  5
1A6
  8
TEAM-NET
 10
636.193451
 20
257.746884
 30
580.0
 70
    64
  0
VERTEX
  5
1A7
  8
TEAM-NET
 10
650.167068
 20
207.410704
 30
580.0
 70
    64
  0
VERTEX
  5
1A8
  8
TEAM-NET
 10
660.575306
 20
156.217205
 30
580.0
 70
    64
  0
VERTEX
  5
1A9
  8
TEAM-NET
 10
667.369499
 20
104.420055
 30
580.0
 70
    64
  0
VERTEX
  5
1AA
  8
TEAM-NET
 10
670.516224
 20
52.274069
 30
580.0
 70
    64
  0
VERTEX
  5
1AB
  8
TEAM-NET
 10
670.0
 20
0.035776
 30
580.0
 70
    64
  0
SEQEND
  5
1AC
  8
TEAM-NET
  0
POLYLINE
  5
1AD
  8
TEAM-BODY
 66
     1
 10
0.0
 20
0.0
 30
580.0
  0
VERTEX
  5
289
  8
TEAM-BODY
 10
670.0
 20
0.035776
 30
580.0
 42
0.085811
  0
VERTEX
  5
28A
  8
TEAM-BODY
 10
638.046284
 20
251.801489
 30
580.0
 42
0.336902
  0
VERTEX
  5
28B
  8
TEAM-BODY
 10
541.694862
 20
325.035776
 30
580.0
  0
VERTEX
  5
28C
  8
TEAM-BODY
 10
136.818199
 20
325.035776
 30
580.0
 42
0.121466
  0
VERTEX
  5
28D
  8
TEAM-BODY
 10
90.330453
 20
313.573279
 30
580.0
  0
VERTEX
  5
28E
  8
TEAM-BODY
 10
40.856543
 20
287.596371
 30
580.0
 42
-0.140795
  0
VERTEX
  5
28F
  8
TEAM-BODY
 10
-13.224332
 20
276.422569
 30
580.0
  0
VERTEX
  5
290
  8
TEAM-BODY
 10
-519.900414
 20
322.621645
 30
580.0
 42
0.375271
  0
VERTEX
  5
291
  8
TEAM-BODY
 10
-678.445535
 20
205.074326
 30
580.0
 42
0.068092
  0
VERTEX
  5
292
  8
TEAM-BODY
 10
-700.0
 20
0.035776
 30
580.0
 42
0.068092
  0
SEQEND
  5
293
  8
TEAM-BODY
  0
TEXT
  5
1AE
  8
TEAM-TXT
 10
-734.7049
 20
336.042548
 30
580.0
 40
30.0
  1
team 111343
 41
0.7
 51
15.0
  7
TEAM
  0
ENDSEC
  0
EOF
