  0
SECTION
  2
HEADER
  9
$ACADVER
  1
AC1009
  9
$INSBASE
 10
0.0
 20
0.0
 30
0.0
  9
$EXTMIN
 10
-986.816789
 20
-497.609138
 30
-0.008996
  9
$EXTMAX
 10
986.816816
 20
497.609151
 30
590.009005
  9
$LIMMIN
 10
-986.816789
 20
-497.609138
  9
$LIMMAX
 10
986.816816
 20
497.609151
  9
$ORTHOMODE
 70
     1
  9
$REGENMODE
 70
     1
  9
$FILLMODE
 70
     1
  9
$QTEXTMODE
 70
     0
  9
$MIRRTEXT
 70
     0
  9
$DRAGMODE
 70
     2
  9
$LTSCALE
 40
25.0
  9
$OSMODE
 70
     0
  9
$ATTMODE
 70
     1
  9
$TEXTSIZE
 40
200.0
  9
$TRACEWID
 40
1.0
  9
$TEXTSTYLE
  7
STANDARD
  9
$CLAYER
  8
TEAM-MAS
  9
$CELTYPE
  6
BYLAYER
  9
$CECOLOR
 62
   256
  9
$DIMSCALE
 40
0.0
  9
$DIMASZ
 40
20.0
  9
$DIMEXO
 40
10.0
  9
$DIMDLI
 40
1.0
  9
$DIMRND
 40
0.0
  9
$DIMDLE
 40
0.0
  9
$DIMEXE
 40
1.0
  9
$DIMTP
 40
0.0
  9
$DIMTM
 40
0.0
  9
$DIMTXT
 40
35.0
  9
$DIMCEN
 40
1.0
  9
$DIMTSZ
 40
0.0
  9
$DIMTOL
 70
     0
  9
$DIMLIM
 70
     0
  9
$DIMTIH
 70
     0
  9
$DIMTOH
 70
     0
  9
$DIMSE1
 70
     0
  9
$DIMSE2
 70
     0
  9
$DIMTAD
 70
     0
  9
$DIMZIN
 70
     0
  9
$DIMBLK
  1

  9
$DIMASO
 70
     1
  9
$DIMSHO
 70
     0
  9
$DIMPOST
  1

  9
$DIMAPOST
  1

  9
$DIMALT
 70
     0
  9
$DIMALTD
 70
     2
  9
$DIMALTF
 40
25.4
  9
$DIMLFAC
 40
1.0
  9
$DIMTOFL
 70
     0
  9
$DIMTVP
 40
0.0
  9
$DIMTIX
 70
     0
  9
$DIMSOXD
 70
     0
  9
$DIMSAH
 70
     0
  9
$DIMBLK1
  1

  9
$DIMBLK2
  1

  9
$DIMSTYLE
  2
TEAM
  9
$DIMCLRD
 70
     9
  9
$DIMCLRE
 70
     9
  9
$DIMCLRT
 70
    11
  9
$DIMTFAC
 40
1.0
  9
$DIMGAP
 40
15.0
  9
$LUNITS
 70
     2
  9
$LUPREC
 70
     1
  9
$SKETCHINC
 40
1.0
  9
$FILLETRAD
 40
50.0
  9
$AUNITS
 70
     0
  9
$AUPREC
 70
     0
  9
$MENU
  1
ROPLANS
  9
$ELEVATION
 40
0.0
  9
$PELEVATION
 40
0.0
  9
$THICKNESS
 40
0.0
  9
$LIMCHECK
 70
     0
  9
$BLIPMODE
 70
     1
  9
$CHAMFERA
 40
0.0
  9
$CHAMFERB
 40
0.0
  9
$SKPOLY
 70
     0
  9
$TDCREATE
 40
2450392.957851
  9
$TDUPDATE
 40
2455493.646255
  9
$TDINDWG
 40
2.091996
  9
$TDUSRTIMER
 40
2.091996
  9
$USRTIMER
 70
     1
  9
$ANGBASE
 50
0.0
  9
$ANGDIR
 70
     0
  9
$PDMODE
 70
     0
  9
$PDSIZE
 40
0.0
  9
$PLINEWID
 40
0.0
  9
$COORDS
 70
     2
  9
$SPLFRAME
 70
     0
  9
$SPLINETYPE
 70
     6
  9
$SPLINESEGS
 70
     8
  9
$ATTDIA
 70
     0
  9
$ATTREQ
 70
     0
  9
$HANDLING
 70
     1
  9
$HANDSEED
  5
37E
  9
$SURFTAB1
 70
    24
  9
$SURFTAB2
 70
    24
  9
$SURFTYPE
 70
     6
  9
$SURFU
 70
     6
  9
$SURFV
 70
     6
  9
$UCSNAME
  2

  9
$UCSORG
 10
0.0
 20
0.0
 30
0.0
  9
$UCSXDIR
 10
1.0
 20
0.0
 30
0.0
  9
$UCSYDIR
 10
0.0
 20
1.0
 30
0.0
  9
$PUCSNAME
  2

  9
$PUCSORG
 10
0.0
 20
0.0
 30
0.0
  9
$PUCSXDIR
 10
1.0
 20
0.0
 30
0.0
  9
$PUCSYDIR
 10
0.0
 20
1.0
 30
0.0
  9
$USERI1
 70
     0
  9
$USERI2
 70
     0
  9
$USERI3
 70
     0
  9
$USERI4
 70
     0
  9
$USERI5
 70
     0
  9
$USERR1
 40
0.0
  9
$USERR2
 40
0.0
  9
$USERR3
 40
0.0
  9
$USERR4
 40
0.0
  9
$USERR5
 40
0.0
  9
$WORLDVIEW
 70
     1
  9
$SHADEDGE
 70
     0
  9
$SHADEDIF
 70
    70
  9
$TILEMODE
 70
     1
  9
$MAXACTVP
 70
    16
  9
$PLIMCHECK
 70
     0
  9
$PEXTMIN
 10
-0.805942
 20
0.005011
 30
0.0
  9
$PEXTMAX
 10
20.250094
 20
11.356329
 30
0.0
  9
$PLIMMIN
 10
0.0
 20
0.0
  9
$PLIMMAX
 10
12.0
 20
9.0
  9
$UNITMODE
 70
     0
  9
$VISRETAIN
 70
     0
  9
$PLINEGEN
 70
     0
  9
$PSLTSCALE
 70
     0
  0
ENDSEC
  0
SECTION
  2
TABLES
  0
TABLE
  2
VPORT
 70
     2
  0
VPORT
  2
*ACTIVE
 70
     0
 10
0.0
 20
0.0
 11
1.0
 21
1.0
 12
0.000013
 22
0.000007
 13
0.0
 23
0.0
 14
1.0
 24
1.0
 15
50.0
 25
50.0
 16
0.0
 26
0.0
 36
1.0
 17
0.0
 27
0.0
 37
0.0
 40
1061.288711
 41
1.865779
 42
50.0
 43
0.0
 44
0.0
 50
0.0
 51
0.0
 71
     0
 72
   100
 73
     1
 74
     1
 75
     0
 76
     0
 77
     0
 78
     0
  0
ENDTAB
  0
TABLE
  2
LTYPE
 70
     1
  0
LTYPE
  2
CONTINUOUS
 70
     0
  3
Solid Line
 72
    65
 73
     0
 40
0.0
  0
ENDTAB
  0
TABLE
  2
LAYER
 70
     8
  0
LAYER
  2
0
 70
     0
 62
     7
  6
CONTINUOUS
  0
LAYER
  2
TEAM-BODY
 70
     0
 62
     2
  6
CONTINUOUS
  0
LAYER
  2
TEAM-MAS
 70
     0
 62
     9
  6
CONTINUOUS
  0
LAYER
  2
TEAM-TXT
 70
     0
 62
    11
  6
CONTINUOUS
  0
LAYER
  2
TEAM-DET1
 70
     0
 62
     4
  6
CONTINUOUS
  0
LAYER
  2
TEAM-KAN
 70
     0
 62
     6
  6
CONTINUOUS
  0
LAYER
  2
TEAM-NET
 70
     0
 62
    15
  6
CONTINUOUS
  0
LAYER
  2
TEAM-INSP
 70
     0
 62
     5
  6
CONTINUOUS
  0
ENDTAB
  0
TABLE
  2
STYLE
 70
     2
  0
STYLE
  2
STANDARD
 70
     0
 40
0.0
 41
1.0
 50
0.0
 71
     0
 42
200.0
  3
txt
  4

  0
STYLE
  2
TEAM
 70
     0
 40
0.0
 41
0.8
 50
15.0
 71
     0
 42
7.0
  3
ROMANS.shx
  4

  0
ENDTAB
  0
TABLE
  2
VIEW
 70
     0
  0
ENDTAB
  0
TABLE
  2
UCS
 70
     0
  0
ENDTAB
  0
TABLE
  2
APPID
 70
     1
  0
APPID
  2
ACAD
 70
     0
  0
ENDTAB
  0
TABLE
  2
DIMSTYLE
 70
     1
  0
DIMSTYLE
  2
TEAM
 70
     0
  3

  4

  5

  6

  7

 40
0.0
 41
20.0
 42
10.0
 43
1.0
 44
1.0
 45
0.0
 46
0.0
 47
0.0
 48
0.0
140
35.0
141
1.0
142
0.0
143
25.4
144
1.0
145
0.0
146
1.0
147
15.0
 71
     0
 72
     0
 73
     0
 74
     0
 75
     0
 76
     0
 77
     0
 78
     0
170
     0
171
     2
172
     0
173
     0
174
     0
175
     0
176
     9
177
     9
178
    11
  0
ENDTAB
  0
ENDSEC
  0
SECTION
  2
BLOCKS
  0
BLOCK
  8
0
  2
$MODEL_SPACE
 70
     0
 10
0.0
 20
0.0
 30
0.0
  3
$MODEL_SPACE
  1

  0
ENDBLK
  5
353
  8
0
  0
BLOCK
 67
     1
  8
0
  2
$PAPER_SPACE
 70
     0
 10
0.0
 20
0.0
 30
0.0
  3
$PAPER_SPACE
  1

  0
ENDBLK
  5
351
 67
     1
  8
0
  0
ENDSEC
  0
SECTION
  2
ENTITIES
  0
POLYLINE
  5
20
  8
TEAM-NET
 66
     1
 10
0.0
 20
0.0
 30
0.0
 70
    16
 71
     2
 72
    37
  0
VERTEX
  5
21
  8
TEAM-NET
 10
545.0
 20
0.0
 30
150.0
 70
    64
  0
VERTEX
  5
22
  8
TEAM-NET
 10
544.895557
 20
-37.392783
 30
150.0
 70
    64
  0
VERTEX
  5
23
  8
TEAM-NET
 10
537.557058
 20
-74.058538
 30
150.0
 70
    64
  0
VERTEX
  5
24
  8
TEAM-NET
 10
523.261933
 20
-108.611115
 30
150.0
 70
    64
  0
VERTEX
  5
25
  8
TEAM-NET
 10
502.550612
 20
-139.744254
 30
150.0
 70
    64
  0
VERTEX
  5
26
  8
TEAM-NET
 10
476.206085
 20
-166.280966
 30
150.0
 70
    64
  0
VERTEX
  5
27
  8
TEAM-NET
 10
445.224308
 20
-187.218029
 30
150.0
 70
    64
  0
VERTEX
  5
28
  8
TEAM-NET
 10
410.776547
 20
-201.76392
 30
150.0
 70
    64
  0
VERTEX
  5
29
  8
TEAM-NET
 10
374.1651
 20
-209.368728
 30
150.0
 70
    64
  0
VERTEX
  5
2A
  8
TEAM-NET
 10
336.763959
 20
-210.0
 30
150.0
 70
    64
  0
VERTEX
  5
2B
  8
TEAM-NET
 10
299.311877
 20
-210.0
 30
150.0
 70
    64
  0
VERTEX
  5
2C
  8
TEAM-NET
 10
261.859794
 20
-210.0
 30
150.0
 70
    64
  0
VERTEX
  5
2D
  8
TEAM-NET
 10
224.407711
 20
-210.0
 30
150.0
 70
    64
  0
VERTEX
  5
2E
  8
TEAM-NET
 10
186.955628
 20
-210.0
 30
150.0
 70
    64
  0
VERTEX
  5
2F
  8
TEAM-NET
 10
149.503545
 20
-210.0
 30
150.0
 70
    64
  0
VERTEX
  5
30
  8
TEAM-NET
 10
112.051462
 20
-210.0
 30
150.0
 70
    64
  0
VERTEX
  5
31
  8
TEAM-NET
 10
74.59938
 20
-210.0
 30
150.0
 70
    64
  0
VERTEX
  5
32
  8
TEAM-NET
 10
37.147297
 20
-210.0
 30
150.0
 70
    64
  0
VERTEX
  5
33
  8
TEAM-NET
 10
-0.304786
 20
-210.0
 30
150.0
 70
    64
  0
VERTEX
  5
34
  8
TEAM-NET
 10
-37.756869
 20
-210.0
 30
150.0
 70
    64
  0
VERTEX
  5
35
  8
TEAM-NET
 10
-75.208952
 20
-210.0
 30
150.0
 70
    64
  0
VERTEX
  5
36
  8
TEAM-NET
 10
-112.661035
 20
-210.0
 30
150.0
 70
    64
  0
VERTEX
  5
37
  8
TEAM-NET
 10
-150.113117
 20
-210.0
 30
150.0
 70
    64
  0
VERTEX
  5
38
  8
TEAM-NET
 10
-187.5652
 20
-210.0
 30
150.0
 70
    64
  0
VERTEX
  5
39
  8
TEAM-NET
 10
-225.017283
 20
-210.0
 30
150.0
 70
    64
  0
VERTEX
  5
3A
  8
TEAM-NET
 10
-262.469366
 20
-210.0
 30
150.0
 70
    64
  0
VERTEX
  5
3B
  8
TEAM-NET
 10
-299.921449
 20
-210.0
 30
150.0
 70
    64
  0
VERTEX
  5
3C
  8
TEAM-NET
 10
-337.373531
 20
-210.0
 30
150.0
 70
    64
  0
VERTEX
  5
3D
  8
TEAM-NET
 10
-374.773887
 20
-209.493794
 30
150.0
 70
    64
  0
VERTEX
  5
3E
  8
TEAM-NET
 10
-411.395275
 20
-201.939957
 30
150.0
 70
    64
  0
VERTEX
  5
3F
  8
TEAM-NET
 10
-445.848433
 20
-187.40839
 30
150.0
 70
    64
  0
VERTEX
  5
40
  8
TEAM-NET
 10
-476.817762
 20
-166.453981
 30
150.0
 70
    64
  0
VERTEX
  5
41
  8
TEAM-NET
 10
-503.120693
 20
-139.876879
 30
150.0
 70
    64
  0
VERTEX
  5
42
  8
TEAM-NET
 10
-523.752846
 20
-108.691934
 30
150.0
 70
    64
  0
VERTEX
  5
43
  8
TEAM-NET
 10
-537.926379
 20
-74.089946
 30
150.0
 70
    64
  0
VERTEX
  5
44
  8
TEAM-NET
 10
-545.100073
 20
-37.392199
 30
150.0
 70
    64
  0
VERTEX
  5
45
  8
TEAM-NET
 10
-545.0
 20
0.0
 30
150.0
 70
    64
  0
VERTEX
  5
46
  8
TEAM-NET
 10
760.0
 20
0.0
 30
590.0
 70
    64
  0
VERTEX
  5
47
  8
TEAM-NET
 10
754.423235
 20
-50.75927
 30
590.0
 70
    64
  0
VERTEX
  5
48
  8
TEAM-NET
 10
740.087377
 20
-99.77036
 30
590.0
 70
    64
  0
VERTEX
  5
49
  8
TEAM-NET
 10
717.431021
 20
-145.533809
 30
590.0
 70
    64
  0
VERTEX
  5
4A
  8
TEAM-NET
 10
687.147323
 20
-186.649517
 30
590.0
 70
    64
  0
VERTEX
  5
4B
  8
TEAM-NET
 10
650.162792
 20
-221.859576
 30
590.0
 70
    64
  0
VERTEX
  5
4C
  8
TEAM-NET
 10
607.608944
 20
-250.086758
 30
590.0
 70
    64
  0
VERTEX
  5
4D
  8
TEAM-NET
 10
560.787685
 20
-270.467473
 30
590.0
 70
    64
  0
VERTEX
  5
4E
  8
TEAM-NET
 10
511.13148
 20
-282.378185
 30
590.0
 70
    64
  0
VERTEX
  5
4F
  8
TEAM-NET
 10
460.159526
 20
-285.454496
 30
590.0
 70
    64
  0
VERTEX
  5
50
  8
TEAM-NET
 10
409.040179
 20
-285.0
 30
590.0
 70
    64
  0
VERTEX
  5
51
  8
TEAM-NET
 10
357.910157
 20
-285.0
 30
590.0
 70
    64
  0
VERTEX
  5
52
  8
TEAM-NET
 10
306.780134
 20
-285.0
 30
590.0
 70
    64
  0
VERTEX
  5
53
  8
TEAM-NET
 10
255.650112
 20
-285.0
 30
590.0
 70
    64
  0
VERTEX
  5
54
  8
TEAM-NET
 10
204.52009
 20
-285.0
 30
590.0
 70
    64
  0
VERTEX
  5
55
  8
TEAM-NET
 10
153.390067
 20
-285.0
 30
590.0
 70
    64
  0
VERTEX
  5
56
  8
TEAM-NET
 10
102.260045
 20
-285.0
 30
590.0
 70
    64
  0
VERTEX
  5
57
  8
TEAM-NET
 10
51.130022
 20
-285.0
 30
590.0
 70
    64
  0
VERTEX
  5
58
  8
TEAM-NET
 10
0.0
 20
-285.0
 30
590.0
 70
    64
  0
VERTEX
  5
59
  8
TEAM-NET
 10
-51.130022
 20
-285.0
 30
590.0
 70
    64
  0
VERTEX
  5
5A
  8
TEAM-NET
 10
-102.260045
 20
-285.0
 30
590.0
 70
    64
  0
VERTEX
  5
5B
  8
TEAM-NET
 10
-153.390067
 20
-285.0
 30
590.0
 70
    64
  0
VERTEX
  5
5C
  8
TEAM-NET
 10
-204.52009
 20
-285.0
 30
590.0
 70
    64
  0
VERTEX
  5
5D
  8
TEAM-NET
 10
-255.650112
 20
-285.0
 30
590.0
 70
    64
  0
VERTEX
  5
5E
  8
TEAM-NET
 10
-306.780134
 20
-285.0
 30
590.0
 70
    64
  0
VERTEX
  5
5F
  8
TEAM-NET
 10
-357.910157
 20
-285.0
 30
590.0
 70
    64
  0
VERTEX
  5
60
  8
TEAM-NET
 10
-409.040179
 20
-285.0
 30
590.0
 70
    64
  0
VERTEX
  5
61
  8
TEAM-NET
 10
-460.159526
 20
-285.454496
 30
590.0
 70
    64
  0
VERTEX
  5
62
  8
TEAM-NET
 10
-511.13148
 20
-282.378185
 30
590.0
 70
    64
  0
VERTEX
  5
63
  8
TEAM-NET
 10
-560.787685
 20
-270.467473
 30
590.0
 70
    64
  0
VERTEX
  5
64
  8
TEAM-NET
 10
-607.608944
 20
-250.086758
 30
590.0
 70
    64
  0
VERTEX
  5
65
  8
TEAM-NET
 10
-650.162792
 20
-221.859576
 30
590.0
 70
    64
  0
VERTEX
  5
66
  8
TEAM-NET
 10
-687.147323
 20
-186.649517
 30
590.0
 70
    64
  0
VERTEX
  5
67
  8
TEAM-NET
 10
-717.431021
 20
-145.533809
 30
590.0
 70
    64
  0
VERTEX
  5
68
  8
TEAM-NET
 10
-740.087377
 20
-99.77036
 30
590.0
 70
    64
  0
VERTEX
  5
69
  8
TEAM-NET
 10
-754.423235
 20
-50.75927
 30
590.0
 70
    64
  0
VERTEX
  5
6A
  8
TEAM-NET
 10
-760.0
 20
0.0
 30
590.0
 70
    64
  0
SEQEND
  5
6C
  8
TEAM-NET
  0
POLYLINE
  5
6D
  8
TEAM-NET
 66
     1
 10
0.0
 20
0.0
 30
0.0
 70
    16
 71
     2
 72
    37
  0
VERTEX
  5
6E
  8
TEAM-NET
 10
545.0
 20
0.0
 30
150.0
 70
    64
  0
VERTEX
  5
6F
  8
TEAM-NET
 10
544.895557
 20
37.392783
 30
150.0
 70
    64
  0
VERTEX
  5
70
  8
TEAM-NET
 10
537.557058
 20
74.058538
 30
150.0
 70
    64
  0
VERTEX
  5
71
  8
TEAM-NET
 10
523.261933
 20
108.611115
 30
150.0
 70
    64
  0
VERTEX
  5
72
  8
TEAM-NET
 10
502.550612
 20
139.744254
 30
150.0
 70
    64
  0
VERTEX
  5
73
  8
TEAM-NET
 10
476.206085
 20
166.280966
 30
150.0
 70
    64
  0
VERTEX
  5
74
  8
TEAM-NET
 10
445.224308
 20
187.218029
 30
150.0
 70
    64
  0
VERTEX
  5
75
  8
TEAM-NET
 10
410.776547
 20
201.76392
 30
150.0
 70
    64
  0
VERTEX
  5
76
  8
TEAM-NET
 10
374.1651
 20
209.368728
 30
150.0
 70
    64
  0
VERTEX
  5
77
  8
TEAM-NET
 10
336.763959
 20
210.0
 30
150.0
 70
    64
  0
VERTEX
  5
78
  8
TEAM-NET
 10
299.311877
 20
210.0
 30
150.0
 70
    64
  0
VERTEX
  5
79
  8
TEAM-NET
 10
261.859794
 20
210.0
 30
150.0
 70
    64
  0
VERTEX
  5
7A
  8
TEAM-NET
 10
224.407711
 20
210.0
 30
150.0
 70
    64
  0
VERTEX
  5
7B
  8
TEAM-NET
 10
186.955628
 20
210.0
 30
150.0
 70
    64
  0
VERTEX
  5
7C
  8
TEAM-NET
 10
149.503545
 20
210.0
 30
150.0
 70
    64
  0
VERTEX
  5
7D
  8
TEAM-NET
 10
112.051462
 20
210.0
 30
150.0
 70
    64
  0
VERTEX
  5
7E
  8
TEAM-NET
 10
74.59938
 20
210.0
 30
150.0
 70
    64
  0
VERTEX
  5
7F
  8
TEAM-NET
 10
37.147297
 20
210.0
 30
150.0
 70
    64
  0
VERTEX
  5
80
  8
TEAM-NET
 10
-0.304786
 20
210.0
 30
150.0
 70
    64
  0
VERTEX
  5
81
  8
TEAM-NET
 10
-37.756869
 20
210.0
 30
150.0
 70
    64
  0
VERTEX
  5
82
  8
TEAM-NET
 10
-75.208952
 20
210.0
 30
150.0
 70
    64
  0
VERTEX
  5
83
  8
TEAM-NET
 10
-112.661035
 20
210.0
 30
150.0
 70
    64
  0
VERTEX
  5
84
  8
TEAM-NET
 10
-150.113117
 20
210.0
 30
150.0
 70
    64
  0
VERTEX
  5
85
  8
TEAM-NET
 10
-187.5652
 20
210.0
 30
150.0
 70
    64
  0
VERTEX
  5
86
  8
TEAM-NET
 10
-225.017283
 20
210.0
 30
150.0
 70
    64
  0
VERTEX
  5
87
  8
TEAM-NET
 10
-262.469366
 20
210.0
 30
150.0
 70
    64
  0
VERTEX
  5
88
  8
TEAM-NET
 10
-299.921449
 20
210.0
 30
150.0
 70
    64
  0
VERTEX
  5
89
  8
TEAM-NET
 10
-337.373531
 20
210.0
 30
150.0
 70
    64
  0
VERTEX
  5
8A
  8
TEAM-NET
 10
-374.773887
 20
209.493794
 30
150.0
 70
    64
  0
VERTEX
  5
8B
  8
TEAM-NET
 10
-411.395275
 20
201.939957
 30
150.0
 70
    64
  0
VERTEX
  5
8C
  8
TEAM-NET
 10
-445.848433
 20
187.40839
 30
150.0
 70
    64
  0
VERTEX
  5
8D
  8
TEAM-NET
 10
-476.817762
 20
166.453981
 30
150.0
 70
    64
  0
VERTEX
  5
8E
  8
TEAM-NET
 10
-503.120693
 20
139.876879
 30
150.0
 70
    64
  0
VERTEX
  5
8F
  8
TEAM-NET
 10
-523.752846
 20
108.691934
 30
150.0
 70
    64
  0
VERTEX
  5
90
  8
TEAM-NET
 10
-537.926379
 20
74.089946
 30
150.0
 70
    64
  0
VERTEX
  5
91
  8
TEAM-NET
 10
-545.100073
 20
37.392199
 30
150.0
 70
    64
  0
VERTEX
  5
92
  8
TEAM-NET
 10
-545.0
 20
0.0
 30
150.0
 70
    64
  0
VERTEX
  5
93
  8
TEAM-NET
 10
760.0
 20
0.0
 30
590.0
 70
    64
  0
VERTEX
  5
94
  8
TEAM-NET
 10
754.423235
 20
50.75927
 30
590.0
 70
    64
  0
VERTEX
  5
95
  8
TEAM-NET
 10
740.087377
 20
99.77036
 30
590.0
 70
    64
  0
VERTEX
  5
96
  8
TEAM-NET
 10
717.431021
 20
145.533809
 30
590.0
 70
    64
  0
VERTEX
  5
97
  8
TEAM-NET
 10
687.147323
 20
186.649517
 30
590.0
 70
    64
  0
VERTEX
  5
98
  8
TEAM-NET
 10
650.162792
 20
221.859576
 30
590.0
 70
    64
  0
VERTEX
  5
99
  8
TEAM-NET
 10
607.608944
 20
250.086758
 30
590.0
 70
    64
  0
VERTEX
  5
9A
  8
TEAM-NET
 10
560.787685
 20
270.467473
 30
590.0
 70
    64
  0
VERTEX
  5
9B
  8
TEAM-NET
 10
511.13148
 20
282.378185
 30
590.0
 70
    64
  0
VERTEX
  5
9C
  8
TEAM-NET
 10
460.159526
 20
285.454496
 30
590.0
 70
    64
  0
VERTEX
  5
9D
  8
TEAM-NET
 10
409.040179
 20
285.0
 30
590.0
 70
    64
  0
VERTEX
  5
9E
  8
TEAM-NET
 10
357.910157
 20
285.0
 30
590.0
 70
    64
  0
VERTEX
  5
9F
  8
TEAM-NET
 10
306.780134
 20
285.0
 30
590.0
 70
    64
  0
VERTEX
  5
A0
  8
TEAM-NET
 10
255.650112
 20
285.0
 30
590.0
 70
    64
  0
VERTEX
  5
A1
  8
TEAM-NET
 10
204.52009
 20
285.0
 30
590.0
 70
    64
  0
VERTEX
  5
A2
  8
TEAM-NET
 10
153.390067
 20
285.0
 30
590.0
 70
    64
  0
VERTEX
  5
A3
  8
TEAM-NET
 10
102.260045
 20
285.0
 30
590.0
 70
    64
  0
VERTEX
  5
A4
  8
TEAM-NET
 10
51.130022
 20
285.0
 30
590.0
 70
    64
  0
VERTEX
  5
A5
  8
TEAM-NET
 10
0.0
 20
285.0
 30
590.0
 70
    64
  0
VERTEX
  5
A6
  8
TEAM-NET
 10
-51.130022
 20
285.0
 30
590.0
 70
    64
  0
VERTEX
  5
A7
  8
TEAM-NET
 10
-102.260045
 20
285.0
 30
590.0
 70
    64
  0
VERTEX
  5
A8
  8
TEAM-NET
 10
-153.390067
 20
285.0
 30
590.0
 70
    64
  0
VERTEX
  5
A9
  8
TEAM-NET
 10
-204.52009
 20
285.0
 30
590.0
 70
    64
  0
VERTEX
  5
AA
  8
TEAM-NET
 10
-255.650112
 20
285.0
 30
590.0
 70
    64
  0
VERTEX
  5
AB
  8
TEAM-NET
 10
-306.780134
 20
285.0
 30
590.0
 70
    64
  0
VERTEX
  5
AC
  8
TEAM-NET
 10
-357.910157
 20
285.0
 30
590.0
 70
    64
  0
VERTEX
  5
AD
  8
TEAM-NET
 10
-409.040179
 20
285.0
 30
590.0
 70
    64
  0
VERTEX
  5
AE
  8
TEAM-NET
 10
-460.159526
 20
285.454496
 30
590.0
 70
    64
  0
VERTEX
  5
AF
  8
TEAM-NET
 10
-511.13148
 20
282.378185
 30
590.0
 70
    64
  0
VERTEX
  5
B0
  8
TEAM-NET
 10
-560.787685
 20
270.467473
 30
590.0
 70
    64
  0
VERTEX
  5
B1
  8
TEAM-NET
 10
-607.608944
 20
250.086758
 30
590.0
 70
    64
  0
VERTEX
  5
B2
  8
TEAM-NET
 10
-650.162792
 20
221.859576
 30
590.0
 70
    64
  0
VERTEX
  5
B3
  8
TEAM-NET
 10
-687.147323
 20
186.649517
 30
590.0
 70
    64
  0
VERTEX
  5
B4
  8
TEAM-NET
 10
-717.431021
 20
145.533809
 30
590.0
 70
    64
  0
VERTEX
  5
B5
  8
TEAM-NET
 10
-740.087377
 20
99.77036
 30
590.0
 70
    64
  0
VERTEX
  5
B6
  8
TEAM-NET
 10
-754.423235
 20
50.75927
 30
590.0
 70
    64
  0
VERTEX
  5
B7
  8
TEAM-NET
 10
-760.0
 20
0.0
 30
590.0
 70
    64
  0
SEQEND
  5
B8
  8
TEAM-NET
  0
CIRCLE
  5
B9
  8
TEAM-KAN
 39
-10.0
 10
0.0
 20
0.0
 30
150.0
 40
30.0
  0
CIRCLE
  5
BB
  8
TEAM-KAN
 39
-10.0
 10
0.0
 20
0.0
 30
150.0
 40
20.0
  0
POLYLINE
  5
BC
  8
TEAM-KAN
 66
     1
 10
0.0
 20
0.0
 30
0.0
 70
    48
 71
     2
 72
    32
  0
VERTEX
  5
BD
  8
TEAM-KAN
 10
30.0
 20
0.0
 30
150.0
 70
    64
  0
VERTEX
  5
BE
  8
TEAM-KAN
 10
29.423558
 20
5.85271
 30
150.0
 70
    64
  0
VERTEX
  5
BF
  8
TEAM-KAN
 10
27.716386
 20
11.480503
 30
150.0
 70
    64
  0
VERTEX
  5
C0
  8
TEAM-KAN
 10
24.944088
 20
16.667107
 30
150.0
 70
    64
  0
VERTEX
  5
C1
  8
TEAM-KAN
 10
21.213203
 20
21.213203
 30
150.0
 70
    64
  0
VERTEX
  5
C2
  8
TEAM-KAN
 10
16.667107
 20
24.944088
 30
150.0
 70
    64
  0
VERTEX
  5
C3
  8
TEAM-KAN
 10
11.480503
 20
27.716386
 30
150.0
 70
    64
  0
VERTEX
  5
C4
  8
TEAM-KAN
 10
5.85271
 20
29.423558
 30
150.0
 70
    64
  0
VERTEX
  5
C5
  8
TEAM-KAN
 10
0.0
 20
30.0
 30
150.0
 70
    64
  0
VERTEX
  5
C6
  8
TEAM-KAN
 10
-5.85271
 20
29.423558
 30
150.0
 70
    64
  0
VERTEX
  5
C7
  8
TEAM-KAN
 10
-11.480503
 20
27.716386
 30
150.0
 70
    64
  0
VERTEX
  5
C8
  8
TEAM-KAN
 10
-16.667107
 20
24.944088
 30
150.0
 70
    64
  0
VERTEX
  5
C9
  8
TEAM-KAN
 10
-21.213203
 20
21.213203
 30
150.0
 70
    64
  0
VERTEX
  5
CA
  8
TEAM-KAN
 10
-24.944088
 20
16.667107
 30
150.0
 70
    64
  0
VERTEX
  5
CB
  8
TEAM-KAN
 10
-27.716386
 20
11.480503
 30
150.0
 70
    64
  0
VERTEX
  5
CC
  8
TEAM-KAN
 10
-29.423558
 20
5.85271
 30
150.0
 70
    64
  0
VERTEX
  5
CD
  8
TEAM-KAN
 10
-30.0
 20
0.0
 30
150.0
 70
    64
  0
VERTEX
  5
CE
  8
TEAM-KAN
 10
-29.423558
 20
-5.85271
 30
150.0
 70
    64
  0
VERTEX
  5
CF
  8
TEAM-KAN
 10
-27.716386
 20
-11.480503
 30
150.0
 70
    64
  0
VERTEX
  5
D0
  8
TEAM-KAN
 10
-24.944088
 20
-16.667107
 30
150.0
 70
    64
  0
VERTEX
  5
D1
  8
TEAM-KAN
 10
-21.213203
 20
-21.213203
 30
150.0
 70
    64
  0
VERTEX
  5
D2
  8
TEAM-KAN
 10
-16.667107
 20
-24.944088
 30
150.0
 70
    64
  0
VERTEX
  5
D3
  8
TEAM-KAN
 10
-11.480503
 20
-27.716386
 30
150.0
 70
    64
  0
VERTEX
  5
D4
  8
TEAM-KAN
 10
-5.85271
 20
-29.423558
 30
150.0
 70
    64
  0
VERTEX
  5
D5
  8
TEAM-KAN
 10
0.0
 20
-30.0
 30
150.0
 70
    64
  0
VERTEX
  5
D6
  8
TEAM-KAN
 10
5.85271
 20
-29.423558
 30
150.0
 70
    64
  0
VERTEX
  5
D7
  8
TEAM-KAN
 10
11.480503
 20
-27.716386
 30
150.0
 70
    64
  0
VERTEX
  5
D8
  8
TEAM-KAN
 10
16.667107
 20
-24.944088
 30
150.0
 70
    64
  0
VERTEX
  5
D9
  8
TEAM-KAN
 10
21.213203
 20
-21.213203
 30
150.0
 70
    64
  0
VERTEX
  5
DA
  8
TEAM-KAN
 10
24.944088
 20
-16.667107
 30
150.0
 70
    64
  0
VERTEX
  5
DB
  8
TEAM-KAN
 10
27.716386
 20
-11.480503
 30
150.0
 70
    64
  0
VERTEX
  5
DC
  8
TEAM-KAN
 10
29.423558
 20
-5.85271
 30
150.0
 70
    64
  0
VERTEX
  5
DD
  8
TEAM-KAN
 10
30.0
 20
0.0
 30
140.0
 70
    64
  0
VERTEX
  5
DE
  8
TEAM-KAN
 10
29.423558
 20
5.85271
 30
140.0
 70
    64
  0
VERTEX
  5
DF
  8
TEAM-KAN
 10
27.716386
 20
11.480503
 30
140.0
 70
    64
  0
VERTEX
  5
E0
  8
TEAM-KAN
 10
24.944088
 20
16.667107
 30
140.0
 70
    64
  0
VERTEX
  5
E1
  8
TEAM-KAN
 10
21.213203
 20
21.213203
 30
140.0
 70
    64
  0
VERTEX
  5
E2
  8
TEAM-KAN
 10
16.667107
 20
24.944088
 30
140.0
 70
    64
  0
VERTEX
  5
E3
  8
TEAM-KAN
 10
11.480503
 20
27.716386
 30
140.0
 70
    64
  0
VERTEX
  5
E4
  8
TEAM-KAN
 10
5.85271
 20
29.423558
 30
140.0
 70
    64
  0
VERTEX
  5
E5
  8
TEAM-KAN
 10
0.0
 20
30.0
 30
140.0
 70
    64
  0
VERTEX
  5
E6
  8
TEAM-KAN
 10
-5.85271
 20
29.423558
 30
140.0
 70
    64
  0
VERTEX
  5
E7
  8
TEAM-KAN
 10
-11.480503
 20
27.716386
 30
140.0
 70
    64
  0
VERTEX
  5
E8
  8
TEAM-KAN
 10
-16.667107
 20
24.944088
 30
140.0
 70
    64
  0
VERTEX
  5
E9
  8
TEAM-KAN
 10
-21.213203
 20
21.213203
 30
140.0
 70
    64
  0
VERTEX
  5
EA
  8
TEAM-KAN
 10
-24.944088
 20
16.667107
 30
140.0
 70
    64
  0
VERTEX
  5
EB
  8
TEAM-KAN
 10
-27.716386
 20
11.480503
 30
140.0
 70
    64
  0
VERTEX
  5
EC
  8
TEAM-KAN
 10
-29.423558
 20
5.85271
 30
140.0
 70
    64
  0
VERTEX
  5
ED
  8
TEAM-KAN
 10
-30.0
 20
0.0
 30
140.0
 70
    64
  0
VERTEX
  5
EE
  8
TEAM-KAN
 10
-29.423558
 20
-5.85271
 30
140.0
 70
    64
  0
VERTEX
  5
EF
  8
TEAM-KAN
 10
-27.716386
 20
-11.480503
 30
140.0
 70
    64
  0
VERTEX
  5
F0
  8
TEAM-KAN
 10
-24.944088
 20
-16.667107
 30
140.0
 70
    64
  0
VERTEX
  5
F1
  8
TEAM-KAN
 10
-21.213203
 20
-21.213203
 30
140.0
 70
    64
  0
VERTEX
  5
F2
  8
TEAM-KAN
 10
-16.667107
 20
-24.944088
 30
140.0
 70
    64
  0
VERTEX
  5
F3
  8
TEAM-KAN
 10
-11.480503
 20
-27.716386
 30
140.0
 70
    64
  0
VERTEX
  5
F4
  8
TEAM-KAN
 10
-5.85271
 20
-29.423558
 30
140.0
 70
    64
  0
VERTEX
  5
F5
  8
TEAM-KAN
 10
0.0
 20
-30.0
 30
140.0
 70
    64
  0
VERTEX
  5
F6
  8
TEAM-KAN
 10
5.85271
 20
-29.423558
 30
140.0
 70
    64
  0
VERTEX
  5
F7
  8
TEAM-KAN
 10
11.480503
 20
-27.716386
 30
140.0
 70
    64
  0
VERTEX
  5
F8
  8
TEAM-KAN
 10
16.667107
 20
-24.944088
 30
140.0
 70
    64
  0
VERTEX
  5
F9
  8
TEAM-KAN
 10
21.213203
 20
-21.213203
 30
140.0
 70
    64
  0
VERTEX
  5
FA
  8
TEAM-KAN
 10
24.944088
 20
-16.667107
 30
140.0
 70
    64
  0
VERTEX
  5
FB
  8
TEAM-KAN
 10
27.716386
 20
-11.480503
 30
140.0
 70
    64
  0
VERTEX
  5
FC
  8
TEAM-KAN
 10
29.423558
 20
-5.85271
 30
140.0
 70
    64
  0
SEQEND
  5
FD
  8
TEAM-KAN
  0
CIRCLE
  5
FE
  8
TEAM-INSP
 10
0.0
 20
0.0
 30
0.0
 40
7.1
  0
POLYLINE
  5
100
  8
TEAM-BODY
 66
     1
 10
0.0
 20
0.0
 30
150.0
  0
VERTEX
  5
359
  8
TEAM-BODY
 10
-545.0
 20
0.0
 30
150.0
 42
0.467053
  0
VERTEX
  5
35A
  8
TEAM-BODY
 10
-340.0
 20
-210.0
 30
150.0
  0
VERTEX
  5
35B
  8
TEAM-BODY
 10
0.0
 20
-210.0
 30
150.0
  0
VERTEX
  5
35C
  8
TEAM-BODY
 10
340.0
 20
-210.0
 30
150.0
 42
0.463428
  0
VERTEX
  5
35D
  8
TEAM-BODY
 10
545.0
 20
0.0
 30
150.0
 42
0.414214
  0
SEQEND
  5
35E
  8
TEAM-BODY
  0
POLYLINE
  5
102
  8
TEAM-BODY
 66
     1
 10
0.0
 20
0.0
 30
150.0
  0
VERTEX
  5
35F
  8
TEAM-BODY
 10
545.0
 20
0.0
 30
150.0
 42
0.463428
  0
VERTEX
  5
360
  8
TEAM-BODY
 10
340.0
 20
210.0
 30
150.0
  0
VERTEX
  5
361
  8
TEAM-BODY
 10
0.0
 20
210.0
 30
150.0
  0
VERTEX
  5
362
  8
TEAM-BODY
 10
-340.0
 20
210.0
 30
150.0
 42
0.467053
  0
VERTEX
  5
363
  8
TEAM-BODY
 10
-545.0
 20
0.0
 30
150.0
 42
0.414214
  0
SEQEND
  5
364
  8
TEAM-BODY
  0
POLYLINE
  5
103
  8
TEAM-NET
 66
     1
 10
0.0
 20
0.0
 30
0.0
 70
    16
 71
     2
 72
    37
  0
VERTEX
  5
104
  8
TEAM-NET
 10
545.0
 20
0.0
 30
150.0
 70
    64
  0
VERTEX
  5
105
  8
TEAM-NET
 10
544.895557
 20
-37.392783
 30
150.0
 70
    64
  0
VERTEX
  5
106
  8
TEAM-NET
 10
537.557058
 20
-74.058538
 30
150.0
 70
    64
  0
VERTEX
  5
107
  8
TEAM-NET
 10
523.261933
 20
-108.611115
 30
150.0
 70
    64
  0
VERTEX
  5
108
  8
TEAM-NET
 10
502.550612
 20
-139.744254
 30
150.0
 70
    64
  0
VERTEX
  5
109
  8
TEAM-NET
 10
476.206085
 20
-166.280966
 30
150.0
 70
    64
  0
VERTEX
  5
10A
  8
TEAM-NET
 10
445.224308
 20
-187.218029
 30
150.0
 70
    64
  0
VERTEX
  5
10B
  8
TEAM-NET
 10
410.776547
 20
-201.76392
 30
150.0
 70
    64
  0
VERTEX
  5
10C
  8
TEAM-NET
 10
374.1651
 20
-209.368728
 30
150.0
 70
    64
  0
VERTEX
  5
10D
  8
TEAM-NET
 10
336.763959
 20
-210.0
 30
150.0
 70
    64
  0
VERTEX
  5
10E
  8
TEAM-NET
 10
299.311877
 20
-210.0
 30
150.0
 70
    64
  0
VERTEX
  5
10F
  8
TEAM-NET
 10
261.859794
 20
-210.0
 30
150.0
 70
    64
  0
VERTEX
  5
110
  8
TEAM-NET
 10
224.407711
 20
-210.0
 30
150.0
 70
    64
  0
VERTEX
  5
111
  8
TEAM-NET
 10
186.955628
 20
-210.0
 30
150.0
 70
    64
  0
VERTEX
  5
112
  8
TEAM-NET
 10
149.503545
 20
-210.0
 30
150.0
 70
    64
  0
VERTEX
  5
113
  8
TEAM-NET
 10
112.051462
 20
-210.0
 30
150.0
 70
    64
  0
VERTEX
  5
114
  8
TEAM-NET
 10
74.59938
 20
-210.0
 30
150.0
 70
    64
  0
VERTEX
  5
115
  8
TEAM-NET
 10
37.147297
 20
-210.0
 30
150.0
 70
    64
  0
VERTEX
  5
116
  8
TEAM-NET
 10
-0.304786
 20
-210.0
 30
150.0
 70
    64
  0
VERTEX
  5
117
  8
TEAM-NET
 10
-37.756869
 20
-210.0
 30
150.0
 70
    64
  0
VERTEX
  5
118
  8
TEAM-NET
 10
-75.208952
 20
-210.0
 30
150.0
 70
    64
  0
VERTEX
  5
119
  8
TEAM-NET
 10
-112.661035
 20
-210.0
 30
150.0
 70
    64
  0
VERTEX
  5
11A
  8
TEAM-NET
 10
-150.113117
 20
-210.0
 30
150.0
 70
    64
  0
VERTEX
  5
11B
  8
TEAM-NET
 10
-187.5652
 20
-210.0
 30
150.0
 70
    64
  0
VERTEX
  5
11C
  8
TEAM-NET
 10
-225.017283
 20
-210.0
 30
150.0
 70
    64
  0
VERTEX
  5
11D
  8
TEAM-NET
 10
-262.469366
 20
-210.0
 30
150.0
 70
    64
  0
VERTEX
  5
11E
  8
TEAM-NET
 10
-299.921449
 20
-210.0
 30
150.0
 70
    64
  0
VERTEX
  5
11F
  8
TEAM-NET
 10
-337.373531
 20
-210.0
 30
150.0
 70
    64
  0
VERTEX
  5
120
  8
TEAM-NET
 10
-374.773887
 20
-209.493794
 30
150.0
 70
    64
  0
VERTEX
  5
121
  8
TEAM-NET
 10
-411.395275
 20
-201.939957
 30
150.0
 70
    64
  0
VERTEX
  5
122
  8
TEAM-NET
 10
-445.848433
 20
-187.40839
 30
150.0
 70
    64
  0
VERTEX
  5
123
  8
TEAM-NET
 10
-476.817762
 20
-166.453981
 30
150.0
 70
    64
  0
VERTEX
  5
124
  8
TEAM-NET
 10
-503.120693
 20
-139.876879
 30
150.0
 70
    64
  0
VERTEX
  5
125
  8
TEAM-NET
 10
-523.752846
 20
-108.691934
 30
150.0
 70
    64
  0
VERTEX
  5
126
  8
TEAM-NET
 10
-537.926379
 20
-74.089946
 30
150.0
 70
    64
  0
VERTEX
  5
127
  8
TEAM-NET
 10
-545.100073
 20
-37.392199
 30
150.0
 70
    64
  0
VERTEX
  5
128
  8
TEAM-NET
 10
-545.0
 20
0.0
 30
150.0
 70
    64
  0
VERTEX
  5
129
  8
TEAM-NET
 10
545.0
 20
0.0
 30
150.0
 70
    64
  0
VERTEX
  5
12A
  8
TEAM-NET
 10
544.895557
 20
37.392783
 30
150.0
 70
    64
  0
VERTEX
  5
12B
  8
TEAM-NET
 10
537.557058
 20
74.058538
 30
150.0
 70
    64
  0
VERTEX
  5
12C
  8
TEAM-NET
 10
523.261933
 20
108.611115
 30
150.0
 70
    64
  0
VERTEX
  5
12D
  8
TEAM-NET
 10
502.550612
 20
139.744254
 30
150.0
 70
    64
  0
VERTEX
  5
12E
  8
TEAM-NET
 10
476.206085
 20
166.280966
 30
150.0
 70
    64
  0
VERTEX
  5
12F
  8
TEAM-NET
 10
445.224308
 20
187.218029
 30
150.0
 70
    64
  0
VERTEX
  5
130
  8
TEAM-NET
 10
410.776547
 20
201.76392
 30
150.0
 70
    64
  0
VERTEX
  5
131
  8
TEAM-NET
 10
374.1651
 20
209.368728
 30
150.0
 70
    64
  0
VERTEX
  5
132
  8
TEAM-NET
 10
336.763959
 20
210.0
 30
150.0
 70
    64
  0
VERTEX
  5
133
  8
TEAM-NET
 10
299.311877
 20
210.0
 30
150.0
 70
    64
  0
VERTEX
  5
134
  8
TEAM-NET
 10
261.859794
 20
210.0
 30
150.0
 70
    64
  0
VERTEX
  5
135
  8
TEAM-NET
 10
224.407711
 20
210.0
 30
150.0
 70
    64
  0
VERTEX
  5
136
  8
TEAM-NET
 10
186.955628
 20
210.0
 30
150.0
 70
    64
  0
VERTEX
  5
137
  8
TEAM-NET
 10
149.503545
 20
210.0
 30
150.0
 70
    64
  0
VERTEX
  5
138
  8
TEAM-NET
 10
112.051462
 20
210.0
 30
150.0
 70
    64
  0
VERTEX
  5
139
  8
TEAM-NET
 10
74.59938
 20
210.0
 30
150.0
 70
    64
  0
VERTEX
  5
13A
  8
TEAM-NET
 10
37.147297
 20
210.0
 30
150.0
 70
    64
  0
VERTEX
  5
13B
  8
TEAM-NET
 10
-0.304786
 20
210.0
 30
150.0
 70
    64
  0
VERTEX
  5
13C
  8
TEAM-NET
 10
-37.756869
 20
210.0
 30
150.0
 70
    64
  0
VERTEX
  5
13D
  8
TEAM-NET
 10
-75.208952
 20
210.0
 30
150.0
 70
    64
  0
VERTEX
  5
13E
  8
TEAM-NET
 10
-112.661035
 20
210.0
 30
150.0
 70
    64
  0
VERTEX
  5
13F
  8
TEAM-NET
 10
-150.113117
 20
210.0
 30
150.0
 70
    64
  0
VERTEX
  5
140
  8
TEAM-NET
 10
-187.5652
 20
210.0
 30
150.0
 70
    64
  0
VERTEX
  5
141
  8
TEAM-NET
 10
-225.017283
 20
210.0
 30
150.0
 70
    64
  0
VERTEX
  5
142
  8
TEAM-NET
 10
-262.469366
 20
210.0
 30
150.0
 70
    64
  0
VERTEX
  5
143
  8
TEAM-NET
 10
-299.921449
 20
210.0
 30
150.0
 70
    64
  0
VERTEX
  5
144
  8
TEAM-NET
 10
-337.373531
 20
210.0
 30
150.0
 70
    64
  0
VERTEX
  5
145
  8
TEAM-NET
 10
-374.773887
 20
209.493794
 30
150.0
 70
    64
  0
VERTEX
  5
146
  8
TEAM-NET
 10
-411.395275
 20
201.939957
 30
150.0
 70
    64
  0
VERTEX
  5
147
  8
TEAM-NET
 10
-445.848433
 20
187.40839
 30
150.0
 70
    64
  0
VERTEX
  5
148
  8
TEAM-NET
 10
-476.817762
 20
166.453981
 30
150.0
 70
    64
  0
VERTEX
  5
149
  8
TEAM-NET
 10
-503.120693
 20
139.876879
 30
150.0
 70
    64
  0
VERTEX
  5
14A
  8
TEAM-NET
 10
-523.752846
 20
108.691934
 30
150.0
 70
    64
  0
VERTEX
  5
14B
  8
TEAM-NET
 10
-537.926379
 20
74.089946
 30
150.0
 70
    64
  0
VERTEX
  5
14C
  8
TEAM-NET
 10
-545.100073
 20
37.392199
 30
150.0
 70
    64
  0
VERTEX
  5
14D
  8
TEAM-NET
 10
-545.0
 20
0.0
 30
150.0
 70
    64
  0
SEQEND
  5
14E
  8
TEAM-NET
  0
CIRCLE
  5
14F
  8
TEAM-KAN
 10
0.0
 20
549.584706
 30
177.235506
 40
25.0
210
0.0
220
-0.984808
230
-0.173648
  0
POLYLINE
  5
150
  8
TEAM-BODY
 66
     1
 10
0.0
 20
0.0
 30
590.0
 39
-32.0
  0
VERTEX
  5
365
  8
TEAM-BODY
 10
900.0
 20
0.0
 30
590.0
 42
0.433647
  0
VERTEX
  5
366
  8
TEAM-BODY
 10
450.0
 20
400.0
 30
590.0
  0
VERTEX
  5
367
  8
TEAM-BODY
 10
0.0
 20
400.0
 30
590.0
  0
VERTEX
  5
368
  8
TEAM-BODY
 10
-450.0
 20
400.0
 30
590.0
 42
0.433647
  0
VERTEX
  5
369
  8
TEAM-BODY
 10
-900.0
 20
0.0
 30
590.0
 42
0.414314
  0
SEQEND
  5
36A
  8
TEAM-BODY
  0
POLYLINE
  5
151
  8
TEAM-BODY
 66
     1
 10
0.0
 20
0.0
 30
590.0
 39
-32.0
  0
VERTEX
  5
36B
  8
TEAM-BODY
 10
-900.0
 20
0.0
 30
590.0
 42
0.433647
  0
VERTEX
  5
36C
  8
TEAM-BODY
 10
-450.0
 20
-400.0
 30
590.0
  0
VERTEX
  5
36D
  8
TEAM-BODY
 10
0.0
 20
-400.0
 30
590.0
  0
VERTEX
  5
36E
  8
TEAM-BODY
 10
450.0
 20
-400.0
 30
590.0
 42
0.433647
  0
VERTEX
  5
36F
  8
TEAM-BODY
 10
900.0
 20
0.0
 30
590.0
 42
0.414099
  0
SEQEND
  5
370
  8
TEAM-BODY
  0
POLYLINE
  5
152
  8
TEAM-NET
 66
     1
 10
0.0
 20
0.0
 30
0.0
 70
    16
 71
     2
 72
    37
  0
VERTEX
  5
153
  8
TEAM-NET
 10
760.0
 20
0.0
 30
590.0
 70
    64
  0
VERTEX
  5
154
  8
TEAM-NET
 10
754.423235
 20
-50.75927
 30
590.0
 70
    64
  0
VERTEX
  5
155
  8
TEAM-NET
 10
740.087377
 20
-99.77036
 30
590.0
 70
    64
  0
VERTEX
  5
156
  8
TEAM-NET
 10
717.431021
 20
-145.533809
 30
590.0
 70
    64
  0
VERTEX
  5
157
  8
TEAM-NET
 10
687.147323
 20
-186.649517
 30
590.0
 70
    64
  0
VERTEX
  5
158
  8
TEAM-NET
 10
650.162792
 20
-221.859576
 30
590.0
 70
    64
  0
VERTEX
  5
159
  8
TEAM-NET
 10
607.608944
 20
-250.086758
 30
590.0
 70
    64
  0
VERTEX
  5
15A
  8
TEAM-NET
 10
560.787685
 20
-270.467473
 30
590.0
 70
    64
  0
VERTEX
  5
15B
  8
TEAM-NET
 10
511.13148
 20
-282.378185
 30
590.0
 70
    64
  0
VERTEX
  5
15C
  8
TEAM-NET
 10
460.159526
 20
-285.454496
 30
590.0
 70
    64
  0
VERTEX
  5
15D
  8
TEAM-NET
 10
409.040179
 20
-285.0
 30
590.0
 70
    64
  0
VERTEX
  5
15E
  8
TEAM-NET
 10
357.910157
 20
-285.0
 30
590.0
 70
    64
  0
VERTEX
  5
15F
  8
TEAM-NET
 10
306.780134
 20
-285.0
 30
590.0
 70
    64
  0
VERTEX
  5
160
  8
TEAM-NET
 10
255.650112
 20
-285.0
 30
590.0
 70
    64
  0
VERTEX
  5
161
  8
TEAM-NET
 10
204.52009
 20
-285.0
 30
590.0
 70
    64
  0
VERTEX
  5
162
  8
TEAM-NET
 10
153.390067
 20
-285.0
 30
590.0
 70
    64
  0
VERTEX
  5
163
  8
TEAM-NET
 10
102.260045
 20
-285.0
 30
590.0
 70
    64
  0
VERTEX
  5
164
  8
TEAM-NET
 10
51.130022
 20
-285.0
 30
590.0
 70
    64
  0
VERTEX
  5
165
  8
TEAM-NET
 10
0.0
 20
-285.0
 30
590.0
 70
    64
  0
VERTEX
  5
166
  8
TEAM-NET
 10
-51.130022
 20
-285.0
 30
590.0
 70
    64
  0
VERTEX
  5
167
  8
TEAM-NET
 10
-102.260045
 20
-285.0
 30
590.0
 70
    64
  0
VERTEX
  5
168
  8
TEAM-NET
 10
-153.390067
 20
-285.0
 30
590.0
 70
    64
  0
VERTEX
  5
169
  8
TEAM-NET
 10
-204.52009
 20
-285.0
 30
590.0
 70
    64
  0
VERTEX
  5
16A
  8
TEAM-NET
 10
-255.650112
 20
-285.0
 30
590.0
 70
    64
  0
VERTEX
  5
16B
  8
TEAM-NET
 10
-306.780134
 20
-285.0
 30
590.0
 70
    64
  0
VERTEX
  5
16C
  8
TEAM-NET
 10
-357.910157
 20
-285.0
 30
590.0
 70
    64
  0
VERTEX
  5
16D
  8
TEAM-NET
 10
-409.040179
 20
-285.0
 30
590.0
 70
    64
  0
VERTEX
  5
16E
  8
TEAM-NET
 10
-460.159526
 20
-285.454496
 30
590.0
 70
    64
  0
VERTEX
  5
16F
  8
TEAM-NET
 10
-511.13148
 20
-282.378185
 30
590.0
 70
    64
  0
VERTEX
  5
170
  8
TEAM-NET
 10
-560.787685
 20
-270.467473
 30
590.0
 70
    64
  0
VERTEX
  5
171
  8
TEAM-NET
 10
-607.608944
 20
-250.086758
 30
590.0
 70
    64
  0
VERTEX
  5
172
  8
TEAM-NET
 10
-650.162792
 20
-221.859576
 30
590.0
 70
    64
  0
VERTEX
  5
173
  8
TEAM-NET
 10
-687.147323
 20
-186.649517
 30
590.0
 70
    64
  0
VERTEX
  5
174
  8
TEAM-NET
 10
-717.431021
 20
-145.533809
 30
590.0
 70
    64
  0
VERTEX
  5
175
  8
TEAM-NET
 10
-740.087377
 20
-99.77036
 30
590.0
 70
    64
  0
VERTEX
  5
176
  8
TEAM-NET
 10
-754.423235
 20
-50.75927
 30
590.0
 70
    64
  0
VERTEX
  5
177
  8
TEAM-NET
 10
-760.0
 20
0.0
 30
590.0
 70
    64
  0
VERTEX
  5
178
  8
TEAM-NET
 10
900.0
 20
0.0
 30
590.0
 70
    64
  0
VERTEX
  5
179
  8
TEAM-NET
 10
893.668295
 20
-62.114388
 30
590.0
 70
    64
  0
VERTEX
  5
17A
  8
TEAM-NET
 10
878.03162
 20
-122.560911
 30
590.0
 70
    64
  0
VERTEX
  5
17B
  8
TEAM-NET
 10
853.44843
 20
-179.953893
 30
590.0
 70
    64
  0
VERTEX
  5
17C
  8
TEAM-NET
 10
820.482268
 20
-232.97766
 30
590.0
 70
    64
  0
VERTEX
  5
17D
  8
TEAM-NET
 10
779.88885
 20
-280.416696
 30
590.0
 70
    64
  0
VERTEX
  5
17E
  8
TEAM-NET
 10
732.59874
 20
-321.18351
 30
590.0
 70
    64
  0
VERTEX
  5
17F
  8
TEAM-NET
 10
679.696013
 20
-354.343565
 30
590.0
 70
    64
  0
VERTEX
  5
180
  8
TEAM-NET
 10
622.393411
 20
-379.136699
 30
590.0
 70
    64
  0
VERTEX
  5
181
  8
TEAM-NET
 10
562.004538
 20
-394.994557
 30
590.0
 70
    64
  0
VERTEX
  5
182
  8
TEAM-NET
 10
499.913746
 20
-401.553612
 30
590.0
 70
    64
  0
VERTEX
  5
183
  8
TEAM-NET
 10
437.472422
 20
-400.0
 30
590.0
 70
    64
  0
VERTEX
  5
184
  8
TEAM-NET
 10
374.976362
 20
-400.0
 30
590.0
 70
    64
  0
VERTEX
  5
185
  8
TEAM-NET
 10
312.480302
 20
-400.0
 30
590.0
 70
    64
  0
VERTEX
  5
186
  8
TEAM-NET
 10
249.984241
 20
-400.0
 30
590.0
 70
    64
  0
VERTEX
  5
187
  8
TEAM-NET
 10
187.488181
 20
-400.0
 30
590.0
 70
    64
  0
VERTEX
  5
188
  8
TEAM-NET
 10
124.992121
 20
-400.0
 30
590.0
 70
    64
  0
VERTEX
  5
189
  8
TEAM-NET
 10
62.49606
 20
-400.0
 30
590.0
 70
    64
  0
VERTEX
  5
18A
  8
TEAM-NET
 10
0.0
 20
-400.0
 30
590.0
 70
    64
  0
VERTEX
  5
18B
  8
TEAM-NET
 10
-62.49606
 20
-400.0
 30
590.0
 70
    64
  0
VERTEX
  5
18C
  8
TEAM-NET
 10
-124.992121
 20
-400.0
 30
590.0
 70
    64
  0
VERTEX
  5
18D
  8
TEAM-NET
 10
-187.488181
 20
-400.0
 30
590.0
 70
    64
  0
VERTEX
  5
18E
  8
TEAM-NET
 10
-249.984241
 20
-400.0
 30
590.0
 70
    64
  0
VERTEX
  5
18F
  8
TEAM-NET
 10
-312.480302
 20
-400.0
 30
590.0
 70
    64
  0
VERTEX
  5
190
  8
TEAM-NET
 10
-374.976362
 20
-400.0
 30
590.0
 70
    64
  0
VERTEX
  5
191
  8
TEAM-NET
 10
-437.472422
 20
-400.0
 30
590.0
 70
    64
  0
VERTEX
  5
192
  8
TEAM-NET
 10
-499.913746
 20
-401.553612
 30
590.0
 70
    64
  0
VERTEX
  5
193
  8
TEAM-NET
 10
-562.004538
 20
-394.994557
 30
590.0
 70
    64
  0
VERTEX
  5
194
  8
TEAM-NET
 10
-622.393411
 20
-379.136699
 30
590.0
 70
    64
  0
VERTEX
  5
195
  8
TEAM-NET
 10
-679.696013
 20
-354.343565
 30
590.0
 70
    64
  0
VERTEX
  5
196
  8
TEAM-NET
 10
-732.59874
 20
-321.18351
 30
590.0
 70
    64
  0
VERTEX
  5
197
  8
TEAM-NET
 10
-779.88885
 20
-280.416696
 30
590.0
 70
    64
  0
VERTEX
  5
198
  8
TEAM-NET
 10
-820.482268
 20
-232.97766
 30
590.0
 70
    64
  0
VERTEX
  5
199
  8
TEAM-NET
 10
-853.44843
 20
-179.953893
 30
590.0
 70
    64
  0
VERTEX
  5
19A
  8
TEAM-NET
 10
-878.03162
 20
-122.560911
 30
590.0
 70
    64
  0
VERTEX
  5
19B
  8
TEAM-NET
 10
-893.668295
 20
-62.114388
 30
590.0
 70
    64
  0
VERTEX
  5
19C
  8
TEAM-NET
 10
-900.0
 20
0.0
 30
590.0
 70
    64
  0
SEQEND
  5
19D
  8
TEAM-NET
  0
POLYLINE
  5
19E
  8
TEAM-NET
 66
     1
 10
0.0
 20
0.0
 30
0.0
 70
    16
 71
     2
 72
    37
  0
VERTEX
  5
19F
  8
TEAM-NET
 10
760.0
 20
0.0
 30
590.0
 70
    64
  0
VERTEX
  5
1A0
  8
TEAM-NET
 10
754.423235
 20
50.75927
 30
590.0
 70
    64
  0
VERTEX
  5
1A1
  8
TEAM-NET
 10
740.087377
 20
99.77036
 30
590.0
 70
    64
  0
VERTEX
  5
1A2
  8
TEAM-NET
 10
717.431021
 20
145.533809
 30
590.0
 70
    64
  0
VERTEX
  5
1A3
  8
TEAM-NET
 10
687.147323
 20
186.649517
 30
590.0
 70
    64
  0
VERTEX
  5
1A4
  8
TEAM-NET
 10
650.162792
 20
221.859576
 30
590.0
 70
    64
  0
VERTEX
  5
1A5
  8
TEAM-NET
 10
607.608944
 20
250.086758
 30
590.0
 70
    64
  0
VERTEX
  5
1A6
  8
TEAM-NET
 10
560.787685
 20
270.467473
 30
590.0
 70
    64
  0
VERTEX
  5
1A7
  8
TEAM-NET
 10
511.13148
 20
282.378185
 30
590.0
 70
    64
  0
VERTEX
  5
1A8
  8
TEAM-NET
 10
460.159526
 20
285.454496
 30
590.0
 70
    64
  0
VERTEX
  5
1A9
  8
TEAM-NET
 10
409.040179
 20
285.0
 30
590.0
 70
    64
  0
VERTEX
  5
1AA
  8
TEAM-NET
 10
357.910157
 20
285.0
 30
590.0
 70
    64
  0
VERTEX
  5
1AB
  8
TEAM-NET
 10
306.780134
 20
285.0
 30
590.0
 70
    64
  0
VERTEX
  5
1AC
  8
TEAM-NET
 10
255.650112
 20
285.0
 30
590.0
 70
    64
  0
VERTEX
  5
1AD
  8
TEAM-NET
 10
204.52009
 20
285.0
 30
590.0
 70
    64
  0
VERTEX
  5
1AE
  8
TEAM-NET
 10
153.390067
 20
285.0
 30
590.0
 70
    64
  0
VERTEX
  5
1AF
  8
TEAM-NET
 10
102.260045
 20
285.0
 30
590.0
 70
    64
  0
VERTEX
  5
1B0
  8
TEAM-NET
 10
51.130022
 20
285.0
 30
590.0
 70
    64
  0
VERTEX
  5
1B1
  8
TEAM-NET
 10
0.0
 20
285.0
 30
590.0
 70
    64
  0
VERTEX
  5
1B2
  8
TEAM-NET
 10
-51.130022
 20
285.0
 30
590.0
 70
    64
  0
VERTEX
  5
1B3
  8
TEAM-NET
 10
-102.260045
 20
285.0
 30
590.0
 70
    64
  0
VERTEX
  5
1B4
  8
TEAM-NET
 10
-153.390067
 20
285.0
 30
590.0
 70
    64
  0
VERTEX
  5
1B5
  8
TEAM-NET
 10
-204.52009
 20
285.0
 30
590.0
 70
    64
  0
VERTEX
  5
1B6
  8
TEAM-NET
 10
-255.650112
 20
285.0
 30
590.0
 70
    64
  0
VERTEX
  5
1B7
  8
TEAM-NET
 10
-306.780134
 20
285.0
 30
590.0
 70
    64
  0
VERTEX
  5
1B8
  8
TEAM-NET
 10
-357.910157
 20
285.0
 30
590.0
 70
    64
  0
VERTEX
  5
1B9
  8
TEAM-NET
 10
-409.040179
 20
285.0
 30
590.0
 70
    64
  0
VERTEX
  5
1BA
  8
TEAM-NET
 10
-460.159526
 20
285.454496
 30
590.0
 70
    64
  0
VERTEX
  5
1BB
  8
TEAM-NET
 10
-511.13148
 20
282.378185
 30
590.0
 70
    64
  0
VERTEX
  5
1BC
  8
TEAM-NET
 10
-560.787685
 20
270.467473
 30
590.0
 70
    64
  0
VERTEX
  5
1BD
  8
TEAM-NET
 10
-607.608944
 20
250.086758
 30
590.0
 70
    64
  0
VERTEX
  5
1BE
  8
TEAM-NET
 10
-650.162792
 20
221.859576
 30
590.0
 70
    64
  0
VERTEX
  5
1BF
  8
TEAM-NET
 10
-687.147323
 20
186.649517
 30
590.0
 70
    64
  0
VERTEX
  5
1C0
  8
TEAM-NET
 10
-717.431021
 20
145.533809
 30
590.0
 70
    64
  0
VERTEX
  5
1C1
  8
TEAM-NET
 10
-740.087377
 20
99.77036
 30
590.0
 70
    64
  0
VERTEX
  5
1C2
  8
TEAM-NET
 10
-754.423235
 20
50.75927
 30
590.0
 70
    64
  0
VERTEX
  5
1C3
  8
TEAM-NET
 10
-760.0
 20
0.0
 30
590.0
 70
    64
  0
VERTEX
  5
1C4
  8
TEAM-NET
 10
900.0
 20
0.0
 30
590.0
 70
    64
  0
VERTEX
  5
1C5
  8
TEAM-NET
 10
893.668295
 20
62.114388
 30
590.0
 70
    64
  0
VERTEX
  5
1C6
  8
TEAM-NET
 10
878.03162
 20
122.560911
 30
590.0
 70
    64
  0
VERTEX
  5
1C7
  8
TEAM-NET
 10
853.44843
 20
179.953893
 30
590.0
 70
    64
  0
VERTEX
  5
1C8
  8
TEAM-NET
 10
820.482268
 20
232.97766
 30
590.0
 70
    64
  0
VERTEX
  5
1C9
  8
TEAM-NET
 10
779.88885
 20
280.416696
 30
590.0
 70
    64
  0
VERTEX
  5
1CA
  8
TEAM-NET
 10
732.59874
 20
321.18351
 30
590.0
 70
    64
  0
VERTEX
  5
1CB
  8
TEAM-NET
 10
679.696013
 20
354.343565
 30
590.0
 70
    64
  0
VERTEX
  5
1CC
  8
TEAM-NET
 10
622.393411
 20
379.136699
 30
590.0
 70
    64
  0
VERTEX
  5
1CD
  8
TEAM-NET
 10
562.004538
 20
394.994557
 30
590.0
 70
    64
  0
VERTEX
  5
1CE
  8
TEAM-NET
 10
499.913746
 20
401.553612
 30
590.0
 70
    64
  0
VERTEX
  5
1CF
  8
TEAM-NET
 10
437.472422
 20
400.0
 30
590.0
 70
    64
  0
VERTEX
  5
1D0
  8
TEAM-NET
 10
374.976362
 20
400.0
 30
590.0
 70
    64
  0
VERTEX
  5
1D1
  8
TEAM-NET
 10
312.480302
 20
400.0
 30
590.0
 70
    64
  0
VERTEX
  5
1D2
  8
TEAM-NET
 10
249.984241
 20
400.0
 30
590.0
 70
    64
  0
VERTEX
  5
1D3
  8
TEAM-NET
 10
187.488181
 20
400.0
 30
590.0
 70
    64
  0
VERTEX
  5
1D4
  8
TEAM-NET
 10
124.992121
 20
400.0
 30
590.0
 70
    64
  0
VERTEX
  5
1D5
  8
TEAM-NET
 10
62.49606
 20
400.0
 30
590.0
 70
    64
  0
VERTEX
  5
1D6
  8
TEAM-NET
 10
0.0
 20
400.0
 30
590.0
 70
    64
  0
VERTEX
  5
1D7
  8
TEAM-NET
 10
-62.49606
 20
400.0
 30
590.0
 70
    64
  0
VERTEX
  5
1D8
  8
TEAM-NET
 10
-124.992121
 20
400.0
 30
590.0
 70
    64
  0
VERTEX
  5
1D9
  8
TEAM-NET
 10
-187.488181
 20
400.0
 30
590.0
 70
    64
  0
VERTEX
  5
1DA
  8
TEAM-NET
 10
-249.984241
 20
400.0
 30
590.0
 70
    64
  0
VERTEX
  5
1DB
  8
TEAM-NET
 10
-312.480302
 20
400.0
 30
590.0
 70
    64
  0
VERTEX
  5
1DC
  8
TEAM-NET
 10
-374.976362
 20
400.0
 30
590.0
 70
    64
  0
VERTEX
  5
1DD
  8
TEAM-NET
 10
-437.472422
 20
400.0
 30
590.0
 70
    64
  0
VERTEX
  5
1DE
  8
TEAM-NET
 10
-499.913746
 20
401.553612
 30
590.0
 70
    64
  0
VERTEX
  5
1DF
  8
TEAM-NET
 10
-562.004538
 20
394.994557
 30
590.0
 70
    64
  0
VERTEX
  5
1E0
  8
TEAM-NET
 10
-622.393411
 20
379.136699
 30
590.0
 70
    64
  0
VERTEX
  5
1E1
  8
TEAM-NET
 10
-679.696013
 20
354.343565
 30
590.0
 70
    64
  0
VERTEX
  5
1E2
  8
TEAM-NET
 10
-732.59874
 20
321.18351
 30
590.0
 70
    64
  0
VERTEX
  5
1E3
  8
TEAM-NET
 10
-779.88885
 20
280.416696
 30
590.0
 70
    64
  0
VERTEX
  5
1E4
  8
TEAM-NET
 10
-820.482268
 20
232.97766
 30
590.0
 70
    64
  0
VERTEX
  5
1E5
  8
TEAM-NET
 10
-853.44843
 20
179.953893
 30
590.0
 70
    64
  0
VERTEX
  5
1E6
  8
TEAM-NET
 10
-878.03162
 20
122.560911
 30
590.0
 70
    64
  0
VERTEX
  5
1E7
  8
TEAM-NET
 10
-893.668295
 20
62.114388
 30
590.0
 70
    64
  0
VERTEX
  5
1E8
  8
TEAM-NET
 10
-900.0
 20
0.0
 30
590.0
 70
    64
  0
SEQEND
  5
1E9
  8
TEAM-NET
  0
POLYLINE
  5
1EA
  8
TEAM-DET1
 66
     1
 10
0.0
 20
0.0
 30
590.0
  0
VERTEX
  5
371
  8
TEAM-DET1
 10
760.0
 20
0.0
 30
590.0
 42
0.426056
  0
VERTEX
  5
372
  8
TEAM-DET1
 10
450.0
 20
285.0
 30
590.0
  0
VERTEX
  5
373
  8
TEAM-DET1
 10
0.0
 20
285.0
 30
590.0
  0
VERTEX
  5
374
  8
TEAM-DET1
 10
-450.0
 20
285.0
 30
590.0
 42
0.426056
  0
VERTEX
  5
375
  8
TEAM-DET1
 10
-760.0
 20
0.0
 30
590.0
 42
0.414315
  0
SEQEND
  5
376
  8
TEAM-DET1
  0
POLYLINE
  5
1EC
  8
TEAM-DET1
 66
     1
 10
0.0
 20
0.0
 30
590.0
  0
VERTEX
  5
377
  8
TEAM-DET1
 10
-760.0
 20
0.0
 30
590.0
 42
0.426056
  0
VERTEX
  5
378
  8
TEAM-DET1
 10
-450.0
 20
-285.0
 30
590.0
  0
VERTEX
  5
379
  8
TEAM-DET1
 10
0.0
 20
-285.0
 30
590.0
  0
VERTEX
  5
37A
  8
TEAM-DET1
 10
450.0
 20
-285.0
 30
590.0
 42
0.426056
  0
VERTEX
  5
37B
  8
TEAM-DET1
 10
760.0
 20
0.0
 30
590.0
  0
SEQEND
  5
37C
  8
TEAM-DET1
  0
TEXT
  5
1ED
  8
TEAM-TXT
 10
-483.000324
 20
351.125042
 30
590.0
 40
30.0
  1
team 111360
 41
0.8
 51
15.0
  7
TEAM
  0
ENDSEC
  0
EOF
