  0
SECTION
  2
HEADER
  9
$ACADVER
  1
AC1009
  9
$INSBASE
 10
0.0
 20
0.0
 30
0.0
  9
$EXTMIN
 10
-910.464167
 20
-410.448898
 30
-0.008844
  9
$EXTMAX
 10
910.464165
 20
410.448909
 30
580.008852
  9
$LIMMIN
 10
-910.464167
 20
-410.448898
  9
$LIMMAX
 10
910.464165
 20
410.448909
  9
$ORTHOMODE
 70
     1
  9
$REGENMODE
 70
     1
  9
$FILLMODE
 70
     1
  9
$QTEXTMODE
 70
     0
  9
$MIRRTEXT
 70
     0
  9
$DRAGMODE
 70
     2
  9
$LTSCALE
 40
25.0
  9
$OSMODE
 70
     0
  9
$ATTMODE
 70
     1
  9
$TEXTSIZE
 40
200.0
  9
$TRACEWID
 40
1.0
  9
$TEXTSTYLE
  7
STANDARD
  9
$CLAYER
  8
TEAM-MAS
  9
$CELTYPE
  6
BYLAYER
  9
$CECOLOR
 62
   256
  9
$DIMSCALE
 40
0.0
  9
$DIMASZ
 40
20.0
  9
$DIMEXO
 40
10.0
  9
$DIMDLI
 40
1.0
  9
$DIMRND
 40
0.0
  9
$DIMDLE
 40
0.0
  9
$DIMEXE
 40
1.0
  9
$DIMTP
 40
0.0
  9
$DIMTM
 40
0.0
  9
$DIMTXT
 40
35.0
  9
$DIMCEN
 40
1.0
  9
$DIMTSZ
 40
0.0
  9
$DIMTOL
 70
     0
  9
$DIMLIM
 70
     0
  9
$DIMTIH
 70
     0
  9
$DIMTOH
 70
     0
  9
$DIMSE1
 70
     0
  9
$DIMSE2
 70
     0
  9
$DIMTAD
 70
     0
  9
$DIMZIN
 70
     0
  9
$DIMBLK
  1

  9
$DIMASO
 70
     1
  9
$DIMSHO
 70
     0
  9
$DIMPOST
  1

  9
$DIMAPOST
  1

  9
$DIMALT
 70
     0
  9
$DIMALTD
 70
     2
  9
$DIMALTF
 40
25.4
  9
$DIMLFAC
 40
1.0
  9
$DIMTOFL
 70
     0
  9
$DIMTVP
 40
0.0
  9
$DIMTIX
 70
     0
  9
$DIMSOXD
 70
     0
  9
$DIMSAH
 70
     0
  9
$DIMBLK1
  1

  9
$DIMBLK2
  1

  9
$DIMSTYLE
  2
TEAM
  9
$DIMCLRD
 70
     9
  9
$DIMCLRE
 70
     9
  9
$DIMCLRT
 70
    11
  9
$DIMTFAC
 40
1.0
  9
$DIMGAP
 40
15.0
  9
$LUNITS
 70
     2
  9
$LUPREC
 70
     1
  9
$SKETCHINC
 40
1.0
  9
$FILLETRAD
 40
50.0
  9
$AUNITS
 70
     0
  9
$AUPREC
 70
     0
  9
$MENU
  1
ROPLANS
  9
$ELEVATION
 40
0.0
  9
$PELEVATION
 40
0.0
  9
$THICKNESS
 40
0.0
  9
$LIMCHECK
 70
     0
  9
$BLIPMODE
 70
     1
  9
$CHAMFERA
 40
0.0
  9
$CHAMFERB
 40
0.0
  9
$SKPOLY
 70
     0
  9
$TDCREATE
 40
2450392.957851
  9
$TDUPDATE
 40
2455493.646255
  9
$TDINDWG
 40
2.091996
  9
$TDUSRTIMER
 40
2.091996
  9
$USRTIMER
 70
     1
  9
$ANGBASE
 50
0.0
  9
$ANGDIR
 70
     0
  9
$PDMODE
 70
     0
  9
$PDSIZE
 40
0.0
  9
$PLINEWID
 40
0.0
  9
$COORDS
 70
     2
  9
$SPLFRAME
 70
     0
  9
$SPLINETYPE
 70
     6
  9
$SPLINESEGS
 70
     8
  9
$ATTDIA
 70
     0
  9
$ATTREQ
 70
     0
  9
$HANDLING
 70
     1
  9
$HANDSEED
  5
65F
  9
$SURFTAB1
 70
    24
  9
$SURFTAB2
 70
    24
  9
$SURFTYPE
 70
     6
  9
$SURFU
 70
     6
  9
$SURFV
 70
     6
  9
$UCSNAME
  2

  9
$UCSORG
 10
0.0
 20
0.0
 30
0.0
  9
$UCSXDIR
 10
1.0
 20
0.0
 30
0.0
  9
$UCSYDIR
 10
0.0
 20
1.0
 30
0.0
  9
$PUCSNAME
  2

  9
$PUCSORG
 10
0.0
 20
0.0
 30
0.0
  9
$PUCSXDIR
 10
1.0
 20
0.0
 30
0.0
  9
$PUCSYDIR
 10
0.0
 20
1.0
 30
0.0
  9
$USERI1
 70
     0
  9
$USERI2
 70
     0
  9
$USERI3
 70
     0
  9
$USERI4
 70
     0
  9
$USERI5
 70
     0
  9
$USERR1
 40
0.0
  9
$USERR2
 40
0.0
  9
$USERR3
 40
0.0
  9
$USERR4
 40
0.0
  9
$USERR5
 40
0.0
  9
$WORLDVIEW
 70
     1
  9
$SHADEDGE
 70
     0
  9
$SHADEDIF
 70
    70
  9
$TILEMODE
 70
     1
  9
$MAXACTVP
 70
    16
  9
$PLIMCHECK
 70
     0
  9
$PEXTMIN
 10
-0.805942
 20
0.005011
 30
0.0
  9
$PEXTMAX
 10
20.250094
 20
11.356329
 30
0.0
  9
$PLIMMIN
 10
0.0
 20
0.0
  9
$PLIMMAX
 10
12.0
 20
9.0
  9
$UNITMODE
 70
     0
  9
$VISRETAIN
 70
     0
  9
$PLINEGEN
 70
     0
  9
$PSLTSCALE
 70
     0
  0
ENDSEC
  0
SECTION
  2
TABLES
  0
TABLE
  2
VPORT
 70
     2
  0
VPORT
  2
*ACTIVE
 70
     0
 10
0.0
 20
0.0
 11
1.0
 21
1.0
 12
-0.000001
 22
0.000006
 13
0.0
 23
0.0
 14
1.0
 24
1.0
 15
50.0
 25
50.0
 16
0.0
 26
0.0
 36
1.0
 17
0.0
 27
0.0
 37
0.0
 40
979.173986
 41
1.865779
 42
50.0
 43
0.0
 44
0.0
 50
0.0
 51
0.0
 71
     0
 72
   100
 73
     1
 74
     1
 75
     0
 76
     0
 77
     0
 78
     0
  0
ENDTAB
  0
TABLE
  2
LTYPE
 70
     1
  0
LTYPE
  2
CONTINUOUS
 70
     0
  3
Solid Line
 72
    65
 73
     0
 40
0.0
  0
ENDTAB
  0
TABLE
  2
LAYER
 70
     8
  0
LAYER
  2
0
 70
     0
 62
     7
  6
CONTINUOUS
  0
LAYER
  2
TEAM-NET1
 70
     0
 62
    12
  6
CONTINUOUS
  0
LAYER
  2
TEAM-BODY
 70
     0
 62
     2
  6
CONTINUOUS
  0
LAYER
  2
TEAM-MAS
 70
     0
 62
     9
  6
CONTINUOUS
  0
LAYER
  2
TEAM-TXT
 70
     0
 62
    11
  6
CONTINUOUS
  0
LAYER
  2
TEAM-DET1
 70
     0
 62
     4
  6
CONTINUOUS
  0
LAYER
  2
TEAM-KAN
 70
     0
 62
     6
  6
CONTINUOUS
  0
LAYER
  2
TEAM-INSP
 70
     0
 62
     5
  6
CONTINUOUS
  0
ENDTAB
  0
TABLE
  2
STYLE
 70
     2
  0
STYLE
  2
STANDARD
 70
     0
 40
0.0
 41
1.0
 50
0.0
 71
     0
 42
200.0
  3
txt
  4

  0
STYLE
  2
TEAM
 70
     0
 40
0.0
 41
0.8
 50
15.0
 71
     0
 42
7.0
  3
ROMANS.shx
  4

  0
ENDTAB
  0
TABLE
  2
VIEW
 70
     0
  0
ENDTAB
  0
TABLE
  2
UCS
 70
     0
  0
ENDTAB
  0
TABLE
  2
APPID
 70
     1
  0
APPID
  2
ACAD
 70
     0
  0
ENDTAB
  0
TABLE
  2
DIMSTYLE
 70
     1
  0
DIMSTYLE
  2
TEAM
 70
     0
  3

  4

  5

  6

  7

 40
0.0
 41
20.0
 42
10.0
 43
1.0
 44
1.0
 45
0.0
 46
0.0
 47
0.0
 48
0.0
140
35.0
141
1.0
142
0.0
143
25.4
144
1.0
145
0.0
146
1.0
147
15.0
 71
     0
 72
     0
 73
     0
 74
     0
 75
     0
 76
     0
 77
     0
 78
     0
170
     0
171
     2
172
     0
173
     0
174
     0
175
     0
176
     9
177
     9
178
    11
  0
ENDTAB
  0
ENDSEC
  0
SECTION
  2
BLOCKS
  0
BLOCK
  8
0
  2
$MODEL_SPACE
 70
     0
 10
0.0
 20
0.0
 30
0.0
  3
$MODEL_SPACE
  1

  0
ENDBLK
  5
5C2
  8
0
  0
BLOCK
 67
     1
  8
0
  2
$PAPER_SPACE
 70
     0
 10
0.0
 20
0.0
 30
0.0
  3
$PAPER_SPACE
  1

  0
ENDBLK
  5
5C0
 67
     1
  8
0
  0
ENDSEC
  0
SECTION
  2
ENTITIES
  0
POLYLINE
  5
20
  8
TEAM-NET1
 66
     1
 10
0.0
 20
0.0
 30
0.0
 70
    16
 71
     2
 72
    37
  0
VERTEX
  5
21
  8
TEAM-NET1
 10
-516.230021
 20
0.0
 30
150.0
 70
    64
  0
VERTEX
  5
22
  8
TEAM-NET1
 10
-512.847529
 20
33.893267
 30
150.0
 70
    64
  0
VERTEX
  5
23
  8
TEAM-NET1
 10
-502.833479
 20
66.449581
 30
150.0
 70
    64
  0
VERTEX
  5
24
  8
TEAM-NET1
 10
-486.582883
 20
96.384727
 30
150.0
 70
    64
  0
VERTEX
  5
25
  8
TEAM-NET1
 10
-464.736764
 20
122.517884
 30
150.0
 70
    64
  0
VERTEX
  5
26
  8
TEAM-NET1
 10
-438.156862
 20
143.818204
 30
150.0
 70
    64
  0
VERTEX
  5
27
  8
TEAM-NET1
 10
-407.891648
 20
159.445475
 30
150.0
 70
    64
  0
VERTEX
  5
28
  8
TEAM-NET1
 10
-375.134961
 20
168.783264
 30
150.0
 70
    64
  0
VERTEX
  5
29
  8
TEAM-NET1
 10
-341.178669
 20
171.500003
 30
150.0
 70
    64
  0
VERTEX
  5
2A
  8
TEAM-NET1
 10
-307.060803
 20
171.500003
 30
150.0
 70
    64
  0
VERTEX
  5
2B
  8
TEAM-NET1
 10
-272.942938
 20
171.500003
 30
150.0
 70
    64
  0
VERTEX
  5
2C
  8
TEAM-NET1
 10
-238.825072
 20
171.500003
 30
150.0
 70
    64
  0
VERTEX
  5
2D
  8
TEAM-NET1
 10
-204.707207
 20
171.500003
 30
150.0
 70
    64
  0
VERTEX
  5
2E
  8
TEAM-NET1
 10
-170.589341
 20
171.500003
 30
150.0
 70
    64
  0
VERTEX
  5
2F
  8
TEAM-NET1
 10
-136.471476
 20
171.500003
 30
150.0
 70
    64
  0
VERTEX
  5
30
  8
TEAM-NET1
 10
-102.35361
 20
171.500003
 30
150.0
 70
    64
  0
VERTEX
  5
31
  8
TEAM-NET1
 10
-68.235745
 20
171.500003
 30
150.0
 70
    64
  0
VERTEX
  5
32
  8
TEAM-NET1
 10
-34.117879
 20
171.500003
 30
150.0
 70
    64
  0
VERTEX
  5
33
  8
TEAM-NET1
 10
-0.000013
 20
171.500003
 30
150.0
 70
    64
  0
VERTEX
  5
34
  8
TEAM-NET1
 10
34.117852
 20
171.500003
 30
150.0
 70
    64
  0
VERTEX
  5
35
  8
TEAM-NET1
 10
68.235718
 20
171.500003
 30
150.0
 70
    64
  0
VERTEX
  5
36
  8
TEAM-NET1
 10
102.353583
 20
171.500003
 30
150.0
 70
    64
  0
VERTEX
  5
37
  8
TEAM-NET1
 10
136.471449
 20
171.500003
 30
150.0
 70
    64
  0
VERTEX
  5
38
  8
TEAM-NET1
 10
170.589314
 20
171.500003
 30
150.0
 70
    64
  0
VERTEX
  5
39
  8
TEAM-NET1
 10
204.70718
 20
171.500003
 30
150.0
 70
    64
  0
VERTEX
  5
3A
  8
TEAM-NET1
 10
238.825045
 20
171.500003
 30
150.0
 70
    64
  0
VERTEX
  5
3B
  8
TEAM-NET1
 10
272.942911
 20
171.500003
 30
150.0
 70
    64
  0
VERTEX
  5
3C
  8
TEAM-NET1
 10
307.060776
 20
171.500003
 30
150.0
 70
    64
  0
VERTEX
  5
3D
  8
TEAM-NET1
 10
341.178642
 20
171.500003
 30
150.0
 70
    64
  0
VERTEX
  5
3E
  8
TEAM-NET1
 10
375.134934
 20
168.783264
 30
150.0
 70
    64
  0
VERTEX
  5
3F
  8
TEAM-NET1
 10
407.891621
 20
159.445475
 30
150.0
 70
    64
  0
VERTEX
  5
40
  8
TEAM-NET1
 10
438.156835
 20
143.818204
 30
150.0
 70
    64
  0
VERTEX
  5
41
  8
TEAM-NET1
 10
464.736737
 20
122.517884
 30
150.0
 70
    64
  0
VERTEX
  5
42
  8
TEAM-NET1
 10
486.582856
 20
96.384727
 30
150.0
 70
    64
  0
VERTEX
  5
43
  8
TEAM-NET1
 10
502.833452
 20
66.449581
 30
150.0
 70
    64
  0
VERTEX
  5
44
  8
TEAM-NET1
 10
512.847502
 20
33.893267
 30
150.0
 70
    64
  0
VERTEX
  5
45
  8
TEAM-NET1
 10
516.229994
 20
0.0
 30
150.0
 70
    64
  0
VERTEX
  5
46
  8
TEAM-NET1
 10
-840.000026
 20
0.0
 30
580.0
 70
    64
  0
VERTEX
  5
47
  8
TEAM-NET1
 10
-835.158156
 20
57.175413
 30
580.0
 70
    64
  0
VERTEX
  5
48
  8
TEAM-NET1
 10
-820.770451
 20
112.722379
 30
580.0
 70
    64
  0
VERTEX
  5
49
  8
TEAM-NET1
 10
-797.246695
 20
165.058833
 30
580.0
 70
    64
  0
VERTEX
  5
4A
  8
TEAM-NET1
 10
-765.256882
 20
212.694149
 30
580.0
 70
    64
  0
VERTEX
  5
4B
  8
TEAM-NET1
 10
-725.712133
 20
254.271599
 30
580.0
 70
    64
  0
VERTEX
  5
4C
  8
TEAM-NET1
 10
-679.738744
 20
288.60699
 30
580.0
 70
    64
  0
VERTEX
  5
4D
  8
TEAM-NET1
 10
-628.646112
 20
314.722396
 30
580.0
 70
    64
  0
VERTEX
  5
4E
  8
TEAM-NET1
 10
-573.889435
 20
331.874009
 30
580.0
 70
    64
  0
VERTEX
  5
4F
  8
TEAM-NET1
 10
-517.02827
 20
339.573324
 30
580.0
 70
    64
  0
VERTEX
  5
50
  8
TEAM-NET1
 10
-459.587021
 20
340.000005
 30
580.0
 70
    64
  0
VERTEX
  5
51
  8
TEAM-NET1
 10
-402.138645
 20
340.000005
 30
580.0
 70
    64
  0
VERTEX
  5
52
  8
TEAM-NET1
 10
-344.690269
 20
340.000005
 30
580.0
 70
    64
  0
VERTEX
  5
53
  8
TEAM-NET1
 10
-287.241893
 20
340.000005
 30
580.0
 70
    64
  0
VERTEX
  5
54
  8
TEAM-NET1
 10
-229.793517
 20
340.000005
 30
580.0
 70
    64
  0
VERTEX
  5
55
  8
TEAM-NET1
 10
-172.345141
 20
340.000005
 30
580.0
 70
    64
  0
VERTEX
  5
56
  8
TEAM-NET1
 10
-114.896765
 20
340.000005
 30
580.0
 70
    64
  0
VERTEX
  5
57
  8
TEAM-NET1
 10
-57.448389
 20
340.000005
 30
580.0
 70
    64
  0
VERTEX
  5
58
  8
TEAM-NET1
 10
-0.000013
 20
340.000005
 30
580.0
 70
    64
  0
VERTEX
  5
59
  8
TEAM-NET1
 10
57.448362
 20
340.000005
 30
580.0
 70
    64
  0
VERTEX
  5
5A
  8
TEAM-NET1
 10
114.896738
 20
340.000005
 30
580.0
 70
    64
  0
VERTEX
  5
5B
  8
TEAM-NET1
 10
172.345114
 20
340.000005
 30
580.0
 70
    64
  0
VERTEX
  5
5C
  8
TEAM-NET1
 10
229.79349
 20
340.000005
 30
580.0
 70
    64
  0
VERTEX
  5
5D
  8
TEAM-NET1
 10
287.241866
 20
340.000005
 30
580.0
 70
    64
  0
VERTEX
  5
5E
  8
TEAM-NET1
 10
344.690242
 20
340.000005
 30
580.0
 70
    64
  0
VERTEX
  5
5F
  8
TEAM-NET1
 10
402.138618
 20
340.000005
 30
580.0
 70
    64
  0
VERTEX
  5
60
  8
TEAM-NET1
 10
459.586994
 20
340.000005
 30
580.0
 70
    64
  0
VERTEX
  5
61
  8
TEAM-NET1
 10
517.028243
 20
339.573324
 30
580.0
 70
    64
  0
VERTEX
  5
62
  8
TEAM-NET1
 10
573.889408
 20
331.874009
 30
580.0
 70
    64
  0
VERTEX
  5
63
  8
TEAM-NET1
 10
628.646085
 20
314.722396
 30
580.0
 70
    64
  0
VERTEX
  5
64
  8
TEAM-NET1
 10
679.738717
 20
288.60699
 30
580.0
 70
    64
  0
VERTEX
  5
65
  8
TEAM-NET1
 10
725.712106
 20
254.271599
 30
580.0
 70
    64
  0
VERTEX
  5
66
  8
TEAM-NET1
 10
765.256855
 20
212.694149
 30
580.0
 70
    64
  0
VERTEX
  5
67
  8
TEAM-NET1
 10
797.246668
 20
165.058833
 30
580.0
 70
    64
  0
VERTEX
  5
68
  8
TEAM-NET1
 10
820.770424
 20
112.722379
 30
580.0
 70
    64
  0
VERTEX
  5
69
  8
TEAM-NET1
 10
835.158129
 20
57.175413
 30
580.0
 70
    64
  0
VERTEX
  5
6A
  8
TEAM-NET1
 10
839.999999
 20
0.0
 30
580.0
 70
    64
  0
SEQEND
  5
6C
  8
TEAM-NET1
  0
POLYLINE
  5
6D
  8
TEAM-NET1
 66
     1
 10
0.0
 20
0.0
 30
0.0
 70
    16
 71
     2
 72
    37
  0
VERTEX
  5
6E
  8
TEAM-NET1
 10
-840.000026
 20
0.0
 30
580.0
 70
    64
  0
VERTEX
  5
6F
  8
TEAM-NET1
 10
-835.158156
 20
-57.175413
 30
580.0
 70
    64
  0
VERTEX
  5
70
  8
TEAM-NET1
 10
-820.770451
 20
-112.722379
 30
580.0
 70
    64
  0
VERTEX
  5
71
  8
TEAM-NET1
 10
-797.246695
 20
-165.058833
 30
580.0
 70
    64
  0
VERTEX
  5
72
  8
TEAM-NET1
 10
-765.256882
 20
-212.694149
 30
580.0
 70
    64
  0
VERTEX
  5
73
  8
TEAM-NET1
 10
-725.712133
 20
-254.271599
 30
580.0
 70
    64
  0
VERTEX
  5
74
  8
TEAM-NET1
 10
-679.738744
 20
-288.60699
 30
580.0
 70
    64
  0
VERTEX
  5
75
  8
TEAM-NET1
 10
-628.646112
 20
-314.722396
 30
580.0
 70
    64
  0
VERTEX
  5
76
  8
TEAM-NET1
 10
-573.889435
 20
-331.874009
 30
580.0
 70
    64
  0
VERTEX
  5
77
  8
TEAM-NET1
 10
-517.02827
 20
-339.573324
 30
580.0
 70
    64
  0
VERTEX
  5
78
  8
TEAM-NET1
 10
-459.587021
 20
-340.000005
 30
580.0
 70
    64
  0
VERTEX
  5
79
  8
TEAM-NET1
 10
-402.138645
 20
-340.000005
 30
580.0
 70
    64
  0
VERTEX
  5
7A
  8
TEAM-NET1
 10
-344.690269
 20
-340.000005
 30
580.0
 70
    64
  0
VERTEX
  5
7B
  8
TEAM-NET1
 10
-287.241893
 20
-340.000005
 30
580.0
 70
    64
  0
VERTEX
  5
7C
  8
TEAM-NET1
 10
-229.793517
 20
-340.000005
 30
580.0
 70
    64
  0
VERTEX
  5
7D
  8
TEAM-NET1
 10
-172.345141
 20
-340.000005
 30
580.0
 70
    64
  0
VERTEX
  5
7E
  8
TEAM-NET1
 10
-114.896765
 20
-340.000005
 30
580.0
 70
    64
  0
VERTEX
  5
7F
  8
TEAM-NET1
 10
-57.448389
 20
-340.000005
 30
580.0
 70
    64
  0
VERTEX
  5
80
  8
TEAM-NET1
 10
-0.000013
 20
-340.000005
 30
580.0
 70
    64
  0
VERTEX
  5
81
  8
TEAM-NET1
 10
57.448362
 20
-340.000005
 30
580.0
 70
    64
  0
VERTEX
  5
82
  8
TEAM-NET1
 10
114.896738
 20
-340.000005
 30
580.0
 70
    64
  0
VERTEX
  5
83
  8
TEAM-NET1
 10
172.345114
 20
-340.000005
 30
580.0
 70
    64
  0
VERTEX
  5
84
  8
TEAM-NET1
 10
229.79349
 20
-340.000005
 30
580.0
 70
    64
  0
VERTEX
  5
85
  8
TEAM-NET1
 10
287.241866
 20
-340.000005
 30
580.0
 70
    64
  0
VERTEX
  5
86
  8
TEAM-NET1
 10
344.690242
 20
-340.000005
 30
580.0
 70
    64
  0
VERTEX
  5
87
  8
TEAM-NET1
 10
402.138618
 20
-340.000005
 30
580.0
 70
    64
  0
VERTEX
  5
88
  8
TEAM-NET1
 10
459.586994
 20
-340.000005
 30
580.0
 70
    64
  0
VERTEX
  5
89
  8
TEAM-NET1
 10
517.028243
 20
-339.573324
 30
580.0
 70
    64
  0
VERTEX
  5
8A
  8
TEAM-NET1
 10
573.889408
 20
-331.874009
 30
580.0
 70
    64
  0
VERTEX
  5
8B
  8
TEAM-NET1
 10
628.646085
 20
-314.722396
 30
580.0
 70
    64
  0
VERTEX
  5
8C
  8
TEAM-NET1
 10
679.738717
 20
-288.60699
 30
580.0
 70
    64
  0
VERTEX
  5
8D
  8
TEAM-NET1
 10
725.712106
 20
-254.271599
 30
580.0
 70
    64
  0
VERTEX
  5
8E
  8
TEAM-NET1
 10
765.256855
 20
-212.694149
 30
580.0
 70
    64
  0
VERTEX
  5
8F
  8
TEAM-NET1
 10
797.246668
 20
-165.058833
 30
580.0
 70
    64
  0
VERTEX
  5
90
  8
TEAM-NET1
 10
820.770424
 20
-112.722379
 30
580.0
 70
    64
  0
VERTEX
  5
91
  8
TEAM-NET1
 10
835.158129
 20
-57.175413
 30
580.0
 70
    64
  0
VERTEX
  5
92
  8
TEAM-NET1
 10
839.999999
 20
0.0
 30
580.0
 70
    64
  0
VERTEX
  5
93
  8
TEAM-NET1
 10
-516.230021
 20
0.0
 30
150.0
 70
    64
  0
VERTEX
  5
94
  8
TEAM-NET1
 10
-512.847529
 20
-33.893267
 30
150.0
 70
    64
  0
VERTEX
  5
95
  8
TEAM-NET1
 10
-502.833479
 20
-66.449581
 30
150.0
 70
    64
  0
VERTEX
  5
96
  8
TEAM-NET1
 10
-486.582883
 20
-96.384727
 30
150.0
 70
    64
  0
VERTEX
  5
97
  8
TEAM-NET1
 10
-464.736764
 20
-122.517884
 30
150.0
 70
    64
  0
VERTEX
  5
98
  8
TEAM-NET1
 10
-438.156862
 20
-143.818204
 30
150.0
 70
    64
  0
VERTEX
  5
99
  8
TEAM-NET1
 10
-407.891648
 20
-159.445475
 30
150.0
 70
    64
  0
VERTEX
  5
9A
  8
TEAM-NET1
 10
-375.134961
 20
-168.783264
 30
150.0
 70
    64
  0
VERTEX
  5
9B
  8
TEAM-NET1
 10
-341.178669
 20
-171.500003
 30
150.0
 70
    64
  0
VERTEX
  5
9C
  8
TEAM-NET1
 10
-307.060803
 20
-171.500003
 30
150.0
 70
    64
  0
VERTEX
  5
9D
  8
TEAM-NET1
 10
-272.942938
 20
-171.500003
 30
150.0
 70
    64
  0
VERTEX
  5
9E
  8
TEAM-NET1
 10
-238.825072
 20
-171.500003
 30
150.0
 70
    64
  0
VERTEX
  5
9F
  8
TEAM-NET1
 10
-204.707207
 20
-171.500003
 30
150.0
 70
    64
  0
VERTEX
  5
A0
  8
TEAM-NET1
 10
-170.589341
 20
-171.500003
 30
150.0
 70
    64
  0
VERTEX
  5
A1
  8
TEAM-NET1
 10
-136.471476
 20
-171.500003
 30
150.0
 70
    64
  0
VERTEX
  5
A2
  8
TEAM-NET1
 10
-102.35361
 20
-171.500003
 30
150.0
 70
    64
  0
VERTEX
  5
A3
  8
TEAM-NET1
 10
-68.235745
 20
-171.500003
 30
150.0
 70
    64
  0
VERTEX
  5
A4
  8
TEAM-NET1
 10
-34.117879
 20
-171.500003
 30
150.0
 70
    64
  0
VERTEX
  5
A5
  8
TEAM-NET1
 10
-0.000013
 20
-171.500003
 30
150.0
 70
    64
  0
VERTEX
  5
A6
  8
TEAM-NET1
 10
34.117852
 20
-171.500003
 30
150.0
 70
    64
  0
VERTEX
  5
A7
  8
TEAM-NET1
 10
68.235718
 20
-171.500003
 30
150.0
 70
    64
  0
VERTEX
  5
A8
  8
TEAM-NET1
 10
102.353583
 20
-171.500003
 30
150.0
 70
    64
  0
VERTEX
  5
A9
  8
TEAM-NET1
 10
136.471449
 20
-171.500003
 30
150.0
 70
    64
  0
VERTEX
  5
AA
  8
TEAM-NET1
 10
170.589314
 20
-171.500003
 30
150.0
 70
    64
  0
VERTEX
  5
AB
  8
TEAM-NET1
 10
204.70718
 20
-171.500003
 30
150.0
 70
    64
  0
VERTEX
  5
AC
  8
TEAM-NET1
 10
238.825045
 20
-171.500003
 30
150.0
 70
    64
  0
VERTEX
  5
AD
  8
TEAM-NET1
 10
272.942911
 20
-171.500003
 30
150.0
 70
    64
  0
VERTEX
  5
AE
  8
TEAM-NET1
 10
307.060776
 20
-171.500003
 30
150.0
 70
    64
  0
VERTEX
  5
AF
  8
TEAM-NET1
 10
341.178642
 20
-171.500003
 30
150.0
 70
    64
  0
VERTEX
  5
B0
  8
TEAM-NET1
 10
375.134934
 20
-168.783264
 30
150.0
 70
    64
  0
VERTEX
  5
B1
  8
TEAM-NET1
 10
407.891621
 20
-159.445475
 30
150.0
 70
    64
  0
VERTEX
  5
B2
  8
TEAM-NET1
 10
438.156835
 20
-143.818204
 30
150.0
 70
    64
  0
VERTEX
  5
B3
  8
TEAM-NET1
 10
464.736737
 20
-122.517884
 30
150.0
 70
    64
  0
VERTEX
  5
B4
  8
TEAM-NET1
 10
486.582856
 20
-96.384727
 30
150.0
 70
    64
  0
VERTEX
  5
B5
  8
TEAM-NET1
 10
502.833452
 20
-66.449581
 30
150.0
 70
    64
  0
VERTEX
  5
B6
  8
TEAM-NET1
 10
512.847502
 20
-33.893267
 30
150.0
 70
    64
  0
VERTEX
  5
B7
  8
TEAM-NET1
 10
516.229994
 20
0.0
 30
150.0
 70
    64
  0
SEQEND
  5
B8
  8
TEAM-NET1
  0
CIRCLE
  5
B9
  8
TEAM-INSP
 10
0.0
 20
0.0
 30
0.0
 40
10.0
  0
POLYLINE
  5
BB
  8
TEAM-BODY
 66
     1
 10
0.0
 20
0.0
 30
150.0
  0
VERTEX
  5
5C8
  8
TEAM-BODY
 10
516.229994
 20
0.0
 30
150.0
 42
0.414214
  0
VERTEX
  5
5C9
  8
TEAM-BODY
 10
344.729992
 20
171.500003
 30
150.0
  0
VERTEX
  5
5CA
  8
TEAM-BODY
 10
-344.730019
 20
171.500003
 30
150.0
 42
0.414214
  0
VERTEX
  5
5CB
  8
TEAM-BODY
 10
-516.230021
 20
0.0
 30
150.0
  0
SEQEND
  5
5CC
  8
TEAM-BODY
  0
POLYLINE
  5
BD
  8
TEAM-BODY
 66
     1
 10
0.0
 20
0.0
 30
150.0
  0
VERTEX
  5
5CD
  8
TEAM-BODY
 10
516.229994
 20
0.0
 30
150.0
 42
-0.414214
  0
VERTEX
  5
5CE
  8
TEAM-BODY
 10
344.729992
 20
-171.500003
 30
150.0
  0
VERTEX
  5
5CF
  8
TEAM-BODY
 10
-344.730019
 20
-171.500003
 30
150.0
 42
-0.414214
  0
VERTEX
  5
5D0
  8
TEAM-BODY
 10
-516.230021
 20
0.0
 30
150.0
  0
SEQEND
  5
5D1
  8
TEAM-BODY
  0
POLYLINE
  5
BE
  8
TEAM-NET1
 66
     1
 10
0.0
 20
0.0
 30
0.0
 70
    16
 71
     2
 72
    37
  0
VERTEX
  5
BF
  8
TEAM-NET1
 10
-516.230021
 20
0.0
 30
150.0
 70
    64
  0
VERTEX
  5
C0
  8
TEAM-NET1
 10
-512.847529
 20
33.893267
 30
150.0
 70
    64
  0
VERTEX
  5
C1
  8
TEAM-NET1
 10
-502.833479
 20
66.449581
 30
150.0
 70
    64
  0
VERTEX
  5
C2
  8
TEAM-NET1
 10
-486.582883
 20
96.384727
 30
150.0
 70
    64
  0
VERTEX
  5
C3
  8
TEAM-NET1
 10
-464.736764
 20
122.517884
 30
150.0
 70
    64
  0
VERTEX
  5
C4
  8
TEAM-NET1
 10
-438.156862
 20
143.818204
 30
150.0
 70
    64
  0
VERTEX
  5
C5
  8
TEAM-NET1
 10
-407.891648
 20
159.445475
 30
150.0
 70
    64
  0
VERTEX
  5
C6
  8
TEAM-NET1
 10
-375.134961
 20
168.783264
 30
150.0
 70
    64
  0
VERTEX
  5
C7
  8
TEAM-NET1
 10
-341.178669
 20
171.500003
 30
150.0
 70
    64
  0
VERTEX
  5
C8
  8
TEAM-NET1
 10
-307.060803
 20
171.500003
 30
150.0
 70
    64
  0
VERTEX
  5
C9
  8
TEAM-NET1
 10
-272.942938
 20
171.500003
 30
150.0
 70
    64
  0
VERTEX
  5
CA
  8
TEAM-NET1
 10
-238.825072
 20
171.500003
 30
150.0
 70
    64
  0
VERTEX
  5
CB
  8
TEAM-NET1
 10
-204.707207
 20
171.500003
 30
150.0
 70
    64
  0
VERTEX
  5
CC
  8
TEAM-NET1
 10
-170.589341
 20
171.500003
 30
150.0
 70
    64
  0
VERTEX
  5
CD
  8
TEAM-NET1
 10
-136.471476
 20
171.500003
 30
150.0
 70
    64
  0
VERTEX
  5
CE
  8
TEAM-NET1
 10
-102.35361
 20
171.500003
 30
150.0
 70
    64
  0
VERTEX
  5
CF
  8
TEAM-NET1
 10
-68.235745
 20
171.500003
 30
150.0
 70
    64
  0
VERTEX
  5
D0
  8
TEAM-NET1
 10
-34.117879
 20
171.500003
 30
150.0
 70
    64
  0
VERTEX
  5
D1
  8
TEAM-NET1
 10
-0.000013
 20
171.500003
 30
150.0
 70
    64
  0
VERTEX
  5
D2
  8
TEAM-NET1
 10
34.117852
 20
171.500003
 30
150.0
 70
    64
  0
VERTEX
  5
D3
  8
TEAM-NET1
 10
68.235718
 20
171.500003
 30
150.0
 70
    64
  0
VERTEX
  5
D4
  8
TEAM-NET1
 10
102.353583
 20
171.500003
 30
150.0
 70
    64
  0
VERTEX
  5
D5
  8
TEAM-NET1
 10
136.471449
 20
171.500003
 30
150.0
 70
    64
  0
VERTEX
  5
D6
  8
TEAM-NET1
 10
170.589314
 20
171.500003
 30
150.0
 70
    64
  0
VERTEX
  5
D7
  8
TEAM-NET1
 10
204.70718
 20
171.500003
 30
150.0
 70
    64
  0
VERTEX
  5
D8
  8
TEAM-NET1
 10
238.825045
 20
171.500003
 30
150.0
 70
    64
  0
VERTEX
  5
D9
  8
TEAM-NET1
 10
272.942911
 20
171.500003
 30
150.0
 70
    64
  0
VERTEX
  5
DA
  8
TEAM-NET1
 10
307.060776
 20
171.500003
 30
150.0
 70
    64
  0
VERTEX
  5
DB
  8
TEAM-NET1
 10
341.178642
 20
171.500003
 30
150.0
 70
    64
  0
VERTEX
  5
DC
  8
TEAM-NET1
 10
375.134934
 20
168.783264
 30
150.0
 70
    64
  0
VERTEX
  5
DD
  8
TEAM-NET1
 10
407.891621
 20
159.445475
 30
150.0
 70
    64
  0
VERTEX
  5
DE
  8
TEAM-NET1
 10
438.156835
 20
143.818204
 30
150.0
 70
    64
  0
VERTEX
  5
DF
  8
TEAM-NET1
 10
464.736737
 20
122.517884
 30
150.0
 70
    64
  0
VERTEX
  5
E0
  8
TEAM-NET1
 10
486.582856
 20
96.384727
 30
150.0
 70
    64
  0
VERTEX
  5
E1
  8
TEAM-NET1
 10
502.833452
 20
66.449581
 30
150.0
 70
    64
  0
VERTEX
  5
E2
  8
TEAM-NET1
 10
512.847502
 20
33.893267
 30
150.0
 70
    64
  0
VERTEX
  5
E3
  8
TEAM-NET1
 10
516.229994
 20
0.0
 30
150.0
 70
    64
  0
VERTEX
  5
E4
  8
TEAM-NET1
 10
-516.230021
 20
0.0
 30
150.0
 70
    64
  0
VERTEX
  5
E5
  8
TEAM-NET1
 10
-512.847529
 20
-33.893267
 30
150.0
 70
    64
  0
VERTEX
  5
E6
  8
TEAM-NET1
 10
-502.833479
 20
-66.449581
 30
150.0
 70
    64
  0
VERTEX
  5
E7
  8
TEAM-NET1
 10
-486.582883
 20
-96.384727
 30
150.0
 70
    64
  0
VERTEX
  5
E8
  8
TEAM-NET1
 10
-464.736764
 20
-122.517884
 30
150.0
 70
    64
  0
VERTEX
  5
E9
  8
TEAM-NET1
 10
-438.156862
 20
-143.818204
 30
150.0
 70
    64
  0
VERTEX
  5
EA
  8
TEAM-NET1
 10
-407.891648
 20
-159.445475
 30
150.0
 70
    64
  0
VERTEX
  5
EB
  8
TEAM-NET1
 10
-375.134961
 20
-168.783264
 30
150.0
 70
    64
  0
VERTEX
  5
EC
  8
TEAM-NET1
 10
-341.178669
 20
-171.500003
 30
150.0
 70
    64
  0
VERTEX
  5
ED
  8
TEAM-NET1
 10
-307.060803
 20
-171.500003
 30
150.0
 70
    64
  0
VERTEX
  5
EE
  8
TEAM-NET1
 10
-272.942938
 20
-171.500003
 30
150.0
 70
    64
  0
VERTEX
  5
EF
  8
TEAM-NET1
 10
-238.825072
 20
-171.500003
 30
150.0
 70
    64
  0
VERTEX
  5
F0
  8
TEAM-NET1
 10
-204.707207
 20
-171.500003
 30
150.0
 70
    64
  0
VERTEX
  5
F1
  8
TEAM-NET1
 10
-170.589341
 20
-171.500003
 30
150.0
 70
    64
  0
VERTEX
  5
F2
  8
TEAM-NET1
 10
-136.471476
 20
-171.500003
 30
150.0
 70
    64
  0
VERTEX
  5
F3
  8
TEAM-NET1
 10
-102.35361
 20
-171.500003
 30
150.0
 70
    64
  0
VERTEX
  5
F4
  8
TEAM-NET1
 10
-68.235745
 20
-171.500003
 30
150.0
 70
    64
  0
VERTEX
  5
F5
  8
TEAM-NET1
 10
-34.117879
 20
-171.500003
 30
150.0
 70
    64
  0
VERTEX
  5
F6
  8
TEAM-NET1
 10
-0.000013
 20
-171.500003
 30
150.0
 70
    64
  0
VERTEX
  5
F7
  8
TEAM-NET1
 10
34.117852
 20
-171.500003
 30
150.0
 70
    64
  0
VERTEX
  5
F8
  8
TEAM-NET1
 10
68.235718
 20
-171.500003
 30
150.0
 70
    64
  0
VERTEX
  5
F9
  8
TEAM-NET1
 10
102.353583
 20
-171.500003
 30
150.0
 70
    64
  0
VERTEX
  5
FA
  8
TEAM-NET1
 10
136.471449
 20
-171.500003
 30
150.0
 70
    64
  0
VERTEX
  5
FB
  8
TEAM-NET1
 10
170.589314
 20
-171.500003
 30
150.0
 70
    64
  0
VERTEX
  5
FC
  8
TEAM-NET1
 10
204.70718
 20
-171.500003
 30
150.0
 70
    64
  0
VERTEX
  5
FD
  8
TEAM-NET1
 10
238.825045
 20
-171.500003
 30
150.0
 70
    64
  0
VERTEX
  5
FE
  8
TEAM-NET1
 10
272.942911
 20
-171.500003
 30
150.0
 70
    64
  0
VERTEX
  5
FF
  8
TEAM-NET1
 10
307.060776
 20
-171.500003
 30
150.0
 70
    64
  0
VERTEX
  5
100
  8
TEAM-NET1
 10
341.178642
 20
-171.500003
 30
150.0
 70
    64
  0
VERTEX
  5
101
  8
TEAM-NET1
 10
375.134934
 20
-168.783264
 30
150.0
 70
    64
  0
VERTEX
  5
102
  8
TEAM-NET1
 10
407.891621
 20
-159.445475
 30
150.0
 70
    64
  0
VERTEX
  5
103
  8
TEAM-NET1
 10
438.156835
 20
-143.818204
 30
150.0
 70
    64
  0
VERTEX
  5
104
  8
TEAM-NET1
 10
464.736737
 20
-122.517884
 30
150.0
 70
    64
  0
VERTEX
  5
105
  8
TEAM-NET1
 10
486.582856
 20
-96.384727
 30
150.0
 70
    64
  0
VERTEX
  5
106
  8
TEAM-NET1
 10
502.833452
 20
-66.449581
 30
150.0
 70
    64
  0
VERTEX
  5
107
  8
TEAM-NET1
 10
512.847502
 20
-33.893267
 30
150.0
 70
    64
  0
VERTEX
  5
108
  8
TEAM-NET1
 10
516.229994
 20
0.0
 30
150.0
 70
    64
  0
SEQEND
  5
109
  8
TEAM-NET1
  0
CIRCLE
  5
10A
  8
TEAM-DET1
 10
-0.000013
 20
0.0
 30
150.0
 40
45.000001
  0
CIRCLE
  5
10C
  8
TEAM-KAN
 10
-0.000013
 20
0.0
 30
150.0
 40
26.0
  0
POLYLINE
  5
10E
  8
TEAM-KAN
 66
     1
 10
0.0
 20
0.0
 30
530.0
  0
VERTEX
  5
5D2
  8
TEAM-KAN
 10
24.169987
 20
330.160005
 30
530.0
  0
VERTEX
  5
5D3
  8
TEAM-KAN
 10
24.729987
 20
330.450005
 30
530.0
  0
VERTEX
  5
5D4
  8
TEAM-KAN
 10
25.179987
 20
330.750005
 30
530.0
  0
VERTEX
  5
5D5
  8
TEAM-KAN
 10
25.539987
 20
331.060005
 30
530.0
  0
VERTEX
  5
5D6
  8
TEAM-KAN
 10
25.789987
 20
331.370005
 30
530.0
  0
VERTEX
  5
5D7
  8
TEAM-KAN
 10
25.949987
 20
331.680005
 30
530.0
  0
VERTEX
  5
5D8
  8
TEAM-KAN
 10
25.999987
 20
332.000005
 30
530.0
  0
SEQEND
  5
5D9
  8
TEAM-KAN
  0
POLYLINE
  5
10F
  8
TEAM-KAN
 66
     1
 10
0.0
 20
0.0
 30
530.0
  0
VERTEX
  5
5DA
  8
TEAM-KAN
 10
25.999987
 20
332.000005
 30
530.0
  0
VERTEX
  5
5DB
  8
TEAM-KAN
 10
25.949987
 20
332.310005
 30
530.0
  0
VERTEX
  5
5DC
  8
TEAM-KAN
 10
25.789987
 20
332.620005
 30
530.0
  0
VERTEX
  5
5DD
  8
TEAM-KAN
 10
25.539987
 20
332.930005
 30
530.0
  0
VERTEX
  5
5DE
  8
TEAM-KAN
 10
25.179987
 20
333.240005
 30
530.0
  0
VERTEX
  5
5DF
  8
TEAM-KAN
 10
24.729987
 20
333.540005
 30
530.0
  0
VERTEX
  5
5E0
  8
TEAM-KAN
 10
24.169987
 20
333.840005
 30
530.0
  0
VERTEX
  5
5E1
  8
TEAM-KAN
 10
23.519987
 20
334.120005
 30
530.0
  0
VERTEX
  5
5E2
  8
TEAM-KAN
 10
22.779987
 20
334.410005
 30
530.0
  0
VERTEX
  5
5E3
  8
TEAM-KAN
 10
21.949987
 20
334.680005
 30
530.0
  0
VERTEX
  5
5E4
  8
TEAM-KAN
 10
21.029987
 20
334.940005
 30
530.0
  0
VERTEX
  5
5E5
  8
TEAM-KAN
 10
20.029987
 20
335.180005
 30
530.0
  0
VERTEX
  5
5E6
  8
TEAM-KAN
 10
18.949987
 20
335.420005
 30
530.0
  0
VERTEX
  5
5E7
  8
TEAM-KAN
 10
17.799987
 20
335.640005
 30
530.0
  0
VERTEX
  5
5E8
  8
TEAM-KAN
 10
16.569987
 20
335.850005
 30
530.0
  0
VERTEX
  5
5E9
  8
TEAM-KAN
 10
15.279987
 20
336.040005
 30
530.0
  0
VERTEX
  5
5EA
  8
TEAM-KAN
 10
13.929987
 20
336.220005
 30
530.0
  0
VERTEX
  5
5EB
  8
TEAM-KAN
 10
12.519987
 20
336.380005
 30
530.0
  0
VERTEX
  5
5EC
  8
TEAM-KAN
 10
11.069987
 20
336.520005
 30
530.0
  0
VERTEX
  5
5ED
  8
TEAM-KAN
 10
9.569987
 20
336.650005
 30
530.0
  0
VERTEX
  5
5EE
  8
TEAM-KAN
 10
8.029987
 20
336.750005
 30
530.0
  0
VERTEX
  5
5EF
  8
TEAM-KAN
 10
6.469987
 20
336.840005
 30
530.0
  0
VERTEX
  5
5F0
  8
TEAM-KAN
 10
4.869987
 20
336.910005
 30
530.0
  0
VERTEX
  5
5F1
  8
TEAM-KAN
 10
3.259987
 20
336.960005
 30
530.0
  0
VERTEX
  5
5F2
  8
TEAM-KAN
 10
1.629987
 20
336.990005
 30
530.0
  0
VERTEX
  5
5F3
  8
TEAM-KAN
 10
-0.000013
 20
337.000005
 30
530.0
  0
VERTEX
  5
5F4
  8
TEAM-KAN
 10
-1.630014
 20
336.990005
 30
530.0
  0
VERTEX
  5
5F5
  8
TEAM-KAN
 10
-3.260014
 20
336.960005
 30
530.0
  0
VERTEX
  5
5F6
  8
TEAM-KAN
 10
-4.870014
 20
336.910005
 30
530.0
  0
VERTEX
  5
5F7
  8
TEAM-KAN
 10
-6.470014
 20
336.840005
 30
530.0
  0
VERTEX
  5
5F8
  8
TEAM-KAN
 10
-8.030014
 20
336.750005
 30
530.0
  0
VERTEX
  5
5F9
  8
TEAM-KAN
 10
-9.570014
 20
336.650005
 30
530.0
  0
VERTEX
  5
5FA
  8
TEAM-KAN
 10
-11.070014
 20
336.520005
 30
530.0
  0
VERTEX
  5
5FB
  8
TEAM-KAN
 10
-12.530014
 20
336.380005
 30
530.0
  0
VERTEX
  5
5FC
  8
TEAM-KAN
 10
-13.930014
 20
336.220005
 30
530.0
  0
VERTEX
  5
5FD
  8
TEAM-KAN
 10
-15.280014
 20
336.040005
 30
530.0
  0
VERTEX
  5
5FE
  8
TEAM-KAN
 10
-16.570014
 20
335.850005
 30
530.0
  0
VERTEX
  5
5FF
  8
TEAM-KAN
 10
-17.800014
 20
335.640005
 30
530.0
  0
VERTEX
  5
600
  8
TEAM-KAN
 10
-18.950014
 20
335.420005
 30
530.0
  0
VERTEX
  5
601
  8
TEAM-KAN
 10
-20.030014
 20
335.180005
 30
530.0
  0
VERTEX
  5
602
  8
TEAM-KAN
 10
-21.030014
 20
334.940005
 30
530.0
  0
VERTEX
  5
603
  8
TEAM-KAN
 10
-21.950014
 20
334.680005
 30
530.0
  0
VERTEX
  5
604
  8
TEAM-KAN
 10
-22.780014
 20
334.410005
 30
530.0
  0
VERTEX
  5
605
  8
TEAM-KAN
 10
-23.530014
 20
334.120005
 30
530.0
  0
VERTEX
  5
606
  8
TEAM-KAN
 10
-24.170014
 20
333.840005
 30
530.0
  0
VERTEX
  5
607
  8
TEAM-KAN
 10
-24.730014
 20
333.540005
 30
530.0
  0
VERTEX
  5
608
  8
TEAM-KAN
 10
-25.190014
 20
333.240005
 30
530.0
  0
VERTEX
  5
609
  8
TEAM-KAN
 10
-25.540014
 20
332.930005
 30
530.0
  0
SEQEND
  5
60A
  8
TEAM-KAN
  0
POLYLINE
  5
110
  8
TEAM-KAN
 66
     1
 10
0.0
 20
0.0
 30
530.0
  0
VERTEX
  5
60B
  8
TEAM-KAN
 10
-25.540014
 20
332.930005
 30
530.0
  0
VERTEX
  5
60C
  8
TEAM-KAN
 10
-25.800014
 20
332.620005
 30
530.0
  0
VERTEX
  5
60D
  8
TEAM-KAN
 10
-25.950014
 20
332.310005
 30
530.0
  0
VERTEX
  5
60E
  8
TEAM-KAN
 10
-26.000014
 20
332.000005
 30
530.0
  0
VERTEX
  5
60F
  8
TEAM-KAN
 10
-25.950014
 20
331.680005
 30
530.0
  0
VERTEX
  5
610
  8
TEAM-KAN
 10
-25.800014
 20
331.370005
 30
530.0
  0
VERTEX
  5
611
  8
TEAM-KAN
 10
-25.540014
 20
331.060005
 30
530.0
  0
VERTEX
  5
612
  8
TEAM-KAN
 10
-25.190014
 20
330.750005
 30
530.0
  0
VERTEX
  5
613
  8
TEAM-KAN
 10
-24.730014
 20
330.450005
 30
530.0
  0
VERTEX
  5
614
  8
TEAM-KAN
 10
-24.170014
 20
330.160005
 30
530.0
  0
VERTEX
  5
615
  8
TEAM-KAN
 10
-23.530014
 20
329.870005
 30
530.0
  0
VERTEX
  5
616
  8
TEAM-KAN
 10
-22.780014
 20
329.590005
 30
530.0
  0
VERTEX
  5
617
  8
TEAM-KAN
 10
-21.950014
 20
329.320005
 30
530.0
  0
VERTEX
  5
618
  8
TEAM-KAN
 10
-21.030014
 20
329.060005
 30
530.0
  0
VERTEX
  5
619
  8
TEAM-KAN
 10
-20.030014
 20
328.810005
 30
530.0
  0
VERTEX
  5
61A
  8
TEAM-KAN
 10
-18.950014
 20
328.570005
 30
530.0
  0
VERTEX
  5
61B
  8
TEAM-KAN
 10
-17.800014
 20
328.350005
 30
530.0
  0
VERTEX
  5
61C
  8
TEAM-KAN
 10
-16.570014
 20
328.140005
 30
530.0
  0
VERTEX
  5
61D
  8
TEAM-KAN
 10
-15.280014
 20
327.950005
 30
530.0
  0
VERTEX
  5
61E
  8
TEAM-KAN
 10
-13.930014
 20
327.780005
 30
530.0
  0
VERTEX
  5
61F
  8
TEAM-KAN
 10
-12.530014
 20
327.620005
 30
530.0
  0
VERTEX
  5
620
  8
TEAM-KAN
 10
-11.070014
 20
327.470005
 30
530.0
  0
VERTEX
  5
621
  8
TEAM-KAN
 10
-9.570014
 20
327.350005
 30
530.0
  0
VERTEX
  5
622
  8
TEAM-KAN
 10
-8.030014
 20
327.240005
 30
530.0
  0
VERTEX
  5
623
  8
TEAM-KAN
 10
-6.470014
 20
327.150005
 30
530.0
  0
VERTEX
  5
624
  8
TEAM-KAN
 10
-4.870014
 20
327.090005
 30
530.0
  0
VERTEX
  5
625
  8
TEAM-KAN
 10
-3.260014
 20
327.040005
 30
530.0
  0
VERTEX
  5
626
  8
TEAM-KAN
 10
-1.630014
 20
327.010005
 30
530.0
  0
VERTEX
  5
627
  8
TEAM-KAN
 10
-0.000013
 20
327.000005
 30
530.0
  0
VERTEX
  5
628
  8
TEAM-KAN
 10
1.629987
 20
327.010005
 30
530.0
  0
VERTEX
  5
629
  8
TEAM-KAN
 10
3.259987
 20
327.040005
 30
530.0
  0
VERTEX
  5
62A
  8
TEAM-KAN
 10
4.869987
 20
327.090005
 30
530.0
  0
VERTEX
  5
62B
  8
TEAM-KAN
 10
6.469987
 20
327.150005
 30
530.0
  0
VERTEX
  5
62C
  8
TEAM-KAN
 10
8.029987
 20
327.240005
 30
530.0
  0
VERTEX
  5
62D
  8
TEAM-KAN
 10
9.569987
 20
327.350005
 30
530.0
  0
VERTEX
  5
62E
  8
TEAM-KAN
 10
11.069987
 20
327.470005
 30
530.0
  0
VERTEX
  5
62F
  8
TEAM-KAN
 10
12.519987
 20
327.620005
 30
530.0
  0
VERTEX
  5
630
  8
TEAM-KAN
 10
13.929987
 20
327.780005
 30
530.0
  0
VERTEX
  5
631
  8
TEAM-KAN
 10
15.279987
 20
327.950005
 30
530.0
  0
VERTEX
  5
632
  8
TEAM-KAN
 10
16.569987
 20
328.140005
 30
530.0
  0
VERTEX
  5
633
  8
TEAM-KAN
 10
17.799987
 20
328.350005
 30
530.0
  0
VERTEX
  5
634
  8
TEAM-KAN
 10
18.949987
 20
328.570005
 30
530.0
  0
VERTEX
  5
635
  8
TEAM-KAN
 10
20.029987
 20
328.810005
 30
530.0
  0
VERTEX
  5
636
  8
TEAM-KAN
 10
21.029987
 20
329.060005
 30
530.0
  0
VERTEX
  5
637
  8
TEAM-KAN
 10
21.949987
 20
329.320005
 30
530.0
  0
VERTEX
  5
638
  8
TEAM-KAN
 10
22.779987
 20
329.590005
 30
530.0
  0
VERTEX
  5
639
  8
TEAM-KAN
 10
23.519987
 20
329.870005
 30
530.0
  0
VERTEX
  5
63A
  8
TEAM-KAN
 10
24.169987
 20
330.160005
 30
530.0
  0
SEQEND
  5
63B
  8
TEAM-KAN
  0
LINE
  5
111
  8
TEAM-KAN
 10
-34.390014
 20
332.000005
 30
530.0
 11
34.379987
 21
332.000005
 31
530.0
  0
POLYLINE
  5
112
  8
TEAM-BODY
 66
     1
 10
0.0
 20
0.0
 30
580.0
 39
-20.0
  0
VERTEX
  5
63C
  8
TEAM-BODY
 10
900.0
 20
0.0
 30
580.0
  0
VERTEX
  5
63D
  8
TEAM-BODY
 10
900.0
 20
380.000006
 30
580.0
 42
0.414214
  0
VERTEX
  5
63E
  8
TEAM-BODY
 10
880.0
 20
400.000006
 30
580.0
  0
VERTEX
  5
63F
  8
TEAM-BODY
 10
-880.000027
 20
400.000006
 30
580.0
 42
0.414214
  0
VERTEX
  5
640
  8
TEAM-BODY
 10
-900.000027
 20
380.000006
 30
580.0
  0
VERTEX
  5
641
  8
TEAM-BODY
 10
-900.000027
 20
0.0
 30
580.0
  0
SEQEND
  5
642
  8
TEAM-BODY
  0
POLYLINE
  5
113
  8
TEAM-BODY
 66
     1
 10
0.0
 20
0.0
 30
580.0
 39
-20.0
  0
VERTEX
  5
643
  8
TEAM-BODY
 10
900.0
 20
0.0
 30
580.0
  0
VERTEX
  5
644
  8
TEAM-BODY
 10
900.0
 20
-380.000006
 30
580.0
 42
-0.414214
  0
VERTEX
  5
645
  8
TEAM-BODY
 10
880.0
 20
-400.000006
 30
580.0
  0
VERTEX
  5
646
  8
TEAM-BODY
 10
-880.000027
 20
-400.000006
 30
580.0
 42
-0.414214
  0
VERTEX
  5
647
  8
TEAM-BODY
 10
-900.000027
 20
-380.000006
 30
580.0
  0
VERTEX
  5
648
  8
TEAM-BODY
 10
-900.000027
 20
0.0
 30
580.0
  0
SEQEND
  5
649
  8
TEAM-BODY
  0
POLYLINE
  5
114
  8
TEAM-DET1
 66
     1
 10
0.0
 20
0.0
 30
580.0
  0
VERTEX
  5
64A
  8
TEAM-DET1
 10
-840.000026
 20
0.0
 30
580.0
 42
0.414214
  0
VERTEX
  5
64B
  8
TEAM-DET1
 10
-500.000021
 20
-340.000005
 30
580.0
  0
VERTEX
  5
64C
  8
TEAM-DET1
 10
499.999994
 20
-340.000005
 30
580.0
 42
0.414214
  0
VERTEX
  5
64D
  8
TEAM-DET1
 10
839.999999
 20
0.0
 30
580.0
  0
SEQEND
  5
64E
  8
TEAM-DET1
  0
POLYLINE
  5
115
  8
TEAM-DET1
 66
     1
 10
0.0
 20
0.0
 30
580.0
  0
VERTEX
  5
64F
  8
TEAM-DET1
 10
-840.000026
 20
0.0
 30
580.0
 42
-0.414214
  0
VERTEX
  5
650
  8
TEAM-DET1
 10
-500.000021
 20
340.000005
 30
580.0
  0
VERTEX
  5
651
  8
TEAM-DET1
 10
499.999994
 20
340.000005
 30
580.0
 42
-0.414214
  0
VERTEX
  5
652
  8
TEAM-DET1
 10
839.999999
 20
0.0
 30
580.0
  0
SEQEND
  5
653
  8
TEAM-DET1
  0
POLYLINE
  5
116
  8
TEAM-NET1
 66
     1
 10
0.0
 20
0.0
 30
0.0
 70
    16
 71
     2
 72
    37
  0
VERTEX
  5
117
  8
TEAM-NET1
 10
-840.000026
 20
0.0
 30
580.0
 70
    64
  0
VERTEX
  5
118
  8
TEAM-NET1
 10
-835.158156
 20
57.175413
 30
580.0
 70
    64
  0
VERTEX
  5
119
  8
TEAM-NET1
 10
-820.770451
 20
112.722379
 30
580.0
 70
    64
  0
VERTEX
  5
11A
  8
TEAM-NET1
 10
-797.246695
 20
165.058833
 30
580.0
 70
    64
  0
VERTEX
  5
11B
  8
TEAM-NET1
 10
-765.256882
 20
212.694149
 30
580.0
 70
    64
  0
VERTEX
  5
11C
  8
TEAM-NET1
 10
-725.712133
 20
254.271599
 30
580.0
 70
    64
  0
VERTEX
  5
11D
  8
TEAM-NET1
 10
-679.738744
 20
288.60699
 30
580.0
 70
    64
  0
VERTEX
  5
11E
  8
TEAM-NET1
 10
-628.646112
 20
314.722396
 30
580.0
 70
    64
  0
VERTEX
  5
11F
  8
TEAM-NET1
 10
-573.889435
 20
331.874009
 30
580.0
 70
    64
  0
VERTEX
  5
120
  8
TEAM-NET1
 10
-517.02827
 20
339.573324
 30
580.0
 70
    64
  0
VERTEX
  5
121
  8
TEAM-NET1
 10
-459.587021
 20
340.000005
 30
580.0
 70
    64
  0
VERTEX
  5
122
  8
TEAM-NET1
 10
-402.138645
 20
340.000005
 30
580.0
 70
    64
  0
VERTEX
  5
123
  8
TEAM-NET1
 10
-344.690269
 20
340.000005
 30
580.0
 70
    64
  0
VERTEX
  5
124
  8
TEAM-NET1
 10
-287.241893
 20
340.000005
 30
580.0
 70
    64
  0
VERTEX
  5
125
  8
TEAM-NET1
 10
-229.793517
 20
340.000005
 30
580.0
 70
    64
  0
VERTEX
  5
126
  8
TEAM-NET1
 10
-172.345141
 20
340.000005
 30
580.0
 70
    64
  0
VERTEX
  5
127
  8
TEAM-NET1
 10
-114.896765
 20
340.000005
 30
580.0
 70
    64
  0
VERTEX
  5
128
  8
TEAM-NET1
 10
-57.448389
 20
340.000005
 30
580.0
 70
    64
  0
VERTEX
  5
129
  8
TEAM-NET1
 10
-0.000013
 20
340.000005
 30
580.0
 70
    64
  0
VERTEX
  5
12A
  8
TEAM-NET1
 10
57.448362
 20
340.000005
 30
580.0
 70
    64
  0
VERTEX
  5
12B
  8
TEAM-NET1
 10
114.896738
 20
340.000005
 30
580.0
 70
    64
  0
VERTEX
  5
12C
  8
TEAM-NET1
 10
172.345114
 20
340.000005
 30
580.0
 70
    64
  0
VERTEX
  5
12D
  8
TEAM-NET1
 10
229.79349
 20
340.000005
 30
580.0
 70
    64
  0
VERTEX
  5
12E
  8
TEAM-NET1
 10
287.241866
 20
340.000005
 30
580.0
 70
    64
  0
VERTEX
  5
12F
  8
TEAM-NET1
 10
344.690242
 20
340.000005
 30
580.0
 70
    64
  0
VERTEX
  5
130
  8
TEAM-NET1
 10
402.138618
 20
340.000005
 30
580.0
 70
    64
  0
VERTEX
  5
131
  8
TEAM-NET1
 10
459.586994
 20
340.000005
 30
580.0
 70
    64
  0
VERTEX
  5
132
  8
TEAM-NET1
 10
517.028243
 20
339.573324
 30
580.0
 70
    64
  0
VERTEX
  5
133
  8
TEAM-NET1
 10
573.889408
 20
331.874009
 30
580.0
 70
    64
  0
VERTEX
  5
134
  8
TEAM-NET1
 10
628.646085
 20
314.722396
 30
580.0
 70
    64
  0
VERTEX
  5
135
  8
TEAM-NET1
 10
679.738717
 20
288.60699
 30
580.0
 70
    64
  0
VERTEX
  5
136
  8
TEAM-NET1
 10
725.712106
 20
254.271599
 30
580.0
 70
    64
  0
VERTEX
  5
137
  8
TEAM-NET1
 10
765.256855
 20
212.694149
 30
580.0
 70
    64
  0
VERTEX
  5
138
  8
TEAM-NET1
 10
797.246668
 20
165.058833
 30
580.0
 70
    64
  0
VERTEX
  5
139
  8
TEAM-NET1
 10
820.770424
 20
112.722379
 30
580.0
 70
    64
  0
VERTEX
  5
13A
  8
TEAM-NET1
 10
835.158129
 20
57.175413
 30
580.0
 70
    64
  0
VERTEX
  5
13B
  8
TEAM-NET1
 10
839.999999
 20
0.0
 30
580.0
 70
    64
  0
VERTEX
  5
13C
  8
TEAM-NET1
 10
-900.000027
 20
0.0
 30
580.0
 70
    64
  0
VERTEX
  5
13D
  8
TEAM-NET1
 10
-900.000027
 20
71.74533
 30
580.0
 70
    64
  0
VERTEX
  5
13E
  8
TEAM-NET1
 10
-900.000027
 20
143.490661
 30
580.0
 70
    64
  0
VERTEX
  5
13F
  8
TEAM-NET1
 10
-900.000027
 20
215.235991
 30
580.0
 70
    64
  0
VERTEX
  5
140
  8
TEAM-NET1
 10
-900.000027
 20
286.981321
 30
580.0
 70
    64
  0
VERTEX
  5
141
  8
TEAM-NET1
 10
-900.000027
 20
358.726652
 30
580.0
 70
    64
  0
VERTEX
  5
142
  8
TEAM-NET1
 10
-860.943978
 20
400.000006
 30
580.0
 70
    64
  0
VERTEX
  5
143
  8
TEAM-NET1
 10
-789.198647
 20
400.000006
 30
580.0
 70
    64
  0
VERTEX
  5
144
  8
TEAM-NET1
 10
-717.453317
 20
400.000006
 30
580.0
 70
    64
  0
VERTEX
  5
145
  8
TEAM-NET1
 10
-645.707987
 20
400.000006
 30
580.0
 70
    64
  0
VERTEX
  5
146
  8
TEAM-NET1
 10
-573.962656
 20
400.000006
 30
580.0
 70
    64
  0
VERTEX
  5
147
  8
TEAM-NET1
 10
-502.217326
 20
400.000006
 30
580.0
 70
    64
  0
VERTEX
  5
148
  8
TEAM-NET1
 10
-430.471996
 20
400.000006
 30
580.0
 70
    64
  0
VERTEX
  5
149
  8
TEAM-NET1
 10
-358.726665
 20
400.000006
 30
580.0
 70
    64
  0
VERTEX
  5
14A
  8
TEAM-NET1
 10
-286.981335
 20
400.000006
 30
580.0
 70
    64
  0
VERTEX
  5
14B
  8
TEAM-NET1
 10
-215.236005
 20
400.000006
 30
580.0
 70
    64
  0
VERTEX
  5
14C
  8
TEAM-NET1
 10
-143.490674
 20
400.000006
 30
580.0
 70
    64
  0
VERTEX
  5
14D
  8
TEAM-NET1
 10
-71.745344
 20
400.000006
 30
580.0
 70
    64
  0
VERTEX
  5
14E
  8
TEAM-NET1
 10
-0.000013
 20
400.000006
 30
580.0
 70
    64
  0
VERTEX
  5
14F
  8
TEAM-NET1
 10
71.745317
 20
400.000006
 30
580.0
 70
    64
  0
VERTEX
  5
150
  8
TEAM-NET1
 10
143.490647
 20
400.000006
 30
580.0
 70
    64
  0
VERTEX
  5
151
  8
TEAM-NET1
 10
215.235978
 20
400.000006
 30
580.0
 70
    64
  0
VERTEX
  5
152
  8
TEAM-NET1
 10
286.981308
 20
400.000006
 30
580.0
 70
    64
  0
VERTEX
  5
153
  8
TEAM-NET1
 10
358.726638
 20
400.000006
 30
580.0
 70
    64
  0
VERTEX
  5
154
  8
TEAM-NET1
 10
430.471969
 20
400.000006
 30
580.0
 70
    64
  0
VERTEX
  5
155
  8
TEAM-NET1
 10
502.217299
 20
400.000006
 30
580.0
 70
    64
  0
VERTEX
  5
156
  8
TEAM-NET1
 10
573.962629
 20
400.000006
 30
580.0
 70
    64
  0
VERTEX
  5
157
  8
TEAM-NET1
 10
645.70796
 20
400.000006
 30
580.0
 70
    64
  0
VERTEX
  5
158
  8
TEAM-NET1
 10
717.45329
 20
400.000006
 30
580.0
 70
    64
  0
VERTEX
  5
159
  8
TEAM-NET1
 10
789.19862
 20
400.000006
 30
580.0
 70
    64
  0
VERTEX
  5
15A
  8
TEAM-NET1
 10
860.943951
 20
400.000006
 30
580.0
 70
    64
  0
VERTEX
  5
15B
  8
TEAM-NET1
 10
900.0
 20
358.726652
 30
580.0
 70
    64
  0
VERTEX
  5
15C
  8
TEAM-NET1
 10
900.0
 20
286.981321
 30
580.0
 70
    64
  0
VERTEX
  5
15D
  8
TEAM-NET1
 10
900.0
 20
215.235991
 30
580.0
 70
    64
  0
VERTEX
  5
15E
  8
TEAM-NET1
 10
900.0
 20
143.490661
 30
580.0
 70
    64
  0
VERTEX
  5
15F
  8
TEAM-NET1
 10
900.0
 20
71.74533
 30
580.0
 70
    64
  0
VERTEX
  5
160
  8
TEAM-NET1
 10
900.0
 20
0.0
 30
580.0
 70
    64
  0
SEQEND
  5
161
  8
TEAM-NET1
  0
POLYLINE
  5
162
  8
TEAM-NET1
 66
     1
 10
0.0
 20
0.0
 30
0.0
 70
    16
 71
     2
 72
    37
  0
VERTEX
  5
163
  8
TEAM-NET1
 10
-840.000026
 20
0.0
 30
580.0
 70
    64
  0
VERTEX
  5
164
  8
TEAM-NET1
 10
-835.158156
 20
-57.175413
 30
580.0
 70
    64
  0
VERTEX
  5
165
  8
TEAM-NET1
 10
-820.770451
 20
-112.722379
 30
580.0
 70
    64
  0
VERTEX
  5
166
  8
TEAM-NET1
 10
-797.246695
 20
-165.058833
 30
580.0
 70
    64
  0
VERTEX
  5
167
  8
TEAM-NET1
 10
-765.256882
 20
-212.694149
 30
580.0
 70
    64
  0
VERTEX
  5
168
  8
TEAM-NET1
 10
-725.712133
 20
-254.271599
 30
580.0
 70
    64
  0
VERTEX
  5
169
  8
TEAM-NET1
 10
-679.738744
 20
-288.60699
 30
580.0
 70
    64
  0
VERTEX
  5
16A
  8
TEAM-NET1
 10
-628.646112
 20
-314.722396
 30
580.0
 70
    64
  0
VERTEX
  5
16B
  8
TEAM-NET1
 10
-573.889435
 20
-331.874009
 30
580.0
 70
    64
  0
VERTEX
  5
16C
  8
TEAM-NET1
 10
-517.02827
 20
-339.573324
 30
580.0
 70
    64
  0
VERTEX
  5
16D
  8
TEAM-NET1
 10
-459.587021
 20
-340.000005
 30
580.0
 70
    64
  0
VERTEX
  5
16E
  8
TEAM-NET1
 10
-402.138645
 20
-340.000005
 30
580.0
 70
    64
  0
VERTEX
  5
16F
  8
TEAM-NET1
 10
-344.690269
 20
-340.000005
 30
580.0
 70
    64
  0
VERTEX
  5
170
  8
TEAM-NET1
 10
-287.241893
 20
-340.000005
 30
580.0
 70
    64
  0
VERTEX
  5
171
  8
TEAM-NET1
 10
-229.793517
 20
-340.000005
 30
580.0
 70
    64
  0
VERTEX
  5
172
  8
TEAM-NET1
 10
-172.345141
 20
-340.000005
 30
580.0
 70
    64
  0
VERTEX
  5
173
  8
TEAM-NET1
 10
-114.896765
 20
-340.000005
 30
580.0
 70
    64
  0
VERTEX
  5
174
  8
TEAM-NET1
 10
-57.448389
 20
-340.000005
 30
580.0
 70
    64
  0
VERTEX
  5
175
  8
TEAM-NET1
 10
-0.000013
 20
-340.000005
 30
580.0
 70
    64
  0
VERTEX
  5
176
  8
TEAM-NET1
 10
57.448362
 20
-340.000005
 30
580.0
 70
    64
  0
VERTEX
  5
177
  8
TEAM-NET1
 10
114.896738
 20
-340.000005
 30
580.0
 70
    64
  0
VERTEX
  5
178
  8
TEAM-NET1
 10
172.345114
 20
-340.000005
 30
580.0
 70
    64
  0
VERTEX
  5
179
  8
TEAM-NET1
 10
229.79349
 20
-340.000005
 30
580.0
 70
    64
  0
VERTEX
  5
17A
  8
TEAM-NET1
 10
287.241866
 20
-340.000005
 30
580.0
 70
    64
  0
VERTEX
  5
17B
  8
TEAM-NET1
 10
344.690242
 20
-340.000005
 30
580.0
 70
    64
  0
VERTEX
  5
17C
  8
TEAM-NET1
 10
402.138618
 20
-340.000005
 30
580.0
 70
    64
  0
VERTEX
  5
17D
  8
TEAM-NET1
 10
459.586994
 20
-340.000005
 30
580.0
 70
    64
  0
VERTEX
  5
17E
  8
TEAM-NET1
 10
517.028243
 20
-339.573324
 30
580.0
 70
    64
  0
VERTEX
  5
17F
  8
TEAM-NET1
 10
573.889408
 20
-331.874009
 30
580.0
 70
    64
  0
VERTEX
  5
180
  8
TEAM-NET1
 10
628.646085
 20
-314.722396
 30
580.0
 70
    64
  0
VERTEX
  5
181
  8
TEAM-NET1
 10
679.738717
 20
-288.60699
 30
580.0
 70
    64
  0
VERTEX
  5
182
  8
TEAM-NET1
 10
725.712106
 20
-254.271599
 30
580.0
 70
    64
  0
VERTEX
  5
183
  8
TEAM-NET1
 10
765.256855
 20
-212.694149
 30
580.0
 70
    64
  0
VERTEX
  5
184
  8
TEAM-NET1
 10
797.246668
 20
-165.058833
 30
580.0
 70
    64
  0
VERTEX
  5
185
  8
TEAM-NET1
 10
820.770424
 20
-112.722379
 30
580.0
 70
    64
  0
VERTEX
  5
186
  8
TEAM-NET1
 10
835.158129
 20
-57.175413
 30
580.0
 70
    64
  0
VERTEX
  5
187
  8
TEAM-NET1
 10
839.999999
 20
0.0
 30
580.0
 70
    64
  0
VERTEX
  5
188
  8
TEAM-NET1
 10
-900.000027
 20
0.0
 30
580.0
 70
    64
  0
VERTEX
  5
189
  8
TEAM-NET1
 10
-900.000027
 20
-71.74533
 30
580.0
 70
    64
  0
VERTEX
  5
18A
  8
TEAM-NET1
 10
-900.000027
 20
-143.490661
 30
580.0
 70
    64
  0
VERTEX
  5
18B
  8
TEAM-NET1
 10
-900.000027
 20
-215.235991
 30
580.0
 70
    64
  0
VERTEX
  5
18C
  8
TEAM-NET1
 10
-900.000027
 20
-286.981321
 30
580.0
 70
    64
  0
VERTEX
  5
18D
  8
TEAM-NET1
 10
-900.000027
 20
-358.726652
 30
580.0
 70
    64
  0
VERTEX
  5
18E
  8
TEAM-NET1
 10
-860.943978
 20
-400.000006
 30
580.0
 70
    64
  0
VERTEX
  5
18F
  8
TEAM-NET1
 10
-789.198647
 20
-400.000006
 30
580.0
 70
    64
  0
VERTEX
  5
190
  8
TEAM-NET1
 10
-717.453317
 20
-400.000006
 30
580.0
 70
    64
  0
VERTEX
  5
191
  8
TEAM-NET1
 10
-645.707987
 20
-400.000006
 30
580.0
 70
    64
  0
VERTEX
  5
192
  8
TEAM-NET1
 10
-573.962656
 20
-400.000006
 30
580.0
 70
    64
  0
VERTEX
  5
193
  8
TEAM-NET1
 10
-502.217326
 20
-400.000006
 30
580.0
 70
    64
  0
VERTEX
  5
194
  8
TEAM-NET1
 10
-430.471996
 20
-400.000006
 30
580.0
 70
    64
  0
VERTEX
  5
195
  8
TEAM-NET1
 10
-358.726665
 20
-400.000006
 30
580.0
 70
    64
  0
VERTEX
  5
196
  8
TEAM-NET1
 10
-286.981335
 20
-400.000006
 30
580.0
 70
    64
  0
VERTEX
  5
197
  8
TEAM-NET1
 10
-215.236005
 20
-400.000006
 30
580.0
 70
    64
  0
VERTEX
  5
198
  8
TEAM-NET1
 10
-143.490674
 20
-400.000006
 30
580.0
 70
    64
  0
VERTEX
  5
199
  8
TEAM-NET1
 10
-71.745344
 20
-400.000006
 30
580.0
 70
    64
  0
VERTEX
  5
19A
  8
TEAM-NET1
 10
-0.000013
 20
-400.000006
 30
580.0
 70
    64
  0
VERTEX
  5
19B
  8
TEAM-NET1
 10
71.745317
 20
-400.000006
 30
580.0
 70
    64
  0
VERTEX
  5
19C
  8
TEAM-NET1
 10
143.490647
 20
-400.000006
 30
580.0
 70
    64
  0
VERTEX
  5
19D
  8
TEAM-NET1
 10
215.235978
 20
-400.000006
 30
580.0
 70
    64
  0
VERTEX
  5
19E
  8
TEAM-NET1
 10
286.981308
 20
-400.000006
 30
580.0
 70
    64
  0
VERTEX
  5
19F
  8
TEAM-NET1
 10
358.726638
 20
-400.000006
 30
580.0
 70
    64
  0
VERTEX
  5
1A0
  8
TEAM-NET1
 10
430.471969
 20
-400.000006
 30
580.0
 70
    64
  0
VERTEX
  5
1A1
  8
TEAM-NET1
 10
502.217299
 20
-400.000006
 30
580.0
 70
    64
  0
VERTEX
  5
1A2
  8
TEAM-NET1
 10
573.962629
 20
-400.000006
 30
580.0
 70
    64
  0
VERTEX
  5
1A3
  8
TEAM-NET1
 10
645.70796
 20
-400.000006
 30
580.0
 70
    64
  0
VERTEX
  5
1A4
  8
TEAM-NET1
 10
717.45329
 20
-400.000006
 30
580.0
 70
    64
  0
VERTEX
  5
1A5
  8
TEAM-NET1
 10
789.19862
 20
-400.000006
 30
580.0
 70
    64
  0
VERTEX
  5
1A6
  8
TEAM-NET1
 10
860.943951
 20
-400.000006
 30
580.0
 70
    64
  0
VERTEX
  5
1A7
  8
TEAM-NET1
 10
900.0
 20
-358.726652
 30
580.0
 70
    64
  0
VERTEX
  5
1A8
  8
TEAM-NET1
 10
900.0
 20
-286.981321
 30
580.0
 70
    64
  0
VERTEX
  5
1A9
  8
TEAM-NET1
 10
900.0
 20
-215.235991
 30
580.0
 70
    64
  0
VERTEX
  5
1AA
  8
TEAM-NET1
 10
900.0
 20
-143.490661
 30
580.0
 70
    64
  0
VERTEX
  5
1AB
  8
TEAM-NET1
 10
900.0
 20
-71.74533
 30
580.0
 70
    64
  0
VERTEX
  5
1AC
  8
TEAM-NET1
 10
900.0
 20
0.0
 30
580.0
 70
    64
  0
SEQEND
  5
1AD
  8
TEAM-NET1
  0
TEXT
  5
1AE
  8
TEAM-TXT
 10
-876.362922
 20
342.433104
 30
580.0
 40
30.0
  1
team 111365
 41
0.8
 51
15.0
  7
TEAM
  0
POLYLINE
  5
1B1
  8
TEAM-DET1
 66
     1
 10
0.0
 20
0.0
 30
580.0
  0
VERTEX
  5
654
  8
TEAM-DET1
 10
-614.959733
 20
-228.255928
 30
580.0
 42
0.146587
  0
VERTEX
  5
655
  8
TEAM-DET1
 10
-450.00002
 20
-277.680004
 30
580.0
  0
VERTEX
  5
656
  8
TEAM-DET1
 10
449.999993
 20
-277.680004
 30
580.0
 42
0.146582
  0
VERTEX
  5
657
  8
TEAM-DET1
 10
614.954021
 20
-228.259671
 30
580.0
  0
SEQEND
  5
658
  8
TEAM-DET1
  0
POLYLINE
  5
1B2
  8
TEAM-DET1
 66
     1
 10
0.0
 20
0.0
 30
580.0
  0
VERTEX
  5
659
  8
TEAM-DET1
 10
-614.959733
 20
228.255928
 30
580.0
 42
-0.146587
  0
VERTEX
  5
65A
  8
TEAM-DET1
 10
-450.00002
 20
277.680004
 30
580.0
  0
VERTEX
  5
65B
  8
TEAM-DET1
 10
449.999993
 20
277.680004
 30
580.0
 42
-0.146582
  0
VERTEX
  5
65C
  8
TEAM-DET1
 10
614.954021
 20
228.259671
 30
580.0
  0
SEQEND
  5
65D
  8
TEAM-DET1
  0
ENDSEC
  0
EOF
