  0
SECTION
  2
HEADER
  9
$ACADVER
  1
AC1009
  9
$INSBASE
 10
0.0
 20
0.0
 30
0.0
  9
$EXTMIN
 10
-927.316393
 20
-456.505993
 30
-0.014009
  9
$EXTMAX
 10
929.443836
 20
452.59776
 30
547.784406
  9
$LIMMIN
 10
-927.316393
 20
-456.505993
  9
$LIMMAX
 10
929.443836
 20
452.59776
  9
$ORTHOMODE
 70
     1
  9
$REGENMODE
 70
     1
  9
$FILLMODE
 70
     1
  9
$QTEXTMODE
 70
     0
  9
$MIRRTEXT
 70
     0
  9
$DRAGMODE
 70
     2
  9
$LTSCALE
 40
50.0
  9
$OSMODE
 70
     7
  9
$ATTMODE
 70
     1
  9
$TEXTSIZE
 40
200.0
  9
$TRACEWID
 40
1.0
  9
$TEXTSTYLE
  7
STANDARD
  9
$CLAYER
  8
TEAM-MAS
  9
$CELTYPE
  6
BYLAYER
  9
$CECOLOR
 62
   256
  9
$DIMSCALE
 40
0.0
  9
$DIMASZ
 40
20.0
  9
$DIMEXO
 40
10.0
  9
$DIMDLI
 40
1.0
  9
$DIMRND
 40
0.0
  9
$DIMDLE
 40
0.0
  9
$DIMEXE
 40
1.0
  9
$DIMTP
 40
0.0
  9
$DIMTM
 40
0.0
  9
$DIMTXT
 40
35.0
  9
$DIMCEN
 40
1.0
  9
$DIMTSZ
 40
0.0
  9
$DIMTOL
 70
     0
  9
$DIMLIM
 70
     0
  9
$DIMTIH
 70
     0
  9
$DIMTOH
 70
     0
  9
$DIMSE1
 70
     0
  9
$DIMSE2
 70
     0
  9
$DIMTAD
 70
     0
  9
$DIMZIN
 70
     0
  9
$DIMBLK
  1

  9
$DIMASO
 70
     1
  9
$DIMSHO
 70
     0
  9
$DIMPOST
  1

  9
$DIMAPOST
  1

  9
$DIMALT
 70
     0
  9
$DIMALTD
 70
     2
  9
$DIMALTF
 40
25.4
  9
$DIMLFAC
 40
1.0
  9
$DIMTOFL
 70
     0
  9
$DIMTVP
 40
0.0
  9
$DIMTIX
 70
     0
  9
$DIMSOXD
 70
     0
  9
$DIMSAH
 70
     0
  9
$DIMBLK1
  1

  9
$DIMBLK2
  1

  9
$DIMSTYLE
  2
TEAM
  9
$DIMCLRD
 70
     9
  9
$DIMCLRE
 70
     9
  9
$DIMCLRT
 70
    11
  9
$DIMTFAC
 40
1.0
  9
$DIMGAP
 40
7.0
  9
$LUNITS
 70
     2
  9
$LUPREC
 70
     1
  9
$SKETCHINC
 40
1.0
  9
$FILLETRAD
 40
10.0
  9
$AUNITS
 70
     0
  9
$AUPREC
 70
     0
  9
$MENU
  1
ROPLANS
  9
$ELEVATION
 40
0.0
  9
$PELEVATION
 40
0.0
  9
$THICKNESS
 40
0.0
  9
$LIMCHECK
 70
     0
  9
$BLIPMODE
 70
     1
  9
$CHAMFERA
 40
0.0
  9
$CHAMFERB
 40
0.0
  9
$SKPOLY
 70
     0
  9
$TDCREATE
 40
2450392.957851
  9
$TDUPDATE
 40
2455955.923321
  9
$TDINDWG
 40
2.217917
  9
$TDUSRTIMER
 40
2.217917
  9
$USRTIMER
 70
     1
  9
$ANGBASE
 50
0.0
  9
$ANGDIR
 70
     0
  9
$PDMODE
 70
     0
  9
$PDSIZE
 40
0.0
  9
$PLINEWID
 40
0.0
  9
$COORDS
 70
     2
  9
$SPLFRAME
 70
     0
  9
$SPLINETYPE
 70
     6
  9
$SPLINESEGS
 70
     8
  9
$ATTDIA
 70
     0
  9
$ATTREQ
 70
     0
  9
$HANDLING
 70
     1
  9
$HANDSEED
  5
5FA
  9
$SURFTAB1
 70
    24
  9
$SURFTAB2
 70
    24
  9
$SURFTYPE
 70
     6
  9
$SURFU
 70
     6
  9
$SURFV
 70
     6
  9
$UCSNAME
  2

  9
$UCSORG
 10
0.0
 20
0.0
 30
0.0
  9
$UCSXDIR
 10
1.0
 20
0.0
 30
0.0
  9
$UCSYDIR
 10
0.0
 20
1.0
 30
0.0
  9
$PUCSNAME
  2

  9
$PUCSORG
 10
0.0
 20
0.0
 30
0.0
  9
$PUCSXDIR
 10
1.0
 20
0.0
 30
0.0
  9
$PUCSYDIR
 10
0.0
 20
1.0
 30
0.0
  9
$USERI1
 70
     0
  9
$USERI2
 70
     0
  9
$USERI3
 70
     0
  9
$USERI4
 70
     0
  9
$USERI5
 70
     0
  9
$USERR1
 40
0.0
  9
$USERR2
 40
0.0
  9
$USERR3
 40
0.0
  9
$USERR4
 40
0.0
  9
$USERR5
 40
0.0
  9
$WORLDVIEW
 70
     1
  9
$SHADEDGE
 70
     0
  9
$SHADEDIF
 70
    70
  9
$TILEMODE
 70
     1
  9
$MAXACTVP
 70
    16
  9
$PLIMCHECK
 70
     0
  9
$PEXTMIN
 10
-0.805942
 20
0.005011
 30
0.0
  9
$PEXTMAX
 10
20.250094
 20
11.356329
 30
0.0
  9
$PLIMMIN
 10
0.0
 20
0.0
  9
$PLIMMAX
 10
12.0
 20
9.0
  9
$UNITMODE
 70
     0
  9
$VISRETAIN
 70
     0
  9
$PLINEGEN
 70
     0
  9
$PSLTSCALE
 70
     0
  0
ENDSEC
  0
SECTION
  2
TABLES
  0
TABLE
  2
VPORT
 70
     2
  0
VPORT
  2
*ACTIVE
 70
     0
 10
0.0
 20
0.0
 11
1.0
 21
1.0
 12
1.063721
 22
-1.954117
 13
0.0
 23
0.0
 14
1.0
 24
1.0
 15
50.0
 25
50.0
 16
0.0
 26
0.0
 36
1.0
 17
0.0
 27
0.0
 37
0.0
 40
978.521165
 41
1.903766
 42
50.0
 43
0.0
 44
0.0
 50
0.0
 51
0.0
 71
     0
 72
   100
 73
     1
 74
     1
 75
     0
 76
     0
 77
     0
 78
     0
  0
ENDTAB
  0
TABLE
  2
LTYPE
 70
     1
  0
LTYPE
  2
CONTINUOUS
 70
     0
  3
Solid Line
 72
    65
 73
     0
 40
0.0
  0
ENDTAB
  0
TABLE
  2
LAYER
 70
     8
  0
LAYER
  2
0
 70
     0
 62
     7
  6
CONTINUOUS
  0
LAYER
  2
TEAM-BODY
 70
     0
 62
     2
  6
CONTINUOUS
  0
LAYER
  2
TEAM-MAS
 70
     0
 62
     9
  6
CONTINUOUS
  0
LAYER
  2
TEAM-TXT
 70
     0
 62
    11
  6
CONTINUOUS
  0
LAYER
  2
TEAM-DET1
 70
     0
 62
     4
  6
CONTINUOUS
  0
LAYER
  2
TEAM-KAN
 70
     0
 62
     6
  6
CONTINUOUS
  0
LAYER
  2
TEAM-NET
 70
     0
 62
    15
  6
CONTINUOUS
  0
LAYER
  2
TEAM-INSP
 70
     0
 62
     5
  6
CONTINUOUS
  0
ENDTAB
  0
TABLE
  2
STYLE
 70
     2
  0
STYLE
  2
STANDARD
 70
     0
 40
0.0
 41
1.0
 50
0.0
 71
     0
 42
200.0
  3
txt
  4

  0
STYLE
  2
TEAM
 70
     0
 40
0.0
 41
0.8
 50
15.0
 71
     0
 42
7.0
  3
ROMANS.shx
  4

  0
ENDTAB
  0
TABLE
  2
VIEW
 70
     0
  0
ENDTAB
  0
TABLE
  2
UCS
 70
     0
  0
ENDTAB
  0
TABLE
  2
APPID
 70
     1
  0
APPID
  2
ACAD
 70
     0
  0
ENDTAB
  0
TABLE
  2
DIMSTYLE
 70
     1
  0
DIMSTYLE
  2
TEAM
 70
     0
  3

  4

  5

  6

  7

 40
0.0
 41
20.0
 42
10.0
 43
1.0
 44
1.0
 45
0.0
 46
0.0
 47
0.0
 48
0.0
140
35.0
141
1.0
142
0.0
143
25.4
144
1.0
145
0.0
146
1.0
147
7.0
 71
     0
 72
     0
 73
     0
 74
     0
 75
     0
 76
     0
 77
     0
 78
     0
170
     0
171
     2
172
     0
173
     0
174
     0
175
     0
176
     9
177
     9
178
    11
  0
ENDTAB
  0
ENDSEC
  0
SECTION
  2
BLOCKS
  0
BLOCK
  8
0
  2
$MODEL_SPACE
 70
     0
 10
0.0
 20
0.0
 30
0.0
  3
$MODEL_SPACE
  1

  0
ENDBLK
  5
56B
  8
0
  0
BLOCK
 67
     1
  8
0
  2
$PAPER_SPACE
 70
     0
 10
0.0
 20
0.0
 30
0.0
  3
$PAPER_SPACE
  1

  0
ENDBLK
  5
569
 67
     1
  8
0
  0
ENDSEC
  0
SECTION
  2
ENTITIES
  0
POLYLINE
  5
20
  8
TEAM-NET
 66
     1
 10
0.0
 20
0.0
 30
0.0
 70
    16
 71
     2
 72
    37
  0
VERTEX
  5
21
  8
TEAM-NET
 10
-565.0
 20
0.0
 30
110.0
 70
    64
  0
VERTEX
  5
22
  8
TEAM-NET
 10
-561.950628
 20
39.317692
 30
110.0
 70
    64
  0
VERTEX
  5
23
  8
TEAM-NET
 10
-552.875444
 20
77.695037
 30
110.0
 70
    64
  0
VERTEX
  5
24
  8
TEAM-NET
 10
-537.991495
 20
114.214178
 30
110.0
 70
    64
  0
VERTEX
  5
25
  8
TEAM-NET
 10
-517.654755
 20
148.001699
 30
110.0
 70
    64
  0
VERTEX
  5
26
  8
TEAM-NET
 10
-492.35161
 20
178.249517
 30
110.0
 70
    64
  0
VERTEX
  5
27
  8
TEAM-NET
 10
-462.687228
 20
204.234205
 30
110.0
 70
    64
  0
VERTEX
  5
28
  8
TEAM-NET
 10
-429.37108
 20
225.334297
 30
110.0
 70
    64
  0
VERTEX
  5
29
  8
TEAM-NET
 10
-393.199977
 20
241.045149
 30
110.0
 70
    64
  0
VERTEX
  5
2A
  8
TEAM-NET
 10
-355.03901
 20
250.991011
 30
110.0
 70
    64
  0
VERTEX
  5
2B
  8
TEAM-NET
 10
-315.800861
 20
254.934011
 30
110.0
 70
    64
  0
VERTEX
  5
2C
  8
TEAM-NET
 10
-276.326191
 20
255.0
 30
110.0
 70
    64
  0
VERTEX
  5
2D
  8
TEAM-NET
 10
-236.851021
 20
255.0
 30
110.0
 70
    64
  0
VERTEX
  5
2E
  8
TEAM-NET
 10
-197.375851
 20
255.0
 30
110.0
 70
    64
  0
VERTEX
  5
2F
  8
TEAM-NET
 10
-157.900681
 20
255.0
 30
110.0
 70
    64
  0
VERTEX
  5
30
  8
TEAM-NET
 10
-118.425511
 20
255.0
 30
110.0
 70
    64
  0
VERTEX
  5
31
  8
TEAM-NET
 10
-78.95034
 20
255.0
 30
110.0
 70
    64
  0
VERTEX
  5
32
  8
TEAM-NET
 10
-39.47517
 20
255.0
 30
110.0
 70
    64
  0
VERTEX
  5
33
  8
TEAM-NET
 10
0.0
 20
255.0
 30
110.0
 70
    64
  0
VERTEX
  5
34
  8
TEAM-NET
 10
39.47517
 20
255.0
 30
110.0
 70
    64
  0
VERTEX
  5
35
  8
TEAM-NET
 10
78.95034
 20
255.0
 30
110.0
 70
    64
  0
VERTEX
  5
36
  8
TEAM-NET
 10
118.425511
 20
255.0
 30
110.0
 70
    64
  0
VERTEX
  5
37
  8
TEAM-NET
 10
157.900681
 20
255.0
 30
110.0
 70
    64
  0
VERTEX
  5
38
  8
TEAM-NET
 10
197.375851
 20
255.0
 30
110.0
 70
    64
  0
VERTEX
  5
39
  8
TEAM-NET
 10
236.851021
 20
255.0
 30
110.0
 70
    64
  0
VERTEX
  5
3A
  8
TEAM-NET
 10
276.326191
 20
255.0
 30
110.0
 70
    64
  0
VERTEX
  5
3B
  8
TEAM-NET
 10
315.800861
 20
254.934011
 30
110.0
 70
    64
  0
VERTEX
  5
3C
  8
TEAM-NET
 10
355.03901
 20
250.991011
 30
110.0
 70
    64
  0
VERTEX
  5
3D
  8
TEAM-NET
 10
393.199977
 20
241.045149
 30
110.0
 70
    64
  0
VERTEX
  5
3E
  8
TEAM-NET
 10
429.37108
 20
225.334297
 30
110.0
 70
    64
  0
VERTEX
  5
3F
  8
TEAM-NET
 10
462.687228
 20
204.234205
 30
110.0
 70
    64
  0
VERTEX
  5
40
  8
TEAM-NET
 10
492.35161
 20
178.249517
 30
110.0
 70
    64
  0
VERTEX
  5
41
  8
TEAM-NET
 10
517.654755
 20
148.001699
 30
110.0
 70
    64
  0
VERTEX
  5
42
  8
TEAM-NET
 10
537.991495
 20
114.214178
 30
110.0
 70
    64
  0
VERTEX
  5
43
  8
TEAM-NET
 10
552.875444
 20
77.695037
 30
110.0
 70
    64
  0
VERTEX
  5
44
  8
TEAM-NET
 10
561.950628
 20
39.317692
 30
110.0
 70
    64
  0
VERTEX
  5
45
  8
TEAM-NET
 10
565.0
 20
0.0
 30
110.0
 70
    64
  0
VERTEX
  5
46
  8
TEAM-NET
 10
-793.333358
 20
0.0
 30
547.777778
 70
    64
  0
VERTEX
  5
47
  8
TEAM-NET
 10
-789.053224
 20
53.977499
 30
547.777778
 70
    64
  0
VERTEX
  5
48
  8
TEAM-NET
 10
-775.622378
 20
106.432263
 30
547.777778
 70
    64
  0
VERTEX
  5
49
  8
TEAM-NET
 10
-753.435029
 20
155.824686
 30
547.777778
 70
    64
  0
VERTEX
  5
4A
  8
TEAM-NET
 10
-723.142402
 20
200.705046
 30
547.777778
 70
    64
  0
VERTEX
  5
4B
  8
TEAM-NET
 10
-685.633619
 20
239.756052
 30
547.777778
 70
    64
  0
VERTEX
  5
4C
  8
TEAM-NET
 10
-642.009605
 20
271.831515
 30
547.777778
 70
    64
  0
VERTEX
  5
4D
  8
TEAM-NET
 10
-593.550774
 20
295.989984
 30
547.777778
 70
    64
  0
VERTEX
  5
4E
  8
TEAM-NET
 10
-541.679447
 20
311.52238
 30
547.777778
 70
    64
  0
VERTEX
  5
4F
  8
TEAM-NET
 10
-487.918105
 20
317.97281
 30
547.777778
 70
    64
  0
VERTEX
  5
50
  8
TEAM-NET
 10
-433.706959
 20
318.111116
 30
547.777778
 70
    64
  0
VERTEX
  5
51
  8
TEAM-NET
 10
-379.493591
 20
318.111116
 30
547.777778
 70
    64
  0
VERTEX
  5
52
  8
TEAM-NET
 10
-325.280223
 20
318.111116
 30
547.777778
 70
    64
  0
VERTEX
  5
53
  8
TEAM-NET
 10
-271.066854
 20
318.111116
 30
547.777778
 70
    64
  0
VERTEX
  5
54
  8
TEAM-NET
 10
-216.853486
 20
318.111116
 30
547.777778
 70
    64
  0
VERTEX
  5
55
  8
TEAM-NET
 10
-162.640118
 20
318.111116
 30
547.777778
 70
    64
  0
VERTEX
  5
56
  8
TEAM-NET
 10
-108.426749
 20
318.111116
 30
547.777778
 70
    64
  0
VERTEX
  5
57
  8
TEAM-NET
 10
-54.213381
 20
318.111116
 30
547.777778
 70
    64
  0
VERTEX
  5
58
  8
TEAM-NET
 10
-0.000013
 20
318.111116
 30
547.777778
 70
    64
  0
VERTEX
  5
59
  8
TEAM-NET
 10
54.213356
 20
318.111116
 30
547.777778
 70
    64
  0
VERTEX
  5
5A
  8
TEAM-NET
 10
108.426724
 20
318.111116
 30
547.777778
 70
    64
  0
VERTEX
  5
5B
  8
TEAM-NET
 10
162.640092
 20
318.111116
 30
547.777778
 70
    64
  0
VERTEX
  5
5C
  8
TEAM-NET
 10
216.853461
 20
318.111116
 30
547.777778
 70
    64
  0
VERTEX
  5
5D
  8
TEAM-NET
 10
271.066829
 20
318.111116
 30
547.777778
 70
    64
  0
VERTEX
  5
5E
  8
TEAM-NET
 10
325.280197
 20
318.111116
 30
547.777778
 70
    64
  0
VERTEX
  5
5F
  8
TEAM-NET
 10
379.493566
 20
318.111116
 30
547.777778
 70
    64
  0
VERTEX
  5
60
  8
TEAM-NET
 10
433.706934
 20
318.111116
 30
547.777778
 70
    64
  0
VERTEX
  5
61
  8
TEAM-NET
 10
487.918079
 20
317.97281
 30
547.777778
 70
    64
  0
VERTEX
  5
62
  8
TEAM-NET
 10
541.679421
 20
311.52238
 30
547.777778
 70
    64
  0
VERTEX
  5
63
  8
TEAM-NET
 10
593.550748
 20
295.989984
 30
547.777778
 70
    64
  0
VERTEX
  5
64
  8
TEAM-NET
 10
642.00958
 20
271.831515
 30
547.777778
 70
    64
  0
VERTEX
  5
65
  8
TEAM-NET
 10
685.633594
 20
239.756052
 30
547.777778
 70
    64
  0
VERTEX
  5
66
  8
TEAM-NET
 10
723.142377
 20
200.705046
 30
547.777778
 70
    64
  0
VERTEX
  5
67
  8
TEAM-NET
 10
753.435004
 20
155.824686
 30
547.777778
 70
    64
  0
VERTEX
  5
68
  8
TEAM-NET
 10
775.622352
 20
106.432263
 30
547.777778
 70
    64
  0
VERTEX
  5
69
  8
TEAM-NET
 10
789.053199
 20
53.977499
 30
547.777778
 70
    64
  0
VERTEX
  5
6A
  8
TEAM-NET
 10
793.333332
 20
0.0
 30
547.777778
 70
    64
  0
SEQEND
  5
6C
  8
TEAM-NET
  0
POLYLINE
  5
6D
  8
TEAM-NET
 66
     1
 10
0.0
 20
0.0
 30
0.0
 70
    16
 71
     2
 72
    37
  0
VERTEX
  5
6E
  8
TEAM-NET
 10
-565.0
 20
0.0
 30
110.0
 70
    64
  0
VERTEX
  5
6F
  8
TEAM-NET
 10
-561.950628
 20
-39.317692
 30
110.0
 70
    64
  0
VERTEX
  5
70
  8
TEAM-NET
 10
-552.875444
 20
-77.695037
 30
110.0
 70
    64
  0
VERTEX
  5
71
  8
TEAM-NET
 10
-537.991495
 20
-114.214178
 30
110.0
 70
    64
  0
VERTEX
  5
72
  8
TEAM-NET
 10
-517.654755
 20
-148.001699
 30
110.0
 70
    64
  0
VERTEX
  5
73
  8
TEAM-NET
 10
-492.35161
 20
-178.249517
 30
110.0
 70
    64
  0
VERTEX
  5
74
  8
TEAM-NET
 10
-462.687228
 20
-204.234205
 30
110.0
 70
    64
  0
VERTEX
  5
75
  8
TEAM-NET
 10
-429.37108
 20
-225.334297
 30
110.0
 70
    64
  0
VERTEX
  5
76
  8
TEAM-NET
 10
-393.199977
 20
-241.045149
 30
110.0
 70
    64
  0
VERTEX
  5
77
  8
TEAM-NET
 10
-355.03901
 20
-250.991011
 30
110.0
 70
    64
  0
VERTEX
  5
78
  8
TEAM-NET
 10
-315.800861
 20
-254.934011
 30
110.0
 70
    64
  0
VERTEX
  5
79
  8
TEAM-NET
 10
-276.326191
 20
-255.0
 30
110.0
 70
    64
  0
VERTEX
  5
7A
  8
TEAM-NET
 10
-236.851021
 20
-255.0
 30
110.0
 70
    64
  0
VERTEX
  5
7B
  8
TEAM-NET
 10
-197.375851
 20
-255.0
 30
110.0
 70
    64
  0
VERTEX
  5
7C
  8
TEAM-NET
 10
-157.900681
 20
-255.0
 30
110.0
 70
    64
  0
VERTEX
  5
7D
  8
TEAM-NET
 10
-118.425511
 20
-255.0
 30
110.0
 70
    64
  0
VERTEX
  5
7E
  8
TEAM-NET
 10
-78.95034
 20
-255.0
 30
110.0
 70
    64
  0
VERTEX
  5
7F
  8
TEAM-NET
 10
-39.47517
 20
-255.0
 30
110.0
 70
    64
  0
VERTEX
  5
80
  8
TEAM-NET
 10
0.0
 20
-255.0
 30
110.0
 70
    64
  0
VERTEX
  5
81
  8
TEAM-NET
 10
39.47517
 20
-255.0
 30
110.0
 70
    64
  0
VERTEX
  5
82
  8
TEAM-NET
 10
78.95034
 20
-255.0
 30
110.0
 70
    64
  0
VERTEX
  5
83
  8
TEAM-NET
 10
118.425511
 20
-255.0
 30
110.0
 70
    64
  0
VERTEX
  5
84
  8
TEAM-NET
 10
157.900681
 20
-255.0
 30
110.0
 70
    64
  0
VERTEX
  5
85
  8
TEAM-NET
 10
197.375851
 20
-255.0
 30
110.0
 70
    64
  0
VERTEX
  5
86
  8
TEAM-NET
 10
236.851021
 20
-255.0
 30
110.0
 70
    64
  0
VERTEX
  5
87
  8
TEAM-NET
 10
276.326191
 20
-255.0
 30
110.0
 70
    64
  0
VERTEX
  5
88
  8
TEAM-NET
 10
315.800861
 20
-254.934011
 30
110.0
 70
    64
  0
VERTEX
  5
89
  8
TEAM-NET
 10
355.03901
 20
-250.991011
 30
110.0
 70
    64
  0
VERTEX
  5
8A
  8
TEAM-NET
 10
393.199977
 20
-241.045149
 30
110.0
 70
    64
  0
VERTEX
  5
8B
  8
TEAM-NET
 10
429.37108
 20
-225.334297
 30
110.0
 70
    64
  0
VERTEX
  5
8C
  8
TEAM-NET
 10
462.687228
 20
-204.234205
 30
110.0
 70
    64
  0
VERTEX
  5
8D
  8
TEAM-NET
 10
492.35161
 20
-178.249517
 30
110.0
 70
    64
  0
VERTEX
  5
8E
  8
TEAM-NET
 10
517.654755
 20
-148.001699
 30
110.0
 70
    64
  0
VERTEX
  5
8F
  8
TEAM-NET
 10
537.991495
 20
-114.214178
 30
110.0
 70
    64
  0
VERTEX
  5
90
  8
TEAM-NET
 10
552.875444
 20
-77.695037
 30
110.0
 70
    64
  0
VERTEX
  5
91
  8
TEAM-NET
 10
561.950628
 20
-39.317692
 30
110.0
 70
    64
  0
VERTEX
  5
92
  8
TEAM-NET
 10
565.0
 20
0.0
 30
110.0
 70
    64
  0
VERTEX
  5
93
  8
TEAM-NET
 10
-793.333358
 20
0.0
 30
547.777778
 70
    64
  0
VERTEX
  5
94
  8
TEAM-NET
 10
-787.975917
 20
-53.929972
 30
547.777778
 70
    64
  0
VERTEX
  5
95
  8
TEAM-NET
 10
-773.765976
 20
-106.229319
 30
547.777778
 70
    64
  0
VERTEX
  5
96
  8
TEAM-NET
 10
-751.09554
 20
-155.455282
 30
547.777778
 70
    64
  0
VERTEX
  5
97
  8
TEAM-NET
 10
-720.590008
 20
-200.249886
 30
547.777778
 70
    64
  0
VERTEX
  5
98
  8
TEAM-NET
 10
-683.090921
 20
-239.377403
 30
547.777778
 70
    64
  0
VERTEX
  5
99
  8
TEAM-NET
 10
-639.632751
 20
-271.758439
 30
547.777778
 70
    64
  0
VERTEX
  5
9A
  8
TEAM-NET
 10
-591.414358
 20
-296.499714
 30
547.777778
 70
    64
  0
VERTEX
  5
9B
  8
TEAM-NET
 10
-539.765922
 20
-312.918701
 30
547.777778
 70
    64
  0
VERTEX
  5
9C
  8
TEAM-NET
 10
-486.112245
 20
-320.562456
 30
547.777778
 70
    64
  0
VERTEX
  5
9D
  8
TEAM-NET
 10
-431.86513
 20
-321.111116
 30
547.777778
 70
    64
  0
VERTEX
  5
9E
  8
TEAM-NET
 10
-377.607217
 20
-321.111116
 30
547.777778
 70
    64
  0
VERTEX
  5
9F
  8
TEAM-NET
 10
-323.349303
 20
-321.111116
 30
547.777778
 70
    64
  0
VERTEX
  5
A0
  8
TEAM-NET
 10
-269.09139
 20
-321.111116
 30
547.777778
 70
    64
  0
VERTEX
  5
A1
  8
TEAM-NET
 10
-214.833477
 20
-321.111116
 30
547.777778
 70
    64
  0
VERTEX
  5
A2
  8
TEAM-NET
 10
-160.575563
 20
-321.111116
 30
547.777778
 70
    64
  0
VERTEX
  5
A3
  8
TEAM-NET
 10
-106.31765
 20
-321.111116
 30
547.777778
 70
    64
  0
VERTEX
  5
A4
  8
TEAM-NET
 10
-52.059737
 20
-321.111116
 30
547.777778
 70
    64
  0
VERTEX
  5
A5
  8
TEAM-NET
 10
2.198177
 20
-321.111116
 30
547.777778
 70
    64
  0
VERTEX
  5
A6
  8
TEAM-NET
 10
56.45609
 20
-321.111116
 30
547.777778
 70
    64
  0
VERTEX
  5
A7
  8
TEAM-NET
 10
110.714004
 20
-321.111116
 30
547.777778
 70
    64
  0
VERTEX
  5
A8
  8
TEAM-NET
 10
164.971917
 20
-321.111116
 30
547.777778
 70
    64
  0
VERTEX
  5
A9
  8
TEAM-NET
 10
219.22983
 20
-321.111116
 30
547.777778
 70
    64
  0
VERTEX
  5
AA
  8
TEAM-NET
 10
273.487744
 20
-321.111116
 30
547.777778
 70
    64
  0
VERTEX
  5
AB
  8
TEAM-NET
 10
327.745657
 20
-321.111116
 30
547.777778
 70
    64
  0
VERTEX
  5
AC
  8
TEAM-NET
 10
382.00357
 20
-321.111116
 30
547.777778
 70
    64
  0
VERTEX
  5
AD
  8
TEAM-NET
 10
436.261484
 20
-321.111116
 30
547.777778
 70
    64
  0
VERTEX
  5
AE
  8
TEAM-NET
 10
490.515545
 20
-320.842484
 30
547.777778
 70
    64
  0
VERTEX
  5
AF
  8
TEAM-NET
 10
544.266287
 20
-313.946411
 30
547.777778
 70
    64
  0
VERTEX
  5
B0
  8
TEAM-NET
 10
596.048851
 20
-297.969424
 30
547.777778
 70
    64
  0
VERTEX
  5
B1
  8
TEAM-NET
 10
644.340869
 20
-273.381233
 30
547.777778
 70
    64
  0
VERTEX
  5
B2
  8
TEAM-NET
 10
687.72259
 20
-240.904713
 30
547.777778
 70
    64
  0
VERTEX
  5
B3
  8
TEAM-NET
 10
724.918625
 20
-201.494649
 30
547.777778
 70
    64
  0
VERTEX
  5
B4
  8
TEAM-NET
 10
754.835437
 20
-156.309669
 30
547.777778
 70
    64
  0
VERTEX
  5
B5
  8
TEAM-NET
 10
776.593495
 20
-106.678177
 30
547.777778
 70
    64
  0
VERTEX
  5
B6
  8
TEAM-NET
 10
789.553128
 20
-54.059302
 30
547.777778
 70
    64
  0
VERTEX
  5
B7
  8
TEAM-NET
 10
793.333332
 20
0.0
 30
547.777778
 70
    64
  0
SEQEND
  5
B8
  8
TEAM-NET
  0
CIRCLE
  5
B9
  8
TEAM-INSP
 10
0.0
 20
0.0
 30
0.0
 40
10.0
  0
CIRCLE
  5
BB
  8
TEAM-KAN
 39
-15.0
 10
-0.000013
 20
0.0
 30
77.666667
 40
24.555556
  0
CIRCLE
  5
BD
  8
TEAM-DET1
 10
-0.000013
 20
0.0
 30
77.666667
 40
33.055556
  0
POLYLINE
  5
BF
  8
TEAM-BODY
 66
     1
 10
0.0
 20
0.0
 30
110.0
  0
VERTEX
  5
571
  8
TEAM-BODY
 10
-565.0
 20
0.0
 30
110.0
 42
0.414214
  0
VERTEX
  5
572
  8
TEAM-BODY
 10
-310.0
 20
-255.0
 30
110.0
  0
VERTEX
  5
573
  8
TEAM-BODY
 10
310.0
 20
-255.0
 30
110.0
 42
0.414214
  0
VERTEX
  5
574
  8
TEAM-BODY
 10
565.0
 20
0.0
 30
110.0
  0
SEQEND
  5
575
  8
TEAM-BODY
  0
POLYLINE
  5
C1
  8
TEAM-BODY
 66
     1
 10
0.0
 20
0.0
 30
110.0
  0
VERTEX
  5
576
  8
TEAM-BODY
 10
-565.0
 20
0.0
 30
110.0
 42
-0.414214
  0
VERTEX
  5
577
  8
TEAM-BODY
 10
-310.0
 20
255.0
 30
110.0
  0
VERTEX
  5
578
  8
TEAM-BODY
 10
310.0
 20
255.0
 30
110.0
 42
-0.414214
  0
VERTEX
  5
579
  8
TEAM-BODY
 10
565.0
 20
0.0
 30
110.0
  0
SEQEND
  5
57A
  8
TEAM-BODY
  0
POLYLINE
  5
C2
  8
TEAM-NET
 66
     1
 10
0.0
 20
0.0
 30
0.0
 70
    16
 71
     2
 72
    37
  0
VERTEX
  5
C3
  8
TEAM-NET
 10
-565.0
 20
0.0
 30
110.0
 70
    64
  0
VERTEX
  5
C4
  8
TEAM-NET
 10
-561.950628
 20
-39.317692
 30
110.0
 70
    64
  0
VERTEX
  5
C5
  8
TEAM-NET
 10
-552.875444
 20
-77.695037
 30
110.0
 70
    64
  0
VERTEX
  5
C6
  8
TEAM-NET
 10
-537.991495
 20
-114.214178
 30
110.0
 70
    64
  0
VERTEX
  5
C7
  8
TEAM-NET
 10
-517.654755
 20
-148.001699
 30
110.0
 70
    64
  0
VERTEX
  5
C8
  8
TEAM-NET
 10
-492.35161
 20
-178.249517
 30
110.0
 70
    64
  0
VERTEX
  5
C9
  8
TEAM-NET
 10
-462.687228
 20
-204.234205
 30
110.0
 70
    64
  0
VERTEX
  5
CA
  8
TEAM-NET
 10
-429.37108
 20
-225.334297
 30
110.0
 70
    64
  0
VERTEX
  5
CB
  8
TEAM-NET
 10
-393.199977
 20
-241.045149
 30
110.0
 70
    64
  0
VERTEX
  5
CC
  8
TEAM-NET
 10
-355.03901
 20
-250.991011
 30
110.0
 70
    64
  0
VERTEX
  5
CD
  8
TEAM-NET
 10
-315.800861
 20
-254.934011
 30
110.0
 70
    64
  0
VERTEX
  5
CE
  8
TEAM-NET
 10
-276.326191
 20
-255.0
 30
110.0
 70
    64
  0
VERTEX
  5
CF
  8
TEAM-NET
 10
-236.851021
 20
-255.0
 30
110.0
 70
    64
  0
VERTEX
  5
D0
  8
TEAM-NET
 10
-197.375851
 20
-255.0
 30
110.0
 70
    64
  0
VERTEX
  5
D1
  8
TEAM-NET
 10
-157.900681
 20
-255.0
 30
110.0
 70
    64
  0
VERTEX
  5
D2
  8
TEAM-NET
 10
-118.425511
 20
-255.0
 30
110.0
 70
    64
  0
VERTEX
  5
D3
  8
TEAM-NET
 10
-78.95034
 20
-255.0
 30
110.0
 70
    64
  0
VERTEX
  5
D4
  8
TEAM-NET
 10
-39.47517
 20
-255.0
 30
110.0
 70
    64
  0
VERTEX
  5
D5
  8
TEAM-NET
 10
0.0
 20
-255.0
 30
110.0
 70
    64
  0
VERTEX
  5
D6
  8
TEAM-NET
 10
39.47517
 20
-255.0
 30
110.0
 70
    64
  0
VERTEX
  5
D7
  8
TEAM-NET
 10
78.95034
 20
-255.0
 30
110.0
 70
    64
  0
VERTEX
  5
D8
  8
TEAM-NET
 10
118.425511
 20
-255.0
 30
110.0
 70
    64
  0
VERTEX
  5
D9
  8
TEAM-NET
 10
157.900681
 20
-255.0
 30
110.0
 70
    64
  0
VERTEX
  5
DA
  8
TEAM-NET
 10
197.375851
 20
-255.0
 30
110.0
 70
    64
  0
VERTEX
  5
DB
  8
TEAM-NET
 10
236.851021
 20
-255.0
 30
110.0
 70
    64
  0
VERTEX
  5
DC
  8
TEAM-NET
 10
276.326191
 20
-255.0
 30
110.0
 70
    64
  0
VERTEX
  5
DD
  8
TEAM-NET
 10
315.800861
 20
-254.934011
 30
110.0
 70
    64
  0
VERTEX
  5
DE
  8
TEAM-NET
 10
355.03901
 20
-250.991011
 30
110.0
 70
    64
  0
VERTEX
  5
DF
  8
TEAM-NET
 10
393.199977
 20
-241.045149
 30
110.0
 70
    64
  0
VERTEX
  5
E0
  8
TEAM-NET
 10
429.37108
 20
-225.334297
 30
110.0
 70
    64
  0
VERTEX
  5
E1
  8
TEAM-NET
 10
462.687228
 20
-204.234205
 30
110.0
 70
    64
  0
VERTEX
  5
E2
  8
TEAM-NET
 10
492.35161
 20
-178.249517
 30
110.0
 70
    64
  0
VERTEX
  5
E3
  8
TEAM-NET
 10
517.654755
 20
-148.001699
 30
110.0
 70
    64
  0
VERTEX
  5
E4
  8
TEAM-NET
 10
537.991495
 20
-114.214178
 30
110.0
 70
    64
  0
VERTEX
  5
E5
  8
TEAM-NET
 10
552.875444
 20
-77.695037
 30
110.0
 70
    64
  0
VERTEX
  5
E6
  8
TEAM-NET
 10
561.950628
 20
-39.317692
 30
110.0
 70
    64
  0
VERTEX
  5
E7
  8
TEAM-NET
 10
565.0
 20
0.0
 30
110.0
 70
    64
  0
VERTEX
  5
E8
  8
TEAM-NET
 10
-565.0
 20
0.0
 30
110.0
 70
    64
  0
VERTEX
  5
E9
  8
TEAM-NET
 10
-561.950628
 20
39.317692
 30
110.0
 70
    64
  0
VERTEX
  5
EA
  8
TEAM-NET
 10
-552.875444
 20
77.695037
 30
110.0
 70
    64
  0
VERTEX
  5
EB
  8
TEAM-NET
 10
-537.991495
 20
114.214178
 30
110.0
 70
    64
  0
VERTEX
  5
EC
  8
TEAM-NET
 10
-517.654755
 20
148.001699
 30
110.0
 70
    64
  0
VERTEX
  5
ED
  8
TEAM-NET
 10
-492.35161
 20
178.249517
 30
110.0
 70
    64
  0
VERTEX
  5
EE
  8
TEAM-NET
 10
-462.687228
 20
204.234205
 30
110.0
 70
    64
  0
VERTEX
  5
EF
  8
TEAM-NET
 10
-429.37108
 20
225.334297
 30
110.0
 70
    64
  0
VERTEX
  5
F0
  8
TEAM-NET
 10
-393.199977
 20
241.045149
 30
110.0
 70
    64
  0
VERTEX
  5
F1
  8
TEAM-NET
 10
-355.03901
 20
250.991011
 30
110.0
 70
    64
  0
VERTEX
  5
F2
  8
TEAM-NET
 10
-315.800861
 20
254.934011
 30
110.0
 70
    64
  0
VERTEX
  5
F3
  8
TEAM-NET
 10
-276.326191
 20
255.0
 30
110.0
 70
    64
  0
VERTEX
  5
F4
  8
TEAM-NET
 10
-236.851021
 20
255.0
 30
110.0
 70
    64
  0
VERTEX
  5
F5
  8
TEAM-NET
 10
-197.375851
 20
255.0
 30
110.0
 70
    64
  0
VERTEX
  5
F6
  8
TEAM-NET
 10
-157.900681
 20
255.0
 30
110.0
 70
    64
  0
VERTEX
  5
F7
  8
TEAM-NET
 10
-118.425511
 20
255.0
 30
110.0
 70
    64
  0
VERTEX
  5
F8
  8
TEAM-NET
 10
-78.95034
 20
255.0
 30
110.0
 70
    64
  0
VERTEX
  5
F9
  8
TEAM-NET
 10
-39.47517
 20
255.0
 30
110.0
 70
    64
  0
VERTEX
  5
FA
  8
TEAM-NET
 10
0.0
 20
255.0
 30
110.0
 70
    64
  0
VERTEX
  5
FB
  8
TEAM-NET
 10
39.47517
 20
255.0
 30
110.0
 70
    64
  0
VERTEX
  5
FC
  8
TEAM-NET
 10
78.95034
 20
255.0
 30
110.0
 70
    64
  0
VERTEX
  5
FD
  8
TEAM-NET
 10
118.425511
 20
255.0
 30
110.0
 70
    64
  0
VERTEX
  5
FE
  8
TEAM-NET
 10
157.900681
 20
255.0
 30
110.0
 70
    64
  0
VERTEX
  5
FF
  8
TEAM-NET
 10
197.375851
 20
255.0
 30
110.0
 70
    64
  0
VERTEX
  5
100
  8
TEAM-NET
 10
236.851021
 20
255.0
 30
110.0
 70
    64
  0
VERTEX
  5
101
  8
TEAM-NET
 10
276.326191
 20
255.0
 30
110.0
 70
    64
  0
VERTEX
  5
102
  8
TEAM-NET
 10
315.800861
 20
254.934011
 30
110.0
 70
    64
  0
VERTEX
  5
103
  8
TEAM-NET
 10
355.03901
 20
250.991011
 30
110.0
 70
    64
  0
VERTEX
  5
104
  8
TEAM-NET
 10
393.199977
 20
241.045149
 30
110.0
 70
    64
  0
VERTEX
  5
105
  8
TEAM-NET
 10
429.37108
 20
225.334297
 30
110.0
 70
    64
  0
VERTEX
  5
106
  8
TEAM-NET
 10
462.687228
 20
204.234205
 30
110.0
 70
    64
  0
VERTEX
  5
107
  8
TEAM-NET
 10
492.35161
 20
178.249517
 30
110.0
 70
    64
  0
VERTEX
  5
108
  8
TEAM-NET
 10
517.654755
 20
148.001699
 30
110.0
 70
    64
  0
VERTEX
  5
109
  8
TEAM-NET
 10
537.991495
 20
114.214178
 30
110.0
 70
    64
  0
VERTEX
  5
10A
  8
TEAM-NET
 10
552.875444
 20
77.695037
 30
110.0
 70
    64
  0
VERTEX
  5
10B
  8
TEAM-NET
 10
561.950628
 20
39.317692
 30
110.0
 70
    64
  0
VERTEX
  5
10C
  8
TEAM-NET
 10
565.0
 20
0.0
 30
110.0
 70
    64
  0
SEQEND
  5
10D
  8
TEAM-NET
  0
POLYLINE
  5
10E
  8
TEAM-BODY
 66
     1
 10
0.0
 20
0.0
 30
547.777778
 39
-50.0
  0
VERTEX
  5
57B
  8
TEAM-BODY
 10
850.0
 20
0.0
 30
547.777778
 42
0.411867
  0
VERTEX
  5
57C
  8
TEAM-BODY
 10
472.222217
 20
374.777783
 30
547.777778
  0
VERTEX
  5
57D
  8
TEAM-BODY
 10
-472.222242
 20
374.777783
 30
547.777778
 42
0.411867
  0
VERTEX
  5
57E
  8
TEAM-BODY
 10
-850.000025
 20
0.0
 30
547.777778
  0
SEQEND
  5
57F
  8
TEAM-BODY
  0
POLYLINE
  5
10F
  8
TEAM-BODY
 66
     1
 10
0.0
 20
0.0
 30
547.777778
 39
-50.0
  0
VERTEX
  5
580
  8
TEAM-BODY
 10
850.0
 20
0.0
 30
547.777778
 42
-0.419862
  0
VERTEX
  5
581
  8
TEAM-BODY
 10
475.222217
 20
-377.777783
 30
547.777778
  0
VERTEX
  5
582
  8
TEAM-BODY
 10
-469.222242
 20
-377.777783
 30
547.777778
 42
-0.408632
  0
VERTEX
  5
583
  8
TEAM-BODY
 10
-850.000025
 20
0.0
 30
547.777778
  0
SEQEND
  5
584
  8
TEAM-BODY
  0
POLYLINE
  5
110
  8
TEAM-DET1
 66
     1
 10
0.0
 20
0.0
 30
500.555556
  0
VERTEX
  5
585
  8
TEAM-DET1
 10
22.836654
 20
308.817782
 30
500.555556
  0
VERTEX
  5
586
  8
TEAM-DET1
 10
23.356099
 20
309.091671
 30
500.555556
  0
VERTEX
  5
587
  8
TEAM-DET1
 10
23.790543
 20
309.384449
 30
500.555556
  0
VERTEX
  5
588
  8
TEAM-DET1
 10
24.121099
 20
309.667782
 30
500.555556
  0
VERTEX
  5
589
  8
TEAM-DET1
 10
24.366654
 20
309.96056
 30
500.555556
  0
VERTEX
  5
58A
  8
TEAM-DET1
 10
24.508321
 20
310.262782
 30
500.555556
  0
VERTEX
  5
58B
  8
TEAM-DET1
 10
24.555543
 20
310.55556
 30
500.555556
  0
SEQEND
  5
58C
  8
TEAM-DET1
  0
POLYLINE
  5
111
  8
TEAM-DET1
 66
     1
 10
0.0
 20
0.0
 30
500.555556
  0
VERTEX
  5
58D
  8
TEAM-DET1
 10
-24.121124
 20
311.443338
 30
500.555556
  0
VERTEX
  5
58E
  8
TEAM-DET1
 10
-24.357235
 20
311.15056
 30
500.555556
  0
VERTEX
  5
58F
  8
TEAM-DET1
 10
-24.498902
 20
310.848338
 30
500.555556
  0
VERTEX
  5
590
  8
TEAM-DET1
 10
-24.555569
 20
310.55556
 30
500.555556
  0
VERTEX
  5
591
  8
TEAM-DET1
 10
-24.498902
 20
310.262782
 30
500.555556
  0
VERTEX
  5
592
  8
TEAM-DET1
 10
-24.357235
 20
309.96056
 30
500.555556
  0
VERTEX
  5
593
  8
TEAM-DET1
 10
-24.121124
 20
309.667782
 30
500.555556
  0
VERTEX
  5
594
  8
TEAM-DET1
 10
-23.781124
 20
309.384449
 30
500.555556
  0
VERTEX
  5
595
  8
TEAM-DET1
 10
-23.356124
 20
309.091671
 30
500.555556
  0
VERTEX
  5
596
  8
TEAM-DET1
 10
-22.827235
 20
308.817782
 30
500.555556
  0
VERTEX
  5
597
  8
TEAM-DET1
 10
-22.213346
 20
308.543894
 30
500.555556
  0
VERTEX
  5
598
  8
TEAM-DET1
 10
-21.514458
 20
308.279449
 30
500.555556
  0
VERTEX
  5
599
  8
TEAM-DET1
 10
-20.730569
 20
308.024449
 30
500.555556
  0
VERTEX
  5
59A
  8
TEAM-DET1
 10
-19.86168
 20
307.778894
 30
500.555556
  0
VERTEX
  5
59B
  8
TEAM-DET1
 10
-18.917235
 20
307.542782
 30
500.555556
  0
VERTEX
  5
59C
  8
TEAM-DET1
 10
-17.897235
 20
307.32556
 30
500.555556
  0
VERTEX
  5
59D
  8
TEAM-DET1
 10
-16.811124
 20
307.108338
 30
500.555556
  0
VERTEX
  5
59E
  8
TEAM-DET1
 10
-15.649457
 20
306.919449
 30
500.555556
  0
VERTEX
  5
59F
  8
TEAM-DET1
 10
-14.431124
 20
306.73056
 30
500.555556
  0
VERTEX
  5
5A0
  8
TEAM-DET1
 10
-13.156124
 20
306.570005
 30
500.555556
  0
VERTEX
  5
5A1
  8
TEAM-DET1
 10
-11.824457
 20
306.418894
 30
500.555556
  0
VERTEX
  5
5A2
  8
TEAM-DET1
 10
-10.455013
 20
306.286671
 30
500.555556
  0
VERTEX
  5
5A3
  8
TEAM-DET1
 10
-9.038346
 20
306.163894
 30
500.555556
  0
VERTEX
  5
5A4
  8
TEAM-DET1
 10
-7.583902
 20
306.069449
 30
500.555556
  0
VERTEX
  5
5A5
  8
TEAM-DET1
 10
-6.101124
 20
305.984449
 30
500.555556
  0
VERTEX
  5
5A6
  8
TEAM-DET1
 10
-4.599457
 20
305.918338
 30
500.555556
  0
VERTEX
  5
5A7
  8
TEAM-DET1
 10
-3.078902
 20
305.871116
 30
500.555556
  0
VERTEX
  5
5A8
  8
TEAM-DET1
 10
-1.539457
 20
305.842782
 30
500.555556
  0
VERTEX
  5
5A9
  8
TEAM-DET1
 10
-0.000013
 20
305.833338
 30
500.555556
  0
VERTEX
  5
5AA
  8
TEAM-DET1
 10
1.539432
 20
305.842782
 30
500.555556
  0
VERTEX
  5
5AB
  8
TEAM-DET1
 10
3.078876
 20
305.871116
 30
500.555556
  0
VERTEX
  5
5AC
  8
TEAM-DET1
 10
4.608876
 20
305.918338
 30
500.555556
  0
VERTEX
  5
5AD
  8
TEAM-DET1
 10
6.110543
 20
305.984449
 30
500.555556
  0
VERTEX
  5
5AE
  8
TEAM-DET1
 10
7.593321
 20
306.069449
 30
500.555556
  0
VERTEX
  5
5AF
  8
TEAM-DET1
 10
9.047765
 20
306.163894
 30
500.555556
  0
VERTEX
  5
5B0
  8
TEAM-DET1
 10
10.454987
 20
306.286671
 30
500.555556
  0
VERTEX
  5
5B1
  8
TEAM-DET1
 10
11.833876
 20
306.418894
 30
500.555556
  0
VERTEX
  5
5B2
  8
TEAM-DET1
 10
13.156099
 20
306.570005
 30
500.555556
  0
VERTEX
  5
5B3
  8
TEAM-DET1
 10
14.440543
 20
306.73056
 30
500.555556
  0
VERTEX
  5
5B4
  8
TEAM-DET1
 10
15.658876
 20
306.919449
 30
500.555556
  0
VERTEX
  5
5B5
  8
TEAM-DET1
 10
16.811099
 20
307.108338
 30
500.555556
  0
VERTEX
  5
5B6
  8
TEAM-DET1
 10
17.89721
 20
307.32556
 30
500.555556
  0
VERTEX
  5
5B7
  8
TEAM-DET1
 10
18.926654
 20
307.542782
 30
500.555556
  0
VERTEX
  5
5B8
  8
TEAM-DET1
 10
19.871099
 20
307.778894
 30
500.555556
  0
VERTEX
  5
5B9
  8
TEAM-DET1
 10
20.730543
 20
308.024449
 30
500.555556
  0
VERTEX
  5
5BA
  8
TEAM-DET1
 10
21.523876
 20
308.279449
 30
500.555556
  0
VERTEX
  5
5BB
  8
TEAM-DET1
 10
22.222765
 20
308.543894
 30
500.555556
  0
VERTEX
  5
5BC
  8
TEAM-DET1
 10
22.836654
 20
308.817782
 30
500.555556
  0
SEQEND
  5
5BD
  8
TEAM-DET1
  0
POLYLINE
  5
112
  8
TEAM-DET1
 66
     1
 10
0.0
 20
0.0
 30
500.555556
  0
VERTEX
  5
5BE
  8
TEAM-DET1
 10
24.555543
 20
310.55556
 30
500.555556
  0
VERTEX
  5
5BF
  8
TEAM-DET1
 10
24.508321
 20
310.848338
 30
500.555556
  0
VERTEX
  5
5C0
  8
TEAM-DET1
 10
24.366654
 20
311.15056
 30
500.555556
  0
VERTEX
  5
5C1
  8
TEAM-DET1
 10
24.121099
 20
311.443338
 30
500.555556
  0
VERTEX
  5
5C2
  8
TEAM-DET1
 10
23.790543
 20
311.726671
 30
500.555556
  0
VERTEX
  5
5C3
  8
TEAM-DET1
 10
23.356099
 20
312.010005
 30
500.555556
  0
VERTEX
  5
5C4
  8
TEAM-DET1
 10
22.836654
 20
312.293338
 30
500.555556
  0
VERTEX
  5
5C5
  8
TEAM-DET1
 10
22.222765
 20
312.567227
 30
500.555556
  0
VERTEX
  5
5C6
  8
TEAM-DET1
 10
21.523876
 20
312.831671
 30
500.555556
  0
VERTEX
  5
5C7
  8
TEAM-DET1
 10
20.730543
 20
313.086671
 30
500.555556
  0
VERTEX
  5
5C8
  8
TEAM-DET1
 10
19.871099
 20
313.332227
 30
500.555556
  0
VERTEX
  5
5C9
  8
TEAM-DET1
 10
18.926654
 20
313.568338
 30
500.555556
  0
VERTEX
  5
5CA
  8
TEAM-DET1
 10
17.89721
 20
313.78556
 30
500.555556
  0
VERTEX
  5
5CB
  8
TEAM-DET1
 10
16.811099
 20
314.002783
 30
500.555556
  0
VERTEX
  5
5CC
  8
TEAM-DET1
 10
15.658876
 20
314.191671
 30
500.555556
  0
VERTEX
  5
5CD
  8
TEAM-DET1
 10
14.440543
 20
314.371116
 30
500.555556
  0
VERTEX
  5
5CE
  8
TEAM-DET1
 10
13.156099
 20
314.541116
 30
500.555556
  0
VERTEX
  5
5CF
  8
TEAM-DET1
 10
11.833876
 20
314.692227
 30
500.555556
  0
VERTEX
  5
5D0
  8
TEAM-DET1
 10
10.454987
 20
314.824449
 30
500.555556
  0
VERTEX
  5
5D1
  8
TEAM-DET1
 10
9.047765
 20
314.947227
 30
500.555556
  0
VERTEX
  5
5D2
  8
TEAM-DET1
 10
7.593321
 20
315.051116
 30
500.555556
  0
VERTEX
  5
5D3
  8
TEAM-DET1
 10
6.110543
 20
315.126671
 30
500.555556
  0
VERTEX
  5
5D4
  8
TEAM-DET1
 10
4.608876
 20
315.192783
 30
500.555556
  0
VERTEX
  5
5D5
  8
TEAM-DET1
 10
3.078876
 20
315.240005
 30
500.555556
  0
VERTEX
  5
5D6
  8
TEAM-DET1
 10
1.539432
 20
315.268338
 30
500.555556
  0
VERTEX
  5
5D7
  8
TEAM-DET1
 10
-0.000013
 20
315.277783
 30
500.555556
  0
VERTEX
  5
5D8
  8
TEAM-DET1
 10
-1.539457
 20
315.268338
 30
500.555556
  0
VERTEX
  5
5D9
  8
TEAM-DET1
 10
-3.078902
 20
315.240005
 30
500.555556
  0
VERTEX
  5
5DA
  8
TEAM-DET1
 10
-4.599457
 20
315.192783
 30
500.555556
  0
VERTEX
  5
5DB
  8
TEAM-DET1
 10
-6.101124
 20
315.126671
 30
500.555556
  0
VERTEX
  5
5DC
  8
TEAM-DET1
 10
-7.583902
 20
315.051116
 30
500.555556
  0
VERTEX
  5
5DD
  8
TEAM-DET1
 10
-9.038346
 20
314.947227
 30
500.555556
  0
VERTEX
  5
5DE
  8
TEAM-DET1
 10
-10.455013
 20
314.824449
 30
500.555556
  0
VERTEX
  5
5DF
  8
TEAM-DET1
 10
-11.824457
 20
314.692227
 30
500.555556
  0
VERTEX
  5
5E0
  8
TEAM-DET1
 10
-13.156124
 20
314.541116
 30
500.555556
  0
VERTEX
  5
5E1
  8
TEAM-DET1
 10
-14.431124
 20
314.371116
 30
500.555556
  0
VERTEX
  5
5E2
  8
TEAM-DET1
 10
-15.649457
 20
314.191671
 30
500.555556
  0
VERTEX
  5
5E3
  8
TEAM-DET1
 10
-16.811124
 20
314.002783
 30
500.555556
  0
VERTEX
  5
5E4
  8
TEAM-DET1
 10
-17.897235
 20
313.78556
 30
500.555556
  0
VERTEX
  5
5E5
  8
TEAM-DET1
 10
-18.917235
 20
313.568338
 30
500.555556
  0
VERTEX
  5
5E6
  8
TEAM-DET1
 10
-19.86168
 20
313.332227
 30
500.555556
  0
VERTEX
  5
5E7
  8
TEAM-DET1
 10
-20.730569
 20
313.086671
 30
500.555556
  0
VERTEX
  5
5E8
  8
TEAM-DET1
 10
-21.514458
 20
312.831671
 30
500.555556
  0
VERTEX
  5
5E9
  8
TEAM-DET1
 10
-22.213346
 20
312.567227
 30
500.555556
  0
VERTEX
  5
5EA
  8
TEAM-DET1
 10
-22.827235
 20
312.293338
 30
500.555556
  0
VERTEX
  5
5EB
  8
TEAM-DET1
 10
-23.356124
 20
312.010005
 30
500.555556
  0
VERTEX
  5
5EC
  8
TEAM-DET1
 10
-23.781124
 20
311.726671
 30
500.555556
  0
VERTEX
  5
5ED
  8
TEAM-DET1
 10
-24.121124
 20
311.443338
 30
500.555556
  0
SEQEND
  5
5EE
  8
TEAM-DET1
  0
POLYLINE
  5
113
  8
TEAM-NET
 66
     1
 10
0.0
 20
0.0
 30
0.0
 70
    16
 71
     2
 72
    37
  0
VERTEX
  5
114
  8
TEAM-NET
 10
-793.333358
 20
0.0
 30
547.777778
 70
    64
  0
VERTEX
  5
115
  8
TEAM-NET
 10
-788.760481
 20
53.999001
 30
547.777778
 70
    64
  0
VERTEX
  5
116
  8
TEAM-NET
 10
-775.172093
 20
106.460024
 30
547.777778
 70
    64
  0
VERTEX
  5
117
  8
TEAM-NET
 10
-752.955212
 20
155.888898
 30
547.777778
 70
    64
  0
VERTEX
  5
118
  8
TEAM-NET
 10
-722.742611
 20
200.877808
 30
547.777778
 70
    64
  0
VERTEX
  5
119
  8
TEAM-NET
 10
-685.394792
 20
237.145399
 30
547.777778
 70
    64
  0
VERTEX
  5
11A
  8
TEAM-NET
 10
-641.975481
 20
269.573268
 30
547.777778
 70
    64
  0
VERTEX
  5
11B
  8
TEAM-NET
 10
-593.721328
 20
294.237819
 30
547.777778
 70
    64
  0
VERTEX
  5
11C
  8
TEAM-NET
 10
-542.006689
 20
310.436564
 30
547.777778
 70
    64
  0
VERTEX
  5
11D
  8
TEAM-NET
 10
-488.304477
 20
317.708139
 30
547.777778
 70
    64
  0
VERTEX
  5
11E
  8
TEAM-NET
 10
-434.054409
 20
318.111116
 30
547.777778
 70
    64
  0
VERTEX
  5
11F
  8
TEAM-NET
 10
-379.797609
 20
318.111116
 30
547.777778
 70
    64
  0
VERTEX
  5
120
  8
TEAM-NET
 10
-325.54081
 20
318.111116
 30
547.777778
 70
    64
  0
VERTEX
  5
121
  8
TEAM-NET
 10
-271.28401
 20
318.111116
 30
547.777778
 70
    64
  0
VERTEX
  5
122
  8
TEAM-NET
 10
-217.027211
 20
318.111116
 30
547.777778
 70
    64
  0
VERTEX
  5
123
  8
TEAM-NET
 10
-162.770411
 20
318.111116
 30
547.777778
 70
    64
  0
VERTEX
  5
124
  8
TEAM-NET
 10
-108.513612
 20
318.111116
 30
547.777778
 70
    64
  0
VERTEX
  5
125
  8
TEAM-NET
 10
-54.256812
 20
318.111116
 30
547.777778
 70
    64
  0
VERTEX
  5
126
  8
TEAM-NET
 10
-0.000013
 20
318.111116
 30
547.777778
 70
    64
  0
VERTEX
  5
127
  8
TEAM-NET
 10
54.256787
 20
318.111116
 30
547.777778
 70
    64
  0
VERTEX
  5
128
  8
TEAM-NET
 10
108.513586
 20
318.111116
 30
547.777778
 70
    64
  0
VERTEX
  5
129
  8
TEAM-NET
 10
162.770386
 20
318.111116
 30
547.777778
 70
    64
  0
VERTEX
  5
12A
  8
TEAM-NET
 10
217.027185
 20
318.111116
 30
547.777778
 70
    64
  0
VERTEX
  5
12B
  8
TEAM-NET
 10
271.283985
 20
318.111116
 30
547.777778
 70
    64
  0
VERTEX
  5
12C
  8
TEAM-NET
 10
325.540784
 20
318.111116
 30
547.777778
 70
    64
  0
VERTEX
  5
12D
  8
TEAM-NET
 10
379.797584
 20
318.111116
 30
547.777778
 70
    64
  0
VERTEX
  5
12E
  8
TEAM-NET
 10
434.054383
 20
318.111116
 30
547.777778
 70
    64
  0
VERTEX
  5
12F
  8
TEAM-NET
 10
488.304452
 20
317.708139
 30
547.777778
 70
    64
  0
VERTEX
  5
130
  8
TEAM-NET
 10
542.006663
 20
310.436564
 30
547.777778
 70
    64
  0
VERTEX
  5
131
  8
TEAM-NET
 10
593.721303
 20
294.237819
 30
547.777778
 70
    64
  0
VERTEX
  5
132
  8
TEAM-NET
 10
641.975455
 20
269.573268
 30
547.777778
 70
    64
  0
VERTEX
  5
133
  8
TEAM-NET
 10
685.394767
 20
237.145399
 30
547.777778
 70
    64
  0
VERTEX
  5
134
  8
TEAM-NET
 10
722.742585
 20
200.877808
 30
547.777778
 70
    64
  0
VERTEX
  5
135
  8
TEAM-NET
 10
752.955186
 20
155.888898
 30
547.777778
 70
    64
  0
VERTEX
  5
136
  8
TEAM-NET
 10
775.172067
 20
106.460024
 30
547.777778
 70
    64
  0
VERTEX
  5
137
  8
TEAM-NET
 10
788.760455
 20
53.999001
 30
547.777778
 70
    64
  0
VERTEX
  5
138
  8
TEAM-NET
 10
793.333332
 20
0.0
 30
547.777778
 70
    64
  0
VERTEX
  5
139
  8
TEAM-NET
 10
-850.000025
 20
0.0
 30
547.777778
 70
    64
  0
VERTEX
  5
13A
  8
TEAM-NET
 10
-845.370719
 20
58.95988
 30
547.777778
 70
    64
  0
VERTEX
  5
13B
  8
TEAM-NET
 10
-831.596257
 20
116.474766
 30
547.777778
 70
    64
  0
VERTEX
  5
13C
  8
TEAM-NET
 10
-809.014223
 20
171.135078
 30
547.777778
 70
    64
  0
VERTEX
  5
13D
  8
TEAM-NET
 10
-778.178062
 20
221.601196
 30
547.777778
 70
    64
  0
VERTEX
  5
13E
  8
TEAM-NET
 10
-739.843507
 20
263.636292
 30
547.777778
 70
    64
  0
VERTEX
  5
13F
  8
TEAM-NET
 10
-694.950067
 20
302.136641
 30
547.777778
 70
    64
  0
VERTEX
  5
140
  8
TEAM-NET
 10
-644.597992
 20
333.158674
 30
547.777778
 70
    64
  0
VERTEX
  5
141
  8
TEAM-NET
 10
-590.021317
 20
355.9421
 30
547.777778
 70
    64
  0
VERTEX
  5
142
  8
TEAM-NET
 10
-532.557612
 20
369.928541
 30
547.777778
 70
    64
  0
VERTEX
  5
143
  8
TEAM-NET
 10
-473.615202
 20
374.775215
 30
547.777778
 70
    64
  0
VERTEX
  5
144
  8
TEAM-NET
 10
-414.413306
 20
374.777783
 30
547.777778
 70
    64
  0
VERTEX
  5
145
  8
TEAM-NET
 10
-355.211407
 20
374.777783
 30
547.777778
 70
    64
  0
VERTEX
  5
146
  8
TEAM-NET
 10
-296.009508
 20
374.777783
 30
547.777778
 70
    64
  0
VERTEX
  5
147
  8
TEAM-NET
 10
-236.807609
 20
374.777783
 30
547.777778
 70
    64
  0
VERTEX
  5
148
  8
TEAM-NET
 10
-177.60571
 20
374.777783
 30
547.777778
 70
    64
  0
VERTEX
  5
149
  8
TEAM-NET
 10
-118.403811
 20
374.777783
 30
547.777778
 70
    64
  0
VERTEX
  5
14A
  8
TEAM-NET
 10
-59.201912
 20
374.777783
 30
547.777778
 70
    64
  0
VERTEX
  5
14B
  8
TEAM-NET
 10
-0.000013
 20
374.777783
 30
547.777778
 70
    64
  0
VERTEX
  5
14C
  8
TEAM-NET
 10
59.201886
 20
374.777783
 30
547.777778
 70
    64
  0
VERTEX
  5
14D
  8
TEAM-NET
 10
118.403785
 20
374.777783
 30
547.777778
 70
    64
  0
VERTEX
  5
14E
  8
TEAM-NET
 10
177.605685
 20
374.777783
 30
547.777778
 70
    64
  0
VERTEX
  5
14F
  8
TEAM-NET
 10
236.807584
 20
374.777783
 30
547.777778
 70
    64
  0
VERTEX
  5
150
  8
TEAM-NET
 10
296.009483
 20
374.777783
 30
547.777778
 70
    64
  0
VERTEX
  5
151
  8
TEAM-NET
 10
355.211382
 20
374.777783
 30
547.777778
 70
    64
  0
VERTEX
  5
152
  8
TEAM-NET
 10
414.413281
 20
374.777783
 30
547.777778
 70
    64
  0
VERTEX
  5
153
  8
TEAM-NET
 10
473.615177
 20
374.775215
 30
547.777778
 70
    64
  0
VERTEX
  5
154
  8
TEAM-NET
 10
532.557587
 20
369.928541
 30
547.777778
 70
    64
  0
VERTEX
  5
155
  8
TEAM-NET
 10
590.021292
 20
355.9421
 30
547.777778
 70
    64
  0
VERTEX
  5
156
  8
TEAM-NET
 10
644.597967
 20
333.158674
 30
547.777778
 70
    64
  0
VERTEX
  5
157
  8
TEAM-NET
 10
694.950041
 20
302.136641
 30
547.777778
 70
    64
  0
VERTEX
  5
158
  8
TEAM-NET
 10
739.843482
 20
263.636292
 30
547.777778
 70
    64
  0
VERTEX
  5
159
  8
TEAM-NET
 10
778.178036
 20
221.601196
 30
547.777778
 70
    64
  0
VERTEX
  5
15A
  8
TEAM-NET
 10
809.014198
 20
171.135078
 30
547.777778
 70
    64
  0
VERTEX
  5
15B
  8
TEAM-NET
 10
831.596231
 20
116.474766
 30
547.777778
 70
    64
  0
VERTEX
  5
15C
  8
TEAM-NET
 10
845.370694
 20
58.95988
 30
547.777778
 70
    64
  0
VERTEX
  5
15D
  8
TEAM-NET
 10
850.0
 20
0.0
 30
547.777778
 70
    64
  0
SEQEND
  5
15E
  8
TEAM-NET
  0
POLYLINE
  5
15F
  8
TEAM-DET1
 66
     1
 10
0.0
 20
0.0
 30
547.777778
  0
VERTEX
  5
5EF
  8
TEAM-DET1
 10
-793.333358
 20
0.0
 30
547.777778
 42
-0.420866
  0
VERTEX
  5
5F0
  8
TEAM-DET1
 10
-472.222242
 20
318.111116
 30
547.777778
  0
VERTEX
  5
5F1
  8
TEAM-DET1
 10
472.222217
 20
318.111116
 30
547.777778
 42
-0.420866
  0
VERTEX
  5
5F2
  8
TEAM-DET1
 10
793.333332
 20
0.0
 30
547.777778
  0
SEQEND
  5
5F3
  8
TEAM-DET1
  0
POLYLINE
  5
160
  8
TEAM-NET
 66
     1
 10
0.0
 20
0.0
 30
0.0
 70
    16
 71
     2
 72
    37
  0
VERTEX
  5
161
  8
TEAM-NET
 10
-793.333358
 20
0.0
 30
547.777778
 70
    64
  0
VERTEX
  5
162
  8
TEAM-NET
 10
-788.760481
 20
-53.999001
 30
547.777778
 70
    64
  0
VERTEX
  5
163
  8
TEAM-NET
 10
-775.172093
 20
-106.460024
 30
547.777778
 70
    64
  0
VERTEX
  5
164
  8
TEAM-NET
 10
-752.955212
 20
-155.888898
 30
547.777778
 70
    64
  0
VERTEX
  5
165
  8
TEAM-NET
 10
-722.742611
 20
-200.877808
 30
547.777778
 70
    64
  0
VERTEX
  5
166
  8
TEAM-NET
 10
-682.394792
 20
-240.145399
 30
547.777778
 70
    64
  0
VERTEX
  5
167
  8
TEAM-NET
 10
-638.975481
 20
-272.573268
 30
547.777778
 70
    64
  0
VERTEX
  5
168
  8
TEAM-NET
 10
-590.721328
 20
-297.237819
 30
547.777778
 70
    64
  0
VERTEX
  5
169
  8
TEAM-NET
 10
-539.006689
 20
-313.436564
 30
547.777778
 70
    64
  0
VERTEX
  5
16A
  8
TEAM-NET
 10
-485.304477
 20
-320.708139
 30
547.777778
 70
    64
  0
VERTEX
  5
16B
  8
TEAM-NET
 10
-431.054409
 20
-321.111116
 30
547.777778
 70
    64
  0
VERTEX
  5
16C
  8
TEAM-NET
 10
-376.797609
 20
-321.111116
 30
547.777778
 70
    64
  0
VERTEX
  5
16D
  8
TEAM-NET
 10
-322.54081
 20
-321.111116
 30
547.777778
 70
    64
  0
VERTEX
  5
16E
  8
TEAM-NET
 10
-268.28401
 20
-321.111116
 30
547.777778
 70
    64
  0
VERTEX
  5
16F
  8
TEAM-NET
 10
-214.027211
 20
-321.111116
 30
547.777778
 70
    64
  0
VERTEX
  5
170
  8
TEAM-NET
 10
-159.770411
 20
-321.111116
 30
547.777778
 70
    64
  0
VERTEX
  5
171
  8
TEAM-NET
 10
-105.513612
 20
-321.111116
 30
547.777778
 70
    64
  0
VERTEX
  5
172
  8
TEAM-NET
 10
-51.256812
 20
-321.111116
 30
547.777778
 70
    64
  0
VERTEX
  5
173
  8
TEAM-NET
 10
2.999987
 20
-321.111116
 30
547.777778
 70
    64
  0
VERTEX
  5
174
  8
TEAM-NET
 10
57.256787
 20
-321.111116
 30
547.777778
 70
    64
  0
VERTEX
  5
175
  8
TEAM-NET
 10
111.513586
 20
-321.111116
 30
547.777778
 70
    64
  0
VERTEX
  5
176
  8
TEAM-NET
 10
165.770386
 20
-321.111116
 30
547.777778
 70
    64
  0
VERTEX
  5
177
  8
TEAM-NET
 10
220.027185
 20
-321.111116
 30
547.777778
 70
    64
  0
VERTEX
  5
178
  8
TEAM-NET
 10
274.283985
 20
-321.111116
 30
547.777778
 70
    64
  0
VERTEX
  5
179
  8
TEAM-NET
 10
328.540784
 20
-321.111116
 30
547.777778
 70
    64
  0
VERTEX
  5
17A
  8
TEAM-NET
 10
382.797584
 20
-321.111116
 30
547.777778
 70
    64
  0
VERTEX
  5
17B
  8
TEAM-NET
 10
437.054383
 20
-321.111116
 30
547.777778
 70
    64
  0
VERTEX
  5
17C
  8
TEAM-NET
 10
491.304452
 20
-320.708139
 30
547.777778
 70
    64
  0
VERTEX
  5
17D
  8
TEAM-NET
 10
545.006663
 20
-313.436564
 30
547.777778
 70
    64
  0
VERTEX
  5
17E
  8
TEAM-NET
 10
596.721303
 20
-297.237819
 30
547.777778
 70
    64
  0
VERTEX
  5
17F
  8
TEAM-NET
 10
644.975455
 20
-272.573268
 30
547.777778
 70
    64
  0
VERTEX
  5
180
  8
TEAM-NET
 10
688.394767
 20
-240.145399
 30
547.777778
 70
    64
  0
VERTEX
  5
181
  8
TEAM-NET
 10
722.742585
 20
-200.877808
 30
547.777778
 70
    64
  0
VERTEX
  5
182
  8
TEAM-NET
 10
752.955186
 20
-155.888898
 30
547.777778
 70
    64
  0
VERTEX
  5
183
  8
TEAM-NET
 10
775.172067
 20
-106.460024
 30
547.777778
 70
    64
  0
VERTEX
  5
184
  8
TEAM-NET
 10
788.760455
 20
-53.999001
 30
547.777778
 70
    64
  0
VERTEX
  5
185
  8
TEAM-NET
 10
793.333332
 20
0.0
 30
547.777778
 70
    64
  0
VERTEX
  5
186
  8
TEAM-NET
 10
-850.000025
 20
0.0
 30
547.777778
 70
    64
  0
VERTEX
  5
187
  8
TEAM-NET
 10
-845.370719
 20
-58.95988
 30
547.777778
 70
    64
  0
VERTEX
  5
188
  8
TEAM-NET
 10
-831.596257
 20
-116.474766
 30
547.777778
 70
    64
  0
VERTEX
  5
189
  8
TEAM-NET
 10
-809.014223
 20
-171.135078
 30
547.777778
 70
    64
  0
VERTEX
  5
18A
  8
TEAM-NET
 10
-775.178062
 20
-221.601196
 30
547.777778
 70
    64
  0
VERTEX
  5
18B
  8
TEAM-NET
 10
-736.843507
 20
-266.636292
 30
547.777778
 70
    64
  0
VERTEX
  5
18C
  8
TEAM-NET
 10
-691.950067
 20
-305.136641
 30
547.777778
 70
    64
  0
VERTEX
  5
18D
  8
TEAM-NET
 10
-641.597992
 20
-336.158674
 30
547.777778
 70
    64
  0
VERTEX
  5
18E
  8
TEAM-NET
 10
-587.021317
 20
-358.9421
 30
547.777778
 70
    64
  0
VERTEX
  5
18F
  8
TEAM-NET
 10
-529.557612
 20
-372.928541
 30
547.777778
 70
    64
  0
VERTEX
  5
190
  8
TEAM-NET
 10
-470.615202
 20
-377.775215
 30
547.777778
 70
    64
  0
VERTEX
  5
191
  8
TEAM-NET
 10
-411.413306
 20
-377.777783
 30
547.777778
 70
    64
  0
VERTEX
  5
192
  8
TEAM-NET
 10
-352.211407
 20
-377.777783
 30
547.777778
 70
    64
  0
VERTEX
  5
193
  8
TEAM-NET
 10
-293.009508
 20
-377.777783
 30
547.777778
 70
    64
  0
VERTEX
  5
194
  8
TEAM-NET
 10
-233.807609
 20
-377.777783
 30
547.777778
 70
    64
  0
VERTEX
  5
195
  8
TEAM-NET
 10
-174.60571
 20
-377.777783
 30
547.777778
 70
    64
  0
VERTEX
  5
196
  8
TEAM-NET
 10
-115.403811
 20
-377.777783
 30
547.777778
 70
    64
  0
VERTEX
  5
197
  8
TEAM-NET
 10
-56.201912
 20
-377.777783
 30
547.777778
 70
    64
  0
VERTEX
  5
198
  8
TEAM-NET
 10
2.999987
 20
-377.777783
 30
547.777778
 70
    64
  0
VERTEX
  5
199
  8
TEAM-NET
 10
62.201886
 20
-377.777783
 30
547.777778
 70
    64
  0
VERTEX
  5
19A
  8
TEAM-NET
 10
121.403785
 20
-377.777783
 30
547.777778
 70
    64
  0
VERTEX
  5
19B
  8
TEAM-NET
 10
180.605685
 20
-377.777783
 30
547.777778
 70
    64
  0
VERTEX
  5
19C
  8
TEAM-NET
 10
239.807584
 20
-377.777783
 30
547.777778
 70
    64
  0
VERTEX
  5
19D
  8
TEAM-NET
 10
299.009483
 20
-377.777783
 30
547.777778
 70
    64
  0
VERTEX
  5
19E
  8
TEAM-NET
 10
358.211382
 20
-377.777783
 30
547.777778
 70
    64
  0
VERTEX
  5
19F
  8
TEAM-NET
 10
417.413281
 20
-377.777783
 30
547.777778
 70
    64
  0
VERTEX
  5
1A0
  8
TEAM-NET
 10
476.615177
 20
-377.775215
 30
547.777778
 70
    64
  0
VERTEX
  5
1A1
  8
TEAM-NET
 10
535.557587
 20
-372.928541
 30
547.777778
 70
    64
  0
VERTEX
  5
1A2
  8
TEAM-NET
 10
593.021292
 20
-358.9421
 30
547.777778
 70
    64
  0
VERTEX
  5
1A3
  8
TEAM-NET
 10
647.597967
 20
-336.158674
 30
547.777778
 70
    64
  0
VERTEX
  5
1A4
  8
TEAM-NET
 10
697.950041
 20
-305.136641
 30
547.777778
 70
    64
  0
VERTEX
  5
1A5
  8
TEAM-NET
 10
742.843482
 20
-266.636292
 30
547.777778
 70
    64
  0
VERTEX
  5
1A6
  8
TEAM-NET
 10
781.178036
 20
-221.601196
 30
547.777778
 70
    64
  0
VERTEX
  5
1A7
  8
TEAM-NET
 10
809.014198
 20
-171.135078
 30
547.777778
 70
    64
  0
VERTEX
  5
1A8
  8
TEAM-NET
 10
831.596231
 20
-116.474766
 30
547.777778
 70
    64
  0
VERTEX
  5
1A9
  8
TEAM-NET
 10
845.370694
 20
-58.95988
 30
547.777778
 70
    64
  0
VERTEX
  5
1AA
  8
TEAM-NET
 10
850.0
 20
0.0
 30
547.777778
 70
    64
  0
SEQEND
  5
1AB
  8
TEAM-NET
  0
POLYLINE
  5
1AC
  8
TEAM-DET1
 66
     1
 10
0.0
 20
0.0
 30
547.777778
  0
VERTEX
  5
5F4
  8
TEAM-DET1
 10
-793.333358
 20
0.0
 30
547.777778
 42
0.407654
  0
VERTEX
  5
5F5
  8
TEAM-DET1
 10
-469.222242
 20
-321.111116
 30
547.777778
  0
VERTEX
  5
5F6
  8
TEAM-DET1
 10
475.222217
 20
-321.111116
 30
547.777778
 42
0.420866
  0
VERTEX
  5
5F7
  8
TEAM-DET1
 10
793.333332
 20
0.0
 30
547.777778
  0
SEQEND
  5
5F8
  8
TEAM-DET1
  0
TEXT
  5
1AD
  8
TEAM-TXT
 10
-501.878218
 20
273.735767
 30
547.777778
 40
30.0
  1
team 111506
 41
0.8
 51
15.0
  7
TEAM
  0
ENDSEC
  0
EOF
