  0
SECTION
  2
HEADER
  9
$ACADVER
  1
AC1009
  9
$INSBASE
 10
0.0
 20
0.0
 30
0.0
  9
$EXTMIN
 10
-1001.939083
 20
-500.812938
 30
-0.010822
  9
$EXTMAX
 10
1001.214337
 20
500.771017
 30
600.018921
  9
$LIMMIN
 10
-1001.939083
 20
-500.812938
  9
$LIMMAX
 10
1001.214337
 20
500.771017
  9
$ORTHOMODE
 70
     1
  9
$REGENMODE
 70
     1
  9
$FILLMODE
 70
     1
  9
$QTEXTMODE
 70
     0
  9
$MIRRTEXT
 70
     0
  9
$DRAGMODE
 70
     2
  9
$LTSCALE
 40
50.0
  9
$OSMODE
 70
     7
  9
$ATTMODE
 70
     1
  9
$TEXTSIZE
 40
200.0
  9
$TRACEWID
 40
1.0
  9
$TEXTSTYLE
  7
STANDARD
  9
$CLAYER
  8
TEAM-MAS
  9
$CELTYPE
  6
BYLAYER
  9
$CECOLOR
 62
   256
  9
$DIMSCALE
 40
0.0
  9
$DIMASZ
 40
20.0
  9
$DIMEXO
 40
10.0
  9
$DIMDLI
 40
1.0
  9
$DIMRND
 40
0.0
  9
$DIMDLE
 40
0.0
  9
$DIMEXE
 40
1.0
  9
$DIMTP
 40
0.0
  9
$DIMTM
 40
0.0
  9
$DIMTXT
 40
35.0
  9
$DIMCEN
 40
1.0
  9
$DIMTSZ
 40
0.0
  9
$DIMTOL
 70
     0
  9
$DIMLIM
 70
     0
  9
$DIMTIH
 70
     0
  9
$DIMTOH
 70
     0
  9
$DIMSE1
 70
     0
  9
$DIMSE2
 70
     0
  9
$DIMTAD
 70
     0
  9
$DIMZIN
 70
     0
  9
$DIMBLK
  1

  9
$DIMASO
 70
     1
  9
$DIMSHO
 70
     0
  9
$DIMPOST
  1

  9
$DIMAPOST
  1

  9
$DIMALT
 70
     0
  9
$DIMALTD
 70
     2
  9
$DIMALTF
 40
25.4
  9
$DIMLFAC
 40
1.0
  9
$DIMTOFL
 70
     0
  9
$DIMTVP
 40
0.0
  9
$DIMTIX
 70
     0
  9
$DIMSOXD
 70
     0
  9
$DIMSAH
 70
     0
  9
$DIMBLK1
  1

  9
$DIMBLK2
  1

  9
$DIMSTYLE
  2
TEAM
  9
$DIMCLRD
 70
     9
  9
$DIMCLRE
 70
     9
  9
$DIMCLRT
 70
    11
  9
$DIMTFAC
 40
1.0
  9
$DIMGAP
 40
7.0
  9
$LUNITS
 70
     2
  9
$LUPREC
 70
     1
  9
$SKETCHINC
 40
1.0
  9
$FILLETRAD
 40
10.0
  9
$AUNITS
 70
     0
  9
$AUPREC
 70
     0
  9
$MENU
  1
ROPLANS
  9
$ELEVATION
 40
0.0
  9
$PELEVATION
 40
0.0
  9
$THICKNESS
 40
0.0
  9
$LIMCHECK
 70
     0
  9
$BLIPMODE
 70
     1
  9
$CHAMFERA
 40
0.0
  9
$CHAMFERB
 40
0.0
  9
$SKPOLY
 70
     0
  9
$TDCREATE
 40
2450392.957851
  9
$TDUPDATE
 40
2455955.923321
  9
$TDINDWG
 40
2.217917
  9
$TDUSRTIMER
 40
2.217917
  9
$USRTIMER
 70
     1
  9
$ANGBASE
 50
0.0
  9
$ANGDIR
 70
     0
  9
$PDMODE
 70
     0
  9
$PDSIZE
 40
0.0
  9
$PLINEWID
 40
0.0
  9
$COORDS
 70
     2
  9
$SPLFRAME
 70
     0
  9
$SPLINETYPE
 70
     6
  9
$SPLINESEGS
 70
     8
  9
$ATTDIA
 70
     0
  9
$ATTREQ
 70
     0
  9
$HANDLING
 70
     1
  9
$HANDSEED
  5
4EA
  9
$SURFTAB1
 70
    24
  9
$SURFTAB2
 70
    24
  9
$SURFTYPE
 70
     6
  9
$SURFU
 70
     6
  9
$SURFV
 70
     6
  9
$UCSNAME
  2

  9
$UCSORG
 10
0.0
 20
0.0
 30
0.0
  9
$UCSXDIR
 10
1.0
 20
0.0
 30
0.0
  9
$UCSYDIR
 10
0.0
 20
1.0
 30
0.0
  9
$PUCSNAME
  2

  9
$PUCSORG
 10
0.0
 20
0.0
 30
0.0
  9
$PUCSXDIR
 10
1.0
 20
0.0
 30
0.0
  9
$PUCSYDIR
 10
0.0
 20
1.0
 30
0.0
  9
$USERI1
 70
     0
  9
$USERI2
 70
     0
  9
$USERI3
 70
     0
  9
$USERI4
 70
     0
  9
$USERI5
 70
     0
  9
$USERR1
 40
0.0
  9
$USERR2
 40
0.0
  9
$USERR3
 40
0.0
  9
$USERR4
 40
0.0
  9
$USERR5
 40
0.0
  9
$WORLDVIEW
 70
     1
  9
$SHADEDGE
 70
     0
  9
$SHADEDIF
 70
    70
  9
$TILEMODE
 70
     1
  9
$MAXACTVP
 70
    16
  9
$PLIMCHECK
 70
     0
  9
$PEXTMIN
 10
-0.805942
 20
0.005011
 30
0.0
  9
$PEXTMAX
 10
20.250094
 20
11.356329
 30
0.0
  9
$PLIMMIN
 10
0.0
 20
0.0
  9
$PLIMMAX
 10
12.0
 20
9.0
  9
$UNITMODE
 70
     0
  9
$VISRETAIN
 70
     0
  9
$PLINEGEN
 70
     0
  9
$PSLTSCALE
 70
     0
  0
ENDSEC
  0
SECTION
  2
TABLES
  0
TABLE
  2
VPORT
 70
     2
  0
VPORT
  2
*ACTIVE
 70
     0
 10
0.0
 20
0.0
 11
1.0
 21
1.0
 12
-0.362373
 22
-0.020961
 13
0.0
 23
0.0
 14
1.0
 24
1.0
 15
50.0
 25
50.0
 16
0.0
 26
0.0
 36
1.0
 17
0.0
 27
0.0
 37
0.0
 40
1055.671049
 41
1.903766
 42
50.0
 43
0.0
 44
0.0
 50
0.0
 51
0.0
 71
     0
 72
   100
 73
     1
 74
     1
 75
     0
 76
     0
 77
     0
 78
     0
  0
ENDTAB
  0
TABLE
  2
LTYPE
 70
     2
  0
LTYPE
  2
CONTINUOUS
 70
     0
  3
Solid Line
 72
    65
 73
     0
 40
0.0
  0
LTYPE
  2
31
 70
     0
  3

 72
    65
 73
     4
 40
2.1
 49
1.5
 49
-0.3
 49
0.0
 49
-0.3
  0
ENDTAB
  0
TABLE
  2
LAYER
 70
     9
  0
LAYER
  2
0
 70
     0
 62
     7
  6
CONTINUOUS
  0
LAYER
  2
TEAM-BODY
 70
     0
 62
     2
  6
CONTINUOUS
  0
LAYER
  2
TEAM-AXE
 70
     0
 62
    10
  6
31
  0
LAYER
  2
TEAM-MAS
 70
     0
 62
     9
  6
CONTINUOUS
  0
LAYER
  2
TEAM-TXT
 70
     0
 62
    11
  6
CONTINUOUS
  0
LAYER
  2
TEAM-DET1
 70
     0
 62
     4
  6
CONTINUOUS
  0
LAYER
  2
TEAM-KAN
 70
     0
 62
     6
  6
CONTINUOUS
  0
LAYER
  2
TEAM-NET
 70
     0
 62
    15
  6
CONTINUOUS
  0
LAYER
  2
TEAM-INSP
 70
     0
 62
     5
  6
CONTINUOUS
  0
ENDTAB
  0
TABLE
  2
STYLE
 70
     2
  0
STYLE
  2
STANDARD
 70
     0
 40
0.0
 41
1.0
 50
0.0
 71
     0
 42
200.0
  3
txt
  4

  0
STYLE
  2
TEAM
 70
     0
 40
0.0
 41
0.8
 50
15.0
 71
     0
 42
7.0
  3
ROMANS.shx
  4

  0
ENDTAB
  0
TABLE
  2
VIEW
 70
     0
  0
ENDTAB
  0
TABLE
  2
UCS
 70
     0
  0
ENDTAB
  0
TABLE
  2
APPID
 70
     1
  0
APPID
  2
ACAD
 70
     0
  0
ENDTAB
  0
TABLE
  2
DIMSTYLE
 70
     1
  0
DIMSTYLE
  2
TEAM
 70
     0
  3

  4

  5

  6

  7

 40
0.0
 41
20.0
 42
10.0
 43
1.0
 44
1.0
 45
0.0
 46
0.0
 47
0.0
 48
0.0
140
35.0
141
1.0
142
0.0
143
25.4
144
1.0
145
0.0
146
1.0
147
7.0
 71
     0
 72
     0
 73
     0
 74
     0
 75
     0
 76
     0
 77
     0
 78
     0
170
     0
171
     2
172
     0
173
     0
174
     0
175
     0
176
     9
177
     9
178
    11
  0
ENDTAB
  0
ENDSEC
  0
SECTION
  2
BLOCKS
  0
BLOCK
  8
0
  2
$MODEL_SPACE
 70
     0
 10
0.0
 20
0.0
 30
0.0
  3
$MODEL_SPACE
  1

  0
ENDBLK
  5
483
  8
0
  0
BLOCK
 67
     1
  8
0
  2
$PAPER_SPACE
 70
     0
 10
0.0
 20
0.0
 30
0.0
  3
$PAPER_SPACE
  1

  0
ENDBLK
  5
481
 67
     1
  8
0
  0
ENDSEC
  0
SECTION
  2
ENTITIES
  0
POLYLINE
  5
20
  8
TEAM-NET
 66
     1
 10
0.0
 20
0.0
 30
0.0
 70
    16
 71
     2
 72
    37
  0
VERTEX
  5
21
  8
TEAM-NET
 10
-638.716706
 20
0.0
 30
150.0
 70
    64
  0
VERTEX
  5
22
  8
TEAM-NET
 10
-632.461197
 20
-42.362342
 30
150.0
 70
    64
  0
VERTEX
  5
23
  8
TEAM-NET
 10
-617.088007
 20
-82.354249
 30
150.0
 70
    64
  0
VERTEX
  5
24
  8
TEAM-NET
 10
-593.042544
 20
-117.868864
 30
150.0
 70
    64
  0
VERTEX
  5
25
  8
TEAM-NET
 10
-563.906694
 20
-149.349021
 30
150.0
 70
    64
  0
VERTEX
  5
26
  8
TEAM-NET
 10
-531.086649
 20
-176.999142
 30
150.0
 70
    64
  0
VERTEX
  5
27
  8
TEAM-NET
 10
-495.604114
 20
-201.171221
 30
150.0
 70
    64
  0
VERTEX
  5
28
  8
TEAM-NET
 10
-458.192163
 20
-222.256053
 30
150.0
 70
    64
  0
VERTEX
  5
29
  8
TEAM-NET
 10
-419.367344
 20
-240.618773
 30
150.0
 70
    64
  0
VERTEX
  5
2A
  8
TEAM-NET
 10
-379.492971
 20
-256.574757
 30
150.0
 70
    64
  0
VERTEX
  5
2B
  8
TEAM-NET
 10
-338.826728
 20
-270.385657
 30
150.0
 70
    64
  0
VERTEX
  5
2C
  8
TEAM-NET
 10
-297.554091
 20
-282.263859
 30
150.0
 70
    64
  0
VERTEX
  5
2D
  8
TEAM-NET
 10
-255.811071
 20
-292.379537
 30
150.0
 70
    64
  0
VERTEX
  5
2E
  8
TEAM-NET
 10
-213.699498
 20
-300.867718
 30
150.0
 70
    64
  0
VERTEX
  5
2F
  8
TEAM-NET
 10
-171.260265
 20
-307.558237
 30
150.0
 70
    64
  0
VERTEX
  5
30
  8
TEAM-NET
 10
-128.595481
 20
-312.56775
 30
150.0
 70
    64
  0
VERTEX
  5
31
  8
TEAM-NET
 10
-85.794947
 20
-316.183259
 30
150.0
 70
    64
  0
VERTEX
  5
32
  8
TEAM-NET
 10
-42.89991
 20
-318.447281
 30
150.0
 70
    64
  0
VERTEX
  5
33
  8
TEAM-NET
 10
0.053231
 20
-319.384969
 30
150.0
 70
    64
  0
VERTEX
  5
34
  8
TEAM-NET
 10
43.006371
 20
-318.447281
 30
150.0
 70
    64
  0
VERTEX
  5
35
  8
TEAM-NET
 10
85.901409
 20
-316.183259
 30
150.0
 70
    64
  0
VERTEX
  5
36
  8
TEAM-NET
 10
128.701943
 20
-312.56775
 30
150.0
 70
    64
  0
VERTEX
  5
37
  8
TEAM-NET
 10
171.366727
 20
-307.558237
 30
150.0
 70
    64
  0
VERTEX
  5
38
  8
TEAM-NET
 10
213.80596
 20
-300.867718
 30
150.0
 70
    64
  0
VERTEX
  5
39
  8
TEAM-NET
 10
255.917532
 20
-292.379537
 30
150.0
 70
    64
  0
VERTEX
  5
3A
  8
TEAM-NET
 10
297.660553
 20
-282.263859
 30
150.0
 70
    64
  0
VERTEX
  5
3B
  8
TEAM-NET
 10
338.933189
 20
-270.385657
 30
150.0
 70
    64
  0
VERTEX
  5
3C
  8
TEAM-NET
 10
379.599433
 20
-256.574757
 30
150.0
 70
    64
  0
VERTEX
  5
3D
  8
TEAM-NET
 10
419.473806
 20
-240.618773
 30
150.0
 70
    64
  0
VERTEX
  5
3E
  8
TEAM-NET
 10
458.298624
 20
-222.256053
 30
150.0
 70
    64
  0
VERTEX
  5
3F
  8
TEAM-NET
 10
495.710575
 20
-201.171221
 30
150.0
 70
    64
  0
VERTEX
  5
40
  8
TEAM-NET
 10
531.19311
 20
-176.999142
 30
150.0
 70
    64
  0
VERTEX
  5
41
  8
TEAM-NET
 10
564.013156
 20
-149.349021
 30
150.0
 70
    64
  0
VERTEX
  5
42
  8
TEAM-NET
 10
593.149006
 20
-117.868864
 30
150.0
 70
    64
  0
VERTEX
  5
43
  8
TEAM-NET
 10
617.194469
 20
-82.354249
 30
150.0
 70
    64
  0
VERTEX
  5
44
  8
TEAM-NET
 10
632.567659
 20
-42.362342
 30
150.0
 70
    64
  0
VERTEX
  5
45
  8
TEAM-NET
 10
638.823168
 20
0.0
 30
150.0
 70
    64
  0
VERTEX
  5
46
  8
TEAM-NET
 10
-896.769172
 20
0.0
 30
600.0
 70
    64
  0
VERTEX
  5
47
  8
TEAM-NET
 10
-889.480065
 20
-61.189464
 30
600.0
 70
    64
  0
VERTEX
  5
48
  8
TEAM-NET
 10
-871.804228
 20
-120.222052
 30
600.0
 70
    64
  0
VERTEX
  5
49
  8
TEAM-NET
 10
-844.265501
 20
-175.348272
 30
600.0
 70
    64
  0
VERTEX
  5
4A
  8
TEAM-NET
 10
-807.680024
 20
-224.934404
 30
600.0
 70
    64
  0
VERTEX
  5
4B
  8
TEAM-NET
 10
-763.132044
 20
-267.510912
 30
600.0
 70
    64
  0
VERTEX
  5
4C
  8
TEAM-NET
 10
-711.941785
 20
-301.815999
 30
600.0
 70
    64
  0
VERTEX
  5
4D
  8
TEAM-NET
 10
-656.596191
 20
-329.065308
 30
600.0
 70
    64
  0
VERTEX
  5
4E
  8
TEAM-NET
 10
-600.151408
 20
-353.968936
 30
600.0
 70
    64
  0
VERTEX
  5
4F
  8
TEAM-NET
 10
-542.769343
 20
-376.629539
 30
600.0
 70
    64
  0
VERTEX
  5
50
  8
TEAM-NET
 10
-484.53909
 20
-397.011931
 30
600.0
 70
    64
  0
VERTEX
  5
51
  8
TEAM-NET
 10
-425.551059
 20
-415.084467
 30
600.0
 70
    64
  0
VERTEX
  5
52
  8
TEAM-NET
 10
-365.896838
 20
-430.819087
 30
600.0
 70
    64
  0
VERTEX
  5
53
  8
TEAM-NET
 10
-305.669049
 20
-444.19136
 30
600.0
 70
    64
  0
VERTEX
  5
54
  8
TEAM-NET
 10
-244.961203
 20
-455.180524
 30
600.0
 70
    64
  0
VERTEX
  5
55
  8
TEAM-NET
 10
-183.867558
 20
-463.769517
 30
600.0
 70
    64
  0
VERTEX
  5
56
  8
TEAM-NET
 10
-122.48297
 20
-469.945003
 30
600.0
 70
    64
  0
VERTEX
  5
57
  8
TEAM-NET
 10
-60.902747
 20
-473.697395
 30
600.0
 70
    64
  0
VERTEX
  5
58
  8
TEAM-NET
 10
0.777499
 20
-475.020865
 30
600.0
 70
    64
  0
VERTEX
  5
59
  8
TEAM-NET
 10
62.462001
 20
-473.913359
 30
600.0
 70
    64
  0
VERTEX
  5
5A
  8
TEAM-NET
 10
124.054984
 20
-470.376596
 30
600.0
 70
    64
  0
VERTEX
  5
5B
  8
TEAM-NET
 10
185.460818
 20
-464.416068
 30
600.0
 70
    64
  0
VERTEX
  5
5C
  8
TEAM-NET
 10
246.584161
 20
-456.04103
 30
600.0
 70
    64
  0
VERTEX
  5
5D
  8
TEAM-NET
 10
307.33011
 20
-445.264485
 30
600.0
 70
    64
  0
VERTEX
  5
5E
  8
TEAM-NET
 10
367.604349
 20
-432.103164
 30
600.0
 70
    64
  0
VERTEX
  5
5F
  8
TEAM-NET
 10
427.313295
 20
-416.577503
 30
600.0
 70
    64
  0
VERTEX
  5
60
  8
TEAM-NET
 10
486.36424
 20
-398.711608
 30
600.0
 70
    64
  0
VERTEX
  5
61
  8
TEAM-NET
 10
544.665499
 20
-378.533217
 30
600.0
 70
    64
  0
VERTEX
  5
62
  8
TEAM-NET
 10
602.126552
 20
-356.073661
 30
600.0
 70
    64
  0
VERTEX
  5
63
  8
TEAM-NET
 10
658.658183
 20
-331.36781
 30
600.0
 70
    64
  0
VERTEX
  5
64
  8
TEAM-NET
 10
714.172618
 20
-304.454025
 30
600.0
 70
    64
  0
VERTEX
  5
65
  8
TEAM-NET
 10
764.530833
 20
-268.942871
 30
600.0
 70
    64
  0
VERTEX
  5
66
  8
TEAM-NET
 10
808.278746
 20
-225.537046
 30
600.0
 70
    64
  0
VERTEX
  5
67
  8
TEAM-NET
 10
844.244449
 20
-175.492927
 30
600.0
 70
    64
  0
VERTEX
  5
68
  8
TEAM-NET
 10
871.437121
 20
-120.189183
 30
600.0
 70
    64
  0
VERTEX
  5
69
  8
TEAM-NET
 10
889.10763
 20
-61.149377
 30
600.0
 70
    64
  0
VERTEX
  5
6A
  8
TEAM-NET
 10
896.769172
 20
0.0
 30
600.0
 70
    64
  0
SEQEND
  5
6C
  8
TEAM-NET
  0
POLYLINE
  5
6D
  8
TEAM-NET
 66
     1
 10
0.0
 20
0.0
 30
0.0
 70
    16
 71
     2
 72
    37
  0
VERTEX
  5
6E
  8
TEAM-NET
 10
-896.769172
 20
0.0
 30
600.0
 70
    64
  0
VERTEX
  5
6F
  8
TEAM-NET
 10
-889.480065
 20
61.189464
 30
600.0
 70
    64
  0
VERTEX
  5
70
  8
TEAM-NET
 10
-871.804228
 20
120.222052
 30
600.0
 70
    64
  0
VERTEX
  5
71
  8
TEAM-NET
 10
-844.265501
 20
175.348272
 30
600.0
 70
    64
  0
VERTEX
  5
72
  8
TEAM-NET
 10
-807.680024
 20
224.934404
 30
600.0
 70
    64
  0
VERTEX
  5
73
  8
TEAM-NET
 10
-763.132044
 20
267.510912
 30
600.0
 70
    64
  0
VERTEX
  5
74
  8
TEAM-NET
 10
-711.941785
 20
301.815999
 30
600.0
 70
    64
  0
VERTEX
  5
75
  8
TEAM-NET
 10
-656.596191
 20
329.065308
 30
600.0
 70
    64
  0
VERTEX
  5
76
  8
TEAM-NET
 10
-600.151408
 20
353.968936
 30
600.0
 70
    64
  0
VERTEX
  5
77
  8
TEAM-NET
 10
-542.769343
 20
376.629539
 30
600.0
 70
    64
  0
VERTEX
  5
78
  8
TEAM-NET
 10
-484.53909
 20
397.011931
 30
600.0
 70
    64
  0
VERTEX
  5
79
  8
TEAM-NET
 10
-425.551059
 20
415.084467
 30
600.0
 70
    64
  0
VERTEX
  5
7A
  8
TEAM-NET
 10
-365.896838
 20
430.819087
 30
600.0
 70
    64
  0
VERTEX
  5
7B
  8
TEAM-NET
 10
-305.669049
 20
444.19136
 30
600.0
 70
    64
  0
VERTEX
  5
7C
  8
TEAM-NET
 10
-244.961203
 20
455.180524
 30
600.0
 70
    64
  0
VERTEX
  5
7D
  8
TEAM-NET
 10
-183.867558
 20
463.769517
 30
600.0
 70
    64
  0
VERTEX
  5
7E
  8
TEAM-NET
 10
-122.48297
 20
469.945003
 30
600.0
 70
    64
  0
VERTEX
  5
7F
  8
TEAM-NET
 10
-60.902747
 20
473.697395
 30
600.0
 70
    64
  0
VERTEX
  5
80
  8
TEAM-NET
 10
0.777499
 20
475.020865
 30
600.0
 70
    64
  0
VERTEX
  5
81
  8
TEAM-NET
 10
62.462001
 20
473.913359
 30
600.0
 70
    64
  0
VERTEX
  5
82
  8
TEAM-NET
 10
124.054984
 20
470.376596
 30
600.0
 70
    64
  0
VERTEX
  5
83
  8
TEAM-NET
 10
185.460818
 20
464.416068
 30
600.0
 70
    64
  0
VERTEX
  5
84
  8
TEAM-NET
 10
246.584161
 20
456.04103
 30
600.0
 70
    64
  0
VERTEX
  5
85
  8
TEAM-NET
 10
307.33011
 20
445.264485
 30
600.0
 70
    64
  0
VERTEX
  5
86
  8
TEAM-NET
 10
367.604349
 20
432.103164
 30
600.0
 70
    64
  0
VERTEX
  5
87
  8
TEAM-NET
 10
427.313295
 20
416.577503
 30
600.0
 70
    64
  0
VERTEX
  5
88
  8
TEAM-NET
 10
486.36424
 20
398.711608
 30
600.0
 70
    64
  0
VERTEX
  5
89
  8
TEAM-NET
 10
544.665499
 20
378.533217
 30
600.0
 70
    64
  0
VERTEX
  5
8A
  8
TEAM-NET
 10
602.126552
 20
356.073661
 30
600.0
 70
    64
  0
VERTEX
  5
8B
  8
TEAM-NET
 10
658.658183
 20
331.36781
 30
600.0
 70
    64
  0
VERTEX
  5
8C
  8
TEAM-NET
 10
714.172618
 20
304.454025
 30
600.0
 70
    64
  0
VERTEX
  5
8D
  8
TEAM-NET
 10
764.530833
 20
268.942871
 30
600.0
 70
    64
  0
VERTEX
  5
8E
  8
TEAM-NET
 10
808.278746
 20
225.537046
 30
600.0
 70
    64
  0
VERTEX
  5
8F
  8
TEAM-NET
 10
844.244449
 20
175.492927
 30
600.0
 70
    64
  0
VERTEX
  5
90
  8
TEAM-NET
 10
871.437121
 20
120.189183
 30
600.0
 70
    64
  0
VERTEX
  5
91
  8
TEAM-NET
 10
889.10763
 20
61.149377
 30
600.0
 70
    64
  0
VERTEX
  5
92
  8
TEAM-NET
 10
896.769172
 20
0.0
 30
600.0
 70
    64
  0
VERTEX
  5
93
  8
TEAM-NET
 10
-638.716706
 20
0.0
 30
150.0
 70
    64
  0
VERTEX
  5
94
  8
TEAM-NET
 10
-632.461197
 20
42.362342
 30
150.0
 70
    64
  0
VERTEX
  5
95
  8
TEAM-NET
 10
-617.088007
 20
82.354249
 30
150.0
 70
    64
  0
VERTEX
  5
96
  8
TEAM-NET
 10
-593.042544
 20
117.868864
 30
150.0
 70
    64
  0
VERTEX
  5
97
  8
TEAM-NET
 10
-563.906694
 20
149.349021
 30
150.0
 70
    64
  0
VERTEX
  5
98
  8
TEAM-NET
 10
-531.086649
 20
176.999142
 30
150.0
 70
    64
  0
VERTEX
  5
99
  8
TEAM-NET
 10
-495.604114
 20
201.171221
 30
150.0
 70
    64
  0
VERTEX
  5
9A
  8
TEAM-NET
 10
-458.192163
 20
222.256053
 30
150.0
 70
    64
  0
VERTEX
  5
9B
  8
TEAM-NET
 10
-419.367344
 20
240.618773
 30
150.0
 70
    64
  0
VERTEX
  5
9C
  8
TEAM-NET
 10
-379.492971
 20
256.574757
 30
150.0
 70
    64
  0
VERTEX
  5
9D
  8
TEAM-NET
 10
-338.826728
 20
270.385657
 30
150.0
 70
    64
  0
VERTEX
  5
9E
  8
TEAM-NET
 10
-297.554091
 20
282.263859
 30
150.0
 70
    64
  0
VERTEX
  5
9F
  8
TEAM-NET
 10
-255.811071
 20
292.379537
 30
150.0
 70
    64
  0
VERTEX
  5
A0
  8
TEAM-NET
 10
-213.699498
 20
300.867718
 30
150.0
 70
    64
  0
VERTEX
  5
A1
  8
TEAM-NET
 10
-171.260265
 20
307.558237
 30
150.0
 70
    64
  0
VERTEX
  5
A2
  8
TEAM-NET
 10
-128.595481
 20
312.56775
 30
150.0
 70
    64
  0
VERTEX
  5
A3
  8
TEAM-NET
 10
-85.794947
 20
316.183259
 30
150.0
 70
    64
  0
VERTEX
  5
A4
  8
TEAM-NET
 10
-42.89991
 20
318.447281
 30
150.0
 70
    64
  0
VERTEX
  5
A5
  8
TEAM-NET
 10
0.053231
 20
319.384969
 30
150.0
 70
    64
  0
VERTEX
  5
A6
  8
TEAM-NET
 10
43.006371
 20
318.447281
 30
150.0
 70
    64
  0
VERTEX
  5
A7
  8
TEAM-NET
 10
85.901409
 20
316.183259
 30
150.0
 70
    64
  0
VERTEX
  5
A8
  8
TEAM-NET
 10
128.701943
 20
312.56775
 30
150.0
 70
    64
  0
VERTEX
  5
A9
  8
TEAM-NET
 10
171.366727
 20
307.558237
 30
150.0
 70
    64
  0
VERTEX
  5
AA
  8
TEAM-NET
 10
213.80596
 20
300.867718
 30
150.0
 70
    64
  0
VERTEX
  5
AB
  8
TEAM-NET
 10
255.917532
 20
292.379537
 30
150.0
 70
    64
  0
VERTEX
  5
AC
  8
TEAM-NET
 10
297.660553
 20
282.263859
 30
150.0
 70
    64
  0
VERTEX
  5
AD
  8
TEAM-NET
 10
338.933189
 20
270.385657
 30
150.0
 70
    64
  0
VERTEX
  5
AE
  8
TEAM-NET
 10
379.599433
 20
256.574757
 30
150.0
 70
    64
  0
VERTEX
  5
AF
  8
TEAM-NET
 10
419.473806
 20
240.618773
 30
150.0
 70
    64
  0
VERTEX
  5
B0
  8
TEAM-NET
 10
458.298624
 20
222.256053
 30
150.0
 70
    64
  0
VERTEX
  5
B1
  8
TEAM-NET
 10
495.710575
 20
201.171221
 30
150.0
 70
    64
  0
VERTEX
  5
B2
  8
TEAM-NET
 10
531.19311
 20
176.999142
 30
150.0
 70
    64
  0
VERTEX
  5
B3
  8
TEAM-NET
 10
564.013156
 20
149.349021
 30
150.0
 70
    64
  0
VERTEX
  5
B4
  8
TEAM-NET
 10
593.149006
 20
117.868864
 30
150.0
 70
    64
  0
VERTEX
  5
B5
  8
TEAM-NET
 10
617.194469
 20
82.354249
 30
150.0
 70
    64
  0
VERTEX
  5
B6
  8
TEAM-NET
 10
632.567659
 20
42.362342
 30
150.0
 70
    64
  0
VERTEX
  5
B7
  8
TEAM-NET
 10
638.823168
 20
0.0
 30
150.0
 70
    64
  0
SEQEND
  5
B8
  8
TEAM-NET
  0
CIRCLE
  5
B9
  8
TEAM-KAN
 39
-15.0
 10
0.0
 20
0.0
 30
150.0
 40
27.680031
  0
CIRCLE
  5
BB
  8
TEAM-INSP
 10
0.0
 20
0.0
 30
0.0
 40
7.558778
  0
POLYLINE
  5
BD
  8
TEAM-BODY
 66
     1
 10
0.0
 20
0.0
 30
150.0
 70
   128
  0
VERTEX
  5
489
  8
TEAM-BODY
 10
638.823168
 20
0.0
 30
150.0
  0
VERTEX
  5
48A
  8
TEAM-BODY
 10
636.392456
 20
27.836234
 30
150.0
  0
VERTEX
  5
48B
  8
TEAM-BODY
 10
629.118817
 20
55.460618
 30
150.0
  0
VERTEX
  5
48C
  8
TEAM-BODY
 10
617.05761
 20
82.662913
 30
150.0
  0
VERTEX
  5
48D
  8
TEAM-BODY
 10
600.300627
 20
109.236093
 30
150.0
  0
VERTEX
  5
48E
  8
TEAM-BODY
 10
578.975399
 20
134.97792
 30
150.0
  0
VERTEX
  5
48F
  8
TEAM-BODY
 10
553.244224
 20
159.692484
 30
150.0
  0
VERTEX
  5
490
  8
TEAM-BODY
 10
523.302931
 20
183.191692
 30
150.0
  0
VERTEX
  5
491
  8
TEAM-BODY
 10
489.379392
 20
205.296701
 30
150.0
  0
VERTEX
  5
492
  8
TEAM-BODY
 10
451.731785
 20
225.839277
 30
150.0
  0
VERTEX
  5
493
  8
TEAM-BODY
 10
410.646632
 20
244.66308
 30
150.0
  0
VERTEX
  5
494
  8
TEAM-BODY
 10
366.436615
 20
261.62485
 30
150.0
  0
VERTEX
  5
495
  8
TEAM-BODY
 10
319.438199
 20
276.595496
 30
150.0
  0
VERTEX
  5
496
  8
TEAM-BODY
 10
270.009071
 20
289.461084
 30
150.0
  0
VERTEX
  5
497
  8
TEAM-BODY
 10
218.525416
 20
300.123698
 30
150.0
  0
VERTEX
  5
498
  8
TEAM-BODY
 10
165.379056
 20
308.50219
 30
150.0
  0
VERTEX
  5
499
  8
TEAM-BODY
 10
110.974466
 20
314.532793
 30
150.0
  0
VERTEX
  5
49A
  8
TEAM-BODY
 10
55.725699
 20
318.169612
 30
150.0
  0
VERTEX
  5
49B
  8
TEAM-BODY
 10
0.053231
 20
319.384969
 30
150.0
  0
VERTEX
  5
49C
  8
TEAM-BODY
 10
-55.619237
 20
318.169612
 30
150.0
  0
VERTEX
  5
49D
  8
TEAM-BODY
 10
-110.868005
 20
314.532793
 30
150.0
  0
VERTEX
  5
49E
  8
TEAM-BODY
 10
-165.272594
 20
308.50219
 30
150.0
  0
VERTEX
  5
49F
  8
TEAM-BODY
 10
-218.418955
 20
300.123698
 30
150.0
  0
VERTEX
  5
4A0
  8
TEAM-BODY
 10
-269.90261
 20
289.461084
 30
150.0
  0
VERTEX
  5
4A1
  8
TEAM-BODY
 10
-319.331738
 20
276.595496
 30
150.0
  0
VERTEX
  5
4A2
  8
TEAM-BODY
 10
-366.330153
 20
261.62485
 30
150.0
  0
VERTEX
  5
4A3
  8
TEAM-BODY
 10
-410.54017
 20
244.66308
 30
150.0
  0
VERTEX
  5
4A4
  8
TEAM-BODY
 10
-451.625323
 20
225.839277
 30
150.0
  0
VERTEX
  5
4A5
  8
TEAM-BODY
 10
-489.27293
 20
205.296701
 30
150.0
  0
VERTEX
  5
4A6
  8
TEAM-BODY
 10
-523.196469
 20
183.191692
 30
150.0
  0
VERTEX
  5
4A7
  8
TEAM-BODY
 10
-553.137762
 20
159.692484
 30
150.0
  0
VERTEX
  5
4A8
  8
TEAM-BODY
 10
-578.868937
 20
134.97792
 30
150.0
  0
VERTEX
  5
4A9
  8
TEAM-BODY
 10
-600.194165
 20
109.236093
 30
150.0
  0
VERTEX
  5
4AA
  8
TEAM-BODY
 10
-616.951149
 20
82.662913
 30
150.0
  0
VERTEX
  5
4AB
  8
TEAM-BODY
 10
-629.012356
 20
55.460618
 30
150.0
  0
VERTEX
  5
4AC
  8
TEAM-BODY
 10
-636.285994
 20
27.836234
 30
150.0
  0
VERTEX
  5
4AD
  8
TEAM-BODY
 10
-638.716706
 20
0.0
 30
150.0
  0
SEQEND
  5
4AE
  8
TEAM-BODY
  0
POLYLINE
  5
BF
  8
TEAM-BODY
 66
     1
 10
0.0
 20
0.0
 30
-150.0
 70
   128
210
0.0
220
0.0
230
-1.0
  0
VERTEX
  5
4AF
  8
TEAM-BODY
 10
-638.823168
 20
0.0
 30
-150.0
  0
VERTEX
  5
4B0
  8
TEAM-BODY
 10
-636.392456
 20
-27.836234
 30
-150.0
  0
VERTEX
  5
4B1
  8
TEAM-BODY
 10
-629.118817
 20
-55.460618
 30
-150.0
  0
VERTEX
  5
4B2
  8
TEAM-BODY
 10
-617.05761
 20
-82.662913
 30
-150.0
  0
VERTEX
  5
4B3
  8
TEAM-BODY
 10
-600.300627
 20
-109.236093
 30
-150.0
  0
VERTEX
  5
4B4
  8
TEAM-BODY
 10
-578.975399
 20
-134.97792
 30
-150.0
  0
VERTEX
  5
4B5
  8
TEAM-BODY
 10
-553.244224
 20
-159.692484
 30
-150.0
  0
VERTEX
  5
4B6
  8
TEAM-BODY
 10
-523.302931
 20
-183.191692
 30
-150.0
  0
VERTEX
  5
4B7
  8
TEAM-BODY
 10
-489.379392
 20
-205.296701
 30
-150.0
  0
VERTEX
  5
4B8
  8
TEAM-BODY
 10
-451.731785
 20
-225.839277
 30
-150.0
  0
VERTEX
  5
4B9
  8
TEAM-BODY
 10
-410.646632
 20
-244.66308
 30
-150.0
  0
VERTEX
  5
4BA
  8
TEAM-BODY
 10
-366.436615
 20
-261.62485
 30
-150.0
  0
VERTEX
  5
4BB
  8
TEAM-BODY
 10
-319.438199
 20
-276.595496
 30
-150.0
  0
VERTEX
  5
4BC
  8
TEAM-BODY
 10
-270.009071
 20
-289.461084
 30
-150.0
  0
VERTEX
  5
4BD
  8
TEAM-BODY
 10
-218.525416
 20
-300.123698
 30
-150.0
  0
VERTEX
  5
4BE
  8
TEAM-BODY
 10
-165.379056
 20
-308.50219
 30
-150.0
  0
VERTEX
  5
4BF
  8
TEAM-BODY
 10
-110.974466
 20
-314.532793
 30
-150.0
  0
VERTEX
  5
4C0
  8
TEAM-BODY
 10
-55.725699
 20
-318.169612
 30
-150.0
  0
VERTEX
  5
4C1
  8
TEAM-BODY
 10
-0.053231
 20
-319.384969
 30
-150.0
  0
VERTEX
  5
4C2
  8
TEAM-BODY
 10
55.619237
 20
-318.169612
 30
-150.0
  0
VERTEX
  5
4C3
  8
TEAM-BODY
 10
110.868005
 20
-314.532793
 30
-150.0
  0
VERTEX
  5
4C4
  8
TEAM-BODY
 10
165.272594
 20
-308.50219
 30
-150.0
  0
VERTEX
  5
4C5
  8
TEAM-BODY
 10
218.418955
 20
-300.123698
 30
-150.0
  0
VERTEX
  5
4C6
  8
TEAM-BODY
 10
269.90261
 20
-289.461084
 30
-150.0
  0
VERTEX
  5
4C7
  8
TEAM-BODY
 10
319.331738
 20
-276.595496
 30
-150.0
  0
VERTEX
  5
4C8
  8
TEAM-BODY
 10
366.330153
 20
-261.62485
 30
-150.0
  0
VERTEX
  5
4C9
  8
TEAM-BODY
 10
410.54017
 20
-244.66308
 30
-150.0
  0
VERTEX
  5
4CA
  8
TEAM-BODY
 10
451.625323
 20
-225.839277
 30
-150.0
  0
VERTEX
  5
4CB
  8
TEAM-BODY
 10
489.27293
 20
-205.296701
 30
-150.0
  0
VERTEX
  5
4CC
  8
TEAM-BODY
 10
523.196469
 20
-183.191692
 30
-150.0
  0
VERTEX
  5
4CD
  8
TEAM-BODY
 10
553.137762
 20
-159.692484
 30
-150.0
  0
VERTEX
  5
4CE
  8
TEAM-BODY
 10
578.868937
 20
-134.97792
 30
-150.0
  0
VERTEX
  5
4CF
  8
TEAM-BODY
 10
600.194165
 20
-109.236093
 30
-150.0
  0
VERTEX
  5
4D0
  8
TEAM-BODY
 10
616.951149
 20
-82.662913
 30
-150.0
  0
VERTEX
  5
4D1
  8
TEAM-BODY
 10
629.012356
 20
-55.460618
 30
-150.0
  0
VERTEX
  5
4D2
  8
TEAM-BODY
 10
636.285994
 20
-27.836234
 30
-150.0
  0
VERTEX
  5
4D3
  8
TEAM-BODY
 10
638.716706
 20
0.0
 30
-150.0
  0
SEQEND
  5
4D4
  8
TEAM-BODY
  0
POLYLINE
  5
C0
  8
TEAM-NET
 66
     1
 10
0.0
 20
0.0
 30
0.0
 70
    16
 71
     2
 72
    37
  0
VERTEX
  5
C1
  8
TEAM-NET
 10
-638.716706
 20
0.0
 30
150.0
 70
    64
  0
VERTEX
  5
C2
  8
TEAM-NET
 10
-632.461197
 20
-42.362342
 30
150.0
 70
    64
  0
VERTEX
  5
C3
  8
TEAM-NET
 10
-617.088007
 20
-82.354249
 30
150.0
 70
    64
  0
VERTEX
  5
C4
  8
TEAM-NET
 10
-593.042544
 20
-117.868864
 30
150.0
 70
    64
  0
VERTEX
  5
C5
  8
TEAM-NET
 10
-563.906694
 20
-149.349021
 30
150.0
 70
    64
  0
VERTEX
  5
C6
  8
TEAM-NET
 10
-531.086649
 20
-176.999142
 30
150.0
 70
    64
  0
VERTEX
  5
C7
  8
TEAM-NET
 10
-495.604114
 20
-201.171221
 30
150.0
 70
    64
  0
VERTEX
  5
C8
  8
TEAM-NET
 10
-458.192163
 20
-222.256053
 30
150.0
 70
    64
  0
VERTEX
  5
C9
  8
TEAM-NET
 10
-419.367344
 20
-240.618773
 30
150.0
 70
    64
  0
VERTEX
  5
CA
  8
TEAM-NET
 10
-379.492971
 20
-256.574757
 30
150.0
 70
    64
  0
VERTEX
  5
CB
  8
TEAM-NET
 10
-338.826728
 20
-270.385657
 30
150.0
 70
    64
  0
VERTEX
  5
CC
  8
TEAM-NET
 10
-297.554091
 20
-282.263859
 30
150.0
 70
    64
  0
VERTEX
  5
CD
  8
TEAM-NET
 10
-255.811071
 20
-292.379537
 30
150.0
 70
    64
  0
VERTEX
  5
CE
  8
TEAM-NET
 10
-213.699498
 20
-300.867718
 30
150.0
 70
    64
  0
VERTEX
  5
CF
  8
TEAM-NET
 10
-171.260265
 20
-307.558237
 30
150.0
 70
    64
  0
VERTEX
  5
D0
  8
TEAM-NET
 10
-128.595481
 20
-312.56775
 30
150.0
 70
    64
  0
VERTEX
  5
D1
  8
TEAM-NET
 10
-85.794947
 20
-316.183259
 30
150.0
 70
    64
  0
VERTEX
  5
D2
  8
TEAM-NET
 10
-42.89991
 20
-318.447281
 30
150.0
 70
    64
  0
VERTEX
  5
D3
  8
TEAM-NET
 10
0.053231
 20
-319.384969
 30
150.0
 70
    64
  0
VERTEX
  5
D4
  8
TEAM-NET
 10
43.006371
 20
-318.447281
 30
150.0
 70
    64
  0
VERTEX
  5
D5
  8
TEAM-NET
 10
85.901409
 20
-316.183259
 30
150.0
 70
    64
  0
VERTEX
  5
D6
  8
TEAM-NET
 10
128.701943
 20
-312.56775
 30
150.0
 70
    64
  0
VERTEX
  5
D7
  8
TEAM-NET
 10
171.366727
 20
-307.558237
 30
150.0
 70
    64
  0
VERTEX
  5
D8
  8
TEAM-NET
 10
213.80596
 20
-300.867718
 30
150.0
 70
    64
  0
VERTEX
  5
D9
  8
TEAM-NET
 10
255.917532
 20
-292.379537
 30
150.0
 70
    64
  0
VERTEX
  5
DA
  8
TEAM-NET
 10
297.660553
 20
-282.263859
 30
150.0
 70
    64
  0
VERTEX
  5
DB
  8
TEAM-NET
 10
338.933189
 20
-270.385657
 30
150.0
 70
    64
  0
VERTEX
  5
DC
  8
TEAM-NET
 10
379.599433
 20
-256.574757
 30
150.0
 70
    64
  0
VERTEX
  5
DD
  8
TEAM-NET
 10
419.473806
 20
-240.618773
 30
150.0
 70
    64
  0
VERTEX
  5
DE
  8
TEAM-NET
 10
458.298624
 20
-222.256053
 30
150.0
 70
    64
  0
VERTEX
  5
DF
  8
TEAM-NET
 10
495.710575
 20
-201.171221
 30
150.0
 70
    64
  0
VERTEX
  5
E0
  8
TEAM-NET
 10
531.19311
 20
-176.999142
 30
150.0
 70
    64
  0
VERTEX
  5
E1
  8
TEAM-NET
 10
564.013156
 20
-149.349021
 30
150.0
 70
    64
  0
VERTEX
  5
E2
  8
TEAM-NET
 10
593.149006
 20
-117.868864
 30
150.0
 70
    64
  0
VERTEX
  5
E3
  8
TEAM-NET
 10
617.194469
 20
-82.354249
 30
150.0
 70
    64
  0
VERTEX
  5
E4
  8
TEAM-NET
 10
632.567659
 20
-42.362342
 30
150.0
 70
    64
  0
VERTEX
  5
E5
  8
TEAM-NET
 10
638.823168
 20
0.0
 30
150.0
 70
    64
  0
VERTEX
  5
E6
  8
TEAM-NET
 10
-638.716706
 20
0.0
 30
150.0
 70
    64
  0
VERTEX
  5
E7
  8
TEAM-NET
 10
-632.461197
 20
42.362342
 30
150.0
 70
    64
  0
VERTEX
  5
E8
  8
TEAM-NET
 10
-617.088007
 20
82.354249
 30
150.0
 70
    64
  0
VERTEX
  5
E9
  8
TEAM-NET
 10
-593.042544
 20
117.868864
 30
150.0
 70
    64
  0
VERTEX
  5
EA
  8
TEAM-NET
 10
-563.906694
 20
149.349021
 30
150.0
 70
    64
  0
VERTEX
  5
EB
  8
TEAM-NET
 10
-531.086649
 20
176.999142
 30
150.0
 70
    64
  0
VERTEX
  5
EC
  8
TEAM-NET
 10
-495.604114
 20
201.171221
 30
150.0
 70
    64
  0
VERTEX
  5
ED
  8
TEAM-NET
 10
-458.192163
 20
222.256053
 30
150.0
 70
    64
  0
VERTEX
  5
EE
  8
TEAM-NET
 10
-419.367344
 20
240.618773
 30
150.0
 70
    64
  0
VERTEX
  5
EF
  8
TEAM-NET
 10
-379.492971
 20
256.574757
 30
150.0
 70
    64
  0
VERTEX
  5
F0
  8
TEAM-NET
 10
-338.826728
 20
270.385657
 30
150.0
 70
    64
  0
VERTEX
  5
F1
  8
TEAM-NET
 10
-297.554091
 20
282.263859
 30
150.0
 70
    64
  0
VERTEX
  5
F2
  8
TEAM-NET
 10
-255.811071
 20
292.379537
 30
150.0
 70
    64
  0
VERTEX
  5
F3
  8
TEAM-NET
 10
-213.699498
 20
300.867718
 30
150.0
 70
    64
  0
VERTEX
  5
F4
  8
TEAM-NET
 10
-171.260265
 20
307.558237
 30
150.0
 70
    64
  0
VERTEX
  5
F5
  8
TEAM-NET
 10
-128.595481
 20
312.56775
 30
150.0
 70
    64
  0
VERTEX
  5
F6
  8
TEAM-NET
 10
-85.794947
 20
316.183259
 30
150.0
 70
    64
  0
VERTEX
  5
F7
  8
TEAM-NET
 10
-42.89991
 20
318.447281
 30
150.0
 70
    64
  0
VERTEX
  5
F8
  8
TEAM-NET
 10
0.053231
 20
319.384969
 30
150.0
 70
    64
  0
VERTEX
  5
F9
  8
TEAM-NET
 10
43.006371
 20
318.447281
 30
150.0
 70
    64
  0
VERTEX
  5
FA
  8
TEAM-NET
 10
85.901409
 20
316.183259
 30
150.0
 70
    64
  0
VERTEX
  5
FB
  8
TEAM-NET
 10
128.701943
 20
312.56775
 30
150.0
 70
    64
  0
VERTEX
  5
FC
  8
TEAM-NET
 10
171.366727
 20
307.558237
 30
150.0
 70
    64
  0
VERTEX
  5
FD
  8
TEAM-NET
 10
213.80596
 20
300.867718
 30
150.0
 70
    64
  0
VERTEX
  5
FE
  8
TEAM-NET
 10
255.917532
 20
292.379537
 30
150.0
 70
    64
  0
VERTEX
  5
FF
  8
TEAM-NET
 10
297.660553
 20
282.263859
 30
150.0
 70
    64
  0
VERTEX
  5
100
  8
TEAM-NET
 10
338.933189
 20
270.385657
 30
150.0
 70
    64
  0
VERTEX
  5
101
  8
TEAM-NET
 10
379.599433
 20
256.574757
 30
150.0
 70
    64
  0
VERTEX
  5
102
  8
TEAM-NET
 10
419.473806
 20
240.618773
 30
150.0
 70
    64
  0
VERTEX
  5
103
  8
TEAM-NET
 10
458.298624
 20
222.256053
 30
150.0
 70
    64
  0
VERTEX
  5
104
  8
TEAM-NET
 10
495.710575
 20
201.171221
 30
150.0
 70
    64
  0
VERTEX
  5
105
  8
TEAM-NET
 10
531.19311
 20
176.999142
 30
150.0
 70
    64
  0
VERTEX
  5
106
  8
TEAM-NET
 10
564.013156
 20
149.349021
 30
150.0
 70
    64
  0
VERTEX
  5
107
  8
TEAM-NET
 10
593.149006
 20
117.868864
 30
150.0
 70
    64
  0
VERTEX
  5
108
  8
TEAM-NET
 10
617.194469
 20
82.354249
 30
150.0
 70
    64
  0
VERTEX
  5
109
  8
TEAM-NET
 10
632.567659
 20
42.362342
 30
150.0
 70
    64
  0
VERTEX
  5
10A
  8
TEAM-NET
 10
638.823168
 20
0.0
 30
150.0
 70
    64
  0
SEQEND
  5
10B
  8
TEAM-NET
  0
LINE
  5
10C
  8
TEAM-AXE
 10
0.0
 20
-106.461656
 30
150.0
 11
0.0
 21
106.461656
 31
150.0
  0
LINE
  5
10F
  8
TEAM-AXE
 10
-106.461656
 20
0.0
 30
150.0
 11
106.461656
 21
0.0
 31
150.0
  0
CIRCLE
  5
110
  8
TEAM-BODY
 10
0.0
 20
0.0
 30
150.0
 40
37.26158
  0
CIRCLE
  5
111
  8
TEAM-DET1
 10
0.0
 20
0.0
 30
150.0
 40
42.584662
  0
POLYLINE
  5
113
  8
TEAM-BODY
 66
     1
 10
0.0
 20
0.0
 30
600.0
 39
-32.0
  0
VERTEX
  5
4D5
  8
TEAM-BODY
 10
950.0
 20
0.0
 30
600.0
 42
-0.298914
  0
VERTEX
  5
4D6
  8
TEAM-BODY
 10
725.555256
 20
-341.888683
 30
600.0
 42
-0.217412
  0
VERTEX
  5
4D7
  8
TEAM-BODY
 10
-722.062095
 20
-343.381478
 30
600.0
 42
-0.301693
  0
VERTEX
  5
4D8
  8
TEAM-BODY
 10
-950.0
 20
0.0
 30
600.0
  0
SEQEND
  5
4D9
  8
TEAM-BODY
  0
POLYLINE
  5
114
  8
TEAM-BODY
 66
     1
 10
0.0
 20
0.0
 30
600.0
 39
-32.0
  0
VERTEX
  5
4DA
  8
TEAM-BODY
 10
950.0
 20
0.0
 30
600.0
 42
0.298914
  0
VERTEX
  5
4DB
  8
TEAM-BODY
 10
725.555256
 20
341.888683
 30
600.0
 42
0.217412
  0
VERTEX
  5
4DC
  8
TEAM-BODY
 10
-722.062095
 20
343.381478
 30
600.0
 42
0.301693
  0
VERTEX
  5
4DD
  8
TEAM-BODY
 10
-950.0
 20
0.0
 30
600.0
  0
SEQEND
  5
4DE
  8
TEAM-BODY
  0
POLYLINE
  5
115
  8
TEAM-DET1
 66
     1
 10
0.0
 20
0.0
 30
600.0
  0
VERTEX
  5
4DF
  8
TEAM-DET1
 10
896.769172
 20
0.0
 30
600.0
 42
0.253752
  0
VERTEX
  5
4E0
  8
TEAM-DET1
 10
715.162487
 20
303.949365
 30
600.0
 42
0.239886
  0
VERTEX
  5
4E1
  8
TEAM-DET1
 10
-705.452693
 20
305.31005
 30
600.0
 42
0.269981
  0
VERTEX
  5
4E2
  8
TEAM-DET1
 10
-896.769172
 20
0.0
 30
600.0
  0
SEQEND
  5
4E3
  8
TEAM-DET1
  0
POLYLINE
  5
116
  8
TEAM-DET1
 66
     1
 10
0.0
 20
0.0
 30
600.0
  0
VERTEX
  5
4E4
  8
TEAM-DET1
 10
896.769172
 20
0.0
 30
600.0
 42
-0.253752
  0
VERTEX
  5
4E5
  8
TEAM-DET1
 10
715.162487
 20
-303.949365
 30
600.0
 42
-0.239886
  0
VERTEX
  5
4E6
  8
TEAM-DET1
 10
-705.452693
 20
-305.31005
 30
600.0
 42
-0.269981
  0
VERTEX
  5
4E7
  8
TEAM-DET1
 10
-896.769172
 20
0.0
 30
600.0
  0
SEQEND
  5
4E8
  8
TEAM-DET1
  0
POLYLINE
  5
117
  8
TEAM-NET
 66
     1
 10
0.0
 20
0.0
 30
0.0
 70
    16
 71
     2
 72
    37
  0
VERTEX
  5
118
  8
TEAM-NET
 10
-896.769172
 20
0.0
 30
600.0
 70
    64
  0
VERTEX
  5
119
  8
TEAM-NET
 10
-889.480065
 20
-61.189464
 30
600.0
 70
    64
  0
VERTEX
  5
11A
  8
TEAM-NET
 10
-871.804228
 20
-120.222052
 30
600.0
 70
    64
  0
VERTEX
  5
11B
  8
TEAM-NET
 10
-844.265501
 20
-175.348272
 30
600.0
 70
    64
  0
VERTEX
  5
11C
  8
TEAM-NET
 10
-807.680024
 20
-224.934404
 30
600.0
 70
    64
  0
VERTEX
  5
11D
  8
TEAM-NET
 10
-763.132044
 20
-267.510912
 30
600.0
 70
    64
  0
VERTEX
  5
11E
  8
TEAM-NET
 10
-711.941785
 20
-301.815999
 30
600.0
 70
    64
  0
VERTEX
  5
11F
  8
TEAM-NET
 10
-656.596191
 20
-329.065308
 30
600.0
 70
    64
  0
VERTEX
  5
120
  8
TEAM-NET
 10
-600.151408
 20
-353.968936
 30
600.0
 70
    64
  0
VERTEX
  5
121
  8
TEAM-NET
 10
-542.769343
 20
-376.629539
 30
600.0
 70
    64
  0
VERTEX
  5
122
  8
TEAM-NET
 10
-484.53909
 20
-397.011931
 30
600.0
 70
    64
  0
VERTEX
  5
123
  8
TEAM-NET
 10
-425.551059
 20
-415.084467
 30
600.0
 70
    64
  0
VERTEX
  5
124
  8
TEAM-NET
 10
-365.896838
 20
-430.819087
 30
600.0
 70
    64
  0
VERTEX
  5
125
  8
TEAM-NET
 10
-305.669049
 20
-444.19136
 30
600.0
 70
    64
  0
VERTEX
  5
126
  8
TEAM-NET
 10
-244.961203
 20
-455.180524
 30
600.0
 70
    64
  0
VERTEX
  5
127
  8
TEAM-NET
 10
-183.867558
 20
-463.769517
 30
600.0
 70
    64
  0
VERTEX
  5
128
  8
TEAM-NET
 10
-122.48297
 20
-469.945003
 30
600.0
 70
    64
  0
VERTEX
  5
129
  8
TEAM-NET
 10
-60.902747
 20
-473.697395
 30
600.0
 70
    64
  0
VERTEX
  5
12A
  8
TEAM-NET
 10
0.777499
 20
-475.020865
 30
600.0
 70
    64
  0
VERTEX
  5
12B
  8
TEAM-NET
 10
62.462001
 20
-473.913359
 30
600.0
 70
    64
  0
VERTEX
  5
12C
  8
TEAM-NET
 10
124.054984
 20
-470.376596
 30
600.0
 70
    64
  0
VERTEX
  5
12D
  8
TEAM-NET
 10
185.460818
 20
-464.416068
 30
600.0
 70
    64
  0
VERTEX
  5
12E
  8
TEAM-NET
 10
246.584161
 20
-456.04103
 30
600.0
 70
    64
  0
VERTEX
  5
12F
  8
TEAM-NET
 10
307.33011
 20
-445.264485
 30
600.0
 70
    64
  0
VERTEX
  5
130
  8
TEAM-NET
 10
367.604349
 20
-432.103164
 30
600.0
 70
    64
  0
VERTEX
  5
131
  8
TEAM-NET
 10
427.313295
 20
-416.577503
 30
600.0
 70
    64
  0
VERTEX
  5
132
  8
TEAM-NET
 10
486.36424
 20
-398.711608
 30
600.0
 70
    64
  0
VERTEX
  5
133
  8
TEAM-NET
 10
544.665499
 20
-378.533217
 30
600.0
 70
    64
  0
VERTEX
  5
134
  8
TEAM-NET
 10
602.126552
 20
-356.073661
 30
600.0
 70
    64
  0
VERTEX
  5
135
  8
TEAM-NET
 10
658.658183
 20
-331.36781
 30
600.0
 70
    64
  0
VERTEX
  5
136
  8
TEAM-NET
 10
714.172618
 20
-304.454025
 30
600.0
 70
    64
  0
VERTEX
  5
137
  8
TEAM-NET
 10
764.530833
 20
-268.942871
 30
600.0
 70
    64
  0
VERTEX
  5
138
  8
TEAM-NET
 10
808.278746
 20
-225.537046
 30
600.0
 70
    64
  0
VERTEX
  5
139
  8
TEAM-NET
 10
844.244449
 20
-175.492927
 30
600.0
 70
    64
  0
VERTEX
  5
13A
  8
TEAM-NET
 10
871.437121
 20
-120.189183
 30
600.0
 70
    64
  0
VERTEX
  5
13B
  8
TEAM-NET
 10
889.10763
 20
-61.149377
 30
600.0
 70
    64
  0
VERTEX
  5
13C
  8
TEAM-NET
 10
896.769172
 20
0.0
 30
600.0
 70
    64
  0
VERTEX
  5
13D
  8
TEAM-NET
 10
-950.0
 20
0.0
 30
600.0
 70
    64
  0
VERTEX
  5
13E
  8
TEAM-NET
 10
-944.236225
 20
-65.284958
 30
600.0
 70
    64
  0
VERTEX
  5
13F
  8
TEAM-NET
 10
-927.123215
 20
-128.550207
 30
600.0
 70
    64
  0
VERTEX
  5
140
  8
TEAM-NET
 10
-899.19039
 20
-187.838521
 30
600.0
 70
    64
  0
VERTEX
  5
141
  8
TEAM-NET
 10
-861.301904
 20
-241.315708
 30
600.0
 70
    64
  0
VERTEX
  5
142
  8
TEAM-NET
 10
-814.629907
 20
-287.327353
 30
600.0
 70
    64
  0
VERTEX
  5
143
  8
TEAM-NET
 10
-760.618281
 20
-324.450003
 30
600.0
 70
    64
  0
VERTEX
  5
144
  8
TEAM-NET
 10
-701.389727
 20
-352.628936
 30
600.0
 70
    64
  0
VERTEX
  5
145
  8
TEAM-NET
 10
-640.830901
 20
-377.899207
 30
600.0
 70
    64
  0
VERTEX
  5
146
  8
TEAM-NET
 10
-579.363935
 20
-400.872453
 30
600.0
 70
    64
  0
VERTEX
  5
147
  8
TEAM-NET
 10
-517.07592
 20
-421.516124
 30
600.0
 70
    64
  0
VERTEX
  5
148
  8
TEAM-NET
 10
-454.055111
 20
-439.80097
 30
600.0
 70
    64
  0
VERTEX
  5
149
  8
TEAM-NET
 10
-390.390801
 20
-455.701083
 30
600.0
 70
    64
  0
VERTEX
  5
14A
  8
TEAM-NET
 10
-326.173196
 20
-469.193936
 30
600.0
 70
    64
  0
VERTEX
  5
14B
  8
TEAM-NET
 10
-261.493283
 20
-480.260409
 30
600.0
 70
    64
  0
VERTEX
  5
14C
  8
TEAM-NET
 10
-196.442707
 20
-488.884824
 30
600.0
 70
    64
  0
VERTEX
  5
14D
  8
TEAM-NET
 10
-131.113637
 20
-495.05496
 30
600.0
 70
    64
  0
VERTEX
  5
14E
  8
TEAM-NET
 10
-65.598637
 20
-498.762076
 30
600.0
 70
    64
  0
VERTEX
  5
14F
  8
TEAM-NET
 10
0.009466
 20
-500.000918
 30
600.0
 70
    64
  0
VERTEX
  5
150
  8
TEAM-NET
 10
65.617714
 20
-498.769731
 30
600.0
 70
    64
  0
VERTEX
  5
151
  8
TEAM-NET
 10
131.133146
 20
-495.07026
 30
600.0
 70
    64
  0
VERTEX
  5
152
  8
TEAM-NET
 10
196.462935
 20
-488.907746
 30
600.0
 70
    64
  0
VERTEX
  5
153
  8
TEAM-NET
 10
261.514517
 20
-480.290921
 30
600.0
 70
    64
  0
VERTEX
  5
154
  8
TEAM-NET
 10
326.195721
 20
-469.231995
 30
600.0
 70
    64
  0
VERTEX
  5
155
  8
TEAM-NET
 10
390.4149
 20
-455.746635
 30
600.0
 70
    64
  0
VERTEX
  5
156
  8
TEAM-NET
 10
454.081065
 20
-439.85395
 30
600.0
 70
    64
  0
VERTEX
  5
157
  8
TEAM-NET
 10
517.104007
 20
-421.576458
 30
600.0
 70
    64
  0
VERTEX
  5
158
  8
TEAM-NET
 10
579.39443
 20
-400.940055
 30
600.0
 70
    64
  0
VERTEX
  5
159
  8
TEAM-NET
 10
640.864076
 20
-377.973981
 30
600.0
 70
    64
  0
VERTEX
  5
15A
  8
TEAM-NET
 10
701.42585
 20
-352.710776
 30
600.0
 70
    64
  0
VERTEX
  5
15B
  8
TEAM-NET
 10
760.618281
 20
-324.450003
 30
600.0
 70
    64
  0
VERTEX
  5
15C
  8
TEAM-NET
 10
814.629907
 20
-287.327353
 30
600.0
 70
    64
  0
VERTEX
  5
15D
  8
TEAM-NET
 10
861.301904
 20
-241.315708
 30
600.0
 70
    64
  0
VERTEX
  5
15E
  8
TEAM-NET
 10
899.19039
 20
-187.838521
 30
600.0
 70
    64
  0
VERTEX
  5
15F
  8
TEAM-NET
 10
927.123215
 20
-128.550207
 30
600.0
 70
    64
  0
VERTEX
  5
160
  8
TEAM-NET
 10
944.236225
 20
-65.284958
 30
600.0
 70
    64
  0
VERTEX
  5
161
  8
TEAM-NET
 10
950.0
 20
0.0
 30
600.0
 70
    64
  0
SEQEND
  5
162
  8
TEAM-NET
  0
POLYLINE
  5
163
  8
TEAM-NET
 66
     1
 10
0.0
 20
0.0
 30
0.0
 70
    16
 71
     2
 72
    37
  0
VERTEX
  5
164
  8
TEAM-NET
 10
-896.769172
 20
0.0
 30
600.0
 70
    64
  0
VERTEX
  5
165
  8
TEAM-NET
 10
-889.480065
 20
61.189464
 30
600.0
 70
    64
  0
VERTEX
  5
166
  8
TEAM-NET
 10
-871.804228
 20
120.222052
 30
600.0
 70
    64
  0
VERTEX
  5
167
  8
TEAM-NET
 10
-844.265501
 20
175.348272
 30
600.0
 70
    64
  0
VERTEX
  5
168
  8
TEAM-NET
 10
-807.680024
 20
224.934404
 30
600.0
 70
    64
  0
VERTEX
  5
169
  8
TEAM-NET
 10
-763.132044
 20
267.510912
 30
600.0
 70
    64
  0
VERTEX
  5
16A
  8
TEAM-NET
 10
-711.941785
 20
301.815999
 30
600.0
 70
    64
  0
VERTEX
  5
16B
  8
TEAM-NET
 10
-656.596191
 20
329.065308
 30
600.0
 70
    64
  0
VERTEX
  5
16C
  8
TEAM-NET
 10
-600.151408
 20
353.968936
 30
600.0
 70
    64
  0
VERTEX
  5
16D
  8
TEAM-NET
 10
-542.769343
 20
376.629539
 30
600.0
 70
    64
  0
VERTEX
  5
16E
  8
TEAM-NET
 10
-484.53909
 20
397.011931
 30
600.0
 70
    64
  0
VERTEX
  5
16F
  8
TEAM-NET
 10
-425.551059
 20
415.084467
 30
600.0
 70
    64
  0
VERTEX
  5
170
  8
TEAM-NET
 10
-365.896838
 20
430.819087
 30
600.0
 70
    64
  0
VERTEX
  5
171
  8
TEAM-NET
 10
-305.669049
 20
444.19136
 30
600.0
 70
    64
  0
VERTEX
  5
172
  8
TEAM-NET
 10
-244.961203
 20
455.180524
 30
600.0
 70
    64
  0
VERTEX
  5
173
  8
TEAM-NET
 10
-183.867558
 20
463.769517
 30
600.0
 70
    64
  0
VERTEX
  5
174
  8
TEAM-NET
 10
-122.48297
 20
469.945003
 30
600.0
 70
    64
  0
VERTEX
  5
175
  8
TEAM-NET
 10
-60.902747
 20
473.697395
 30
600.0
 70
    64
  0
VERTEX
  5
176
  8
TEAM-NET
 10
0.777499
 20
475.020865
 30
600.0
 70
    64
  0
VERTEX
  5
177
  8
TEAM-NET
 10
62.462001
 20
473.913359
 30
600.0
 70
    64
  0
VERTEX
  5
178
  8
TEAM-NET
 10
124.054984
 20
470.376596
 30
600.0
 70
    64
  0
VERTEX
  5
179
  8
TEAM-NET
 10
185.460818
 20
464.416068
 30
600.0
 70
    64
  0
VERTEX
  5
17A
  8
TEAM-NET
 10
246.584161
 20
456.04103
 30
600.0
 70
    64
  0
VERTEX
  5
17B
  8
TEAM-NET
 10
307.33011
 20
445.264485
 30
600.0
 70
    64
  0
VERTEX
  5
17C
  8
TEAM-NET
 10
367.604349
 20
432.103164
 30
600.0
 70
    64
  0
VERTEX
  5
17D
  8
TEAM-NET
 10
427.313295
 20
416.577503
 30
600.0
 70
    64
  0
VERTEX
  5
17E
  8
TEAM-NET
 10
486.36424
 20
398.711608
 30
600.0
 70
    64
  0
VERTEX
  5
17F
  8
TEAM-NET
 10
544.665499
 20
378.533217
 30
600.0
 70
    64
  0
VERTEX
  5
180
  8
TEAM-NET
 10
602.126552
 20
356.073661
 30
600.0
 70
    64
  0
VERTEX
  5
181
  8
TEAM-NET
 10
658.658183
 20
331.36781
 30
600.0
 70
    64
  0
VERTEX
  5
182
  8
TEAM-NET
 10
714.172618
 20
304.454025
 30
600.0
 70
    64
  0
VERTEX
  5
183
  8
TEAM-NET
 10
764.530833
 20
268.942871
 30
600.0
 70
    64
  0
VERTEX
  5
184
  8
TEAM-NET
 10
808.278746
 20
225.537046
 30
600.0
 70
    64
  0
VERTEX
  5
185
  8
TEAM-NET
 10
844.244449
 20
175.492927
 30
600.0
 70
    64
  0
VERTEX
  5
186
  8
TEAM-NET
 10
871.437121
 20
120.189183
 30
600.0
 70
    64
  0
VERTEX
  5
187
  8
TEAM-NET
 10
889.10763
 20
61.149377
 30
600.0
 70
    64
  0
VERTEX
  5
188
  8
TEAM-NET
 10
896.769172
 20
0.0
 30
600.0
 70
    64
  0
VERTEX
  5
189
  8
TEAM-NET
 10
-950.0
 20
0.0
 30
600.0
 70
    64
  0
VERTEX
  5
18A
  8
TEAM-NET
 10
-944.236225
 20
65.284958
 30
600.0
 70
    64
  0
VERTEX
  5
18B
  8
TEAM-NET
 10
-927.123215
 20
128.550207
 30
600.0
 70
    64
  0
VERTEX
  5
18C
  8
TEAM-NET
 10
-899.19039
 20
187.838521
 30
600.0
 70
    64
  0
VERTEX
  5
18D
  8
TEAM-NET
 10
-861.301904
 20
241.315708
 30
600.0
 70
    64
  0
VERTEX
  5
18E
  8
TEAM-NET
 10
-814.629907
 20
287.327353
 30
600.0
 70
    64
  0
VERTEX
  5
18F
  8
TEAM-NET
 10
-760.618281
 20
324.450003
 30
600.0
 70
    64
  0
VERTEX
  5
190
  8
TEAM-NET
 10
-701.389727
 20
352.628936
 30
600.0
 70
    64
  0
VERTEX
  5
191
  8
TEAM-NET
 10
-640.830901
 20
377.899207
 30
600.0
 70
    64
  0
VERTEX
  5
192
  8
TEAM-NET
 10
-579.363935
 20
400.872453
 30
600.0
 70
    64
  0
VERTEX
  5
193
  8
TEAM-NET
 10
-517.07592
 20
421.516124
 30
600.0
 70
    64
  0
VERTEX
  5
194
  8
TEAM-NET
 10
-454.055111
 20
439.80097
 30
600.0
 70
    64
  0
VERTEX
  5
195
  8
TEAM-NET
 10
-390.390801
 20
455.701083
 30
600.0
 70
    64
  0
VERTEX
  5
196
  8
TEAM-NET
 10
-326.173196
 20
469.193936
 30
600.0
 70
    64
  0
VERTEX
  5
197
  8
TEAM-NET
 10
-261.493283
 20
480.260409
 30
600.0
 70
    64
  0
VERTEX
  5
198
  8
TEAM-NET
 10
-196.442707
 20
488.884824
 30
600.0
 70
    64
  0
VERTEX
  5
199
  8
TEAM-NET
 10
-131.113637
 20
495.05496
 30
600.0
 70
    64
  0
VERTEX
  5
19A
  8
TEAM-NET
 10
-65.598637
 20
498.762076
 30
600.0
 70
    64
  0
VERTEX
  5
19B
  8
TEAM-NET
 10
0.009466
 20
500.000918
 30
600.0
 70
    64
  0
VERTEX
  5
19C
  8
TEAM-NET
 10
65.617714
 20
498.769731
 30
600.0
 70
    64
  0
VERTEX
  5
19D
  8
TEAM-NET
 10
131.133146
 20
495.07026
 30
600.0
 70
    64
  0
VERTEX
  5
19E
  8
TEAM-NET
 10
196.462935
 20
488.907746
 30
600.0
 70
    64
  0
VERTEX
  5
19F
  8
TEAM-NET
 10
261.514517
 20
480.290921
 30
600.0
 70
    64
  0
VERTEX
  5
1A0
  8
TEAM-NET
 10
326.195721
 20
469.231995
 30
600.0
 70
    64
  0
VERTEX
  5
1A1
  8
TEAM-NET
 10
390.4149
 20
455.746635
 30
600.0
 70
    64
  0
VERTEX
  5
1A2
  8
TEAM-NET
 10
454.081065
 20
439.85395
 30
600.0
 70
    64
  0
VERTEX
  5
1A3
  8
TEAM-NET
 10
517.104007
 20
421.576458
 30
600.0
 70
    64
  0
VERTEX
  5
1A4
  8
TEAM-NET
 10
579.39443
 20
400.940055
 30
600.0
 70
    64
  0
VERTEX
  5
1A5
  8
TEAM-NET
 10
640.864076
 20
377.973981
 30
600.0
 70
    64
  0
VERTEX
  5
1A6
  8
TEAM-NET
 10
701.42585
 20
352.710776
 30
600.0
 70
    64
  0
VERTEX
  5
1A7
  8
TEAM-NET
 10
760.618281
 20
324.450003
 30
600.0
 70
    64
  0
VERTEX
  5
1A8
  8
TEAM-NET
 10
814.629907
 20
287.327353
 30
600.0
 70
    64
  0
VERTEX
  5
1A9
  8
TEAM-NET
 10
861.301904
 20
241.315708
 30
600.0
 70
    64
  0
VERTEX
  5
1AA
  8
TEAM-NET
 10
899.19039
 20
187.838521
 30
600.0
 70
    64
  0
VERTEX
  5
1AB
  8
TEAM-NET
 10
927.123215
 20
128.550207
 30
600.0
 70
    64
  0
VERTEX
  5
1AC
  8
TEAM-NET
 10
944.236225
 20
65.284958
 30
600.0
 70
    64
  0
VERTEX
  5
1AD
  8
TEAM-NET
 10
950.0
 20
0.0
 30
600.0
 70
    64
  0
SEQEND
  5
1AE
  8
TEAM-NET
  0
TEXT
  5
1AF
  8
TEAM-TXT
 10
-439.743918
 20
147.663796
 30
600.0
 40
31.938497
  1
team 111539
 41
0.7
 51
15.0
  7
TEAM
  0
ENDSEC
  0
EOF
