  0
SECTION
  2
HEADER
  9
$ACADVER
  1
AC1009
  9
$INSBASE
 10
0.0
 20
0.0
 30
0.0
  9
$EXTMIN
 10
-963.721808
 20
-963.675392
 30
-0.015405
  9
$EXTMAX
 10
1011.807291
 20
1011.86689
 30
700.038763
  9
$LIMMIN
 10
-963.721808
 20
-963.675392
  9
$LIMMAX
 10
1011.807291
 20
1011.86689
  9
$ORTHOMODE
 70
     1
  9
$REGENMODE
 70
     1
  9
$FILLMODE
 70
     1
  9
$QTEXTMODE
 70
     0
  9
$MIRRTEXT
 70
     0
  9
$DRAGMODE
 70
     2
  9
$LTSCALE
 40
50.0
  9
$OSMODE
 70
     7
  9
$ATTMODE
 70
     1
  9
$TEXTSIZE
 40
200.0
  9
$TRACEWID
 40
1.0
  9
$TEXTSTYLE
  7
STANDARD
  9
$CLAYER
  8
TEAM-MAS
  9
$CELTYPE
  6
BYLAYER
  9
$CECOLOR
 62
   256
  9
$DIMSCALE
 40
1.0
  9
$DIMASZ
 40
20.0
  9
$DIMEXO
 40
10.0
  9
$DIMDLI
 40
1.0
  9
$DIMRND
 40
0.0
  9
$DIMDLE
 40
0.0
  9
$DIMEXE
 40
1.0
  9
$DIMTP
 40
0.0
  9
$DIMTM
 40
0.0
  9
$DIMTXT
 40
35.0
  9
$DIMCEN
 40
1.0
  9
$DIMTSZ
 40
0.0
  9
$DIMTOL
 70
     0
  9
$DIMLIM
 70
     0
  9
$DIMTIH
 70
     0
  9
$DIMTOH
 70
     0
  9
$DIMSE1
 70
     0
  9
$DIMSE2
 70
     0
  9
$DIMTAD
 70
     0
  9
$DIMZIN
 70
     0
  9
$DIMBLK
  1

  9
$DIMASO
 70
     1
  9
$DIMSHO
 70
     0
  9
$DIMPOST
  1

  9
$DIMAPOST
  1

  9
$DIMALT
 70
     0
  9
$DIMALTD
 70
     2
  9
$DIMALTF
 40
25.4
  9
$DIMLFAC
 40
1.0
  9
$DIMTOFL
 70
     0
  9
$DIMTVP
 40
0.0
  9
$DIMTIX
 70
     0
  9
$DIMSOXD
 70
     0
  9
$DIMSAH
 70
     0
  9
$DIMBLK1
  1

  9
$DIMBLK2
  1

  9
$DIMSTYLE
  2
TEAM
  9
$DIMCLRD
 70
     9
  9
$DIMCLRE
 70
     9
  9
$DIMCLRT
 70
    11
  9
$DIMTFAC
 40
1.0
  9
$DIMGAP
 40
15.0
  9
$LUNITS
 70
     2
  9
$LUPREC
 70
     1
  9
$SKETCHINC
 40
1.0
  9
$FILLETRAD
 40
300.0
  9
$AUNITS
 70
     0
  9
$AUPREC
 70
     0
  9
$MENU
  1
ROPLANS
  9
$ELEVATION
 40
0.0
  9
$PELEVATION
 40
0.0
  9
$THICKNESS
 40
0.0
  9
$LIMCHECK
 70
     0
  9
$BLIPMODE
 70
     1
  9
$CHAMFERA
 40
0.0
  9
$CHAMFERB
 40
0.0
  9
$SKPOLY
 70
     0
  9
$TDCREATE
 40
2450392.957851
  9
$TDUPDATE
 40
2455843.591272
  9
$TDINDWG
 40
2.850297
  9
$TDUSRTIMER
 40
2.850297
  9
$USRTIMER
 70
     1
  9
$ANGBASE
 50
0.0
  9
$ANGDIR
 70
     0
  9
$PDMODE
 70
     0
  9
$PDSIZE
 40
0.0
  9
$PLINEWID
 40
0.0
  9
$COORDS
 70
     2
  9
$SPLFRAME
 70
     0
  9
$SPLINETYPE
 70
     6
  9
$SPLINESEGS
 70
     8
  9
$ATTDIA
 70
     0
  9
$ATTREQ
 70
     0
  9
$HANDLING
 70
     1
  9
$HANDSEED
  5
85F
  9
$SURFTAB1
 70
    64
  9
$SURFTAB2
 70
    64
  9
$SURFTYPE
 70
     6
  9
$SURFU
 70
     6
  9
$SURFV
 70
     6
  9
$UCSNAME
  2

  9
$UCSORG
 10
0.0
 20
0.0
 30
0.0
  9
$UCSXDIR
 10
1.0
 20
0.0
 30
0.0
  9
$UCSYDIR
 10
0.0
 20
1.0
 30
0.0
  9
$PUCSNAME
  2

  9
$PUCSORG
 10
0.0
 20
0.0
 30
0.0
  9
$PUCSXDIR
 10
1.0
 20
0.0
 30
0.0
  9
$PUCSYDIR
 10
0.0
 20
1.0
 30
0.0
  9
$USERI1
 70
     0
  9
$USERI2
 70
     0
  9
$USERI3
 70
     0
  9
$USERI4
 70
     0
  9
$USERI5
 70
     0
  9
$USERR1
 40
0.0
  9
$USERR2
 40
0.0
  9
$USERR3
 40
0.0
  9
$USERR4
 40
0.0
  9
$USERR5
 40
0.0
  9
$WORLDVIEW
 70
     1
  9
$SHADEDGE
 70
     0
  9
$SHADEDIF
 70
    70
  9
$TILEMODE
 70
     1
  9
$MAXACTVP
 70
    16
  9
$PLIMCHECK
 70
     0
  9
$PEXTMIN
 10
-0.805942
 20
0.005011
 30
0.0
  9
$PEXTMAX
 10
20.250094
 20
11.356329
 30
0.0
  9
$PLIMMIN
 10
0.0
 20
0.0
  9
$PLIMMAX
 10
12.0
 20
9.0
  9
$UNITMODE
 70
     0
  9
$VISRETAIN
 70
     0
  9
$PLINEGEN
 70
     0
  9
$PSLTSCALE
 70
     0
  0
ENDSEC
  0
SECTION
  2
TABLES
  0
TABLE
  2
VPORT
 70
     2
  0
VPORT
  2
*ACTIVE
 70
     0
 10
0.0
 20
0.0
 11
1.0
 21
1.0
 12
24.042742
 22
24.095749
 13
0.0
 23
0.0
 14
1.0
 24
1.0
 15
50.0
 25
50.0
 16
0.0
 26
0.0
 36
1.0
 17
0.0
 27
0.0
 37
0.0
 40
1987.928127
 41
1.903766
 42
50.0
 43
0.0
 44
0.0
 50
0.0
 51
0.0
 71
     0
 72
   100
 73
     1
 74
     1
 75
     0
 76
     0
 77
     0
 78
     0
  0
ENDTAB
  0
TABLE
  2
LTYPE
 70
     1
  0
LTYPE
  2
CONTINUOUS
 70
     0
  3
Solid Line
 72
    65
 73
     0
 40
0.0
  0
ENDTAB
  0
TABLE
  2
LAYER
 70
     7
  0
LAYER
  2
0
 70
     0
 62
     7
  6
CONTINUOUS
  0
LAYER
  2
TEAM-BODY
 70
     0
 62
     2
  6
CONTINUOUS
  0
LAYER
  2
TEAM-MAS
 70
     0
 62
     9
  6
CONTINUOUS
  0
LAYER
  2
TEAM-TXT
 70
     0
 62
    11
  6
CONTINUOUS
  0
LAYER
  2
TEAM-DET1
 70
     0
 62
     4
  6
CONTINUOUS
  0
LAYER
  2
TEAM-NET
 70
     0
 62
    15
  6
CONTINUOUS
  0
LAYER
  2
TEAM-INSP
 70
     0
 62
     5
  6
CONTINUOUS
  0
ENDTAB
  0
TABLE
  2
STYLE
 70
     2
  0
STYLE
  2
STANDARD
 70
     0
 40
0.0
 41
1.0
 50
0.0
 71
     0
 42
200.0
  3
txt
  4

  0
STYLE
  2
TEAM
 70
     0
 40
0.0
 41
0.8
 50
15.0
 71
     0
 42
7.0
  3
ROMANS.shx
  4

  0
ENDTAB
  0
TABLE
  2
VIEW
 70
     0
  0
ENDTAB
  0
TABLE
  2
UCS
 70
     0
  0
ENDTAB
  0
TABLE
  2
APPID
 70
     1
  0
APPID
  2
ACAD
 70
     0
  0
ENDTAB
  0
TABLE
  2
DIMSTYLE
 70
     1
  0
DIMSTYLE
  2
TEAM
 70
     0
  3

  4

  5

  6

  7

 40
1.0
 41
20.0
 42
10.0
 43
1.0
 44
1.0
 45
0.0
 46
0.0
 47
0.0
 48
0.0
140
35.0
141
1.0
142
0.0
143
25.4
144
1.0
145
0.0
146
1.0
147
15.0
 71
     0
 72
     0
 73
     0
 74
     0
 75
     0
 76
     0
 77
     0
 78
     0
170
     0
171
     2
172
     0
173
     0
174
     0
175
     0
176
     9
177
     9
178
    11
  0
ENDTAB
  0
ENDSEC
  0
SECTION
  2
BLOCKS
  0
BLOCK
  8
0
  2
$MODEL_SPACE
 70
     0
 10
0.0
 20
0.0
 30
0.0
  3
$MODEL_SPACE
  1

  0
ENDBLK
  5
750
  8
0
  0
BLOCK
 67
     1
  8
0
  2
$PAPER_SPACE
 70
     0
 10
0.0
 20
0.0
 30
0.0
  3
$PAPER_SPACE
  1

  0
ENDBLK
  5
74E
 67
     1
  8
0
  0
ENDSEC
  0
SECTION
  2
ENTITIES
  0
POLYLINE
  5
20
  8
TEAM-NET
 66
     1
 10
0.0
 20
0.0
 30
0.0
 70
    16
 71
     2
 72
    65
  0
VERTEX
  5
21
  8
TEAM-NET
 10
-325.421356
 20
-325.421356
 30
220.0
 70
    64
  0
VERTEX
  5
22
  8
TEAM-NET
 10
-340.98425
 20
-307.919108
 30
220.0
 70
    64
  0
VERTEX
  5
23
  8
TEAM-NET
 10
-354.394369
 20
-288.717519
 30
220.0
 70
    64
  0
VERTEX
  5
24
  8
TEAM-NET
 10
-365.467819
 20
-268.079907
 30
220.0
 70
    64
  0
VERTEX
  5
25
  8
TEAM-NET
 10
-374.052744
 20
-246.289281
 30
220.0
 70
    64
  0
VERTEX
  5
26
  8
TEAM-NET
 10
-380.031417
 20
-223.644462
 30
220.0
 70
    64
  0
VERTEX
  5
27
  8
TEAM-NET
 10
-383.321851
 20
-200.455987
 30
220.0
 70
    64
  0
VERTEX
  5
28
  8
TEAM-NET
 10
-384.0
 20
-177.040442
 30
220.0
 70
    64
  0
VERTEX
  5
29
  8
TEAM-NET
 10
-384.0
 20
-153.606272
 30
220.0
 70
    64
  0
VERTEX
  5
2A
  8
TEAM-NET
 10
-384.0
 20
-130.172102
 30
220.0
 70
    64
  0
VERTEX
  5
2B
  8
TEAM-NET
 10
-384.0
 20
-106.737931
 30
220.0
 70
    64
  0
VERTEX
  5
2C
  8
TEAM-NET
 10
-384.0
 20
-83.303761
 30
220.0
 70
    64
  0
VERTEX
  5
2D
  8
TEAM-NET
 10
-384.0
 20
-59.869591
 30
220.0
 70
    64
  0
VERTEX
  5
2E
  8
TEAM-NET
 10
-384.0
 20
-36.435421
 30
220.0
 70
    64
  0
VERTEX
  5
2F
  8
TEAM-NET
 10
-384.0
 20
-13.001251
 30
220.0
 70
    64
  0
VERTEX
  5
30
  8
TEAM-NET
 10
-384.0
 20
10.432919
 30
220.0
 70
    64
  0
VERTEX
  5
31
  8
TEAM-NET
 10
-384.0
 20
33.867089
 30
220.0
 70
    64
  0
VERTEX
  5
32
  8
TEAM-NET
 10
-384.0
 20
57.301259
 30
220.0
 70
    64
  0
VERTEX
  5
33
  8
TEAM-NET
 10
-384.0
 20
80.73543
 30
220.0
 70
    64
  0
VERTEX
  5
34
  8
TEAM-NET
 10
-384.0
 20
104.1696
 30
220.0
 70
    64
  0
VERTEX
  5
35
  8
TEAM-NET
 10
-384.0
 20
127.60377
 30
220.0
 70
    64
  0
VERTEX
  5
36
  8
TEAM-NET
 10
-384.0
 20
151.03794
 30
220.0
 70
    64
  0
VERTEX
  5
37
  8
TEAM-NET
 10
-384.0
 20
174.47211
 30
220.0
 70
    64
  0
VERTEX
  5
38
  8
TEAM-NET
 10
-384.0
 20
197.90628
 30
220.0
 70
    64
  0
VERTEX
  5
39
  8
TEAM-NET
 10
-384.0
 20
221.34045
 30
220.0
 70
    64
  0
VERTEX
  5
3A
  8
TEAM-NET
 10
-384.0
 20
244.774621
 30
220.0
 70
    64
  0
VERTEX
  5
3B
  8
TEAM-NET
 10
-384.0
 20
268.208791
 30
220.0
 70
    64
  0
VERTEX
  5
3C
  8
TEAM-NET
 10
-384.0
 20
291.642961
 30
220.0
 70
    64
  0
VERTEX
  5
3D
  8
TEAM-NET
 10
-383.772284
 20
315.073508
 30
220.0
 70
    64
  0
VERTEX
  5
3E
  8
TEAM-NET
 10
-381.287121
 20
338.362052
 30
220.0
 70
    64
  0
VERTEX
  5
3F
  8
TEAM-NET
 10
-376.096498
 20
361.200392
 30
220.0
 70
    64
  0
VERTEX
  5
40
  8
TEAM-NET
 10
-368.271597
 20
383.275338
 30
220.0
 70
    64
  0
VERTEX
  5
41
  8
TEAM-NET
 10
-357.919722
 20
404.284171
 30
220.0
 70
    64
  0
VERTEX
  5
42
  8
TEAM-NET
 10
-345.182833
 20
423.938788
 30
220.0
 70
    64
  0
VERTEX
  5
43
  8
TEAM-NET
 10
-330.235594
 20
441.969661
 30
220.0
 70
    64
  0
VERTEX
  5
44
  8
TEAM-NET
 10
-313.282981
 20
458.129526
 30
220.0
 70
    64
  0
VERTEX
  5
45
  8
TEAM-NET
 10
-294.557471
 20
472.196779
 30
220.0
 70
    64
  0
VERTEX
  5
46
  8
TEAM-NET
 10
-274.315852
 20
483.97851
 30
220.0
 70
    64
  0
VERTEX
  5
47
  8
TEAM-NET
 10
-252.835704
 20
493.313154
 30
220.0
 70
    64
  0
VERTEX
  5
48
  8
TEAM-NET
 10
-230.411591
 20
500.072701
 30
220.0
 70
    64
  0
VERTEX
  5
49
  8
TEAM-NET
 10
-207.351021
 20
504.164456
 30
220.0
 70
    64
  0
VERTEX
  5
4A
  8
TEAM-NET
 10
-183.970232
 20
505.532307
 30
220.0
 70
    64
  0
VERTEX
  5
4B
  8
TEAM-NET
 10
-160.58985
 20
504.157496
 30
220.0
 70
    64
  0
VERTEX
  5
4C
  8
TEAM-NET
 10
-137.5305
 20
500.058876
 30
220.0
 70
    64
  0
VERTEX
  5
4D
  8
TEAM-NET
 10
-115.108169
 20
493.293287
 30
220.0
 70
    64
  0
VERTEX
  5
4E
  8
TEAM-NET
 10
-93.087252
 20
485.278329
 30
220.0
 70
    64
  0
VERTEX
  5
4F
  8
TEAM-NET
 10
-71.066335
 20
477.263371
 30
220.0
 70
    64
  0
VERTEX
  5
50
  8
TEAM-NET
 10
-49.045418
 20
469.248413
 30
220.0
 70
    64
  0
VERTEX
  5
51
  8
TEAM-NET
 10
-27.024502
 20
461.233454
 30
220.0
 70
    64
  0
VERTEX
  5
52
  8
TEAM-NET
 10
-5.003585
 20
453.218496
 30
220.0
 70
    64
  0
VERTEX
  5
53
  8
TEAM-NET
 10
17.017332
 20
445.203538
 30
220.0
 70
    64
  0
VERTEX
  5
54
  8
TEAM-NET
 10
39.038249
 20
437.18858
 30
220.0
 70
    64
  0
VERTEX
  5
55
  8
TEAM-NET
 10
61.059165
 20
429.173621
 30
220.0
 70
    64
  0
VERTEX
  5
56
  8
TEAM-NET
 10
83.080082
 20
421.158663
 30
220.0
 70
    64
  0
VERTEX
  5
57
  8
TEAM-NET
 10
105.100999
 20
413.143705
 30
220.0
 70
    64
  0
VERTEX
  5
58
  8
TEAM-NET
 10
127.121916
 20
405.128747
 30
220.0
 70
    64
  0
VERTEX
  5
59
  8
TEAM-NET
 10
149.142832
 20
397.113789
 30
220.0
 70
    64
  0
VERTEX
  5
5A
  8
TEAM-NET
 10
171.163749
 20
389.09883
 30
220.0
 70
    64
  0
VERTEX
  5
5B
  8
TEAM-NET
 10
193.184666
 20
381.083872
 30
220.0
 70
    64
  0
VERTEX
  5
5C
  8
TEAM-NET
 10
215.205583
 20
373.068914
 30
220.0
 70
    64
  0
VERTEX
  5
5D
  8
TEAM-NET
 10
237.226499
 20
365.053956
 30
220.0
 70
    64
  0
VERTEX
  5
5E
  8
TEAM-NET
 10
258.982393
 20
356.370305
 30
220.0
 70
    64
  0
VERTEX
  5
5F
  8
TEAM-NET
 10
279.620006
 20
345.296856
 30
220.0
 70
    64
  0
VERTEX
  5
60
  8
TEAM-NET
 10
298.821595
 20
331.886736
 30
220.0
 70
    64
  0
VERTEX
  5
61
  8
TEAM-NET
 10
316.323843
 20
316.323843
 30
220.0
 70
    64
  0
VERTEX
  5
62
  8
TEAM-NET
 10
-649.060967
 20
-649.060967
 30
700.0
 70
    64
  0
VERTEX
  5
63
  8
TEAM-NET
 10
-675.011786
 20
-619.309881
 30
700.0
 70
    64
  0
VERTEX
  5
64
  8
TEAM-NET
 10
-696.681411
 20
-586.309889
 30
700.0
 70
    64
  0
VERTEX
  5
65
  8
TEAM-NET
 10
-713.668251
 20
-550.672557
 30
700.0
 70
    64
  0
VERTEX
  5
66
  8
TEAM-NET
 10
-725.657499
 20
-513.058331
 30
700.0
 70
    64
  0
VERTEX
  5
67
  8
TEAM-NET
 10
-732.426968
 20
-474.16429
 30
700.0
 70
    64
  0
VERTEX
  5
68
  8
TEAM-NET
 10
-734.0
 20
-434.709644
 30
700.0
 70
    64
  0
VERTEX
  5
69
  8
TEAM-NET
 10
-734.0
 20
-395.20034
 30
700.0
 70
    64
  0
VERTEX
  5
6A
  8
TEAM-NET
 10
-734.0
 20
-355.691036
 30
700.0
 70
    64
  0
VERTEX
  5
6B
  8
TEAM-NET
 10
-734.0
 20
-316.181732
 30
700.0
 70
    64
  0
VERTEX
  5
6C
  8
TEAM-NET
 10
-734.0
 20
-276.672429
 30
700.0
 70
    64
  0
VERTEX
  5
6D
  8
TEAM-NET
 10
-734.0
 20
-237.163125
 30
700.0
 70
    64
  0
VERTEX
  5
6E
  8
TEAM-NET
 10
-734.0
 20
-197.653821
 30
700.0
 70
    64
  0
VERTEX
  5
6F
  8
TEAM-NET
 10
-734.0
 20
-158.144517
 30
700.0
 70
    64
  0
VERTEX
  5
70
  8
TEAM-NET
 10
-734.0
 20
-118.635213
 30
700.0
 70
    64
  0
VERTEX
  5
71
  8
TEAM-NET
 10
-734.0
 20
-79.125909
 30
700.0
 70
    64
  0
VERTEX
  5
72
  8
TEAM-NET
 10
-734.0
 20
-39.616605
 30
700.0
 70
    64
  0
VERTEX
  5
73
  8
TEAM-NET
 10
-734.0
 20
-0.107301
 30
700.0
 70
    64
  0
VERTEX
  5
74
  8
TEAM-NET
 10
-734.0
 20
39.402002
 30
700.0
 70
    64
  0
VERTEX
  5
75
  8
TEAM-NET
 10
-734.0
 20
78.911306
 30
700.0
 70
    64
  0
VERTEX
  5
76
  8
TEAM-NET
 10
-734.0
 20
118.42061
 30
700.0
 70
    64
  0
VERTEX
  5
77
  8
TEAM-NET
 10
-734.0
 20
157.929914
 30
700.0
 70
    64
  0
VERTEX
  5
78
  8
TEAM-NET
 10
-734.0
 20
197.439218
 30
700.0
 70
    64
  0
VERTEX
  5
79
  8
TEAM-NET
 10
-734.0
 20
236.948522
 30
700.0
 70
    64
  0
VERTEX
  5
7A
  8
TEAM-NET
 10
-734.0
 20
276.457826
 30
700.0
 70
    64
  0
VERTEX
  5
7B
  8
TEAM-NET
 10
-734.0
 20
315.96713
 30
700.0
 70
    64
  0
VERTEX
  5
7C
  8
TEAM-NET
 10
-734.0
 20
355.476433
 30
700.0
 70
    64
  0
VERTEX
  5
7D
  8
TEAM-NET
 10
-733.45732
 20
394.976193
 30
700.0
 70
    64
  0
VERTEX
  5
7E
  8
TEAM-NET
 10
-729.380567
 20
434.257621
 30
700.0
 70
    64
  0
VERTEX
  5
7F
  8
TEAM-NET
 10
-721.352078
 20
472.925358
 30
700.0
 70
    64
  0
VERTEX
  5
80
  8
TEAM-NET
 10
-709.454179
 20
510.582901
 30
700.0
 70
    64
  0
VERTEX
  5
81
  8
TEAM-NET
 10
-693.808871
 20
546.844104
 30
700.0
 70
    64
  0
VERTEX
  5
82
  8
TEAM-NET
 10
-674.576584
 20
581.337142
 30
700.0
 70
    64
  0
VERTEX
  5
83
  8
TEAM-NET
 10
-651.954527
 20
613.708319
 30
700.0
 70
    64
  0
VERTEX
  5
84
  8
TEAM-NET
 10
-626.17467
 20
643.625697
 30
700.0
 70
    64
  0
VERTEX
  5
85
  8
TEAM-NET
 10
-597.501362
 20
670.7825
 30
700.0
 70
    64
  0
VERTEX
  5
86
  8
TEAM-NET
 10
-566.228623
 20
694.900259
 30
700.0
 70
    64
  0
VERTEX
  5
87
  8
TEAM-NET
 10
-532.677126
 20
715.731667
 30
700.0
 70
    64
  0
VERTEX
  5
88
  8
TEAM-NET
 10
-497.190913
 20
733.063118
 30
700.0
 70
    64
  0
VERTEX
  5
89
  8
TEAM-NET
 10
-460.133862
 20
746.716893
 30
700.0
 70
    64
  0
VERTEX
  5
8A
  8
TEAM-NET
 10
-421.885962
 20
756.552984
 30
700.0
 70
    64
  0
VERTEX
  5
8B
  8
TEAM-NET
 10
-382.839411
 20
762.470531
 30
700.0
 70
    64
  0
VERTEX
  5
8C
  8
TEAM-NET
 10
-343.394596
 20
764.408854
 30
700.0
 70
    64
  0
VERTEX
  5
8D
  8
TEAM-NET
 10
-303.955989
 20
762.348078
 30
700.0
 70
    64
  0
VERTEX
  5
8E
  8
TEAM-NET
 10
-264.927998
 20
756.309335
 30
700.0
 70
    64
  0
VERTEX
  5
8F
  8
TEAM-NET
 10
-226.710819
 20
746.354546
 30
700.0
 70
    64
  0
VERTEX
  5
90
  8
TEAM-NET
 10
-189.462541
 20
733.19162
 30
700.0
 70
    64
  0
VERTEX
  5
91
  8
TEAM-NET
 10
-152.335939
 20
719.678642
 30
700.0
 70
    64
  0
VERTEX
  5
92
  8
TEAM-NET
 10
-115.209338
 20
706.165664
 30
700.0
 70
    64
  0
VERTEX
  5
93
  8
TEAM-NET
 10
-78.082737
 20
692.652687
 30
700.0
 70
    64
  0
VERTEX
  5
94
  8
TEAM-NET
 10
-40.956135
 20
679.139709
 30
700.0
 70
    64
  0
VERTEX
  5
95
  8
TEAM-NET
 10
-3.829534
 20
665.626731
 30
700.0
 70
    64
  0
VERTEX
  5
96
  8
TEAM-NET
 10
33.297067
 20
652.113753
 30
700.0
 70
    64
  0
VERTEX
  5
97
  8
TEAM-NET
 10
70.423669
 20
638.600775
 30
700.0
 70
    64
  0
VERTEX
  5
98
  8
TEAM-NET
 10
107.55027
 20
625.087798
 30
700.0
 70
    64
  0
VERTEX
  5
99
  8
TEAM-NET
 10
144.676871
 20
611.57482
 30
700.0
 70
    64
  0
VERTEX
  5
9A
  8
TEAM-NET
 10
181.803473
 20
598.061842
 30
700.0
 70
    64
  0
VERTEX
  5
9B
  8
TEAM-NET
 10
218.930074
 20
584.548864
 30
700.0
 70
    64
  0
VERTEX
  5
9C
  8
TEAM-NET
 10
256.056675
 20
571.035887
 30
700.0
 70
    64
  0
VERTEX
  5
9D
  8
TEAM-NET
 10
293.183276
 20
557.522909
 30
700.0
 70
    64
  0
VERTEX
  5
9E
  8
TEAM-NET
 10
330.309878
 20
544.009931
 30
700.0
 70
    64
  0
VERTEX
  5
9F
  8
TEAM-NET
 10
367.397705
 20
530.393398
 30
700.0
 70
    64
  0
VERTEX
  5
A0
  8
TEAM-NET
 10
403.035037
 20
513.406559
 30
700.0
 70
    64
  0
VERTEX
  5
A1
  8
TEAM-NET
 10
436.035029
 20
491.736934
 30
700.0
 70
    64
  0
VERTEX
  5
A2
  8
TEAM-NET
 10
465.786114
 20
465.786114
 30
700.0
 70
    64
  0
SEQEND
  5
A4
  8
TEAM-NET
  0
POLYLINE
  5
A5
  8
TEAM-NET
 66
     1
 10
0.0
 20
0.0
 30
0.0
 70
    16
 71
     2
 72
    65
  0
VERTEX
  5
A6
  8
TEAM-NET
 10
-325.421356
 20
-325.421356
 30
220.0
 70
    64
  0
VERTEX
  5
A7
  8
TEAM-NET
 10
-307.919108
 20
-340.98425
 30
220.0
 70
    64
  0
VERTEX
  5
A8
  8
TEAM-NET
 10
-288.717519
 20
-354.394369
 30
220.0
 70
    64
  0
VERTEX
  5
A9
  8
TEAM-NET
 10
-268.079907
 20
-365.467819
 30
220.0
 70
    64
  0
VERTEX
  5
AA
  8
TEAM-NET
 10
-246.289281
 20
-374.052744
 30
220.0
 70
    64
  0
VERTEX
  5
AB
  8
TEAM-NET
 10
-223.644462
 20
-380.031417
 30
220.0
 70
    64
  0
VERTEX
  5
AC
  8
TEAM-NET
 10
-200.455987
 20
-383.321851
 30
220.0
 70
    64
  0
VERTEX
  5
AD
  8
TEAM-NET
 10
-177.040442
 20
-384.0
 30
220.0
 70
    64
  0
VERTEX
  5
AE
  8
TEAM-NET
 10
-153.606272
 20
-384.0
 30
220.0
 70
    64
  0
VERTEX
  5
AF
  8
TEAM-NET
 10
-130.172102
 20
-384.0
 30
220.0
 70
    64
  0
VERTEX
  5
B0
  8
TEAM-NET
 10
-106.737931
 20
-384.0
 30
220.0
 70
    64
  0
VERTEX
  5
B1
  8
TEAM-NET
 10
-83.303761
 20
-384.0
 30
220.0
 70
    64
  0
VERTEX
  5
B2
  8
TEAM-NET
 10
-59.869591
 20
-384.0
 30
220.0
 70
    64
  0
VERTEX
  5
B3
  8
TEAM-NET
 10
-36.435421
 20
-384.0
 30
220.0
 70
    64
  0
VERTEX
  5
B4
  8
TEAM-NET
 10
-13.001251
 20
-384.0
 30
220.0
 70
    64
  0
VERTEX
  5
B5
  8
TEAM-NET
 10
10.432919
 20
-384.0
 30
220.0
 70
    64
  0
VERTEX
  5
B6
  8
TEAM-NET
 10
33.867089
 20
-384.0
 30
220.0
 70
    64
  0
VERTEX
  5
B7
  8
TEAM-NET
 10
57.301259
 20
-384.0
 30
220.0
 70
    64
  0
VERTEX
  5
B8
  8
TEAM-NET
 10
80.73543
 20
-384.0
 30
220.0
 70
    64
  0
VERTEX
  5
B9
  8
TEAM-NET
 10
104.1696
 20
-384.0
 30
220.0
 70
    64
  0
VERTEX
  5
BA
  8
TEAM-NET
 10
127.60377
 20
-384.0
 30
220.0
 70
    64
  0
VERTEX
  5
BB
  8
TEAM-NET
 10
151.03794
 20
-384.0
 30
220.0
 70
    64
  0
VERTEX
  5
BC
  8
TEAM-NET
 10
174.47211
 20
-384.0
 30
220.0
 70
    64
  0
VERTEX
  5
BD
  8
TEAM-NET
 10
197.90628
 20
-384.0
 30
220.0
 70
    64
  0
VERTEX
  5
BE
  8
TEAM-NET
 10
221.34045
 20
-384.0
 30
220.0
 70
    64
  0
VERTEX
  5
BF
  8
TEAM-NET
 10
244.774621
 20
-384.0
 30
220.0
 70
    64
  0
VERTEX
  5
C0
  8
TEAM-NET
 10
268.208791
 20
-384.0
 30
220.0
 70
    64
  0
VERTEX
  5
C1
  8
TEAM-NET
 10
291.642961
 20
-384.0
 30
220.0
 70
    64
  0
VERTEX
  5
C2
  8
TEAM-NET
 10
315.073508
 20
-383.772284
 30
220.0
 70
    64
  0
VERTEX
  5
C3
  8
TEAM-NET
 10
338.362052
 20
-381.287121
 30
220.0
 70
    64
  0
VERTEX
  5
C4
  8
TEAM-NET
 10
361.200392
 20
-376.096498
 30
220.0
 70
    64
  0
VERTEX
  5
C5
  8
TEAM-NET
 10
383.275338
 20
-368.271597
 30
220.0
 70
    64
  0
VERTEX
  5
C6
  8
TEAM-NET
 10
404.284171
 20
-357.919722
 30
220.0
 70
    64
  0
VERTEX
  5
C7
  8
TEAM-NET
 10
423.938788
 20
-345.182833
 30
220.0
 70
    64
  0
VERTEX
  5
C8
  8
TEAM-NET
 10
441.969661
 20
-330.235594
 30
220.0
 70
    64
  0
VERTEX
  5
C9
  8
TEAM-NET
 10
458.129526
 20
-313.282981
 30
220.0
 70
    64
  0
VERTEX
  5
CA
  8
TEAM-NET
 10
472.196779
 20
-294.557471
 30
220.0
 70
    64
  0
VERTEX
  5
CB
  8
TEAM-NET
 10
483.97851
 20
-274.315852
 30
220.0
 70
    64
  0
VERTEX
  5
CC
  8
TEAM-NET
 10
493.313154
 20
-252.835704
 30
220.0
 70
    64
  0
VERTEX
  5
CD
  8
TEAM-NET
 10
500.072701
 20
-230.411591
 30
220.0
 70
    64
  0
VERTEX
  5
CE
  8
TEAM-NET
 10
504.164456
 20
-207.351021
 30
220.0
 70
    64
  0
VERTEX
  5
CF
  8
TEAM-NET
 10
505.532307
 20
-183.970232
 30
220.0
 70
    64
  0
VERTEX
  5
D0
  8
TEAM-NET
 10
504.157496
 20
-160.58985
 30
220.0
 70
    64
  0
VERTEX
  5
D1
  8
TEAM-NET
 10
500.058876
 20
-137.5305
 30
220.0
 70
    64
  0
VERTEX
  5
D2
  8
TEAM-NET
 10
493.293287
 20
-115.108169
 30
220.0
 70
    64
  0
VERTEX
  5
D3
  8
TEAM-NET
 10
485.278329
 20
-93.087252
 30
220.0
 70
    64
  0
VERTEX
  5
D4
  8
TEAM-NET
 10
477.263371
 20
-71.066335
 30
220.0
 70
    64
  0
VERTEX
  5
D5
  8
TEAM-NET
 10
469.248413
 20
-49.045418
 30
220.0
 70
    64
  0
VERTEX
  5
D6
  8
TEAM-NET
 10
461.233454
 20
-27.024502
 30
220.0
 70
    64
  0
VERTEX
  5
D7
  8
TEAM-NET
 10
453.218496
 20
-5.003585
 30
220.0
 70
    64
  0
VERTEX
  5
D8
  8
TEAM-NET
 10
445.203538
 20
17.017332
 30
220.0
 70
    64
  0
VERTEX
  5
D9
  8
TEAM-NET
 10
437.18858
 20
39.038249
 30
220.0
 70
    64
  0
VERTEX
  5
DA
  8
TEAM-NET
 10
429.173621
 20
61.059165
 30
220.0
 70
    64
  0
VERTEX
  5
DB
  8
TEAM-NET
 10
421.158663
 20
83.080082
 30
220.0
 70
    64
  0
VERTEX
  5
DC
  8
TEAM-NET
 10
413.143705
 20
105.100999
 30
220.0
 70
    64
  0
VERTEX
  5
DD
  8
TEAM-NET
 10
405.128747
 20
127.121916
 30
220.0
 70
    64
  0
VERTEX
  5
DE
  8
TEAM-NET
 10
397.113789
 20
149.142832
 30
220.0
 70
    64
  0
VERTEX
  5
DF
  8
TEAM-NET
 10
389.09883
 20
171.163749
 30
220.0
 70
    64
  0
VERTEX
  5
E0
  8
TEAM-NET
 10
381.083872
 20
193.184666
 30
220.0
 70
    64
  0
VERTEX
  5
E1
  8
TEAM-NET
 10
373.068914
 20
215.205583
 30
220.0
 70
    64
  0
VERTEX
  5
E2
  8
TEAM-NET
 10
365.053956
 20
237.226499
 30
220.0
 70
    64
  0
VERTEX
  5
E3
  8
TEAM-NET
 10
356.370305
 20
258.982393
 30
220.0
 70
    64
  0
VERTEX
  5
E4
  8
TEAM-NET
 10
345.296856
 20
279.620006
 30
220.0
 70
    64
  0
VERTEX
  5
E5
  8
TEAM-NET
 10
331.886736
 20
298.821595
 30
220.0
 70
    64
  0
VERTEX
  5
E6
  8
TEAM-NET
 10
316.323843
 20
316.323843
 30
220.0
 70
    64
  0
VERTEX
  5
E7
  8
TEAM-NET
 10
-649.060967
 20
-649.060967
 30
700.0
 70
    64
  0
VERTEX
  5
E8
  8
TEAM-NET
 10
-619.309881
 20
-675.011786
 30
700.0
 70
    64
  0
VERTEX
  5
E9
  8
TEAM-NET
 10
-586.309889
 20
-696.681411
 30
700.0
 70
    64
  0
VERTEX
  5
EA
  8
TEAM-NET
 10
-550.672557
 20
-713.668251
 30
700.0
 70
    64
  0
VERTEX
  5
EB
  8
TEAM-NET
 10
-513.058331
 20
-725.657499
 30
700.0
 70
    64
  0
VERTEX
  5
EC
  8
TEAM-NET
 10
-474.16429
 20
-732.426968
 30
700.0
 70
    64
  0
VERTEX
  5
ED
  8
TEAM-NET
 10
-434.709644
 20
-734.0
 30
700.0
 70
    64
  0
VERTEX
  5
EE
  8
TEAM-NET
 10
-395.20034
 20
-734.0
 30
700.0
 70
    64
  0
VERTEX
  5
EF
  8
TEAM-NET
 10
-355.691036
 20
-734.0
 30
700.0
 70
    64
  0
VERTEX
  5
F0
  8
TEAM-NET
 10
-316.181732
 20
-734.0
 30
700.0
 70
    64
  0
VERTEX
  5
F1
  8
TEAM-NET
 10
-276.672429
 20
-734.0
 30
700.0
 70
    64
  0
VERTEX
  5
F2
  8
TEAM-NET
 10
-237.163125
 20
-734.0
 30
700.0
 70
    64
  0
VERTEX
  5
F3
  8
TEAM-NET
 10
-197.653821
 20
-734.0
 30
700.0
 70
    64
  0
VERTEX
  5
F4
  8
TEAM-NET
 10
-158.144517
 20
-734.0
 30
700.0
 70
    64
  0
VERTEX
  5
F5
  8
TEAM-NET
 10
-118.635213
 20
-734.0
 30
700.0
 70
    64
  0
VERTEX
  5
F6
  8
TEAM-NET
 10
-79.125909
 20
-734.0
 30
700.0
 70
    64
  0
VERTEX
  5
F7
  8
TEAM-NET
 10
-39.616605
 20
-734.0
 30
700.0
 70
    64
  0
VERTEX
  5
F8
  8
TEAM-NET
 10
-0.107301
 20
-734.0
 30
700.0
 70
    64
  0
VERTEX
  5
F9
  8
TEAM-NET
 10
39.402002
 20
-734.0
 30
700.0
 70
    64
  0
VERTEX
  5
FA
  8
TEAM-NET
 10
78.911306
 20
-734.0
 30
700.0
 70
    64
  0
VERTEX
  5
FB
  8
TEAM-NET
 10
118.42061
 20
-734.0
 30
700.0
 70
    64
  0
VERTEX
  5
FC
  8
TEAM-NET
 10
157.929914
 20
-734.0
 30
700.0
 70
    64
  0
VERTEX
  5
FD
  8
TEAM-NET
 10
197.439218
 20
-734.0
 30
700.0
 70
    64
  0
VERTEX
  5
FE
  8
TEAM-NET
 10
236.948522
 20
-734.0
 30
700.0
 70
    64
  0
VERTEX
  5
FF
  8
TEAM-NET
 10
276.457826
 20
-734.0
 30
700.0
 70
    64
  0
VERTEX
  5
100
  8
TEAM-NET
 10
315.96713
 20
-734.0
 30
700.0
 70
    64
  0
VERTEX
  5
101
  8
TEAM-NET
 10
355.476433
 20
-734.0
 30
700.0
 70
    64
  0
VERTEX
  5
102
  8
TEAM-NET
 10
394.976193
 20
-733.45732
 30
700.0
 70
    64
  0
VERTEX
  5
103
  8
TEAM-NET
 10
434.257621
 20
-729.380567
 30
700.0
 70
    64
  0
VERTEX
  5
104
  8
TEAM-NET
 10
472.925358
 20
-721.352078
 30
700.0
 70
    64
  0
VERTEX
  5
105
  8
TEAM-NET
 10
510.582901
 20
-709.454179
 30
700.0
 70
    64
  0
VERTEX
  5
106
  8
TEAM-NET
 10
546.844104
 20
-693.808871
 30
700.0
 70
    64
  0
VERTEX
  5
107
  8
TEAM-NET
 10
581.337142
 20
-674.576584
 30
700.0
 70
    64
  0
VERTEX
  5
108
  8
TEAM-NET
 10
613.708319
 20
-651.954527
 30
700.0
 70
    64
  0
VERTEX
  5
109
  8
TEAM-NET
 10
643.625697
 20
-626.17467
 30
700.0
 70
    64
  0
VERTEX
  5
10A
  8
TEAM-NET
 10
670.7825
 20
-597.501362
 30
700.0
 70
    64
  0
VERTEX
  5
10B
  8
TEAM-NET
 10
694.900259
 20
-566.228623
 30
700.0
 70
    64
  0
VERTEX
  5
10C
  8
TEAM-NET
 10
715.731667
 20
-532.677126
 30
700.0
 70
    64
  0
VERTEX
  5
10D
  8
TEAM-NET
 10
733.063118
 20
-497.190913
 30
700.0
 70
    64
  0
VERTEX
  5
10E
  8
TEAM-NET
 10
746.716893
 20
-460.133862
 30
700.0
 70
    64
  0
VERTEX
  5
10F
  8
TEAM-NET
 10
756.552984
 20
-421.885962
 30
700.0
 70
    64
  0
VERTEX
  5
110
  8
TEAM-NET
 10
762.470531
 20
-382.839411
 30
700.0
 70
    64
  0
VERTEX
  5
111
  8
TEAM-NET
 10
764.408854
 20
-343.394596
 30
700.0
 70
    64
  0
VERTEX
  5
112
  8
TEAM-NET
 10
762.348078
 20
-303.955989
 30
700.0
 70
    64
  0
VERTEX
  5
113
  8
TEAM-NET
 10
756.309335
 20
-264.927998
 30
700.0
 70
    64
  0
VERTEX
  5
114
  8
TEAM-NET
 10
746.354546
 20
-226.710819
 30
700.0
 70
    64
  0
VERTEX
  5
115
  8
TEAM-NET
 10
733.19162
 20
-189.462541
 30
700.0
 70
    64
  0
VERTEX
  5
116
  8
TEAM-NET
 10
719.678642
 20
-152.335939
 30
700.0
 70
    64
  0
VERTEX
  5
117
  8
TEAM-NET
 10
706.165664
 20
-115.209338
 30
700.0
 70
    64
  0
VERTEX
  5
118
  8
TEAM-NET
 10
692.652687
 20
-78.082737
 30
700.0
 70
    64
  0
VERTEX
  5
119
  8
TEAM-NET
 10
679.139709
 20
-40.956135
 30
700.0
 70
    64
  0
VERTEX
  5
11A
  8
TEAM-NET
 10
665.626731
 20
-3.829534
 30
700.0
 70
    64
  0
VERTEX
  5
11B
  8
TEAM-NET
 10
652.113753
 20
33.297067
 30
700.0
 70
    64
  0
VERTEX
  5
11C
  8
TEAM-NET
 10
638.600775
 20
70.423669
 30
700.0
 70
    64
  0
VERTEX
  5
11D
  8
TEAM-NET
 10
625.087798
 20
107.55027
 30
700.0
 70
    64
  0
VERTEX
  5
11E
  8
TEAM-NET
 10
611.57482
 20
144.676871
 30
700.0
 70
    64
  0
VERTEX
  5
11F
  8
TEAM-NET
 10
598.061842
 20
181.803473
 30
700.0
 70
    64
  0
VERTEX
  5
120
  8
TEAM-NET
 10
584.548864
 20
218.930074
 30
700.0
 70
    64
  0
VERTEX
  5
121
  8
TEAM-NET
 10
571.035887
 20
256.056675
 30
700.0
 70
    64
  0
VERTEX
  5
122
  8
TEAM-NET
 10
557.522909
 20
293.183276
 30
700.0
 70
    64
  0
VERTEX
  5
123
  8
TEAM-NET
 10
544.009931
 20
330.309878
 30
700.0
 70
    64
  0
VERTEX
  5
124
  8
TEAM-NET
 10
530.393398
 20
367.397705
 30
700.0
 70
    64
  0
VERTEX
  5
125
  8
TEAM-NET
 10
513.406559
 20
403.035037
 30
700.0
 70
    64
  0
VERTEX
  5
126
  8
TEAM-NET
 10
491.736934
 20
436.035029
 30
700.0
 70
    64
  0
VERTEX
  5
127
  8
TEAM-NET
 10
465.786114
 20
465.786114
 30
700.0
 70
    64
  0
SEQEND
  5
128
  8
TEAM-NET
  0
CIRCLE
  5
129
  8
TEAM-INSP
 10
0.0
 20
0.0
 30
0.0
 40
10.0
  0
POLYLINE
  5
12B
  8
TEAM-NET
 66
     1
 10
0.0
 20
0.0
 30
0.0
 70
    16
 71
     2
 72
    65
  0
VERTEX
  5
12C
  8
TEAM-NET
 10
-325.421356
 20
-325.421356
 30
220.0
 70
    64
  0
VERTEX
  5
12D
  8
TEAM-NET
 10
-340.98425
 20
-307.919108
 30
220.0
 70
    64
  0
VERTEX
  5
12E
  8
TEAM-NET
 10
-354.394369
 20
-288.717519
 30
220.0
 70
    64
  0
VERTEX
  5
12F
  8
TEAM-NET
 10
-365.467819
 20
-268.079907
 30
220.0
 70
    64
  0
VERTEX
  5
130
  8
TEAM-NET
 10
-374.052744
 20
-246.289281
 30
220.0
 70
    64
  0
VERTEX
  5
131
  8
TEAM-NET
 10
-380.031417
 20
-223.644462
 30
220.0
 70
    64
  0
VERTEX
  5
132
  8
TEAM-NET
 10
-383.321851
 20
-200.455987
 30
220.0
 70
    64
  0
VERTEX
  5
133
  8
TEAM-NET
 10
-384.0
 20
-177.040442
 30
220.0
 70
    64
  0
VERTEX
  5
134
  8
TEAM-NET
 10
-384.0
 20
-153.606272
 30
220.0
 70
    64
  0
VERTEX
  5
135
  8
TEAM-NET
 10
-384.0
 20
-130.172102
 30
220.0
 70
    64
  0
VERTEX
  5
136
  8
TEAM-NET
 10
-384.0
 20
-106.737931
 30
220.0
 70
    64
  0
VERTEX
  5
137
  8
TEAM-NET
 10
-384.0
 20
-83.303761
 30
220.0
 70
    64
  0
VERTEX
  5
138
  8
TEAM-NET
 10
-384.0
 20
-59.869591
 30
220.0
 70
    64
  0
VERTEX
  5
139
  8
TEAM-NET
 10
-384.0
 20
-36.435421
 30
220.0
 70
    64
  0
VERTEX
  5
13A
  8
TEAM-NET
 10
-384.0
 20
-13.001251
 30
220.0
 70
    64
  0
VERTEX
  5
13B
  8
TEAM-NET
 10
-384.0
 20
10.432919
 30
220.0
 70
    64
  0
VERTEX
  5
13C
  8
TEAM-NET
 10
-384.0
 20
33.867089
 30
220.0
 70
    64
  0
VERTEX
  5
13D
  8
TEAM-NET
 10
-384.0
 20
57.301259
 30
220.0
 70
    64
  0
VERTEX
  5
13E
  8
TEAM-NET
 10
-384.0
 20
80.73543
 30
220.0
 70
    64
  0
VERTEX
  5
13F
  8
TEAM-NET
 10
-384.0
 20
104.1696
 30
220.0
 70
    64
  0
VERTEX
  5
140
  8
TEAM-NET
 10
-384.0
 20
127.60377
 30
220.0
 70
    64
  0
VERTEX
  5
141
  8
TEAM-NET
 10
-384.0
 20
151.03794
 30
220.0
 70
    64
  0
VERTEX
  5
142
  8
TEAM-NET
 10
-384.0
 20
174.47211
 30
220.0
 70
    64
  0
VERTEX
  5
143
  8
TEAM-NET
 10
-384.0
 20
197.90628
 30
220.0
 70
    64
  0
VERTEX
  5
144
  8
TEAM-NET
 10
-384.0
 20
221.34045
 30
220.0
 70
    64
  0
VERTEX
  5
145
  8
TEAM-NET
 10
-384.0
 20
244.774621
 30
220.0
 70
    64
  0
VERTEX
  5
146
  8
TEAM-NET
 10
-384.0
 20
268.208791
 30
220.0
 70
    64
  0
VERTEX
  5
147
  8
TEAM-NET
 10
-384.0
 20
291.642961
 30
220.0
 70
    64
  0
VERTEX
  5
148
  8
TEAM-NET
 10
-383.772284
 20
315.073508
 30
220.0
 70
    64
  0
VERTEX
  5
149
  8
TEAM-NET
 10
-381.287121
 20
338.362052
 30
220.0
 70
    64
  0
VERTEX
  5
14A
  8
TEAM-NET
 10
-376.096498
 20
361.200392
 30
220.0
 70
    64
  0
VERTEX
  5
14B
  8
TEAM-NET
 10
-368.271597
 20
383.275338
 30
220.0
 70
    64
  0
VERTEX
  5
14C
  8
TEAM-NET
 10
-357.919722
 20
404.284171
 30
220.0
 70
    64
  0
VERTEX
  5
14D
  8
TEAM-NET
 10
-345.182833
 20
423.938788
 30
220.0
 70
    64
  0
VERTEX
  5
14E
  8
TEAM-NET
 10
-330.235594
 20
441.969661
 30
220.0
 70
    64
  0
VERTEX
  5
14F
  8
TEAM-NET
 10
-313.282981
 20
458.129526
 30
220.0
 70
    64
  0
VERTEX
  5
150
  8
TEAM-NET
 10
-294.557471
 20
472.196779
 30
220.0
 70
    64
  0
VERTEX
  5
151
  8
TEAM-NET
 10
-274.315852
 20
483.97851
 30
220.0
 70
    64
  0
VERTEX
  5
152
  8
TEAM-NET
 10
-252.835704
 20
493.313154
 30
220.0
 70
    64
  0
VERTEX
  5
153
  8
TEAM-NET
 10
-230.411591
 20
500.072701
 30
220.0
 70
    64
  0
VERTEX
  5
154
  8
TEAM-NET
 10
-207.351021
 20
504.164456
 30
220.0
 70
    64
  0
VERTEX
  5
155
  8
TEAM-NET
 10
-183.970232
 20
505.532307
 30
220.0
 70
    64
  0
VERTEX
  5
156
  8
TEAM-NET
 10
-160.58985
 20
504.157496
 30
220.0
 70
    64
  0
VERTEX
  5
157
  8
TEAM-NET
 10
-137.5305
 20
500.058876
 30
220.0
 70
    64
  0
VERTEX
  5
158
  8
TEAM-NET
 10
-115.108169
 20
493.293287
 30
220.0
 70
    64
  0
VERTEX
  5
159
  8
TEAM-NET
 10
-93.087252
 20
485.278329
 30
220.0
 70
    64
  0
VERTEX
  5
15A
  8
TEAM-NET
 10
-71.066335
 20
477.263371
 30
220.0
 70
    64
  0
VERTEX
  5
15B
  8
TEAM-NET
 10
-49.045418
 20
469.248413
 30
220.0
 70
    64
  0
VERTEX
  5
15C
  8
TEAM-NET
 10
-27.024502
 20
461.233454
 30
220.0
 70
    64
  0
VERTEX
  5
15D
  8
TEAM-NET
 10
-5.003585
 20
453.218496
 30
220.0
 70
    64
  0
VERTEX
  5
15E
  8
TEAM-NET
 10
17.017332
 20
445.203538
 30
220.0
 70
    64
  0
VERTEX
  5
15F
  8
TEAM-NET
 10
39.038249
 20
437.18858
 30
220.0
 70
    64
  0
VERTEX
  5
160
  8
TEAM-NET
 10
61.059165
 20
429.173621
 30
220.0
 70
    64
  0
VERTEX
  5
161
  8
TEAM-NET
 10
83.080082
 20
421.158663
 30
220.0
 70
    64
  0
VERTEX
  5
162
  8
TEAM-NET
 10
105.100999
 20
413.143705
 30
220.0
 70
    64
  0
VERTEX
  5
163
  8
TEAM-NET
 10
127.121916
 20
405.128747
 30
220.0
 70
    64
  0
VERTEX
  5
164
  8
TEAM-NET
 10
149.142832
 20
397.113789
 30
220.0
 70
    64
  0
VERTEX
  5
165
  8
TEAM-NET
 10
171.163749
 20
389.09883
 30
220.0
 70
    64
  0
VERTEX
  5
166
  8
TEAM-NET
 10
193.184666
 20
381.083872
 30
220.0
 70
    64
  0
VERTEX
  5
167
  8
TEAM-NET
 10
215.205583
 20
373.068914
 30
220.0
 70
    64
  0
VERTEX
  5
168
  8
TEAM-NET
 10
237.226499
 20
365.053956
 30
220.0
 70
    64
  0
VERTEX
  5
169
  8
TEAM-NET
 10
258.982393
 20
356.370305
 30
220.0
 70
    64
  0
VERTEX
  5
16A
  8
TEAM-NET
 10
279.620006
 20
345.296856
 30
220.0
 70
    64
  0
VERTEX
  5
16B
  8
TEAM-NET
 10
298.821595
 20
331.886736
 30
220.0
 70
    64
  0
VERTEX
  5
16C
  8
TEAM-NET
 10
316.323843
 20
316.323843
 30
220.0
 70
    64
  0
VERTEX
  5
16D
  8
TEAM-NET
 10
-325.421356
 20
-325.421356
 30
220.0
 70
    64
  0
VERTEX
  5
16E
  8
TEAM-NET
 10
-307.919108
 20
-340.98425
 30
220.0
 70
    64
  0
VERTEX
  5
16F
  8
TEAM-NET
 10
-288.717519
 20
-354.394369
 30
220.0
 70
    64
  0
VERTEX
  5
170
  8
TEAM-NET
 10
-268.079907
 20
-365.467819
 30
220.0
 70
    64
  0
VERTEX
  5
171
  8
TEAM-NET
 10
-246.289281
 20
-374.052744
 30
220.0
 70
    64
  0
VERTEX
  5
172
  8
TEAM-NET
 10
-223.644462
 20
-380.031417
 30
220.0
 70
    64
  0
VERTEX
  5
173
  8
TEAM-NET
 10
-200.455987
 20
-383.321851
 30
220.0
 70
    64
  0
VERTEX
  5
174
  8
TEAM-NET
 10
-177.040442
 20
-384.0
 30
220.0
 70
    64
  0
VERTEX
  5
175
  8
TEAM-NET
 10
-153.606272
 20
-384.0
 30
220.0
 70
    64
  0
VERTEX
  5
176
  8
TEAM-NET
 10
-130.172102
 20
-384.0
 30
220.0
 70
    64
  0
VERTEX
  5
177
  8
TEAM-NET
 10
-106.737931
 20
-384.0
 30
220.0
 70
    64
  0
VERTEX
  5
178
  8
TEAM-NET
 10
-83.303761
 20
-384.0
 30
220.0
 70
    64
  0
VERTEX
  5
179
  8
TEAM-NET
 10
-59.869591
 20
-384.0
 30
220.0
 70
    64
  0
VERTEX
  5
17A
  8
TEAM-NET
 10
-36.435421
 20
-384.0
 30
220.0
 70
    64
  0
VERTEX
  5
17B
  8
TEAM-NET
 10
-13.001251
 20
-384.0
 30
220.0
 70
    64
  0
VERTEX
  5
17C
  8
TEAM-NET
 10
10.432919
 20
-384.0
 30
220.0
 70
    64
  0
VERTEX
  5
17D
  8
TEAM-NET
 10
33.867089
 20
-384.0
 30
220.0
 70
    64
  0
VERTEX
  5
17E
  8
TEAM-NET
 10
57.301259
 20
-384.0
 30
220.0
 70
    64
  0
VERTEX
  5
17F
  8
TEAM-NET
 10
80.73543
 20
-384.0
 30
220.0
 70
    64
  0
VERTEX
  5
180
  8
TEAM-NET
 10
104.1696
 20
-384.0
 30
220.0
 70
    64
  0
VERTEX
  5
181
  8
TEAM-NET
 10
127.60377
 20
-384.0
 30
220.0
 70
    64
  0
VERTEX
  5
182
  8
TEAM-NET
 10
151.03794
 20
-384.0
 30
220.0
 70
    64
  0
VERTEX
  5
183
  8
TEAM-NET
 10
174.47211
 20
-384.0
 30
220.0
 70
    64
  0
VERTEX
  5
184
  8
TEAM-NET
 10
197.90628
 20
-384.0
 30
220.0
 70
    64
  0
VERTEX
  5
185
  8
TEAM-NET
 10
221.34045
 20
-384.0
 30
220.0
 70
    64
  0
VERTEX
  5
186
  8
TEAM-NET
 10
244.774621
 20
-384.0
 30
220.0
 70
    64
  0
VERTEX
  5
187
  8
TEAM-NET
 10
268.208791
 20
-384.0
 30
220.0
 70
    64
  0
VERTEX
  5
188
  8
TEAM-NET
 10
291.642961
 20
-384.0
 30
220.0
 70
    64
  0
VERTEX
  5
189
  8
TEAM-NET
 10
315.073508
 20
-383.772284
 30
220.0
 70
    64
  0
VERTEX
  5
18A
  8
TEAM-NET
 10
338.362052
 20
-381.287121
 30
220.0
 70
    64
  0
VERTEX
  5
18B
  8
TEAM-NET
 10
361.200392
 20
-376.096498
 30
220.0
 70
    64
  0
VERTEX
  5
18C
  8
TEAM-NET
 10
383.275338
 20
-368.271597
 30
220.0
 70
    64
  0
VERTEX
  5
18D
  8
TEAM-NET
 10
404.284171
 20
-357.919722
 30
220.0
 70
    64
  0
VERTEX
  5
18E
  8
TEAM-NET
 10
423.938788
 20
-345.182833
 30
220.0
 70
    64
  0
VERTEX
  5
18F
  8
TEAM-NET
 10
441.969661
 20
-330.235594
 30
220.0
 70
    64
  0
VERTEX
  5
190
  8
TEAM-NET
 10
458.129526
 20
-313.282981
 30
220.0
 70
    64
  0
VERTEX
  5
191
  8
TEAM-NET
 10
472.196779
 20
-294.557471
 30
220.0
 70
    64
  0
VERTEX
  5
192
  8
TEAM-NET
 10
483.97851
 20
-274.315852
 30
220.0
 70
    64
  0
VERTEX
  5
193
  8
TEAM-NET
 10
493.313154
 20
-252.835704
 30
220.0
 70
    64
  0
VERTEX
  5
194
  8
TEAM-NET
 10
500.072701
 20
-230.411591
 30
220.0
 70
    64
  0
VERTEX
  5
195
  8
TEAM-NET
 10
504.164456
 20
-207.351021
 30
220.0
 70
    64
  0
VERTEX
  5
196
  8
TEAM-NET
 10
505.532307
 20
-183.970232
 30
220.0
 70
    64
  0
VERTEX
  5
197
  8
TEAM-NET
 10
504.157496
 20
-160.58985
 30
220.0
 70
    64
  0
VERTEX
  5
198
  8
TEAM-NET
 10
500.058876
 20
-137.5305
 30
220.0
 70
    64
  0
VERTEX
  5
199
  8
TEAM-NET
 10
493.293287
 20
-115.108169
 30
220.0
 70
    64
  0
VERTEX
  5
19A
  8
TEAM-NET
 10
485.278329
 20
-93.087252
 30
220.0
 70
    64
  0
VERTEX
  5
19B
  8
TEAM-NET
 10
477.263371
 20
-71.066335
 30
220.0
 70
    64
  0
VERTEX
  5
19C
  8
TEAM-NET
 10
469.248413
 20
-49.045418
 30
220.0
 70
    64
  0
VERTEX
  5
19D
  8
TEAM-NET
 10
461.233454
 20
-27.024502
 30
220.0
 70
    64
  0
VERTEX
  5
19E
  8
TEAM-NET
 10
453.218496
 20
-5.003585
 30
220.0
 70
    64
  0
VERTEX
  5
19F
  8
TEAM-NET
 10
445.203538
 20
17.017332
 30
220.0
 70
    64
  0
VERTEX
  5
1A0
  8
TEAM-NET
 10
437.18858
 20
39.038249
 30
220.0
 70
    64
  0
VERTEX
  5
1A1
  8
TEAM-NET
 10
429.173621
 20
61.059165
 30
220.0
 70
    64
  0
VERTEX
  5
1A2
  8
TEAM-NET
 10
421.158663
 20
83.080082
 30
220.0
 70
    64
  0
VERTEX
  5
1A3
  8
TEAM-NET
 10
413.143705
 20
105.100999
 30
220.0
 70
    64
  0
VERTEX
  5
1A4
  8
TEAM-NET
 10
405.128747
 20
127.121916
 30
220.0
 70
    64
  0
VERTEX
  5
1A5
  8
TEAM-NET
 10
397.113789
 20
149.142832
 30
220.0
 70
    64
  0
VERTEX
  5
1A6
  8
TEAM-NET
 10
389.09883
 20
171.163749
 30
220.0
 70
    64
  0
VERTEX
  5
1A7
  8
TEAM-NET
 10
381.083872
 20
193.184666
 30
220.0
 70
    64
  0
VERTEX
  5
1A8
  8
TEAM-NET
 10
373.068914
 20
215.205583
 30
220.0
 70
    64
  0
VERTEX
  5
1A9
  8
TEAM-NET
 10
365.053956
 20
237.226499
 30
220.0
 70
    64
  0
VERTEX
  5
1AA
  8
TEAM-NET
 10
356.370305
 20
258.982393
 30
220.0
 70
    64
  0
VERTEX
  5
1AB
  8
TEAM-NET
 10
345.296856
 20
279.620006
 30
220.0
 70
    64
  0
VERTEX
  5
1AC
  8
TEAM-NET
 10
331.886736
 20
298.821595
 30
220.0
 70
    64
  0
VERTEX
  5
1AD
  8
TEAM-NET
 10
316.323843
 20
316.323843
 30
220.0
 70
    64
  0
SEQEND
  5
1AE
  8
TEAM-NET
  0
POLYLINE
  5
1AF
  8
TEAM-BODY
 66
     1
 10
0.0
 20
0.0
 30
220.0
  0
VERTEX
  5
756
  8
TEAM-BODY
 10
316.323843
 20
316.323843
 30
220.0
 42
-0.109518
  0
VERTEX
  5
757
  8
TEAM-BODY
 10
362.841011
 20
243.306515
 30
220.0
  0
VERTEX
  5
758
  8
TEAM-BODY
 10
493.470833
 20
-115.595971
 30
220.0
 42
-0.520567
  0
VERTEX
  5
759
  8
TEAM-BODY
 10
305.532309
 20
-384.0
 30
220.0
  0
VERTEX
  5
75A
  8
TEAM-BODY
 10
-184.0
 20
-384.0
 30
220.0
 42
-0.198912
  0
VERTEX
  5
75B
  8
TEAM-BODY
 10
-325.421356
 20
-325.421356
 30
220.0
  0
SEQEND
  5
75C
  8
TEAM-BODY
  0
POLYLINE
  5
1B1
  8
TEAM-BODY
 66
     1
 10
0.0
 20
0.0
 30
220.0
  0
VERTEX
  5
75D
  8
TEAM-BODY
 10
-325.421356
 20
-325.421356
 30
220.0
 42
-0.198912
  0
VERTEX
  5
75E
  8
TEAM-BODY
 10
-384.0
 20
-184.0
 30
220.0
  0
VERTEX
  5
75F
  8
TEAM-BODY
 10
-384.0
 20
305.532309
 30
220.0
 42
-0.520567
  0
VERTEX
  5
760
  8
TEAM-BODY
 10
-115.595971
 20
493.470833
 30
220.0
  0
VERTEX
  5
761
  8
TEAM-BODY
 10
243.306515
 20
362.841011
 30
220.0
 42
-0.109518
  0
VERTEX
  5
762
  8
TEAM-BODY
 10
316.323843
 20
316.323843
 30
220.0
  0
SEQEND
  5
763
  8
TEAM-BODY
  0
POLYLINE
  5
1B2
  8
TEAM-NET
 66
     1
 10
0.0
 20
0.0
 30
0.0
 70
    16
 71
     2
 72
    25
  0
VERTEX
  5
1B3
  8
TEAM-NET
 10
117.033009
 20
117.033009
 30
220.0
 70
    64
  0
VERTEX
  5
1B4
  8
TEAM-NET
 10
108.194174
 20
125.871843
 30
220.0
 70
    64
  0
VERTEX
  5
1B5
  8
TEAM-NET
 10
99.355339
 20
134.710678
 30
220.0
 70
    64
  0
VERTEX
  5
1B6
  8
TEAM-NET
 10
90.516504
 20
143.549513
 30
220.0
 70
    64
  0
VERTEX
  5
1B7
  8
TEAM-NET
 10
81.67767
 20
152.388348
 30
220.0
 70
    64
  0
VERTEX
  5
1B8
  8
TEAM-NET
 10
72.838835
 20
161.227182
 30
220.0
 70
    64
  0
VERTEX
  5
1B9
  8
TEAM-NET
 10
64.0
 20
170.066017
 30
220.0
 70
    64
  0
VERTEX
  5
1BA
  8
TEAM-NET
 10
55.161165
 20
161.227182
 30
220.0
 70
    64
  0
VERTEX
  5
1BB
  8
TEAM-NET
 10
46.32233
 20
152.388348
 30
220.0
 70
    64
  0
VERTEX
  5
1BC
  8
TEAM-NET
 10
37.483496
 20
143.549513
 30
220.0
 70
    64
  0
VERTEX
  5
1BD
  8
TEAM-NET
 10
28.644661
 20
134.710678
 30
220.0
 70
    64
  0
VERTEX
  5
1BE
  8
TEAM-NET
 10
19.805826
 20
125.871843
 30
220.0
 70
    64
  0
VERTEX
  5
1BF
  8
TEAM-NET
 10
10.966991
 20
117.033009
 30
220.0
 70
    64
  0
VERTEX
  5
1C0
  8
TEAM-NET
 10
2.128157
 20
108.194174
 30
220.0
 70
    64
  0
VERTEX
  5
1C1
  8
TEAM-NET
 10
-6.710678
 20
99.355339
 30
220.0
 70
    64
  0
VERTEX
  5
1C2
  8
TEAM-NET
 10
-15.549513
 20
90.516504
 30
220.0
 70
    64
  0
VERTEX
  5
1C3
  8
TEAM-NET
 10
-24.388348
 20
81.67767
 30
220.0
 70
    64
  0
VERTEX
  5
1C4
  8
TEAM-NET
 10
-33.227182
 20
72.838835
 30
220.0
 70
    64
  0
VERTEX
  5
1C5
  8
TEAM-NET
 10
-42.066017
 20
64.0
 30
220.0
 70
    64
  0
VERTEX
  5
1C6
  8
TEAM-NET
 10
-33.227182
 20
55.161165
 30
220.0
 70
    64
  0
VERTEX
  5
1C7
  8
TEAM-NET
 10
-24.388348
 20
46.32233
 30
220.0
 70
    64
  0
VERTEX
  5
1C8
  8
TEAM-NET
 10
-15.549513
 20
37.483496
 30
220.0
 70
    64
  0
VERTEX
  5
1C9
  8
TEAM-NET
 10
-6.710678
 20
28.644661
 30
220.0
 70
    64
  0
VERTEX
  5
1CA
  8
TEAM-NET
 10
2.128157
 20
19.805826
 30
220.0
 70
    64
  0
VERTEX
  5
1CB
  8
TEAM-NET
 10
10.966991
 20
10.966991
 30
220.0
 70
    64
  0
VERTEX
  5
1CC
  8
TEAM-NET
 10
117.033009
 20
117.033009
 30
220.0
 70
    64
  0
VERTEX
  5
1CD
  8
TEAM-NET
 10
125.871843
 20
108.194174
 30
220.0
 70
    64
  0
VERTEX
  5
1CE
  8
TEAM-NET
 10
134.710678
 20
99.355339
 30
220.0
 70
    64
  0
VERTEX
  5
1CF
  8
TEAM-NET
 10
143.549513
 20
90.516504
 30
220.0
 70
    64
  0
VERTEX
  5
1D0
  8
TEAM-NET
 10
152.388348
 20
81.67767
 30
220.0
 70
    64
  0
VERTEX
  5
1D1
  8
TEAM-NET
 10
161.227182
 20
72.838835
 30
220.0
 70
    64
  0
VERTEX
  5
1D2
  8
TEAM-NET
 10
170.066017
 20
64.0
 30
220.0
 70
    64
  0
VERTEX
  5
1D3
  8
TEAM-NET
 10
161.227182
 20
55.161165
 30
220.0
 70
    64
  0
VERTEX
  5
1D4
  8
TEAM-NET
 10
152.388348
 20
46.32233
 30
220.0
 70
    64
  0
VERTEX
  5
1D5
  8
TEAM-NET
 10
143.549513
 20
37.483496
 30
220.0
 70
    64
  0
VERTEX
  5
1D6
  8
TEAM-NET
 10
134.710678
 20
28.644661
 30
220.0
 70
    64
  0
VERTEX
  5
1D7
  8
TEAM-NET
 10
125.871843
 20
19.805826
 30
220.0
 70
    64
  0
VERTEX
  5
1D8
  8
TEAM-NET
 10
117.033009
 20
10.966991
 30
220.0
 70
    64
  0
VERTEX
  5
1D9
  8
TEAM-NET
 10
108.194174
 20
2.128157
 30
220.0
 70
    64
  0
VERTEX
  5
1DA
  8
TEAM-NET
 10
99.355339
 20
-6.710678
 30
220.0
 70
    64
  0
VERTEX
  5
1DB
  8
TEAM-NET
 10
90.516504
 20
-15.549513
 30
220.0
 70
    64
  0
VERTEX
  5
1DC
  8
TEAM-NET
 10
81.67767
 20
-24.388348
 30
220.0
 70
    64
  0
VERTEX
  5
1DD
  8
TEAM-NET
 10
72.838835
 20
-33.227182
 30
220.0
 70
    64
  0
VERTEX
  5
1DE
  8
TEAM-NET
 10
64.0
 20
-42.066017
 30
220.0
 70
    64
  0
VERTEX
  5
1DF
  8
TEAM-NET
 10
55.161165
 20
-33.227182
 30
220.0
 70
    64
  0
VERTEX
  5
1E0
  8
TEAM-NET
 10
46.32233
 20
-24.388348
 30
220.0
 70
    64
  0
VERTEX
  5
1E1
  8
TEAM-NET
 10
37.483496
 20
-15.549513
 30
220.0
 70
    64
  0
VERTEX
  5
1E2
  8
TEAM-NET
 10
28.644661
 20
-6.710678
 30
220.0
 70
    64
  0
VERTEX
  5
1E3
  8
TEAM-NET
 10
19.805826
 20
2.128157
 30
220.0
 70
    64
  0
VERTEX
  5
1E4
  8
TEAM-NET
 10
10.966991
 20
10.966991
 30
220.0
 70
    64
  0
SEQEND
  5
1E5
  8
TEAM-NET
  0
POLYLINE
  5
1E6
  8
TEAM-BODY
 66
     1
 10
0.0
 20
0.0
 30
220.0
  0
VERTEX
  5
764
  8
TEAM-BODY
 10
10.966991
 20
10.966991
 30
220.0
  0
VERTEX
  5
765
  8
TEAM-BODY
 10
64.0
 20
-42.066017
 30
220.0
  0
VERTEX
  5
766
  8
TEAM-BODY
 10
170.066017
 20
64.0
 30
220.0
  0
VERTEX
  5
767
  8
TEAM-BODY
 10
117.033009
 20
117.033009
 30
220.0
  0
SEQEND
  5
768
  8
TEAM-BODY
  0
POLYLINE
  5
1E7
  8
TEAM-BODY
 66
     1
 10
0.0
 20
0.0
 30
220.0
  0
VERTEX
  5
769
  8
TEAM-BODY
 10
10.966991
 20
10.966991
 30
220.0
  0
VERTEX
  5
76A
  8
TEAM-BODY
 10
-42.066017
 20
64.0
 30
220.0
  0
VERTEX
  5
76B
  8
TEAM-BODY
 10
64.0
 20
170.066017
 30
220.0
  0
VERTEX
  5
76C
  8
TEAM-BODY
 10
117.033009
 20
117.033009
 30
220.0
  0
SEQEND
  5
76D
  8
TEAM-BODY
  0
POLYLINE
  5
1E8
  8
TEAM-BODY
 66
     1
 10
0.0
 20
0.0
 30
700.0
 39
-50.0
  0
VERTEX
  5
76E
  8
TEAM-BODY
 10
-874.0
 20
-874.0
 30
700.0
  0
VERTEX
  5
76F
  8
TEAM-BODY
 10
766.0
 20
-874.0
 30
700.0
  0
VERTEX
  5
770
  8
TEAM-BODY
 10
766.0
 20
-654.896675
 30
700.0
 42
0.2607
  0
VERTEX
  5
771
  8
TEAM-BODY
 10
844.255634
 20
-172.989928
 30
700.0
  0
VERTEX
  5
772
  8
TEAM-BODY
 10
635.00733
 20
401.915064
 30
700.0
 42
0.109518
  0
VERTEX
  5
773
  8
TEAM-BODY
 10
544.298852
 20
544.298852
 30
700.0
  0
SEQEND
  5
774
  8
TEAM-BODY
  0
POLYLINE
  5
1E9
  8
TEAM-BODY
 66
     1
 10
0.0
 20
0.0
 30
700.0
 39
-50.0
  0
VERTEX
  5
775
  8
TEAM-BODY
 10
544.298852
 20
544.298852
 30
700.0
 42
0.109518
  0
VERTEX
  5
776
  8
TEAM-BODY
 10
401.915064
 20
635.00733
 30
700.0
  0
VERTEX
  5
777
  8
TEAM-BODY
 10
-172.989928
 20
844.255634
 30
700.0
 42
0.2607
  0
VERTEX
  5
778
  8
TEAM-BODY
 10
-654.896675
 20
766.0
 30
700.0
  0
VERTEX
  5
779
  8
TEAM-BODY
 10
-874.0
 20
766.0
 30
700.0
  0
VERTEX
  5
77A
  8
TEAM-BODY
 10
-874.0
 20
-874.0
 30
700.0
  0
SEQEND
  5
77B
  8
TEAM-BODY
  0
POLYLINE
  5
1EA
  8
TEAM-BODY
 66
     1
 10
0.0
 20
0.0
 30
700.0
  0
VERTEX
  5
77C
  8
TEAM-BODY
 10
522.354657
 20
522.354657
 30
700.0
 42
0.109518
  0
VERTEX
  5
77D
  8
TEAM-BODY
 10
387.272601
 20
608.411417
 30
700.0
  0
VERTEX
  5
77E
  8
TEAM-BODY
 10
-183.250533
 20
816.064856
 30
700.0
 42
0.520567
  0
VERTEX
  5
77F
  8
TEAM-BODY
 10
-814.0
 20
374.409324
 30
700.0
  0
VERTEX
  5
780
  8
TEAM-BODY
 10
-814.0
 20
-444.0
 30
700.0
 42
0.198912
  0
VERTEX
  5
781
  8
TEAM-BODY
 10
-705.629509
 20
-705.629509
 30
700.0
  0
SEQEND
  5
782
  8
TEAM-BODY
  0
POLYLINE
  5
1EB
  8
TEAM-BODY
 66
     1
 10
0.0
 20
0.0
 30
700.0
  0
VERTEX
  5
783
  8
TEAM-BODY
 10
-726.842712
 20
-726.842712
 30
700.0
 42
-0.198912
  0
VERTEX
  5
784
  8
TEAM-BODY
 10
-844.0
 20
-444.0
 30
700.0
  0
VERTEX
  5
785
  8
TEAM-BODY
 10
-844.0
 20
374.409324
 30
700.0
 42
-0.514448
  0
VERTEX
  5
786
  8
TEAM-BODY
 10
-174.700029
 20
839.557171
 30
700.0
  0
VERTEX
  5
787
  8
TEAM-BODY
 10
400.204963
 20
630.308867
 30
700.0
 42
-0.109518
  0
VERTEX
  5
788
  8
TEAM-BODY
 10
540.763318
 20
540.763318
 30
700.0
  0
SEQEND
  5
789
  8
TEAM-BODY
  0
POLYLINE
  5
1EC
  8
TEAM-NET
 66
     1
 10
0.0
 20
0.0
 30
0.0
 70
    16
 71
     2
 72
    65
  0
VERTEX
  5
1ED
  8
TEAM-NET
 10
-726.842712
 20
-726.842712
 30
700.0
 70
    64
  0
VERTEX
  5
1EE
  8
TEAM-NET
 10
-756.655187
 20
-693.492954
 30
700.0
 70
    64
  0
VERTEX
  5
1EF
  8
TEAM-NET
 10
-782.557537
 20
-657.02299
 30
700.0
 70
    64
  0
VERTEX
  5
1F0
  8
TEAM-NET
 10
-804.225823
 20
-617.888921
 30
700.0
 70
    64
  0
VERTEX
  5
1F1
  8
TEAM-NET
 10
-821.389057
 20
-576.580164
 30
700.0
 70
    64
  0
VERTEX
  5
1F2
  8
TEAM-NET
 10
-833.832593
 20
-533.613335
 30
700.0
 70
    64
  0
VERTEX
  5
1F3
  8
TEAM-NET
 10
-841.400809
 20
-489.525784
 30
700.0
 70
    64
  0
VERTEX
  5
1F4
  8
TEAM-NET
 10
-843.999056
 20
-444.86888
 30
700.0
 70
    64
  0
VERTEX
  5
1F5
  8
TEAM-NET
 10
-844.0
 20
-400.113111
 30
700.0
 70
    64
  0
VERTEX
  5
1F6
  8
TEAM-NET
 10
-844.0
 20
-355.357342
 30
700.0
 70
    64
  0
VERTEX
  5
1F7
  8
TEAM-NET
 10
-844.0
 20
-310.601573
 30
700.0
 70
    64
  0
VERTEX
  5
1F8
  8
TEAM-NET
 10
-844.0
 20
-265.845803
 30
700.0
 70
    64
  0
VERTEX
  5
1F9
  8
TEAM-NET
 10
-844.0
 20
-221.090034
 30
700.0
 70
    64
  0
VERTEX
  5
1FA
  8
TEAM-NET
 10
-844.0
 20
-176.334265
 30
700.0
 70
    64
  0
VERTEX
  5
1FB
  8
TEAM-NET
 10
-844.0
 20
-131.578496
 30
700.0
 70
    64
  0
VERTEX
  5
1FC
  8
TEAM-NET
 10
-844.0
 20
-86.822726
 30
700.0
 70
    64
  0
VERTEX
  5
1FD
  8
TEAM-NET
 10
-844.0
 20
-42.066957
 30
700.0
 70
    64
  0
VERTEX
  5
1FE
  8
TEAM-NET
 10
-844.0
 20
2.688812
 30
700.0
 70
    64
  0
VERTEX
  5
1FF
  8
TEAM-NET
 10
-844.0
 20
47.444581
 30
700.0
 70
    64
  0
VERTEX
  5
200
  8
TEAM-NET
 10
-844.0
 20
92.200351
 30
700.0
 70
    64
  0
VERTEX
  5
201
  8
TEAM-NET
 10
-844.0
 20
136.95612
 30
700.0
 70
    64
  0
VERTEX
  5
202
  8
TEAM-NET
 10
-844.0
 20
181.711889
 30
700.0
 70
    64
  0
VERTEX
  5
203
  8
TEAM-NET
 10
-844.0
 20
226.467658
 30
700.0
 70
    64
  0
VERTEX
  5
204
  8
TEAM-NET
 10
-844.0
 20
271.223428
 30
700.0
 70
    64
  0
VERTEX
  5
205
  8
TEAM-NET
 10
-844.0
 20
315.979197
 30
700.0
 70
    64
  0
VERTEX
  5
206
  8
TEAM-NET
 10
-844.0
 20
360.734966
 30
700.0
 70
    64
  0
VERTEX
  5
207
  8
TEAM-NET
 10
-842.626984
 20
405.455404
 30
700.0
 70
    64
  0
VERTEX
  5
208
  8
TEAM-NET
 10
-837.275599
 20
449.875099
 30
700.0
 70
    64
  0
VERTEX
  5
209
  8
TEAM-NET
 10
-827.982004
 20
493.640105
 30
700.0
 70
    64
  0
VERTEX
  5
20A
  8
TEAM-NET
 10
-814.820341
 20
536.401271
 30
700.0
 70
    64
  0
VERTEX
  5
20B
  8
TEAM-NET
 10
-797.895611
 20
577.817453
 30
700.0
 70
    64
  0
VERTEX
  5
20C
  8
TEAM-NET
 10
-777.342839
 20
617.558241
 30
700.0
 70
    64
  0
VERTEX
  5
20D
  8
TEAM-NET
 10
-753.32599
 20
655.306587
 30
700.0
 70
    64
  0
VERTEX
  5
20E
  8
TEAM-NET
 10
-726.036668
 20
690.761341
 30
700.0
 70
    64
  0
VERTEX
  5
20F
  8
TEAM-NET
 10
-695.692583
 20
723.63965
 30
700.0
 70
    64
  0
VERTEX
  5
210
  8
TEAM-NET
 10
-662.535816
 20
753.679215
 30
700.0
 70
    64
  0
VERTEX
  5
211
  8
TEAM-NET
 10
-626.830887
 20
780.640385
 30
700.0
 70
    64
  0
VERTEX
  5
212
  8
TEAM-NET
 10
-588.862645
 20
804.308068
 30
700.0
 70
    64
  0
VERTEX
  5
213
  8
TEAM-NET
 10
-548.933994
 20
824.493446
 30
700.0
 70
    64
  0
VERTEX
  5
214
  8
TEAM-NET
 10
-507.36348
 20
841.035484
 30
700.0
 70
    64
  0
VERTEX
  5
215
  8
TEAM-NET
 10
-464.482746
 20
853.802211
 30
700.0
 70
    64
  0
VERTEX
  5
216
  8
TEAM-NET
 10
-420.633888
 20
862.691776
 30
700.0
 70
    64
  0
VERTEX
  5
217
  8
TEAM-NET
 10
-376.166727
 20
867.63326
 30
700.0
 70
    64
  0
VERTEX
  5
218
  8
TEAM-NET
 10
-331.436016
 20
868.58724
 30
700.0
 70
    64
  0
VERTEX
  5
219
  8
TEAM-NET
 10
-286.798608
 20
865.546106
 30
700.0
 70
    64
  0
VERTEX
  5
21A
  8
TEAM-NET
 10
-242.610615
 20
858.534119
 30
700.0
 70
    64
  0
VERTEX
  5
21B
  8
TEAM-NET
 10
-199.224563
 20
847.607219
 30
700.0
 70
    64
  0
VERTEX
  5
21C
  8
TEAM-NET
 10
-156.901333
 20
833.078976
 30
700.0
 70
    64
  0
VERTEX
  5
21D
  8
TEAM-NET
 10
-114.844667
 20
817.771601
 30
700.0
 70
    64
  0
VERTEX
  5
21E
  8
TEAM-NET
 10
-72.788001
 20
802.464226
 30
700.0
 70
    64
  0
VERTEX
  5
21F
  8
TEAM-NET
 10
-30.731335
 20
787.156852
 30
700.0
 70
    64
  0
VERTEX
  5
220
  8
TEAM-NET
 10
11.325331
 20
771.849477
 30
700.0
 70
    64
  0
VERTEX
  5
221
  8
TEAM-NET
 10
53.381998
 20
756.542103
 30
700.0
 70
    64
  0
VERTEX
  5
222
  8
TEAM-NET
 10
95.438664
 20
741.234728
 30
700.0
 70
    64
  0
VERTEX
  5
223
  8
TEAM-NET
 10
137.49533
 20
725.927353
 30
700.0
 70
    64
  0
VERTEX
  5
224
  8
TEAM-NET
 10
179.551996
 20
710.619979
 30
700.0
 70
    64
  0
VERTEX
  5
225
  8
TEAM-NET
 10
221.608662
 20
695.312604
 30
700.0
 70
    64
  0
VERTEX
  5
226
  8
TEAM-NET
 10
263.665328
 20
680.00523
 30
700.0
 70
    64
  0
VERTEX
  5
227
  8
TEAM-NET
 10
305.721994
 20
664.697855
 30
700.0
 70
    64
  0
VERTEX
  5
228
  8
TEAM-NET
 10
347.77866
 20
649.39048
 30
700.0
 70
    64
  0
VERTEX
  5
229
  8
TEAM-NET
 10
389.835326
 20
634.083106
 30
700.0
 70
    64
  0
VERTEX
  5
22A
  8
TEAM-NET
 10
431.346746
 20
617.403687
 30
700.0
 70
    64
  0
VERTEX
  5
22B
  8
TEAM-NET
 10
470.713003
 20
596.164055
 30
700.0
 70
    64
  0
VERTEX
  5
22C
  8
TEAM-NET
 10
507.350043
 20
570.501798
 30
700.0
 70
    64
  0
VERTEX
  5
22D
  8
TEAM-NET
 10
540.763318
 20
540.763318
 30
700.0
 70
    64
  0
VERTEX
  5
22E
  8
TEAM-NET
 10
-874.0
 20
-874.0
 30
700.0
 70
    64
  0
VERTEX
  5
22F
  8
TEAM-NET
 10
-874.0
 20
-824.763716
 30
700.0
 70
    64
  0
VERTEX
  5
230
  8
TEAM-NET
 10
-874.0
 20
-775.527431
 30
700.0
 70
    64
  0
VERTEX
  5
231
  8
TEAM-NET
 10
-874.0
 20
-726.291147
 30
700.0
 70
    64
  0
VERTEX
  5
232
  8
TEAM-NET
 10
-874.0
 20
-677.054863
 30
700.0
 70
    64
  0
VERTEX
  5
233
  8
TEAM-NET
 10
-874.0
 20
-627.818579
 30
700.0
 70
    64
  0
VERTEX
  5
234
  8
TEAM-NET
 10
-874.0
 20
-578.582294
 30
700.0
 70
    64
  0
VERTEX
  5
235
  8
TEAM-NET
 10
-874.0
 20
-529.34601
 30
700.0
 70
    64
  0
VERTEX
  5
236
  8
TEAM-NET
 10
-874.0
 20
-480.109726
 30
700.0
 70
    64
  0
VERTEX
  5
237
  8
TEAM-NET
 10
-874.0
 20
-430.873442
 30
700.0
 70
    64
  0
VERTEX
  5
238
  8
TEAM-NET
 10
-874.0
 20
-381.637157
 30
700.0
 70
    64
  0
VERTEX
  5
239
  8
TEAM-NET
 10
-874.0
 20
-332.400873
 30
700.0
 70
    64
  0
VERTEX
  5
23A
  8
TEAM-NET
 10
-874.0
 20
-283.164589
 30
700.0
 70
    64
  0
VERTEX
  5
23B
  8
TEAM-NET
 10
-874.0
 20
-233.928304
 30
700.0
 70
    64
  0
VERTEX
  5
23C
  8
TEAM-NET
 10
-874.0
 20
-184.69202
 30
700.0
 70
    64
  0
VERTEX
  5
23D
  8
TEAM-NET
 10
-874.0
 20
-135.455736
 30
700.0
 70
    64
  0
VERTEX
  5
23E
  8
TEAM-NET
 10
-874.0
 20
-86.219452
 30
700.0
 70
    64
  0
VERTEX
  5
23F
  8
TEAM-NET
 10
-874.0
 20
-36.983167
 30
700.0
 70
    64
  0
VERTEX
  5
240
  8
TEAM-NET
 10
-874.0
 20
12.253117
 30
700.0
 70
    64
  0
VERTEX
  5
241
  8
TEAM-NET
 10
-874.0
 20
61.489401
 30
700.0
 70
    64
  0
VERTEX
  5
242
  8
TEAM-NET
 10
-874.0
 20
110.725685
 30
700.0
 70
    64
  0
VERTEX
  5
243
  8
TEAM-NET
 10
-874.0
 20
159.96197
 30
700.0
 70
    64
  0
VERTEX
  5
244
  8
TEAM-NET
 10
-874.0
 20
209.198254
 30
700.0
 70
    64
  0
VERTEX
  5
245
  8
TEAM-NET
 10
-874.0
 20
258.434538
 30
700.0
 70
    64
  0
VERTEX
  5
246
  8
TEAM-NET
 10
-874.0
 20
307.670822
 30
700.0
 70
    64
  0
VERTEX
  5
247
  8
TEAM-NET
 10
-874.0
 20
356.907107
 30
700.0
 70
    64
  0
VERTEX
  5
248
  8
TEAM-NET
 10
-874.0
 20
406.143391
 30
700.0
 70
    64
  0
VERTEX
  5
249
  8
TEAM-NET
 10
-874.0
 20
455.379675
 30
700.0
 70
    64
  0
VERTEX
  5
24A
  8
TEAM-NET
 10
-874.0
 20
504.61596
 30
700.0
 70
    64
  0
VERTEX
  5
24B
  8
TEAM-NET
 10
-874.0
 20
553.852244
 30
700.0
 70
    64
  0
VERTEX
  5
24C
  8
TEAM-NET
 10
-874.0
 20
603.088528
 30
700.0
 70
    64
  0
VERTEX
  5
24D
  8
TEAM-NET
 10
-874.0
 20
652.324812
 30
700.0
 70
    64
  0
VERTEX
  5
24E
  8
TEAM-NET
 10
-874.0
 20
701.561097
 30
700.0
 70
    64
  0
VERTEX
  5
24F
  8
TEAM-NET
 10
-874.0
 20
750.797381
 30
700.0
 70
    64
  0
VERTEX
  5
250
  8
TEAM-NET
 10
-839.966335
 20
766.0
 30
700.0
 70
    64
  0
VERTEX
  5
251
  8
TEAM-NET
 10
-790.730051
 20
766.0
 30
700.0
 70
    64
  0
VERTEX
  5
252
  8
TEAM-NET
 10
-741.493766
 20
766.0
 30
700.0
 70
    64
  0
VERTEX
  5
253
  8
TEAM-NET
 10
-692.257482
 20
766.0
 30
700.0
 70
    64
  0
VERTEX
  5
254
  8
TEAM-NET
 10
-645.509212
 20
773.272954
 30
700.0
 70
    64
  0
VERTEX
  5
255
  8
TEAM-NET
 10
-604.834869
 20
800.983082
 30
700.0
 70
    64
  0
VERTEX
  5
256
  8
TEAM-NET
 10
-561.633293
 20
824.560132
 30
700.0
 70
    64
  0
VERTEX
  5
257
  8
TEAM-NET
 10
-516.323066
 20
843.775664
 30
700.0
 70
    64
  0
VERTEX
  5
258
  8
TEAM-NET
 10
-469.343198
 20
858.443499
 30
700.0
 70
    64
  0
VERTEX
  5
259
  8
TEAM-NET
 10
-421.148878
 20
868.421521
 30
700.0
 70
    64
  0
VERTEX
  5
25A
  8
TEAM-NET
 10
-372.207061
 20
873.613052
 30
700.0
 70
    64
  0
VERTEX
  5
25B
  8
TEAM-NET
 10
-322.991946
 20
873.967791
 30
700.0
 70
    64
  0
VERTEX
  5
25C
  8
TEAM-NET
 10
-273.980379
 20
869.482301
 30
700.0
 70
    64
  0
VERTEX
  5
25D
  8
TEAM-NET
 10
-225.647232
 20
860.200043
 30
700.0
 70
    64
  0
VERTEX
  5
25E
  8
TEAM-NET
 10
-178.460807
 20
846.210951
 30
700.0
 70
    64
  0
VERTEX
  5
25F
  8
TEAM-NET
 10
-132.182412
 20
829.402913
 30
700.0
 70
    64
  0
VERTEX
  5
260
  8
TEAM-NET
 10
-85.915439
 20
812.563112
 30
700.0
 70
    64
  0
VERTEX
  5
261
  8
TEAM-NET
 10
-39.648466
 20
795.723311
 30
700.0
 70
    64
  0
VERTEX
  5
262
  8
TEAM-NET
 10
6.618507
 20
778.88351
 30
700.0
 70
    64
  0
VERTEX
  5
263
  8
TEAM-NET
 10
52.88548
 20
762.043709
 30
700.0
 70
    64
  0
VERTEX
  5
264
  8
TEAM-NET
 10
99.152453
 20
745.203908
 30
700.0
 70
    64
  0
VERTEX
  5
265
  8
TEAM-NET
 10
145.419426
 20
728.364107
 30
700.0
 70
    64
  0
VERTEX
  5
266
  8
TEAM-NET
 10
191.686399
 20
711.524306
 30
700.0
 70
    64
  0
VERTEX
  5
267
  8
TEAM-NET
 10
237.953372
 20
694.684505
 30
700.0
 70
    64
  0
VERTEX
  5
268
  8
TEAM-NET
 10
284.220345
 20
677.844704
 30
700.0
 70
    64
  0
VERTEX
  5
269
  8
TEAM-NET
 10
330.487318
 20
661.004903
 30
700.0
 70
    64
  0
VERTEX
  5
26A
  8
TEAM-NET
 10
376.754291
 20
644.165102
 30
700.0
 70
    64
  0
VERTEX
  5
26B
  8
TEAM-NET
 10
422.788449
 20
626.721944
 30
700.0
 70
    64
  0
VERTEX
  5
26C
  8
TEAM-NET
 10
466.661692
 20
604.447921
 30
700.0
 70
    64
  0
VERTEX
  5
26D
  8
TEAM-NET
 10
507.381206
 20
576.827009
 30
700.0
 70
    64
  0
VERTEX
  5
26E
  8
TEAM-NET
 10
544.298852
 20
544.298852
 30
700.0
 70
    64
  0
SEQEND
  5
26F
  8
TEAM-NET
  0
POLYLINE
  5
270
  8
TEAM-NET
 66
     1
 10
0.0
 20
0.0
 30
0.0
 70
    16
 71
     2
 72
    65
  0
VERTEX
  5
271
  8
TEAM-NET
 10
-726.842712
 20
-726.842712
 30
700.0
 70
    64
  0
VERTEX
  5
272
  8
TEAM-NET
 10
-693.492954
 20
-756.655187
 30
700.0
 70
    64
  0
VERTEX
  5
273
  8
TEAM-NET
 10
-657.02299
 20
-782.557537
 30
700.0
 70
    64
  0
VERTEX
  5
274
  8
TEAM-NET
 10
-617.888921
 20
-804.225823
 30
700.0
 70
    64
  0
VERTEX
  5
275
  8
TEAM-NET
 10
-576.580164
 20
-821.389057
 30
700.0
 70
    64
  0
VERTEX
  5
276
  8
TEAM-NET
 10
-533.613335
 20
-833.832593
 30
700.0
 70
    64
  0
VERTEX
  5
277
  8
TEAM-NET
 10
-489.525784
 20
-841.400809
 30
700.0
 70
    64
  0
VERTEX
  5
278
  8
TEAM-NET
 10
-444.86888
 20
-843.999056
 30
700.0
 70
    64
  0
VERTEX
  5
279
  8
TEAM-NET
 10
-400.113111
 20
-844.0
 30
700.0
 70
    64
  0
VERTEX
  5
27A
  8
TEAM-NET
 10
-355.357342
 20
-844.0
 30
700.0
 70
    64
  0
VERTEX
  5
27B
  8
TEAM-NET
 10
-310.601573
 20
-844.0
 30
700.0
 70
    64
  0
VERTEX
  5
27C
  8
TEAM-NET
 10
-265.845803
 20
-844.0
 30
700.0
 70
    64
  0
VERTEX
  5
27D
  8
TEAM-NET
 10
-221.090034
 20
-844.0
 30
700.0
 70
    64
  0
VERTEX
  5
27E
  8
TEAM-NET
 10
-176.334265
 20
-844.0
 30
700.0
 70
    64
  0
VERTEX
  5
27F
  8
TEAM-NET
 10
-131.578496
 20
-844.0
 30
700.0
 70
    64
  0
VERTEX
  5
280
  8
TEAM-NET
 10
-86.822726
 20
-844.0
 30
700.0
 70
    64
  0
VERTEX
  5
281
  8
TEAM-NET
 10
-42.066957
 20
-844.0
 30
700.0
 70
    64
  0
VERTEX
  5
282
  8
TEAM-NET
 10
2.688812
 20
-844.0
 30
700.0
 70
    64
  0
VERTEX
  5
283
  8
TEAM-NET
 10
47.444581
 20
-844.0
 30
700.0
 70
    64
  0
VERTEX
  5
284
  8
TEAM-NET
 10
92.200351
 20
-844.0
 30
700.0
 70
    64
  0
VERTEX
  5
285
  8
TEAM-NET
 10
136.95612
 20
-844.0
 30
700.0
 70
    64
  0
VERTEX
  5
286
  8
TEAM-NET
 10
181.711889
 20
-844.0
 30
700.0
 70
    64
  0
VERTEX
  5
287
  8
TEAM-NET
 10
226.467658
 20
-844.0
 30
700.0
 70
    64
  0
VERTEX
  5
288
  8
TEAM-NET
 10
271.223428
 20
-844.0
 30
700.0
 70
    64
  0
VERTEX
  5
289
  8
TEAM-NET
 10
315.979197
 20
-844.0
 30
700.0
 70
    64
  0
VERTEX
  5
28A
  8
TEAM-NET
 10
360.734966
 20
-844.0
 30
700.0
 70
    64
  0
VERTEX
  5
28B
  8
TEAM-NET
 10
405.455404
 20
-842.626984
 30
700.0
 70
    64
  0
VERTEX
  5
28C
  8
TEAM-NET
 10
449.875099
 20
-837.275599
 30
700.0
 70
    64
  0
VERTEX
  5
28D
  8
TEAM-NET
 10
493.640105
 20
-827.982004
 30
700.0
 70
    64
  0
VERTEX
  5
28E
  8
TEAM-NET
 10
536.401271
 20
-814.820341
 30
700.0
 70
    64
  0
VERTEX
  5
28F
  8
TEAM-NET
 10
577.817453
 20
-797.895611
 30
700.0
 70
    64
  0
VERTEX
  5
290
  8
TEAM-NET
 10
617.558241
 20
-777.342839
 30
700.0
 70
    64
  0
VERTEX
  5
291
  8
TEAM-NET
 10
655.306587
 20
-753.32599
 30
700.0
 70
    64
  0
VERTEX
  5
292
  8
TEAM-NET
 10
690.761341
 20
-726.036668
 30
700.0
 70
    64
  0
VERTEX
  5
293
  8
TEAM-NET
 10
723.63965
 20
-695.692583
 30
700.0
 70
    64
  0
VERTEX
  5
294
  8
TEAM-NET
 10
753.679215
 20
-662.535816
 30
700.0
 70
    64
  0
VERTEX
  5
295
  8
TEAM-NET
 10
780.640385
 20
-626.830887
 30
700.0
 70
    64
  0
VERTEX
  5
296
  8
TEAM-NET
 10
804.308068
 20
-588.862645
 30
700.0
 70
    64
  0
VERTEX
  5
297
  8
TEAM-NET
 10
824.493446
 20
-548.933994
 30
700.0
 70
    64
  0
VERTEX
  5
298
  8
TEAM-NET
 10
841.035484
 20
-507.36348
 30
700.0
 70
    64
  0
VERTEX
  5
299
  8
TEAM-NET
 10
853.802211
 20
-464.482746
 30
700.0
 70
    64
  0
VERTEX
  5
29A
  8
TEAM-NET
 10
862.691776
 20
-420.633888
 30
700.0
 70
    64
  0
VERTEX
  5
29B
  8
TEAM-NET
 10
867.63326
 20
-376.166727
 30
700.0
 70
    64
  0
VERTEX
  5
29C
  8
TEAM-NET
 10
868.58724
 20
-331.436016
 30
700.0
 70
    64
  0
VERTEX
  5
29D
  8
TEAM-NET
 10
865.546106
 20
-286.798608
 30
700.0
 70
    64
  0
VERTEX
  5
29E
  8
TEAM-NET
 10
858.534119
 20
-242.610615
 30
700.0
 70
    64
  0
VERTEX
  5
29F
  8
TEAM-NET
 10
847.607219
 20
-199.224563
 30
700.0
 70
    64
  0
VERTEX
  5
2A0
  8
TEAM-NET
 10
833.078976
 20
-156.901333
 30
700.0
 70
    64
  0
VERTEX
  5
2A1
  8
TEAM-NET
 10
817.771601
 20
-114.844667
 30
700.0
 70
    64
  0
VERTEX
  5
2A2
  8
TEAM-NET
 10
802.464226
 20
-72.788001
 30
700.0
 70
    64
  0
VERTEX
  5
2A3
  8
TEAM-NET
 10
787.156852
 20
-30.731335
 30
700.0
 70
    64
  0
VERTEX
  5
2A4
  8
TEAM-NET
 10
771.849477
 20
11.325331
 30
700.0
 70
    64
  0
VERTEX
  5
2A5
  8
TEAM-NET
 10
756.542103
 20
53.381998
 30
700.0
 70
    64
  0
VERTEX
  5
2A6
  8
TEAM-NET
 10
741.234728
 20
95.438664
 30
700.0
 70
    64
  0
VERTEX
  5
2A7
  8
TEAM-NET
 10
725.927353
 20
137.49533
 30
700.0
 70
    64
  0
VERTEX
  5
2A8
  8
TEAM-NET
 10
710.619979
 20
179.551996
 30
700.0
 70
    64
  0
VERTEX
  5
2A9
  8
TEAM-NET
 10
695.312604
 20
221.608662
 30
700.0
 70
    64
  0
VERTEX
  5
2AA
  8
TEAM-NET
 10
680.00523
 20
263.665328
 30
700.0
 70
    64
  0
VERTEX
  5
2AB
  8
TEAM-NET
 10
664.697855
 20
305.721994
 30
700.0
 70
    64
  0
VERTEX
  5
2AC
  8
TEAM-NET
 10
649.39048
 20
347.77866
 30
700.0
 70
    64
  0
VERTEX
  5
2AD
  8
TEAM-NET
 10
634.083106
 20
389.835326
 30
700.0
 70
    64
  0
VERTEX
  5
2AE
  8
TEAM-NET
 10
617.403687
 20
431.346746
 30
700.0
 70
    64
  0
VERTEX
  5
2AF
  8
TEAM-NET
 10
596.164055
 20
470.713003
 30
700.0
 70
    64
  0
VERTEX
  5
2B0
  8
TEAM-NET
 10
570.501798
 20
507.350043
 30
700.0
 70
    64
  0
VERTEX
  5
2B1
  8
TEAM-NET
 10
540.763318
 20
540.763318
 30
700.0
 70
    64
  0
VERTEX
  5
2B2
  8
TEAM-NET
 10
-874.0
 20
-874.0
 30
700.0
 70
    64
  0
VERTEX
  5
2B3
  8
TEAM-NET
 10
-824.763716
 20
-874.0
 30
700.0
 70
    64
  0
VERTEX
  5
2B4
  8
TEAM-NET
 10
-775.527431
 20
-874.0
 30
700.0
 70
    64
  0
VERTEX
  5
2B5
  8
TEAM-NET
 10
-726.291147
 20
-874.0
 30
700.0
 70
    64
  0
VERTEX
  5
2B6
  8
TEAM-NET
 10
-677.054863
 20
-874.0
 30
700.0
 70
    64
  0
VERTEX
  5
2B7
  8
TEAM-NET
 10
-627.818579
 20
-874.0
 30
700.0
 70
    64
  0
VERTEX
  5
2B8
  8
TEAM-NET
 10
-578.582294
 20
-874.0
 30
700.0
 70
    64
  0
VERTEX
  5
2B9
  8
TEAM-NET
 10
-529.34601
 20
-874.0
 30
700.0
 70
    64
  0
VERTEX
  5
2BA
  8
TEAM-NET
 10
-480.109726
 20
-874.0
 30
700.0
 70
    64
  0
VERTEX
  5
2BB
  8
TEAM-NET
 10
-430.873442
 20
-874.0
 30
700.0
 70
    64
  0
VERTEX
  5
2BC
  8
TEAM-NET
 10
-381.637157
 20
-874.0
 30
700.0
 70
    64
  0
VERTEX
  5
2BD
  8
TEAM-NET
 10
-332.400873
 20
-874.0
 30
700.0
 70
    64
  0
VERTEX
  5
2BE
  8
TEAM-NET
 10
-283.164589
 20
-874.0
 30
700.0
 70
    64
  0
VERTEX
  5
2BF
  8
TEAM-NET
 10
-233.928304
 20
-874.0
 30
700.0
 70
    64
  0
VERTEX
  5
2C0
  8
TEAM-NET
 10
-184.69202
 20
-874.0
 30
700.0
 70
    64
  0
VERTEX
  5
2C1
  8
TEAM-NET
 10
-135.455736
 20
-874.0
 30
700.0
 70
    64
  0
VERTEX
  5
2C2
  8
TEAM-NET
 10
-86.219452
 20
-874.0
 30
700.0
 70
    64
  0
VERTEX
  5
2C3
  8
TEAM-NET
 10
-36.983167
 20
-874.0
 30
700.0
 70
    64
  0
VERTEX
  5
2C4
  8
TEAM-NET
 10
12.253117
 20
-874.0
 30
700.0
 70
    64
  0
VERTEX
  5
2C5
  8
TEAM-NET
 10
61.489401
 20
-874.0
 30
700.0
 70
    64
  0
VERTEX
  5
2C6
  8
TEAM-NET
 10
110.725685
 20
-874.0
 30
700.0
 70
    64
  0
VERTEX
  5
2C7
  8
TEAM-NET
 10
159.96197
 20
-874.0
 30
700.0
 70
    64
  0
VERTEX
  5
2C8
  8
TEAM-NET
 10
209.198254
 20
-874.0
 30
700.0
 70
    64
  0
VERTEX
  5
2C9
  8
TEAM-NET
 10
258.434538
 20
-874.0
 30
700.0
 70
    64
  0
VERTEX
  5
2CA
  8
TEAM-NET
 10
307.670822
 20
-874.0
 30
700.0
 70
    64
  0
VERTEX
  5
2CB
  8
TEAM-NET
 10
356.907107
 20
-874.0
 30
700.0
 70
    64
  0
VERTEX
  5
2CC
  8
TEAM-NET
 10
406.143391
 20
-874.0
 30
700.0
 70
    64
  0
VERTEX
  5
2CD
  8
TEAM-NET
 10
455.379675
 20
-874.0
 30
700.0
 70
    64
  0
VERTEX
  5
2CE
  8
TEAM-NET
 10
504.61596
 20
-874.0
 30
700.0
 70
    64
  0
VERTEX
  5
2CF
  8
TEAM-NET
 10
553.852244
 20
-874.0
 30
700.0
 70
    64
  0
VERTEX
  5
2D0
  8
TEAM-NET
 10
603.088528
 20
-874.0
 30
700.0
 70
    64
  0
VERTEX
  5
2D1
  8
TEAM-NET
 10
652.324812
 20
-874.0
 30
700.0
 70
    64
  0
VERTEX
  5
2D2
  8
TEAM-NET
 10
701.561097
 20
-874.0
 30
700.0
 70
    64
  0
VERTEX
  5
2D3
  8
TEAM-NET
 10
750.797381
 20
-874.0
 30
700.0
 70
    64
  0
VERTEX
  5
2D4
  8
TEAM-NET
 10
766.0
 20
-839.966335
 30
700.0
 70
    64
  0
VERTEX
  5
2D5
  8
TEAM-NET
 10
766.0
 20
-790.730051
 30
700.0
 70
    64
  0
VERTEX
  5
2D6
  8
TEAM-NET
 10
766.0
 20
-741.493766
 30
700.0
 70
    64
  0
VERTEX
  5
2D7
  8
TEAM-NET
 10
766.0
 20
-692.257482
 30
700.0
 70
    64
  0
VERTEX
  5
2D8
  8
TEAM-NET
 10
773.272954
 20
-645.509212
 30
700.0
 70
    64
  0
VERTEX
  5
2D9
  8
TEAM-NET
 10
800.983082
 20
-604.834869
 30
700.0
 70
    64
  0
VERTEX
  5
2DA
  8
TEAM-NET
 10
824.560132
 20
-561.633293
 30
700.0
 70
    64
  0
VERTEX
  5
2DB
  8
TEAM-NET
 10
843.775664
 20
-516.323066
 30
700.0
 70
    64
  0
VERTEX
  5
2DC
  8
TEAM-NET
 10
858.443499
 20
-469.343198
 30
700.0
 70
    64
  0
VERTEX
  5
2DD
  8
TEAM-NET
 10
868.421521
 20
-421.148878
 30
700.0
 70
    64
  0
VERTEX
  5
2DE
  8
TEAM-NET
 10
873.613052
 20
-372.207061
 30
700.0
 70
    64
  0
VERTEX
  5
2DF
  8
TEAM-NET
 10
873.967791
 20
-322.991946
 30
700.0
 70
    64
  0
VERTEX
  5
2E0
  8
TEAM-NET
 10
869.482301
 20
-273.980379
 30
700.0
 70
    64
  0
VERTEX
  5
2E1
  8
TEAM-NET
 10
860.200043
 20
-225.647232
 30
700.0
 70
    64
  0
VERTEX
  5
2E2
  8
TEAM-NET
 10
846.210951
 20
-178.460807
 30
700.0
 70
    64
  0
VERTEX
  5
2E3
  8
TEAM-NET
 10
829.402913
 20
-132.182412
 30
700.0
 70
    64
  0
VERTEX
  5
2E4
  8
TEAM-NET
 10
812.563112
 20
-85.915439
 30
700.0
 70
    64
  0
VERTEX
  5
2E5
  8
TEAM-NET
 10
795.723311
 20
-39.648466
 30
700.0
 70
    64
  0
VERTEX
  5
2E6
  8
TEAM-NET
 10
778.88351
 20
6.618507
 30
700.0
 70
    64
  0
VERTEX
  5
2E7
  8
TEAM-NET
 10
762.043709
 20
52.88548
 30
700.0
 70
    64
  0
VERTEX
  5
2E8
  8
TEAM-NET
 10
745.203908
 20
99.152453
 30
700.0
 70
    64
  0
VERTEX
  5
2E9
  8
TEAM-NET
 10
728.364107
 20
145.419426
 30
700.0
 70
    64
  0
VERTEX
  5
2EA
  8
TEAM-NET
 10
711.524306
 20
191.686399
 30
700.0
 70
    64
  0
VERTEX
  5
2EB
  8
TEAM-NET
 10
694.684505
 20
237.953372
 30
700.0
 70
    64
  0
VERTEX
  5
2EC
  8
TEAM-NET
 10
677.844704
 20
284.220345
 30
700.0
 70
    64
  0
VERTEX
  5
2ED
  8
TEAM-NET
 10
661.004903
 20
330.487318
 30
700.0
 70
    64
  0
VERTEX
  5
2EE
  8
TEAM-NET
 10
644.165102
 20
376.754291
 30
700.0
 70
    64
  0
VERTEX
  5
2EF
  8
TEAM-NET
 10
626.721944
 20
422.788449
 30
700.0
 70
    64
  0
VERTEX
  5
2F0
  8
TEAM-NET
 10
604.447921
 20
466.661692
 30
700.0
 70
    64
  0
VERTEX
  5
2F1
  8
TEAM-NET
 10
576.827009
 20
507.381206
 30
700.0
 70
    64
  0
VERTEX
  5
2F2
  8
TEAM-NET
 10
544.298852
 20
544.298852
 30
700.0
 70
    64
  0
SEQEND
  5
2F3
  8
TEAM-NET
  0
POLYLINE
  5
2F4
  8
TEAM-NET
 66
     1
 10
0.0
 20
0.0
 30
0.0
 70
    16
 71
     2
 72
    65
  0
VERTEX
  5
2F5
  8
TEAM-NET
 10
-705.629509
 20
-705.629509
 30
700.0
 70
    64
  0
VERTEX
  5
2F6
  8
TEAM-NET
 10
-673.185133
 20
-734.47233
 30
700.0
 70
    64
  0
VERTEX
  5
2F7
  8
TEAM-NET
 10
-637.585828
 20
-759.316551
 30
700.0
 70
    64
  0
VERTEX
  5
2F8
  8
TEAM-NET
 10
-599.321647
 20
-779.820169
 30
700.0
 70
    64
  0
VERTEX
  5
2F9
  8
TEAM-NET
 10
-558.919331
 20
-795.700934
 30
700.0
 70
    64
  0
VERTEX
  5
2FA
  8
TEAM-NET
 10
-516.935052
 20
-806.740235
 30
700.0
 70
    64
  0
VERTEX
  5
2FB
  8
TEAM-NET
 10
-473.94676
 20
-812.786105
 30
700.0
 70
    64
  0
VERTEX
  5
2FC
  8
TEAM-NET
 10
-430.543258
 20
-814.0
 30
700.0
 70
    64
  0
VERTEX
  5
2FD
  8
TEAM-NET
 10
-387.106963
 20
-814.0
 30
700.0
 70
    64
  0
VERTEX
  5
2FE
  8
TEAM-NET
 10
-343.670668
 20
-814.0
 30
700.0
 70
    64
  0
VERTEX
  5
2FF
  8
TEAM-NET
 10
-300.234373
 20
-814.0
 30
700.0
 70
    64
  0
VERTEX
  5
300
  8
TEAM-NET
 10
-256.798079
 20
-814.0
 30
700.0
 70
    64
  0
VERTEX
  5
301
  8
TEAM-NET
 10
-213.361784
 20
-814.0
 30
700.0
 70
    64
  0
VERTEX
  5
302
  8
TEAM-NET
 10
-169.925489
 20
-814.0
 30
700.0
 70
    64
  0
VERTEX
  5
303
  8
TEAM-NET
 10
-126.489195
 20
-814.0
 30
700.0
 70
    64
  0
VERTEX
  5
304
  8
TEAM-NET
 10
-83.0529
 20
-814.0
 30
700.0
 70
    64
  0
VERTEX
  5
305
  8
TEAM-NET
 10
-39.616605
 20
-814.0
 30
700.0
 70
    64
  0
VERTEX
  5
306
  8
TEAM-NET
 10
3.819689
 20
-814.0
 30
700.0
 70
    64
  0
VERTEX
  5
307
  8
TEAM-NET
 10
47.255984
 20
-814.0
 30
700.0
 70
    64
  0
VERTEX
  5
308
  8
TEAM-NET
 10
90.692279
 20
-814.0
 30
700.0
 70
    64
  0
VERTEX
  5
309
  8
TEAM-NET
 10
134.128573
 20
-814.0
 30
700.0
 70
    64
  0
VERTEX
  5
30A
  8
TEAM-NET
 10
177.564868
 20
-814.0
 30
700.0
 70
    64
  0
VERTEX
  5
30B
  8
TEAM-NET
 10
221.001163
 20
-814.0
 30
700.0
 70
    64
  0
VERTEX
  5
30C
  8
TEAM-NET
 10
264.437458
 20
-814.0
 30
700.0
 70
    64
  0
VERTEX
  5
30D
  8
TEAM-NET
 10
307.873752
 20
-814.0
 30
700.0
 70
    64
  0
VERTEX
  5
30E
  8
TEAM-NET
 10
351.310047
 20
-814.0
 30
700.0
 70
    64
  0
VERTEX
  5
30F
  8
TEAM-NET
 10
394.739996
 20
-813.560075
 30
700.0
 70
    64
  0
VERTEX
  5
310
  8
TEAM-NET
 10
437.987126
 20
-809.680001
 30
700.0
 70
    64
  0
VERTEX
  5
311
  8
TEAM-NET
 10
480.691623
 20
-801.825374
 30
700.0
 70
    64
  0
VERTEX
  5
312
  8
TEAM-NET
 10
522.489006
 20
-790.063233
 30
700.0
 70
    64
  0
VERTEX
  5
313
  8
TEAM-NET
 10
563.022537
 20
-774.493967
 30
700.0
 70
    64
  0
VERTEX
  5
314
  8
TEAM-NET
 10
601.946265
 20
-755.250459
 30
700.0
 70
    64
  0
VERTEX
  5
315
  8
TEAM-NET
 10
638.927978
 20
-732.496952
 30
700.0
 70
    64
  0
VERTEX
  5
316
  8
TEAM-NET
 10
673.65204
 20
-706.427644
 30
700.0
 70
    64
  0
VERTEX
  5
317
  8
TEAM-NET
 10
705.822081
 20
-677.265037
 30
700.0
 70
    64
  0
VERTEX
  5
318
  8
TEAM-NET
 10
735.163532
 20
-645.258031
 30
700.0
 70
    64
  0
VERTEX
  5
319
  8
TEAM-NET
 10
761.425967
 20
-610.679805
 30
700.0
 70
    64
  0
VERTEX
  5
31A
  8
TEAM-NET
 10
784.385236
 20
-573.825481
 30
700.0
 70
    64
  0
VERTEX
  5
31B
  8
TEAM-NET
 10
803.845383
 20
-535.009609
 30
700.0
 70
    64
  0
VERTEX
  5
31C
  8
TEAM-NET
 10
819.640318
 20
-494.563482
 30
700.0
 70
    64
  0
VERTEX
  5
31D
  8
TEAM-NET
 10
831.635231
 20
-452.832303
 30
700.0
 70
    64
  0
VERTEX
  5
31E
  8
TEAM-NET
 10
839.727746
 20
-410.172247
 30
700.0
 70
    64
  0
VERTEX
  5
31F
  8
TEAM-NET
 10
843.848794
 20
-366.947414
 30
700.0
 70
    64
  0
VERTEX
  5
320
  8
TEAM-NET
 10
843.963203
 20
-323.526726
 30
700.0
 70
    64
  0
VERTEX
  5
321
  8
TEAM-NET
 10
840.069995
 20
-280.280777
 30
700.0
 70
    64
  0
VERTEX
  5
322
  8
TEAM-NET
 10
832.202399
 20
-237.578667
 30
700.0
 70
    64
  0
VERTEX
  5
323
  8
TEAM-NET
 10
820.427565
 20
-195.784858
 30
700.0
 70
    64
  0
VERTEX
  5
324
  8
TEAM-NET
 10
805.748166
 20
-154.90566
 30
700.0
 70
    64
  0
VERTEX
  5
325
  8
TEAM-NET
 10
790.892078
 20
-114.088895
 30
700.0
 70
    64
  0
VERTEX
  5
326
  8
TEAM-NET
 10
776.03599
 20
-73.272129
 30
700.0
 70
    64
  0
VERTEX
  5
327
  8
TEAM-NET
 10
761.179903
 20
-32.455364
 30
700.0
 70
    64
  0
VERTEX
  5
328
  8
TEAM-NET
 10
746.323815
 20
8.361402
 30
700.0
 70
    64
  0
VERTEX
  5
329
  8
TEAM-NET
 10
731.467727
 20
49.178168
 30
700.0
 70
    64
  0
VERTEX
  5
32A
  8
TEAM-NET
 10
716.611639
 20
89.994933
 30
700.0
 70
    64
  0
VERTEX
  5
32B
  8
TEAM-NET
 10
701.755552
 20
130.811699
 30
700.0
 70
    64
  0
VERTEX
  5
32C
  8
TEAM-NET
 10
686.899464
 20
171.628464
 30
700.0
 70
    64
  0
VERTEX
  5
32D
  8
TEAM-NET
 10
672.043376
 20
212.44523
 30
700.0
 70
    64
  0
VERTEX
  5
32E
  8
TEAM-NET
 10
657.187289
 20
253.261996
 30
700.0
 70
    64
  0
VERTEX
  5
32F
  8
TEAM-NET
 10
642.331201
 20
294.078761
 30
700.0
 70
    64
  0
VERTEX
  5
330
  8
TEAM-NET
 10
627.475113
 20
334.895527
 30
700.0
 70
    64
  0
VERTEX
  5
331
  8
TEAM-NET
 10
612.619025
 20
375.712292
 30
700.0
 70
    64
  0
VERTEX
  5
332
  8
TEAM-NET
 10
596.545317
 20
416.046795
 30
700.0
 70
    64
  0
VERTEX
  5
333
  8
TEAM-NET
 10
576.041698
 20
454.310975
 30
700.0
 70
    64
  0
VERTEX
  5
334
  8
TEAM-NET
 10
551.197478
 20
489.910281
 30
700.0
 70
    64
  0
VERTEX
  5
335
  8
TEAM-NET
 10
522.354657
 20
522.354657
 30
700.0
 70
    64
  0
VERTEX
  5
336
  8
TEAM-NET
 10
-726.842712
 20
-726.842712
 30
700.0
 70
    64
  0
VERTEX
  5
337
  8
TEAM-NET
 10
-693.492954
 20
-756.655187
 30
700.0
 70
    64
  0
VERTEX
  5
338
  8
TEAM-NET
 10
-657.02299
 20
-782.557537
 30
700.0
 70
    64
  0
VERTEX
  5
339
  8
TEAM-NET
 10
-617.888921
 20
-804.225823
 30
700.0
 70
    64
  0
VERTEX
  5
33A
  8
TEAM-NET
 10
-576.580164
 20
-821.389057
 30
700.0
 70
    64
  0
VERTEX
  5
33B
  8
TEAM-NET
 10
-533.613335
 20
-833.832593
 30
700.0
 70
    64
  0
VERTEX
  5
33C
  8
TEAM-NET
 10
-489.525784
 20
-841.400809
 30
700.0
 70
    64
  0
VERTEX
  5
33D
  8
TEAM-NET
 10
-444.86888
 20
-843.999056
 30
700.0
 70
    64
  0
VERTEX
  5
33E
  8
TEAM-NET
 10
-400.113111
 20
-844.0
 30
700.0
 70
    64
  0
VERTEX
  5
33F
  8
TEAM-NET
 10
-355.357342
 20
-844.0
 30
700.0
 70
    64
  0
VERTEX
  5
340
  8
TEAM-NET
 10
-310.601573
 20
-844.0
 30
700.0
 70
    64
  0
VERTEX
  5
341
  8
TEAM-NET
 10
-265.845803
 20
-844.0
 30
700.0
 70
    64
  0
VERTEX
  5
342
  8
TEAM-NET
 10
-221.090034
 20
-844.0
 30
700.0
 70
    64
  0
VERTEX
  5
343
  8
TEAM-NET
 10
-176.334265
 20
-844.0
 30
700.0
 70
    64
  0
VERTEX
  5
344
  8
TEAM-NET
 10
-131.578496
 20
-844.0
 30
700.0
 70
    64
  0
VERTEX
  5
345
  8
TEAM-NET
 10
-86.822726
 20
-844.0
 30
700.0
 70
    64
  0
VERTEX
  5
346
  8
TEAM-NET
 10
-42.066957
 20
-844.0
 30
700.0
 70
    64
  0
VERTEX
  5
347
  8
TEAM-NET
 10
2.688812
 20
-844.0
 30
700.0
 70
    64
  0
VERTEX
  5
348
  8
TEAM-NET
 10
47.444581
 20
-844.0
 30
700.0
 70
    64
  0
VERTEX
  5
349
  8
TEAM-NET
 10
92.200351
 20
-844.0
 30
700.0
 70
    64
  0
VERTEX
  5
34A
  8
TEAM-NET
 10
136.95612
 20
-844.0
 30
700.0
 70
    64
  0
VERTEX
  5
34B
  8
TEAM-NET
 10
181.711889
 20
-844.0
 30
700.0
 70
    64
  0
VERTEX
  5
34C
  8
TEAM-NET
 10
226.467658
 20
-844.0
 30
700.0
 70
    64
  0
VERTEX
  5
34D
  8
TEAM-NET
 10
271.223428
 20
-844.0
 30
700.0
 70
    64
  0
VERTEX
  5
34E
  8
TEAM-NET
 10
315.979197
 20
-844.0
 30
700.0
 70
    64
  0
VERTEX
  5
34F
  8
TEAM-NET
 10
360.734966
 20
-844.0
 30
700.0
 70
    64
  0
VERTEX
  5
350
  8
TEAM-NET
 10
405.455404
 20
-842.626984
 30
700.0
 70
    64
  0
VERTEX
  5
351
  8
TEAM-NET
 10
449.875099
 20
-837.275599
 30
700.0
 70
    64
  0
VERTEX
  5
352
  8
TEAM-NET
 10
493.640105
 20
-827.982004
 30
700.0
 70
    64
  0
VERTEX
  5
353
  8
TEAM-NET
 10
536.401271
 20
-814.820341
 30
700.0
 70
    64
  0
VERTEX
  5
354
  8
TEAM-NET
 10
577.817453
 20
-797.895611
 30
700.0
 70
    64
  0
VERTEX
  5
355
  8
TEAM-NET
 10
617.558241
 20
-777.342839
 30
700.0
 70
    64
  0
VERTEX
  5
356
  8
TEAM-NET
 10
655.306587
 20
-753.32599
 30
700.0
 70
    64
  0
VERTEX
  5
357
  8
TEAM-NET
 10
690.761341
 20
-726.036668
 30
700.0
 70
    64
  0
VERTEX
  5
358
  8
TEAM-NET
 10
723.63965
 20
-695.692583
 30
700.0
 70
    64
  0
VERTEX
  5
359
  8
TEAM-NET
 10
753.679215
 20
-662.535816
 30
700.0
 70
    64
  0
VERTEX
  5
35A
  8
TEAM-NET
 10
780.640385
 20
-626.830887
 30
700.0
 70
    64
  0
VERTEX
  5
35B
  8
TEAM-NET
 10
804.308068
 20
-588.862645
 30
700.0
 70
    64
  0
VERTEX
  5
35C
  8
TEAM-NET
 10
824.493446
 20
-548.933994
 30
700.0
 70
    64
  0
VERTEX
  5
35D
  8
TEAM-NET
 10
841.035484
 20
-507.36348
 30
700.0
 70
    64
  0
VERTEX
  5
35E
  8
TEAM-NET
 10
853.802211
 20
-464.482746
 30
700.0
 70
    64
  0
VERTEX
  5
35F
  8
TEAM-NET
 10
862.691776
 20
-420.633888
 30
700.0
 70
    64
  0
VERTEX
  5
360
  8
TEAM-NET
 10
867.63326
 20
-376.166727
 30
700.0
 70
    64
  0
VERTEX
  5
361
  8
TEAM-NET
 10
868.58724
 20
-331.436016
 30
700.0
 70
    64
  0
VERTEX
  5
362
  8
TEAM-NET
 10
865.546106
 20
-286.798608
 30
700.0
 70
    64
  0
VERTEX
  5
363
  8
TEAM-NET
 10
858.534119
 20
-242.610615
 30
700.0
 70
    64
  0
VERTEX
  5
364
  8
TEAM-NET
 10
847.607219
 20
-199.224563
 30
700.0
 70
    64
  0
VERTEX
  5
365
  8
TEAM-NET
 10
833.078976
 20
-156.901333
 30
700.0
 70
    64
  0
VERTEX
  5
366
  8
TEAM-NET
 10
817.771601
 20
-114.844667
 30
700.0
 70
    64
  0
VERTEX
  5
367
  8
TEAM-NET
 10
802.464226
 20
-72.788001
 30
700.0
 70
    64
  0
VERTEX
  5
368
  8
TEAM-NET
 10
787.156852
 20
-30.731335
 30
700.0
 70
    64
  0
VERTEX
  5
369
  8
TEAM-NET
 10
771.849477
 20
11.325331
 30
700.0
 70
    64
  0
VERTEX
  5
36A
  8
TEAM-NET
 10
756.542103
 20
53.381998
 30
700.0
 70
    64
  0
VERTEX
  5
36B
  8
TEAM-NET
 10
741.234728
 20
95.438664
 30
700.0
 70
    64
  0
VERTEX
  5
36C
  8
TEAM-NET
 10
725.927353
 20
137.49533
 30
700.0
 70
    64
  0
VERTEX
  5
36D
  8
TEAM-NET
 10
710.619979
 20
179.551996
 30
700.0
 70
    64
  0
VERTEX
  5
36E
  8
TEAM-NET
 10
695.312604
 20
221.608662
 30
700.0
 70
    64
  0
VERTEX
  5
36F
  8
TEAM-NET
 10
680.00523
 20
263.665328
 30
700.0
 70
    64
  0
VERTEX
  5
370
  8
TEAM-NET
 10
664.697855
 20
305.721994
 30
700.0
 70
    64
  0
VERTEX
  5
371
  8
TEAM-NET
 10
649.39048
 20
347.77866
 30
700.0
 70
    64
  0
VERTEX
  5
372
  8
TEAM-NET
 10
634.083106
 20
389.835326
 30
700.0
 70
    64
  0
VERTEX
  5
373
  8
TEAM-NET
 10
617.403687
 20
431.346746
 30
700.0
 70
    64
  0
VERTEX
  5
374
  8
TEAM-NET
 10
596.164055
 20
470.713003
 30
700.0
 70
    64
  0
VERTEX
  5
375
  8
TEAM-NET
 10
570.501798
 20
507.350043
 30
700.0
 70
    64
  0
VERTEX
  5
376
  8
TEAM-NET
 10
540.763318
 20
540.763318
 30
700.0
 70
    64
  0
SEQEND
  5
377
  8
TEAM-NET
  0
POLYLINE
  5
378
  8
TEAM-NET
 66
     1
 10
0.0
 20
0.0
 30
0.0
 70
    16
 71
     2
 72
    65
  0
VERTEX
  5
379
  8
TEAM-NET
 10
-705.629509
 20
-705.629509
 30
700.0
 70
    64
  0
VERTEX
  5
37A
  8
TEAM-NET
 10
-734.47233
 20
-673.185133
 30
700.0
 70
    64
  0
VERTEX
  5
37B
  8
TEAM-NET
 10
-759.316551
 20
-637.585828
 30
700.0
 70
    64
  0
VERTEX
  5
37C
  8
TEAM-NET
 10
-779.820169
 20
-599.321647
 30
700.0
 70
    64
  0
VERTEX
  5
37D
  8
TEAM-NET
 10
-795.700934
 20
-558.919331
 30
700.0
 70
    64
  0
VERTEX
  5
37E
  8
TEAM-NET
 10
-806.740235
 20
-516.935052
 30
700.0
 70
    64
  0
VERTEX
  5
37F
  8
TEAM-NET
 10
-812.786105
 20
-473.94676
 30
700.0
 70
    64
  0
VERTEX
  5
380
  8
TEAM-NET
 10
-814.0
 20
-430.543258
 30
700.0
 70
    64
  0
VERTEX
  5
381
  8
TEAM-NET
 10
-814.0
 20
-387.106963
 30
700.0
 70
    64
  0
VERTEX
  5
382
  8
TEAM-NET
 10
-814.0
 20
-343.670668
 30
700.0
 70
    64
  0
VERTEX
  5
383
  8
TEAM-NET
 10
-814.0
 20
-300.234373
 30
700.0
 70
    64
  0
VERTEX
  5
384
  8
TEAM-NET
 10
-814.0
 20
-256.798079
 30
700.0
 70
    64
  0
VERTEX
  5
385
  8
TEAM-NET
 10
-814.0
 20
-213.361784
 30
700.0
 70
    64
  0
VERTEX
  5
386
  8
TEAM-NET
 10
-814.0
 20
-169.925489
 30
700.0
 70
    64
  0
VERTEX
  5
387
  8
TEAM-NET
 10
-814.0
 20
-126.489195
 30
700.0
 70
    64
  0
VERTEX
  5
388
  8
TEAM-NET
 10
-814.0
 20
-83.0529
 30
700.0
 70
    64
  0
VERTEX
  5
389
  8
TEAM-NET
 10
-814.0
 20
-39.616605
 30
700.0
 70
    64
  0
VERTEX
  5
38A
  8
TEAM-NET
 10
-814.0
 20
3.819689
 30
700.0
 70
    64
  0
VERTEX
  5
38B
  8
TEAM-NET
 10
-814.0
 20
47.255984
 30
700.0
 70
    64
  0
VERTEX
  5
38C
  8
TEAM-NET
 10
-814.0
 20
90.692279
 30
700.0
 70
    64
  0
VERTEX
  5
38D
  8
TEAM-NET
 10
-814.0
 20
134.128573
 30
700.0
 70
    64
  0
VERTEX
  5
38E
  8
TEAM-NET
 10
-814.0
 20
177.564868
 30
700.0
 70
    64
  0
VERTEX
  5
38F
  8
TEAM-NET
 10
-814.0
 20
221.001163
 30
700.0
 70
    64
  0
VERTEX
  5
390
  8
TEAM-NET
 10
-814.0
 20
264.437458
 30
700.0
 70
    64
  0
VERTEX
  5
391
  8
TEAM-NET
 10
-814.0
 20
307.873752
 30
700.0
 70
    64
  0
VERTEX
  5
392
  8
TEAM-NET
 10
-814.0
 20
351.310047
 30
700.0
 70
    64
  0
VERTEX
  5
393
  8
TEAM-NET
 10
-813.560075
 20
394.739996
 30
700.0
 70
    64
  0
VERTEX
  5
394
  8
TEAM-NET
 10
-809.680001
 20
437.987126
 30
700.0
 70
    64
  0
VERTEX
  5
395
  8
TEAM-NET
 10
-801.825374
 20
480.691623
 30
700.0
 70
    64
  0
VERTEX
  5
396
  8
TEAM-NET
 10
-790.063233
 20
522.489006
 30
700.0
 70
    64
  0
VERTEX
  5
397
  8
TEAM-NET
 10
-774.493967
 20
563.022537
 30
700.0
 70
    64
  0
VERTEX
  5
398
  8
TEAM-NET
 10
-755.250459
 20
601.946265
 30
700.0
 70
    64
  0
VERTEX
  5
399
  8
TEAM-NET
 10
-732.496952
 20
638.927978
 30
700.0
 70
    64
  0
VERTEX
  5
39A
  8
TEAM-NET
 10
-706.427644
 20
673.65204
 30
700.0
 70
    64
  0
VERTEX
  5
39B
  8
TEAM-NET
 10
-677.265037
 20
705.822081
 30
700.0
 70
    64
  0
VERTEX
  5
39C
  8
TEAM-NET
 10
-645.258031
 20
735.163532
 30
700.0
 70
    64
  0
VERTEX
  5
39D
  8
TEAM-NET
 10
-610.679805
 20
761.425967
 30
700.0
 70
    64
  0
VERTEX
  5
39E
  8
TEAM-NET
 10
-573.825481
 20
784.385236
 30
700.0
 70
    64
  0
VERTEX
  5
39F
  8
TEAM-NET
 10
-535.009609
 20
803.845383
 30
700.0
 70
    64
  0
VERTEX
  5
3A0
  8
TEAM-NET
 10
-494.563482
 20
819.640318
 30
700.0
 70
    64
  0
VERTEX
  5
3A1
  8
TEAM-NET
 10
-452.832303
 20
831.635231
 30
700.0
 70
    64
  0
VERTEX
  5
3A2
  8
TEAM-NET
 10
-410.172247
 20
839.727746
 30
700.0
 70
    64
  0
VERTEX
  5
3A3
  8
TEAM-NET
 10
-366.947414
 20
843.848794
 30
700.0
 70
    64
  0
VERTEX
  5
3A4
  8
TEAM-NET
 10
-323.526726
 20
843.963203
 30
700.0
 70
    64
  0
VERTEX
  5
3A5
  8
TEAM-NET
 10
-280.280777
 20
840.069995
 30
700.0
 70
    64
  0
VERTEX
  5
3A6
  8
TEAM-NET
 10
-237.578667
 20
832.202399
 30
700.0
 70
    64
  0
VERTEX
  5
3A7
  8
TEAM-NET
 10
-195.784858
 20
820.427565
 30
700.0
 70
    64
  0
VERTEX
  5
3A8
  8
TEAM-NET
 10
-154.90566
 20
805.748166
 30
700.0
 70
    64
  0
VERTEX
  5
3A9
  8
TEAM-NET
 10
-114.088895
 20
790.892078
 30
700.0
 70
    64
  0
VERTEX
  5
3AA
  8
TEAM-NET
 10
-73.272129
 20
776.03599
 30
700.0
 70
    64
  0
VERTEX
  5
3AB
  8
TEAM-NET
 10
-32.455364
 20
761.179903
 30
700.0
 70
    64
  0
VERTEX
  5
3AC
  8
TEAM-NET
 10
8.361402
 20
746.323815
 30
700.0
 70
    64
  0
VERTEX
  5
3AD
  8
TEAM-NET
 10
49.178168
 20
731.467727
 30
700.0
 70
    64
  0
VERTEX
  5
3AE
  8
TEAM-NET
 10
89.994933
 20
716.611639
 30
700.0
 70
    64
  0
VERTEX
  5
3AF
  8
TEAM-NET
 10
130.811699
 20
701.755552
 30
700.0
 70
    64
  0
VERTEX
  5
3B0
  8
TEAM-NET
 10
171.628464
 20
686.899464
 30
700.0
 70
    64
  0
VERTEX
  5
3B1
  8
TEAM-NET
 10
212.44523
 20
672.043376
 30
700.0
 70
    64
  0
VERTEX
  5
3B2
  8
TEAM-NET
 10
253.261996
 20
657.187289
 30
700.0
 70
    64
  0
VERTEX
  5
3B3
  8
TEAM-NET
 10
294.078761
 20
642.331201
 30
700.0
 70
    64
  0
VERTEX
  5
3B4
  8
TEAM-NET
 10
334.895527
 20
627.475113
 30
700.0
 70
    64
  0
VERTEX
  5
3B5
  8
TEAM-NET
 10
375.712292
 20
612.619025
 30
700.0
 70
    64
  0
VERTEX
  5
3B6
  8
TEAM-NET
 10
416.046795
 20
596.545317
 30
700.0
 70
    64
  0
VERTEX
  5
3B7
  8
TEAM-NET
 10
454.310975
 20
576.041698
 30
700.0
 70
    64
  0
VERTEX
  5
3B8
  8
TEAM-NET
 10
489.910281
 20
551.197478
 30
700.0
 70
    64
  0
VERTEX
  5
3B9
  8
TEAM-NET
 10
522.354657
 20
522.354657
 30
700.0
 70
    64
  0
VERTEX
  5
3BA
  8
TEAM-NET
 10
-726.842712
 20
-726.842712
 30
700.0
 70
    64
  0
VERTEX
  5
3BB
  8
TEAM-NET
 10
-756.655187
 20
-693.492954
 30
700.0
 70
    64
  0
VERTEX
  5
3BC
  8
TEAM-NET
 10
-782.557537
 20
-657.02299
 30
700.0
 70
    64
  0
VERTEX
  5
3BD
  8
TEAM-NET
 10
-804.225823
 20
-617.888921
 30
700.0
 70
    64
  0
VERTEX
  5
3BE
  8
TEAM-NET
 10
-821.389057
 20
-576.580164
 30
700.0
 70
    64
  0
VERTEX
  5
3BF
  8
TEAM-NET
 10
-833.832593
 20
-533.613335
 30
700.0
 70
    64
  0
VERTEX
  5
3C0
  8
TEAM-NET
 10
-841.400809
 20
-489.525784
 30
700.0
 70
    64
  0
VERTEX
  5
3C1
  8
TEAM-NET
 10
-843.999056
 20
-444.86888
 30
700.0
 70
    64
  0
VERTEX
  5
3C2
  8
TEAM-NET
 10
-844.0
 20
-400.113111
 30
700.0
 70
    64
  0
VERTEX
  5
3C3
  8
TEAM-NET
 10
-844.0
 20
-355.357342
 30
700.0
 70
    64
  0
VERTEX
  5
3C4
  8
TEAM-NET
 10
-844.0
 20
-310.601573
 30
700.0
 70
    64
  0
VERTEX
  5
3C5
  8
TEAM-NET
 10
-844.0
 20
-265.845803
 30
700.0
 70
    64
  0
VERTEX
  5
3C6
  8
TEAM-NET
 10
-844.0
 20
-221.090034
 30
700.0
 70
    64
  0
VERTEX
  5
3C7
  8
TEAM-NET
 10
-844.0
 20
-176.334265
 30
700.0
 70
    64
  0
VERTEX
  5
3C8
  8
TEAM-NET
 10
-844.0
 20
-131.578496
 30
700.0
 70
    64
  0
VERTEX
  5
3C9
  8
TEAM-NET
 10
-844.0
 20
-86.822726
 30
700.0
 70
    64
  0
VERTEX
  5
3CA
  8
TEAM-NET
 10
-844.0
 20
-42.066957
 30
700.0
 70
    64
  0
VERTEX
  5
3CB
  8
TEAM-NET
 10
-844.0
 20
2.688812
 30
700.0
 70
    64
  0
VERTEX
  5
3CC
  8
TEAM-NET
 10
-844.0
 20
47.444581
 30
700.0
 70
    64
  0
VERTEX
  5
3CD
  8
TEAM-NET
 10
-844.0
 20
92.200351
 30
700.0
 70
    64
  0
VERTEX
  5
3CE
  8
TEAM-NET
 10
-844.0
 20
136.95612
 30
700.0
 70
    64
  0
VERTEX
  5
3CF
  8
TEAM-NET
 10
-844.0
 20
181.711889
 30
700.0
 70
    64
  0
VERTEX
  5
3D0
  8
TEAM-NET
 10
-844.0
 20
226.467658
 30
700.0
 70
    64
  0
VERTEX
  5
3D1
  8
TEAM-NET
 10
-844.0
 20
271.223428
 30
700.0
 70
    64
  0
VERTEX
  5
3D2
  8
TEAM-NET
 10
-844.0
 20
315.979197
 30
700.0
 70
    64
  0
VERTEX
  5
3D3
  8
TEAM-NET
 10
-844.0
 20
360.734966
 30
700.0
 70
    64
  0
VERTEX
  5
3D4
  8
TEAM-NET
 10
-842.626984
 20
405.455404
 30
700.0
 70
    64
  0
VERTEX
  5
3D5
  8
TEAM-NET
 10
-837.275599
 20
449.875099
 30
700.0
 70
    64
  0
VERTEX
  5
3D6
  8
TEAM-NET
 10
-827.982004
 20
493.640105
 30
700.0
 70
    64
  0
VERTEX
  5
3D7
  8
TEAM-NET
 10
-814.820341
 20
536.401271
 30
700.0
 70
    64
  0
VERTEX
  5
3D8
  8
TEAM-NET
 10
-797.895611
 20
577.817453
 30
700.0
 70
    64
  0
VERTEX
  5
3D9
  8
TEAM-NET
 10
-777.342839
 20
617.558241
 30
700.0
 70
    64
  0
VERTEX
  5
3DA
  8
TEAM-NET
 10
-753.32599
 20
655.306587
 30
700.0
 70
    64
  0
VERTEX
  5
3DB
  8
TEAM-NET
 10
-726.036668
 20
690.761341
 30
700.0
 70
    64
  0
VERTEX
  5
3DC
  8
TEAM-NET
 10
-695.692583
 20
723.63965
 30
700.0
 70
    64
  0
VERTEX
  5
3DD
  8
TEAM-NET
 10
-662.535816
 20
753.679215
 30
700.0
 70
    64
  0
VERTEX
  5
3DE
  8
TEAM-NET
 10
-626.830887
 20
780.640385
 30
700.0
 70
    64
  0
VERTEX
  5
3DF
  8
TEAM-NET
 10
-588.862645
 20
804.308068
 30
700.0
 70
    64
  0
VERTEX
  5
3E0
  8
TEAM-NET
 10
-548.933994
 20
824.493446
 30
700.0
 70
    64
  0
VERTEX
  5
3E1
  8
TEAM-NET
 10
-507.36348
 20
841.035484
 30
700.0
 70
    64
  0
VERTEX
  5
3E2
  8
TEAM-NET
 10
-464.482746
 20
853.802211
 30
700.0
 70
    64
  0
VERTEX
  5
3E3
  8
TEAM-NET
 10
-420.633888
 20
862.691776
 30
700.0
 70
    64
  0
VERTEX
  5
3E4
  8
TEAM-NET
 10
-376.166727
 20
867.63326
 30
700.0
 70
    64
  0
VERTEX
  5
3E5
  8
TEAM-NET
 10
-331.436016
 20
868.58724
 30
700.0
 70
    64
  0
VERTEX
  5
3E6
  8
TEAM-NET
 10
-286.798608
 20
865.546106
 30
700.0
 70
    64
  0
VERTEX
  5
3E7
  8
TEAM-NET
 10
-242.610615
 20
858.534119
 30
700.0
 70
    64
  0
VERTEX
  5
3E8
  8
TEAM-NET
 10
-199.224563
 20
847.607219
 30
700.0
 70
    64
  0
VERTEX
  5
3E9
  8
TEAM-NET
 10
-156.901333
 20
833.078976
 30
700.0
 70
    64
  0
VERTEX
  5
3EA
  8
TEAM-NET
 10
-114.844667
 20
817.771601
 30
700.0
 70
    64
  0
VERTEX
  5
3EB
  8
TEAM-NET
 10
-72.788001
 20
802.464226
 30
700.0
 70
    64
  0
VERTEX
  5
3EC
  8
TEAM-NET
 10
-30.731335
 20
787.156852
 30
700.0
 70
    64
  0
VERTEX
  5
3ED
  8
TEAM-NET
 10
11.325331
 20
771.849477
 30
700.0
 70
    64
  0
VERTEX
  5
3EE
  8
TEAM-NET
 10
53.381998
 20
756.542103
 30
700.0
 70
    64
  0
VERTEX
  5
3EF
  8
TEAM-NET
 10
95.438664
 20
741.234728
 30
700.0
 70
    64
  0
VERTEX
  5
3F0
  8
TEAM-NET
 10
137.49533
 20
725.927353
 30
700.0
 70
    64
  0
VERTEX
  5
3F1
  8
TEAM-NET
 10
179.551996
 20
710.619979
 30
700.0
 70
    64
  0
VERTEX
  5
3F2
  8
TEAM-NET
 10
221.608662
 20
695.312604
 30
700.0
 70
    64
  0
VERTEX
  5
3F3
  8
TEAM-NET
 10
263.665328
 20
680.00523
 30
700.0
 70
    64
  0
VERTEX
  5
3F4
  8
TEAM-NET
 10
305.721994
 20
664.697855
 30
700.0
 70
    64
  0
VERTEX
  5
3F5
  8
TEAM-NET
 10
347.77866
 20
649.39048
 30
700.0
 70
    64
  0
VERTEX
  5
3F6
  8
TEAM-NET
 10
389.835326
 20
634.083106
 30
700.0
 70
    64
  0
VERTEX
  5
3F7
  8
TEAM-NET
 10
431.346746
 20
617.403687
 30
700.0
 70
    64
  0
VERTEX
  5
3F8
  8
TEAM-NET
 10
470.713003
 20
596.164055
 30
700.0
 70
    64
  0
VERTEX
  5
3F9
  8
TEAM-NET
 10
507.350043
 20
570.501798
 30
700.0
 70
    64
  0
VERTEX
  5
3FA
  8
TEAM-NET
 10
540.763318
 20
540.763318
 30
700.0
 70
    64
  0
SEQEND
  5
3FB
  8
TEAM-NET
  0
POLYLINE
  5
3FC
  8
TEAM-NET
 66
     1
 10
0.0
 20
0.0
 30
0.0
 70
    16
 71
     2
 72
    65
  0
VERTEX
  5
3FD
  8
TEAM-NET
 10
-649.060967
 20
-649.060967
 30
700.0
 70
    64
  0
VERTEX
  5
3FE
  8
TEAM-NET
 10
-675.011786
 20
-619.309881
 30
700.0
 70
    64
  0
VERTEX
  5
3FF
  8
TEAM-NET
 10
-696.681411
 20
-586.309889
 30
700.0
 70
    64
  0
VERTEX
  5
400
  8
TEAM-NET
 10
-713.668251
 20
-550.672557
 30
700.0
 70
    64
  0
VERTEX
  5
401
  8
TEAM-NET
 10
-725.657499
 20
-513.058331
 30
700.0
 70
    64
  0
VERTEX
  5
402
  8
TEAM-NET
 10
-732.426968
 20
-474.16429
 30
700.0
 70
    64
  0
VERTEX
  5
403
  8
TEAM-NET
 10
-734.0
 20
-434.709644
 30
700.0
 70
    64
  0
VERTEX
  5
404
  8
TEAM-NET
 10
-734.0
 20
-395.20034
 30
700.0
 70
    64
  0
VERTEX
  5
405
  8
TEAM-NET
 10
-734.0
 20
-355.691036
 30
700.0
 70
    64
  0
VERTEX
  5
406
  8
TEAM-NET
 10
-734.0
 20
-316.181732
 30
700.0
 70
    64
  0
VERTEX
  5
407
  8
TEAM-NET
 10
-734.0
 20
-276.672429
 30
700.0
 70
    64
  0
VERTEX
  5
408
  8
TEAM-NET
 10
-734.0
 20
-237.163125
 30
700.0
 70
    64
  0
VERTEX
  5
409
  8
TEAM-NET
 10
-734.0
 20
-197.653821
 30
700.0
 70
    64
  0
VERTEX
  5
40A
  8
TEAM-NET
 10
-734.0
 20
-158.144517
 30
700.0
 70
    64
  0
VERTEX
  5
40B
  8
TEAM-NET
 10
-734.0
 20
-118.635213
 30
700.0
 70
    64
  0
VERTEX
  5
40C
  8
TEAM-NET
 10
-734.0
 20
-79.125909
 30
700.0
 70
    64
  0
VERTEX
  5
40D
  8
TEAM-NET
 10
-734.0
 20
-39.616605
 30
700.0
 70
    64
  0
VERTEX
  5
40E
  8
TEAM-NET
 10
-734.0
 20
-0.107301
 30
700.0
 70
    64
  0
VERTEX
  5
40F
  8
TEAM-NET
 10
-734.0
 20
39.402002
 30
700.0
 70
    64
  0
VERTEX
  5
410
  8
TEAM-NET
 10
-734.0
 20
78.911306
 30
700.0
 70
    64
  0
VERTEX
  5
411
  8
TEAM-NET
 10
-734.0
 20
118.42061
 30
700.0
 70
    64
  0
VERTEX
  5
412
  8
TEAM-NET
 10
-734.0
 20
157.929914
 30
700.0
 70
    64
  0
VERTEX
  5
413
  8
TEAM-NET
 10
-734.0
 20
197.439218
 30
700.0
 70
    64
  0
VERTEX
  5
414
  8
TEAM-NET
 10
-734.0
 20
236.948522
 30
700.0
 70
    64
  0
VERTEX
  5
415
  8
TEAM-NET
 10
-734.0
 20
276.457826
 30
700.0
 70
    64
  0
VERTEX
  5
416
  8
TEAM-NET
 10
-734.0
 20
315.96713
 30
700.0
 70
    64
  0
VERTEX
  5
417
  8
TEAM-NET
 10
-734.0
 20
355.476433
 30
700.0
 70
    64
  0
VERTEX
  5
418
  8
TEAM-NET
 10
-733.45732
 20
394.976193
 30
700.0
 70
    64
  0
VERTEX
  5
419
  8
TEAM-NET
 10
-729.380567
 20
434.257621
 30
700.0
 70
    64
  0
VERTEX
  5
41A
  8
TEAM-NET
 10
-721.352078
 20
472.925358
 30
700.0
 70
    64
  0
VERTEX
  5
41B
  8
TEAM-NET
 10
-709.454179
 20
510.582901
 30
700.0
 70
    64
  0
VERTEX
  5
41C
  8
TEAM-NET
 10
-693.808871
 20
546.844104
 30
700.0
 70
    64
  0
VERTEX
  5
41D
  8
TEAM-NET
 10
-674.576584
 20
581.337142
 30
700.0
 70
    64
  0
VERTEX
  5
41E
  8
TEAM-NET
 10
-651.954527
 20
613.708319
 30
700.0
 70
    64
  0
VERTEX
  5
41F
  8
TEAM-NET
 10
-626.17467
 20
643.625697
 30
700.0
 70
    64
  0
VERTEX
  5
420
  8
TEAM-NET
 10
-597.501362
 20
670.7825
 30
700.0
 70
    64
  0
VERTEX
  5
421
  8
TEAM-NET
 10
-566.228623
 20
694.900259
 30
700.0
 70
    64
  0
VERTEX
  5
422
  8
TEAM-NET
 10
-532.677126
 20
715.731667
 30
700.0
 70
    64
  0
VERTEX
  5
423
  8
TEAM-NET
 10
-497.190913
 20
733.063118
 30
700.0
 70
    64
  0
VERTEX
  5
424
  8
TEAM-NET
 10
-460.133862
 20
746.716893
 30
700.0
 70
    64
  0
VERTEX
  5
425
  8
TEAM-NET
 10
-421.885962
 20
756.552984
 30
700.0
 70
    64
  0
VERTEX
  5
426
  8
TEAM-NET
 10
-382.839411
 20
762.470531
 30
700.0
 70
    64
  0
VERTEX
  5
427
  8
TEAM-NET
 10
-343.394596
 20
764.408854
 30
700.0
 70
    64
  0
VERTEX
  5
428
  8
TEAM-NET
 10
-303.955989
 20
762.348078
 30
700.0
 70
    64
  0
VERTEX
  5
429
  8
TEAM-NET
 10
-264.927998
 20
756.309335
 30
700.0
 70
    64
  0
VERTEX
  5
42A
  8
TEAM-NET
 10
-226.710819
 20
746.354546
 30
700.0
 70
    64
  0
VERTEX
  5
42B
  8
TEAM-NET
 10
-189.462541
 20
733.19162
 30
700.0
 70
    64
  0
VERTEX
  5
42C
  8
TEAM-NET
 10
-152.335939
 20
719.678642
 30
700.0
 70
    64
  0
VERTEX
  5
42D
  8
TEAM-NET
 10
-115.209338
 20
706.165664
 30
700.0
 70
    64
  0
VERTEX
  5
42E
  8
TEAM-NET
 10
-78.082737
 20
692.652687
 30
700.0
 70
    64
  0
VERTEX
  5
42F
  8
TEAM-NET
 10
-40.956135
 20
679.139709
 30
700.0
 70
    64
  0
VERTEX
  5
430
  8
TEAM-NET
 10
-3.829534
 20
665.626731
 30
700.0
 70
    64
  0
VERTEX
  5
431
  8
TEAM-NET
 10
33.297067
 20
652.113753
 30
700.0
 70
    64
  0
VERTEX
  5
432
  8
TEAM-NET
 10
70.423669
 20
638.600775
 30
700.0
 70
    64
  0
VERTEX
  5
433
  8
TEAM-NET
 10
107.55027
 20
625.087798
 30
700.0
 70
    64
  0
VERTEX
  5
434
  8
TEAM-NET
 10
144.676871
 20
611.57482
 30
700.0
 70
    64
  0
VERTEX
  5
435
  8
TEAM-NET
 10
181.803473
 20
598.061842
 30
700.0
 70
    64
  0
VERTEX
  5
436
  8
TEAM-NET
 10
218.930074
 20
584.548864
 30
700.0
 70
    64
  0
VERTEX
  5
437
  8
TEAM-NET
 10
256.056675
 20
571.035887
 30
700.0
 70
    64
  0
VERTEX
  5
438
  8
TEAM-NET
 10
293.183276
 20
557.522909
 30
700.0
 70
    64
  0
VERTEX
  5
439
  8
TEAM-NET
 10
330.309878
 20
544.009931
 30
700.0
 70
    64
  0
VERTEX
  5
43A
  8
TEAM-NET
 10
367.397705
 20
530.393398
 30
700.0
 70
    64
  0
VERTEX
  5
43B
  8
TEAM-NET
 10
403.035037
 20
513.406559
 30
700.0
 70
    64
  0
VERTEX
  5
43C
  8
TEAM-NET
 10
436.035029
 20
491.736934
 30
700.0
 70
    64
  0
VERTEX
  5
43D
  8
TEAM-NET
 10
465.786114
 20
465.786114
 30
700.0
 70
    64
  0
VERTEX
  5
43E
  8
TEAM-NET
 10
-705.629509
 20
-705.629509
 30
700.0
 70
    64
  0
VERTEX
  5
43F
  8
TEAM-NET
 10
-734.47233
 20
-673.185133
 30
700.0
 70
    64
  0
VERTEX
  5
440
  8
TEAM-NET
 10
-759.316551
 20
-637.585828
 30
700.0
 70
    64
  0
VERTEX
  5
441
  8
TEAM-NET
 10
-779.820169
 20
-599.321647
 30
700.0
 70
    64
  0
VERTEX
  5
442
  8
TEAM-NET
 10
-795.700934
 20
-558.919331
 30
700.0
 70
    64
  0
VERTEX
  5
443
  8
TEAM-NET
 10
-806.740235
 20
-516.935052
 30
700.0
 70
    64
  0
VERTEX
  5
444
  8
TEAM-NET
 10
-812.786105
 20
-473.94676
 30
700.0
 70
    64
  0
VERTEX
  5
445
  8
TEAM-NET
 10
-814.0
 20
-430.543258
 30
700.0
 70
    64
  0
VERTEX
  5
446
  8
TEAM-NET
 10
-814.0
 20
-387.106963
 30
700.0
 70
    64
  0
VERTEX
  5
447
  8
TEAM-NET
 10
-814.0
 20
-343.670668
 30
700.0
 70
    64
  0
VERTEX
  5
448
  8
TEAM-NET
 10
-814.0
 20
-300.234373
 30
700.0
 70
    64
  0
VERTEX
  5
449
  8
TEAM-NET
 10
-814.0
 20
-256.798079
 30
700.0
 70
    64
  0
VERTEX
  5
44A
  8
TEAM-NET
 10
-814.0
 20
-213.361784
 30
700.0
 70
    64
  0
VERTEX
  5
44B
  8
TEAM-NET
 10
-814.0
 20
-169.925489
 30
700.0
 70
    64
  0
VERTEX
  5
44C
  8
TEAM-NET
 10
-814.0
 20
-126.489195
 30
700.0
 70
    64
  0
VERTEX
  5
44D
  8
TEAM-NET
 10
-814.0
 20
-83.0529
 30
700.0
 70
    64
  0
VERTEX
  5
44E
  8
TEAM-NET
 10
-814.0
 20
-39.616605
 30
700.0
 70
    64
  0
VERTEX
  5
44F
  8
TEAM-NET
 10
-814.0
 20
3.819689
 30
700.0
 70
    64
  0
VERTEX
  5
450
  8
TEAM-NET
 10
-814.0
 20
47.255984
 30
700.0
 70
    64
  0
VERTEX
  5
451
  8
TEAM-NET
 10
-814.0
 20
90.692279
 30
700.0
 70
    64
  0
VERTEX
  5
452
  8
TEAM-NET
 10
-814.0
 20
134.128573
 30
700.0
 70
    64
  0
VERTEX
  5
453
  8
TEAM-NET
 10
-814.0
 20
177.564868
 30
700.0
 70
    64
  0
VERTEX
  5
454
  8
TEAM-NET
 10
-814.0
 20
221.001163
 30
700.0
 70
    64
  0
VERTEX
  5
455
  8
TEAM-NET
 10
-814.0
 20
264.437458
 30
700.0
 70
    64
  0
VERTEX
  5
456
  8
TEAM-NET
 10
-814.0
 20
307.873752
 30
700.0
 70
    64
  0
VERTEX
  5
457
  8
TEAM-NET
 10
-814.0
 20
351.310047
 30
700.0
 70
    64
  0
VERTEX
  5
458
  8
TEAM-NET
 10
-813.560075
 20
394.739996
 30
700.0
 70
    64
  0
VERTEX
  5
459
  8
TEAM-NET
 10
-809.680001
 20
437.987126
 30
700.0
 70
    64
  0
VERTEX
  5
45A
  8
TEAM-NET
 10
-801.825374
 20
480.691623
 30
700.0
 70
    64
  0
VERTEX
  5
45B
  8
TEAM-NET
 10
-790.063233
 20
522.489006
 30
700.0
 70
    64
  0
VERTEX
  5
45C
  8
TEAM-NET
 10
-774.493967
 20
563.022537
 30
700.0
 70
    64
  0
VERTEX
  5
45D
  8
TEAM-NET
 10
-755.250459
 20
601.946265
 30
700.0
 70
    64
  0
VERTEX
  5
45E
  8
TEAM-NET
 10
-732.496952
 20
638.927978
 30
700.0
 70
    64
  0
VERTEX
  5
45F
  8
TEAM-NET
 10
-706.427644
 20
673.65204
 30
700.0
 70
    64
  0
VERTEX
  5
460
  8
TEAM-NET
 10
-677.265037
 20
705.822081
 30
700.0
 70
    64
  0
VERTEX
  5
461
  8
TEAM-NET
 10
-645.258031
 20
735.163532
 30
700.0
 70
    64
  0
VERTEX
  5
462
  8
TEAM-NET
 10
-610.679805
 20
761.425967
 30
700.0
 70
    64
  0
VERTEX
  5
463
  8
TEAM-NET
 10
-573.825481
 20
784.385236
 30
700.0
 70
    64
  0
VERTEX
  5
464
  8
TEAM-NET
 10
-535.009609
 20
803.845383
 30
700.0
 70
    64
  0
VERTEX
  5
465
  8
TEAM-NET
 10
-494.563482
 20
819.640318
 30
700.0
 70
    64
  0
VERTEX
  5
466
  8
TEAM-NET
 10
-452.832303
 20
831.635231
 30
700.0
 70
    64
  0
VERTEX
  5
467
  8
TEAM-NET
 10
-410.172247
 20
839.727746
 30
700.0
 70
    64
  0
VERTEX
  5
468
  8
TEAM-NET
 10
-366.947414
 20
843.848794
 30
700.0
 70
    64
  0
VERTEX
  5
469
  8
TEAM-NET
 10
-323.526726
 20
843.963203
 30
700.0
 70
    64
  0
VERTEX
  5
46A
  8
TEAM-NET
 10
-280.280777
 20
840.069995
 30
700.0
 70
    64
  0
VERTEX
  5
46B
  8
TEAM-NET
 10
-237.578667
 20
832.202399
 30
700.0
 70
    64
  0
VERTEX
  5
46C
  8
TEAM-NET
 10
-195.784858
 20
820.427565
 30
700.0
 70
    64
  0
VERTEX
  5
46D
  8
TEAM-NET
 10
-154.90566
 20
805.748166
 30
700.0
 70
    64
  0
VERTEX
  5
46E
  8
TEAM-NET
 10
-114.088895
 20
790.892078
 30
700.0
 70
    64
  0
VERTEX
  5
46F
  8
TEAM-NET
 10
-73.272129
 20
776.03599
 30
700.0
 70
    64
  0
VERTEX
  5
470
  8
TEAM-NET
 10
-32.455364
 20
761.179903
 30
700.0
 70
    64
  0
VERTEX
  5
471
  8
TEAM-NET
 10
8.361402
 20
746.323815
 30
700.0
 70
    64
  0
VERTEX
  5
472
  8
TEAM-NET
 10
49.178168
 20
731.467727
 30
700.0
 70
    64
  0
VERTEX
  5
473
  8
TEAM-NET
 10
89.994933
 20
716.611639
 30
700.0
 70
    64
  0
VERTEX
  5
474
  8
TEAM-NET
 10
130.811699
 20
701.755552
 30
700.0
 70
    64
  0
VERTEX
  5
475
  8
TEAM-NET
 10
171.628464
 20
686.899464
 30
700.0
 70
    64
  0
VERTEX
  5
476
  8
TEAM-NET
 10
212.44523
 20
672.043376
 30
700.0
 70
    64
  0
VERTEX
  5
477
  8
TEAM-NET
 10
253.261996
 20
657.187289
 30
700.0
 70
    64
  0
VERTEX
  5
478
  8
TEAM-NET
 10
294.078761
 20
642.331201
 30
700.0
 70
    64
  0
VERTEX
  5
479
  8
TEAM-NET
 10
334.895527
 20
627.475113
 30
700.0
 70
    64
  0
VERTEX
  5
47A
  8
TEAM-NET
 10
375.712292
 20
612.619025
 30
700.0
 70
    64
  0
VERTEX
  5
47B
  8
TEAM-NET
 10
416.046795
 20
596.545317
 30
700.0
 70
    64
  0
VERTEX
  5
47C
  8
TEAM-NET
 10
454.310975
 20
576.041698
 30
700.0
 70
    64
  0
VERTEX
  5
47D
  8
TEAM-NET
 10
489.910281
 20
551.197478
 30
700.0
 70
    64
  0
VERTEX
  5
47E
  8
TEAM-NET
 10
522.354657
 20
522.354657
 30
700.0
 70
    64
  0
SEQEND
  5
47F
  8
TEAM-NET
  0
POLYLINE
  5
480
  8
TEAM-NET
 66
     1
 10
0.0
 20
0.0
 30
0.0
 70
    16
 71
     2
 72
    65
  0
VERTEX
  5
481
  8
TEAM-NET
 10
-649.060967
 20
-649.060967
 30
700.0
 70
    64
  0
VERTEX
  5
482
  8
TEAM-NET
 10
-619.309881
 20
-675.011786
 30
700.0
 70
    64
  0
VERTEX
  5
483
  8
TEAM-NET
 10
-586.309889
 20
-696.681411
 30
700.0
 70
    64
  0
VERTEX
  5
484
  8
TEAM-NET
 10
-550.672557
 20
-713.668251
 30
700.0
 70
    64
  0
VERTEX
  5
485
  8
TEAM-NET
 10
-513.058331
 20
-725.657499
 30
700.0
 70
    64
  0
VERTEX
  5
486
  8
TEAM-NET
 10
-474.16429
 20
-732.426968
 30
700.0
 70
    64
  0
VERTEX
  5
487
  8
TEAM-NET
 10
-434.709644
 20
-734.0
 30
700.0
 70
    64
  0
VERTEX
  5
488
  8
TEAM-NET
 10
-395.20034
 20
-734.0
 30
700.0
 70
    64
  0
VERTEX
  5
489
  8
TEAM-NET
 10
-355.691036
 20
-734.0
 30
700.0
 70
    64
  0
VERTEX
  5
48A
  8
TEAM-NET
 10
-316.181732
 20
-734.0
 30
700.0
 70
    64
  0
VERTEX
  5
48B
  8
TEAM-NET
 10
-276.672429
 20
-734.0
 30
700.0
 70
    64
  0
VERTEX
  5
48C
  8
TEAM-NET
 10
-237.163125
 20
-734.0
 30
700.0
 70
    64
  0
VERTEX
  5
48D
  8
TEAM-NET
 10
-197.653821
 20
-734.0
 30
700.0
 70
    64
  0
VERTEX
  5
48E
  8
TEAM-NET
 10
-158.144517
 20
-734.0
 30
700.0
 70
    64
  0
VERTEX
  5
48F
  8
TEAM-NET
 10
-118.635213
 20
-734.0
 30
700.0
 70
    64
  0
VERTEX
  5
490
  8
TEAM-NET
 10
-79.125909
 20
-734.0
 30
700.0
 70
    64
  0
VERTEX
  5
491
  8
TEAM-NET
 10
-39.616605
 20
-734.0
 30
700.0
 70
    64
  0
VERTEX
  5
492
  8
TEAM-NET
 10
-0.107301
 20
-734.0
 30
700.0
 70
    64
  0
VERTEX
  5
493
  8
TEAM-NET
 10
39.402002
 20
-734.0
 30
700.0
 70
    64
  0
VERTEX
  5
494
  8
TEAM-NET
 10
78.911306
 20
-734.0
 30
700.0
 70
    64
  0
VERTEX
  5
495
  8
TEAM-NET
 10
118.42061
 20
-734.0
 30
700.0
 70
    64
  0
VERTEX
  5
496
  8
TEAM-NET
 10
157.929914
 20
-734.0
 30
700.0
 70
    64
  0
VERTEX
  5
497
  8
TEAM-NET
 10
197.439218
 20
-734.0
 30
700.0
 70
    64
  0
VERTEX
  5
498
  8
TEAM-NET
 10
236.948522
 20
-734.0
 30
700.0
 70
    64
  0
VERTEX
  5
499
  8
TEAM-NET
 10
276.457826
 20
-734.0
 30
700.0
 70
    64
  0
VERTEX
  5
49A
  8
TEAM-NET
 10
315.96713
 20
-734.0
 30
700.0
 70
    64
  0
VERTEX
  5
49B
  8
TEAM-NET
 10
355.476433
 20
-734.0
 30
700.0
 70
    64
  0
VERTEX
  5
49C
  8
TEAM-NET
 10
394.976193
 20
-733.45732
 30
700.0
 70
    64
  0
VERTEX
  5
49D
  8
TEAM-NET
 10
434.257621
 20
-729.380567
 30
700.0
 70
    64
  0
VERTEX
  5
49E
  8
TEAM-NET
 10
472.925358
 20
-721.352078
 30
700.0
 70
    64
  0
VERTEX
  5
49F
  8
TEAM-NET
 10
510.582901
 20
-709.454179
 30
700.0
 70
    64
  0
VERTEX
  5
4A0
  8
TEAM-NET
 10
546.844104
 20
-693.808871
 30
700.0
 70
    64
  0
VERTEX
  5
4A1
  8
TEAM-NET
 10
581.337142
 20
-674.576584
 30
700.0
 70
    64
  0
VERTEX
  5
4A2
  8
TEAM-NET
 10
613.708319
 20
-651.954527
 30
700.0
 70
    64
  0
VERTEX
  5
4A3
  8
TEAM-NET
 10
643.625697
 20
-626.17467
 30
700.0
 70
    64
  0
VERTEX
  5
4A4
  8
TEAM-NET
 10
670.7825
 20
-597.501362
 30
700.0
 70
    64
  0
VERTEX
  5
4A5
  8
TEAM-NET
 10
694.900259
 20
-566.228623
 30
700.0
 70
    64
  0
VERTEX
  5
4A6
  8
TEAM-NET
 10
715.731667
 20
-532.677126
 30
700.0
 70
    64
  0
VERTEX
  5
4A7
  8
TEAM-NET
 10
733.063118
 20
-497.190913
 30
700.0
 70
    64
  0
VERTEX
  5
4A8
  8
TEAM-NET
 10
746.716893
 20
-460.133862
 30
700.0
 70
    64
  0
VERTEX
  5
4A9
  8
TEAM-NET
 10
756.552984
 20
-421.885962
 30
700.0
 70
    64
  0
VERTEX
  5
4AA
  8
TEAM-NET
 10
762.470531
 20
-382.839411
 30
700.0
 70
    64
  0
VERTEX
  5
4AB
  8
TEAM-NET
 10
764.408854
 20
-343.394596
 30
700.0
 70
    64
  0
VERTEX
  5
4AC
  8
TEAM-NET
 10
762.348078
 20
-303.955989
 30
700.0
 70
    64
  0
VERTEX
  5
4AD
  8
TEAM-NET
 10
756.309335
 20
-264.927998
 30
700.0
 70
    64
  0
VERTEX
  5
4AE
  8
TEAM-NET
 10
746.354546
 20
-226.710819
 30
700.0
 70
    64
  0
VERTEX
  5
4AF
  8
TEAM-NET
 10
733.19162
 20
-189.462541
 30
700.0
 70
    64
  0
VERTEX
  5
4B0
  8
TEAM-NET
 10
719.678642
 20
-152.335939
 30
700.0
 70
    64
  0
VERTEX
  5
4B1
  8
TEAM-NET
 10
706.165664
 20
-115.209338
 30
700.0
 70
    64
  0
VERTEX
  5
4B2
  8
TEAM-NET
 10
692.652687
 20
-78.082737
 30
700.0
 70
    64
  0
VERTEX
  5
4B3
  8
TEAM-NET
 10
679.139709
 20
-40.956135
 30
700.0
 70
    64
  0
VERTEX
  5
4B4
  8
TEAM-NET
 10
665.626731
 20
-3.829534
 30
700.0
 70
    64
  0
VERTEX
  5
4B5
  8
TEAM-NET
 10
652.113753
 20
33.297067
 30
700.0
 70
    64
  0
VERTEX
  5
4B6
  8
TEAM-NET
 10
638.600775
 20
70.423669
 30
700.0
 70
    64
  0
VERTEX
  5
4B7
  8
TEAM-NET
 10
625.087798
 20
107.55027
 30
700.0
 70
    64
  0
VERTEX
  5
4B8
  8
TEAM-NET
 10
611.57482
 20
144.676871
 30
700.0
 70
    64
  0
VERTEX
  5
4B9
  8
TEAM-NET
 10
598.061842
 20
181.803473
 30
700.0
 70
    64
  0
VERTEX
  5
4BA
  8
TEAM-NET
 10
584.548864
 20
218.930074
 30
700.0
 70
    64
  0
VERTEX
  5
4BB
  8
TEAM-NET
 10
571.035887
 20
256.056675
 30
700.0
 70
    64
  0
VERTEX
  5
4BC
  8
TEAM-NET
 10
557.522909
 20
293.183276
 30
700.0
 70
    64
  0
VERTEX
  5
4BD
  8
TEAM-NET
 10
544.009931
 20
330.309878
 30
700.0
 70
    64
  0
VERTEX
  5
4BE
  8
TEAM-NET
 10
530.393398
 20
367.397705
 30
700.0
 70
    64
  0
VERTEX
  5
4BF
  8
TEAM-NET
 10
513.406559
 20
403.035037
 30
700.0
 70
    64
  0
VERTEX
  5
4C0
  8
TEAM-NET
 10
491.736934
 20
436.035029
 30
700.0
 70
    64
  0
VERTEX
  5
4C1
  8
TEAM-NET
 10
465.786114
 20
465.786114
 30
700.0
 70
    64
  0
VERTEX
  5
4C2
  8
TEAM-NET
 10
-705.629509
 20
-705.629509
 30
700.0
 70
    64
  0
VERTEX
  5
4C3
  8
TEAM-NET
 10
-673.185133
 20
-734.47233
 30
700.0
 70
    64
  0
VERTEX
  5
4C4
  8
TEAM-NET
 10
-637.585828
 20
-759.316551
 30
700.0
 70
    64
  0
VERTEX
  5
4C5
  8
TEAM-NET
 10
-599.321647
 20
-779.820169
 30
700.0
 70
    64
  0
VERTEX
  5
4C6
  8
TEAM-NET
 10
-558.919331
 20
-795.700934
 30
700.0
 70
    64
  0
VERTEX
  5
4C7
  8
TEAM-NET
 10
-516.935052
 20
-806.740235
 30
700.0
 70
    64
  0
VERTEX
  5
4C8
  8
TEAM-NET
 10
-473.94676
 20
-812.786105
 30
700.0
 70
    64
  0
VERTEX
  5
4C9
  8
TEAM-NET
 10
-430.543258
 20
-814.0
 30
700.0
 70
    64
  0
VERTEX
  5
4CA
  8
TEAM-NET
 10
-387.106963
 20
-814.0
 30
700.0
 70
    64
  0
VERTEX
  5
4CB
  8
TEAM-NET
 10
-343.670668
 20
-814.0
 30
700.0
 70
    64
  0
VERTEX
  5
4CC
  8
TEAM-NET
 10
-300.234373
 20
-814.0
 30
700.0
 70
    64
  0
VERTEX
  5
4CD
  8
TEAM-NET
 10
-256.798079
 20
-814.0
 30
700.0
 70
    64
  0
VERTEX
  5
4CE
  8
TEAM-NET
 10
-213.361784
 20
-814.0
 30
700.0
 70
    64
  0
VERTEX
  5
4CF
  8
TEAM-NET
 10
-169.925489
 20
-814.0
 30
700.0
 70
    64
  0
VERTEX
  5
4D0
  8
TEAM-NET
 10
-126.489195
 20
-814.0
 30
700.0
 70
    64
  0
VERTEX
  5
4D1
  8
TEAM-NET
 10
-83.0529
 20
-814.0
 30
700.0
 70
    64
  0
VERTEX
  5
4D2
  8
TEAM-NET
 10
-39.616605
 20
-814.0
 30
700.0
 70
    64
  0
VERTEX
  5
4D3
  8
TEAM-NET
 10
3.819689
 20
-814.0
 30
700.0
 70
    64
  0
VERTEX
  5
4D4
  8
TEAM-NET
 10
47.255984
 20
-814.0
 30
700.0
 70
    64
  0
VERTEX
  5
4D5
  8
TEAM-NET
 10
90.692279
 20
-814.0
 30
700.0
 70
    64
  0
VERTEX
  5
4D6
  8
TEAM-NET
 10
134.128573
 20
-814.0
 30
700.0
 70
    64
  0
VERTEX
  5
4D7
  8
TEAM-NET
 10
177.564868
 20
-814.0
 30
700.0
 70
    64
  0
VERTEX
  5
4D8
  8
TEAM-NET
 10
221.001163
 20
-814.0
 30
700.0
 70
    64
  0
VERTEX
  5
4D9
  8
TEAM-NET
 10
264.437458
 20
-814.0
 30
700.0
 70
    64
  0
VERTEX
  5
4DA
  8
TEAM-NET
 10
307.873752
 20
-814.0
 30
700.0
 70
    64
  0
VERTEX
  5
4DB
  8
TEAM-NET
 10
351.310047
 20
-814.0
 30
700.0
 70
    64
  0
VERTEX
  5
4DC
  8
TEAM-NET
 10
394.739996
 20
-813.560075
 30
700.0
 70
    64
  0
VERTEX
  5
4DD
  8
TEAM-NET
 10
437.987126
 20
-809.680001
 30
700.0
 70
    64
  0
VERTEX
  5
4DE
  8
TEAM-NET
 10
480.691623
 20
-801.825374
 30
700.0
 70
    64
  0
VERTEX
  5
4DF
  8
TEAM-NET
 10
522.489006
 20
-790.063233
 30
700.0
 70
    64
  0
VERTEX
  5
4E0
  8
TEAM-NET
 10
563.022537
 20
-774.493967
 30
700.0
 70
    64
  0
VERTEX
  5
4E1
  8
TEAM-NET
 10
601.946265
 20
-755.250459
 30
700.0
 70
    64
  0
VERTEX
  5
4E2
  8
TEAM-NET
 10
638.927978
 20
-732.496952
 30
700.0
 70
    64
  0
VERTEX
  5
4E3
  8
TEAM-NET
 10
673.65204
 20
-706.427644
 30
700.0
 70
    64
  0
VERTEX
  5
4E4
  8
TEAM-NET
 10
705.822081
 20
-677.265037
 30
700.0
 70
    64
  0
VERTEX
  5
4E5
  8
TEAM-NET
 10
735.163532
 20
-645.258031
 30
700.0
 70
    64
  0
VERTEX
  5
4E6
  8
TEAM-NET
 10
761.425967
 20
-610.679805
 30
700.0
 70
    64
  0
VERTEX
  5
4E7
  8
TEAM-NET
 10
784.385236
 20
-573.825481
 30
700.0
 70
    64
  0
VERTEX
  5
4E8
  8
TEAM-NET
 10
803.845383
 20
-535.009609
 30
700.0
 70
    64
  0
VERTEX
  5
4E9
  8
TEAM-NET
 10
819.640318
 20
-494.563482
 30
700.0
 70
    64
  0
VERTEX
  5
4EA
  8
TEAM-NET
 10
831.635231
 20
-452.832303
 30
700.0
 70
    64
  0
VERTEX
  5
4EB
  8
TEAM-NET
 10
839.727746
 20
-410.172247
 30
700.0
 70
    64
  0
VERTEX
  5
4EC
  8
TEAM-NET
 10
843.848794
 20
-366.947414
 30
700.0
 70
    64
  0
VERTEX
  5
4ED
  8
TEAM-NET
 10
843.963203
 20
-323.526726
 30
700.0
 70
    64
  0
VERTEX
  5
4EE
  8
TEAM-NET
 10
840.069995
 20
-280.280777
 30
700.0
 70
    64
  0
VERTEX
  5
4EF
  8
TEAM-NET
 10
832.202399
 20
-237.578667
 30
700.0
 70
    64
  0
VERTEX
  5
4F0
  8
TEAM-NET
 10
820.427565
 20
-195.784858
 30
700.0
 70
    64
  0
VERTEX
  5
4F1
  8
TEAM-NET
 10
805.748166
 20
-154.90566
 30
700.0
 70
    64
  0
VERTEX
  5
4F2
  8
TEAM-NET
 10
790.892078
 20
-114.088895
 30
700.0
 70
    64
  0
VERTEX
  5
4F3
  8
TEAM-NET
 10
776.03599
 20
-73.272129
 30
700.0
 70
    64
  0
VERTEX
  5
4F4
  8
TEAM-NET
 10
761.179903
 20
-32.455364
 30
700.0
 70
    64
  0
VERTEX
  5
4F5
  8
TEAM-NET
 10
746.323815
 20
8.361402
 30
700.0
 70
    64
  0
VERTEX
  5
4F6
  8
TEAM-NET
 10
731.467727
 20
49.178168
 30
700.0
 70
    64
  0
VERTEX
  5
4F7
  8
TEAM-NET
 10
716.611639
 20
89.994933
 30
700.0
 70
    64
  0
VERTEX
  5
4F8
  8
TEAM-NET
 10
701.755552
 20
130.811699
 30
700.0
 70
    64
  0
VERTEX
  5
4F9
  8
TEAM-NET
 10
686.899464
 20
171.628464
 30
700.0
 70
    64
  0
VERTEX
  5
4FA
  8
TEAM-NET
 10
672.043376
 20
212.44523
 30
700.0
 70
    64
  0
VERTEX
  5
4FB
  8
TEAM-NET
 10
657.187289
 20
253.261996
 30
700.0
 70
    64
  0
VERTEX
  5
4FC
  8
TEAM-NET
 10
642.331201
 20
294.078761
 30
700.0
 70
    64
  0
VERTEX
  5
4FD
  8
TEAM-NET
 10
627.475113
 20
334.895527
 30
700.0
 70
    64
  0
VERTEX
  5
4FE
  8
TEAM-NET
 10
612.619025
 20
375.712292
 30
700.0
 70
    64
  0
VERTEX
  5
4FF
  8
TEAM-NET
 10
596.545317
 20
416.046795
 30
700.0
 70
    64
  0
VERTEX
  5
500
  8
TEAM-NET
 10
576.041698
 20
454.310975
 30
700.0
 70
    64
  0
VERTEX
  5
501
  8
TEAM-NET
 10
551.197478
 20
489.910281
 30
700.0
 70
    64
  0
VERTEX
  5
502
  8
TEAM-NET
 10
522.354657
 20
522.354657
 30
700.0
 70
    64
  0
SEQEND
  5
503
  8
TEAM-NET
  0
POLYLINE
  5
504
  8
TEAM-BODY
 66
     1
 10
0.0
 20
0.0
 30
700.0
  0
VERTEX
  5
78A
  8
TEAM-BODY
 10
465.786114
 20
465.786114
 30
700.0
 42
-0.109518
  0
VERTEX
  5
78B
  8
TEAM-BODY
 10
533.236008
 20
359.910989
 30
700.0
  0
VERTEX
  5
78C
  8
TEAM-BODY
 10
740.889446
 20
-210.612144
 30
700.0
 42
-0.520567
  0
VERTEX
  5
78D
  8
TEAM-BODY
 10
374.409324
 20
-734.0
 30
700.0
  0
VERTEX
  5
78E
  8
TEAM-BODY
 10
-444.0
 20
-734.0
 30
700.0
 42
-0.198912
  0
VERTEX
  5
78F
  8
TEAM-BODY
 10
-649.060967
 20
-649.060967
 30
700.0
  0
SEQEND
  5
790
  8
TEAM-BODY
  0
POLYLINE
  5
505
  8
TEAM-BODY
 66
     1
 10
0.0
 20
0.0
 30
700.0
  0
VERTEX
  5
791
  8
TEAM-BODY
 10
-705.629509
 20
-705.629509
 30
700.0
 42
0.198912
  0
VERTEX
  5
792
  8
TEAM-BODY
 10
-444.0
 20
-814.0
 30
700.0
  0
VERTEX
  5
793
  8
TEAM-BODY
 10
374.409324
 20
-814.0
 30
700.0
 42
0.520567
  0
VERTEX
  5
794
  8
TEAM-BODY
 10
816.064856
 20
-183.250533
 30
700.0
  0
VERTEX
  5
795
  8
TEAM-BODY
 10
608.411417
 20
387.272601
 30
700.0
 42
0.109518
  0
VERTEX
  5
796
  8
TEAM-BODY
 10
522.354657
 20
522.354657
 30
700.0
  0
SEQEND
  5
797
  8
TEAM-BODY
  0
POLYLINE
  5
506
  8
TEAM-BODY
 66
     1
 10
0.0
 20
0.0
 30
700.0
  0
VERTEX
  5
798
  8
TEAM-BODY
 10
540.763318
 20
540.763318
 30
700.0
 42
-0.109518
  0
VERTEX
  5
799
  8
TEAM-BODY
 10
630.308867
 20
400.204963
 30
700.0
  0
VERTEX
  5
79A
  8
TEAM-BODY
 10
839.557171
 20
-174.700029
 30
700.0
 42
-0.514448
  0
VERTEX
  5
79B
  8
TEAM-BODY
 10
374.409324
 20
-844.0
 30
700.0
  0
VERTEX
  5
79C
  8
TEAM-BODY
 10
-444.0
 20
-844.0
 30
700.0
 42
-0.198912
  0
VERTEX
  5
79D
  8
TEAM-BODY
 10
-726.842712
 20
-726.842712
 30
700.0
  0
SEQEND
  5
79E
  8
TEAM-BODY
  0
POLYLINE
  5
507
  8
TEAM-BODY
 66
     1
 10
0.0
 20
0.0
 30
700.0
  0
VERTEX
  5
79F
  8
TEAM-BODY
 10
-649.060967
 20
-649.060967
 30
700.0
 42
-0.198912
  0
VERTEX
  5
7A0
  8
TEAM-BODY
 10
-734.0
 20
-444.0
 30
700.0
  0
VERTEX
  5
7A1
  8
TEAM-BODY
 10
-734.0
 20
374.409324
 30
700.0
 42
-0.520567
  0
VERTEX
  5
7A2
  8
TEAM-BODY
 10
-210.612144
 20
740.889446
 30
700.0
  0
VERTEX
  5
7A3
  8
TEAM-BODY
 10
359.910989
 20
533.236008
 30
700.0
 42
-0.109518
  0
VERTEX
  5
7A4
  8
TEAM-BODY
 10
465.786114
 20
465.786114
 30
700.0
  0
SEQEND
  5
7A5
  8
TEAM-BODY
  0
POLYLINE
  5
508
  8
TEAM-DET1
 66
     1
 10
0.0
 20
0.0
 30
700.0
 70
     1
  0
VERTEX
  5
7A6
  8
TEAM-DET1
 10
-26.200962
 20
-804.173518
 30
700.0
  0
VERTEX
  5
7A7
  8
TEAM-DET1
 10
73.272817
 20
-804.173518
 30
700.0
  0
VERTEX
  5
7A8
  8
TEAM-DET1
 10
73.272817
 20
-785.667418
 30
700.0
  0
VERTEX
  5
7A9
  8
TEAM-DET1
 10
-26.200962
 20
-785.667418
 30
700.0
  0
SEQEND
  5
7AA
  8
TEAM-DET1
  0
POLYLINE
  5
50A
  8
TEAM-DET1
 66
     1
 10
0.0
 20
0.0
 30
700.0
 70
     1
  0
VERTEX
  5
7AB
  8
TEAM-DET1
 10
-2.464073
 20
-794.920468
 30
700.0
  0
VERTEX
  5
7AC
  8
TEAM-DET1
 10
-2.143969
 20
-794.02097
 30
700.0
  0
VERTEX
  5
7AD
  8
TEAM-DET1
 10
-1.191542
 20
-793.14362
 30
700.0
  0
VERTEX
  5
7AE
  8
TEAM-DET1
 10
0.369758
 20
-792.310022
 30
700.0
  0
VERTEX
  5
7AF
  8
TEAM-DET1
 10
2.501486
 20
-791.540702
 30
700.0
  0
VERTEX
  5
7B0
  8
TEAM-DET1
 10
5.151151
 20
-790.854604
 30
700.0
  0
VERTEX
  5
7B1
  8
TEAM-DET1
 10
8.253511
 20
-790.26862
 30
700.0
  0
VERTEX
  5
7B2
  8
TEAM-DET1
 10
11.732174
 20
-789.79718
 30
700.0
  0
VERTEX
  5
7B3
  8
TEAM-DET1
 10
15.501486
 20
-789.451893
 30
700.0
  0
VERTEX
  5
7B4
  8
TEAM-DET1
 10
19.468631
 20
-789.24126
 30
700.0
  0
VERTEX
  5
7B5
  8
TEAM-DET1
 10
23.535927
 20
-789.170468
 30
700.0
  0
VERTEX
  5
7B6
  8
TEAM-DET1
 10
27.603223
 20
-789.24126
 30
700.0
  0
VERTEX
  5
7B7
  8
TEAM-DET1
 10
31.570369
 20
-789.451893
 30
700.0
  0
VERTEX
  5
7B8
  8
TEAM-DET1
 10
35.33968
 20
-789.79718
 30
700.0
  0
VERTEX
  5
7B9
  8
TEAM-DET1
 10
38.818344
 20
-790.26862
 30
700.0
  0
VERTEX
  5
7BA
  8
TEAM-DET1
 10
41.920704
 20
-790.854604
 30
700.0
  0
VERTEX
  5
7BB
  8
TEAM-DET1
 10
44.570369
 20
-791.540702
 30
700.0
  0
VERTEX
  5
7BC
  8
TEAM-DET1
 10
46.702097
 20
-792.310022
 30
700.0
  0
VERTEX
  5
7BD
  8
TEAM-DET1
 10
48.263397
 20
-793.14362
 30
700.0
  0
VERTEX
  5
7BE
  8
TEAM-DET1
 10
49.215824
 20
-794.02097
 30
700.0
  0
VERTEX
  5
7BF
  8
TEAM-DET1
 10
49.535927
 20
-794.920468
 30
700.0
  0
VERTEX
  5
7C0
  8
TEAM-DET1
 10
49.215824
 20
-795.819966
 30
700.0
  0
VERTEX
  5
7C1
  8
TEAM-DET1
 10
48.263397
 20
-796.697315
 30
700.0
  0
VERTEX
  5
7C2
  8
TEAM-DET1
 10
46.702097
 20
-797.530913
 30
700.0
  0
VERTEX
  5
7C3
  8
TEAM-DET1
 10
44.570369
 20
-798.300233
 30
700.0
  0
VERTEX
  5
7C4
  8
TEAM-DET1
 10
41.920704
 20
-798.986332
 30
700.0
  0
VERTEX
  5
7C5
  8
TEAM-DET1
 10
38.818344
 20
-799.572315
 30
700.0
  0
VERTEX
  5
7C6
  8
TEAM-DET1
 10
35.33968
 20
-800.043755
 30
700.0
  0
VERTEX
  5
7C7
  8
TEAM-DET1
 10
31.570369
 20
-800.389043
 30
700.0
  0
VERTEX
  5
7C8
  8
TEAM-DET1
 10
27.603223
 20
-800.599676
 30
700.0
  0
VERTEX
  5
7C9
  8
TEAM-DET1
 10
23.535927
 20
-800.670468
 30
700.0
  0
VERTEX
  5
7CA
  8
TEAM-DET1
 10
19.468631
 20
-800.599676
 30
700.0
  0
VERTEX
  5
7CB
  8
TEAM-DET1
 10
15.501486
 20
-800.389043
 30
700.0
  0
VERTEX
  5
7CC
  8
TEAM-DET1
 10
11.732174
 20
-800.043755
 30
700.0
  0
VERTEX
  5
7CD
  8
TEAM-DET1
 10
8.253511
 20
-799.572315
 30
700.0
  0
VERTEX
  5
7CE
  8
TEAM-DET1
 10
5.151151
 20
-798.986332
 30
700.0
  0
VERTEX
  5
7CF
  8
TEAM-DET1
 10
2.501486
 20
-798.300233
 30
700.0
  0
VERTEX
  5
7D0
  8
TEAM-DET1
 10
0.369758
 20
-797.530913
 30
700.0
  0
VERTEX
  5
7D1
  8
TEAM-DET1
 10
-1.191542
 20
-796.697315
 30
700.0
  0
VERTEX
  5
7D2
  8
TEAM-DET1
 10
-2.143969
 20
-795.819966
 30
700.0
  0
SEQEND
  5
7D3
  8
TEAM-DET1
  0
POLYLINE
  5
50B
  8
TEAM-DET1
 66
     1
 10
0.0
 20
0.0
 30
700.0
 70
     1
  0
VERTEX
  5
7D4
  8
TEAM-DET1
 10
-804.173518
 20
-86.866089
 30
700.0
  0
VERTEX
  5
7D5
  8
TEAM-DET1
 10
-804.173518
 20
12.60769
 30
700.0
  0
VERTEX
  5
7D6
  8
TEAM-DET1
 10
-785.667418
 20
12.60769
 30
700.0
  0
VERTEX
  5
7D7
  8
TEAM-DET1
 10
-785.667418
 20
-86.866089
 30
700.0
  0
SEQEND
  5
7D8
  8
TEAM-DET1
  0
POLYLINE
  5
50C
  8
TEAM-DET1
 66
     1
 10
0.0
 20
0.0
 30
700.0
 70
     1
  0
VERTEX
  5
7D9
  8
TEAM-DET1
 10
-794.920468
 20
-63.129199
 30
700.0
  0
VERTEX
  5
7DA
  8
TEAM-DET1
 10
-794.02097
 20
-62.809095
 30
700.0
  0
VERTEX
  5
7DB
  8
TEAM-DET1
 10
-793.14362
 20
-61.856668
 30
700.0
  0
VERTEX
  5
7DC
  8
TEAM-DET1
 10
-792.310022
 20
-60.295368
 30
700.0
  0
VERTEX
  5
7DD
  8
TEAM-DET1
 10
-791.540702
 20
-58.16364
 30
700.0
  0
VERTEX
  5
7DE
  8
TEAM-DET1
 10
-790.854604
 20
-55.513975
 30
700.0
  0
VERTEX
  5
7DF
  8
TEAM-DET1
 10
-790.26862
 20
-52.411615
 30
700.0
  0
VERTEX
  5
7E0
  8
TEAM-DET1
 10
-789.79718
 20
-48.932952
 30
700.0
  0
VERTEX
  5
7E1
  8
TEAM-DET1
 10
-789.451893
 20
-45.16364
 30
700.0
  0
VERTEX
  5
7E2
  8
TEAM-DET1
 10
-789.24126
 20
-41.196495
 30
700.0
  0
VERTEX
  5
7E3
  8
TEAM-DET1
 10
-789.170468
 20
-37.129199
 30
700.0
  0
VERTEX
  5
7E4
  8
TEAM-DET1
 10
-789.24126
 20
-33.061903
 30
700.0
  0
VERTEX
  5
7E5
  8
TEAM-DET1
 10
-789.451893
 20
-29.094757
 30
700.0
  0
VERTEX
  5
7E6
  8
TEAM-DET1
 10
-789.79718
 20
-25.325446
 30
700.0
  0
VERTEX
  5
7E7
  8
TEAM-DET1
 10
-790.26862
 20
-21.846782
 30
700.0
  0
VERTEX
  5
7E8
  8
TEAM-DET1
 10
-790.854604
 20
-18.744422
 30
700.0
  0
VERTEX
  5
7E9
  8
TEAM-DET1
 10
-791.540702
 20
-16.094757
 30
700.0
  0
VERTEX
  5
7EA
  8
TEAM-DET1
 10
-792.310022
 20
-13.963029
 30
700.0
  0
VERTEX
  5
7EB
  8
TEAM-DET1
 10
-793.14362
 20
-12.401729
 30
700.0
  0
VERTEX
  5
7EC
  8
TEAM-DET1
 10
-794.02097
 20
-11.449302
 30
700.0
  0
VERTEX
  5
7ED
  8
TEAM-DET1
 10
-794.920468
 20
-11.129199
 30
700.0
  0
VERTEX
  5
7EE
  8
TEAM-DET1
 10
-795.819966
 20
-11.449302
 30
700.0
  0
VERTEX
  5
7EF
  8
TEAM-DET1
 10
-796.697315
 20
-12.401729
 30
700.0
  0
VERTEX
  5
7F0
  8
TEAM-DET1
 10
-797.530913
 20
-13.963029
 30
700.0
  0
VERTEX
  5
7F1
  8
TEAM-DET1
 10
-798.300233
 20
-16.094757
 30
700.0
  0
VERTEX
  5
7F2
  8
TEAM-DET1
 10
-798.986332
 20
-18.744422
 30
700.0
  0
VERTEX
  5
7F3
  8
TEAM-DET1
 10
-799.572315
 20
-21.846782
 30
700.0
  0
VERTEX
  5
7F4
  8
TEAM-DET1
 10
-800.043755
 20
-25.325446
 30
700.0
  0
VERTEX
  5
7F5
  8
TEAM-DET1
 10
-800.389043
 20
-29.094757
 30
700.0
  0
VERTEX
  5
7F6
  8
TEAM-DET1
 10
-800.599676
 20
-33.061903
 30
700.0
  0
VERTEX
  5
7F7
  8
TEAM-DET1
 10
-800.670468
 20
-37.129199
 30
700.0
  0
VERTEX
  5
7F8
  8
TEAM-DET1
 10
-800.599676
 20
-41.196495
 30
700.0
  0
VERTEX
  5
7F9
  8
TEAM-DET1
 10
-800.389043
 20
-45.16364
 30
700.0
  0
VERTEX
  5
7FA
  8
TEAM-DET1
 10
-800.043755
 20
-48.932952
 30
700.0
  0
VERTEX
  5
7FB
  8
TEAM-DET1
 10
-799.572315
 20
-52.411615
 30
700.0
  0
VERTEX
  5
7FC
  8
TEAM-DET1
 10
-798.986332
 20
-55.513975
 30
700.0
  0
VERTEX
  5
7FD
  8
TEAM-DET1
 10
-798.300233
 20
-58.16364
 30
700.0
  0
VERTEX
  5
7FE
  8
TEAM-DET1
 10
-797.530913
 20
-60.295368
 30
700.0
  0
VERTEX
  5
7FF
  8
TEAM-DET1
 10
-796.697315
 20
-61.856668
 30
700.0
  0
VERTEX
  5
800
  8
TEAM-DET1
 10
-795.819966
 20
-62.809095
 30
700.0
  0
SEQEND
  5
801
  8
TEAM-DET1
  0
POLYLINE
  5
50D
  8
TEAM-DET1
 66
     1
 10
0.0
 20
0.0
 30
700.0
 70
     1
  0
VERTEX
  5
802
  8
TEAM-DET1
 10
736.181544
 20
18.109482
 30
700.0
  0
VERTEX
  5
803
  8
TEAM-DET1
 10
702.006991
 20
111.528606
 30
700.0
  0
VERTEX
  5
804
  8
TEAM-DET1
 10
684.627299
 20
105.170773
 30
700.0
  0
VERTEX
  5
805
  8
TEAM-DET1
 10
718.801851
 20
11.751649
 30
700.0
  0
SEQEND
  5
806
  8
TEAM-DET1
  0
POLYLINE
  5
50E
  8
TEAM-DET1
 66
     1
 10
0.0
 20
0.0
 30
700.0
 70
     1
  0
VERTEX
  5
807
  8
TEAM-DET1
 10
719.336809
 20
37.222665
 30
700.0
  0
VERTEX
  5
808
  8
TEAM-DET1
 10
718.382088
 20
37.21426
 30
700.0
  0
VERTEX
  5
809
  8
TEAM-DET1
 10
717.23093
 20
37.807299
 30
700.0
  0
VERTEX
  5
80A
  8
TEAM-DET1
 10
715.91168
 20
38.987182
 30
700.0
  0
VERTEX
  5
80B
  8
TEAM-DET1
 10
714.456824
 20
40.724856
 30
700.0
  0
VERTEX
  5
80C
  8
TEAM-DET1
 10
712.902185
 20
42.977533
 30
700.0
  0
VERTEX
  5
80D
  8
TEAM-DET1
 10
711.286042
 20
45.689746
 30
700.0
  0
VERTEX
  5
80E
  8
TEAM-DET1
 10
709.648191
 20
48.794709
 30
700.0
  0
VERTEX
  5
80F
  8
TEAM-DET1
 10
708.028961
 20
52.21597
 30
700.0
  0
VERTEX
  5
810
  8
TEAM-DET1
 10
706.468222
 20
55.869284
 30
700.0
  0
VERTEX
  5
811
  8
TEAM-DET1
 10
705.004406
 20
59.664695
 30
700.0
  0
VERTEX
  5
812
  8
TEAM-DET1
 10
703.673555
 20
63.508749
 30
700.0
  0
VERTEX
  5
813
  8
TEAM-DET1
 10
702.508442
 20
67.306791
 30
700.0
  0
VERTEX
  5
814
  8
TEAM-DET1
 10
701.537752
 20
70.9653
 30
700.0
  0
VERTEX
  5
815
  8
TEAM-DET1
 10
700.785391
 20
74.394194
 30
700.0
  0
VERTEX
  5
816
  8
TEAM-DET1
 10
700.269881
 20
77.509039
 30
700.0
  0
VERTEX
  5
817
  8
TEAM-DET1
 10
700.003917
 20
80.233139
 30
700.0
  0
VERTEX
  5
818
  8
TEAM-DET1
 10
699.994049
 20
82.499418
 30
700.0
  0
VERTEX
  5
819
  8
TEAM-DET1
 10
700.240519
 20
84.252072
 30
700.0
  0
VERTEX
  5
81A
  8
TEAM-DET1
 10
700.737258
 20
85.447944
 30
700.0
  0
VERTEX
  5
81B
  8
TEAM-DET1
 10
701.472033
 20
86.057589
 30
700.0
  0
VERTEX
  5
81C
  8
TEAM-DET1
 10
702.426754
 20
86.065995
 30
700.0
  0
VERTEX
  5
81D
  8
TEAM-DET1
 10
703.577911
 20
85.472956
 30
700.0
  0
VERTEX
  5
81E
  8
TEAM-DET1
 10
704.897161
 20
84.293073
 30
700.0
  0
VERTEX
  5
81F
  8
TEAM-DET1
 10
706.352017
 20
82.555399
 30
700.0
  0
VERTEX
  5
820
  8
TEAM-DET1
 10
707.906657
 20
80.302722
 30
700.0
  0
VERTEX
  5
821
  8
TEAM-DET1
 10
709.522799
 20
77.590509
 30
700.0
  0
VERTEX
  5
822
  8
TEAM-DET1
 10
711.160651
 20
74.485546
 30
700.0
  0
VERTEX
  5
823
  8
TEAM-DET1
 10
712.779882
 20
71.064285
 30
700.0
  0
VERTEX
  5
824
  8
TEAM-DET1
 10
714.340621
 20
67.410971
 30
700.0
  0
VERTEX
  5
825
  8
TEAM-DET1
 10
715.804437
 20
63.615559
 30
700.0
  0
VERTEX
  5
826
  8
TEAM-DET1
 10
717.135287
 20
59.771506
 30
700.0
  0
VERTEX
  5
827
  8
TEAM-DET1
 10
718.300401
 20
55.973465
 30
700.0
  0
VERTEX
  5
828
  8
TEAM-DET1
 10
719.271089
 20
52.314954
 30
700.0
  0
VERTEX
  5
829
  8
TEAM-DET1
 10
720.023451
 20
48.886061
 30
700.0
  0
VERTEX
  5
82A
  8
TEAM-DET1
 10
720.538961
 20
45.771216
 30
700.0
  0
VERTEX
  5
82B
  8
TEAM-DET1
 10
720.804924
 20
43.047116
 30
700.0
  0
VERTEX
  5
82C
  8
TEAM-DET1
 10
720.814792
 20
40.780837
 30
700.0
  0
VERTEX
  5
82D
  8
TEAM-DET1
 10
720.568323
 20
39.028183
 30
700.0
  0
VERTEX
  5
82E
  8
TEAM-DET1
 10
720.071585
 20
37.832311
 30
700.0
  0
SEQEND
  5
82F
  8
TEAM-DET1
  0
POLYLINE
  5
50F
  8
TEAM-DET1
 66
     1
 10
0.0
 20
0.0
 30
700.0
 70
     1
  0
VERTEX
  5
830
  8
TEAM-DET1
 10
14.191679
 20
722.165074
 30
700.0
  0
VERTEX
  5
831
  8
TEAM-DET1
 10
14.189782
 20
721.210318
 30
700.0
  0
VERTEX
  5
832
  8
TEAM-DET1
 10
14.790656
 20
720.06323
 30
700.0
  0
VERTEX
  5
833
  8
TEAM-DET1
 10
15.979505
 20
718.752054
 30
700.0
  0
VERTEX
  5
834
  8
TEAM-DET1
 10
17.727056
 20
717.309078
 30
700.0
  0
VERTEX
  5
835
  8
TEAM-DET1
 10
19.990279
 20
715.769832
 30
700.0
  0
VERTEX
  5
836
  8
TEAM-DET1
 10
22.713446
 20
714.172216
 30
700.0
  0
VERTEX
  5
837
  8
TEAM-DET1
 10
25.829503
 20
712.55557
 30
700.0
  0
VERTEX
  5
838
  8
TEAM-DET1
 10
29.261723
 20
710.959701
 30
700.0
  0
VERTEX
  5
839
  8
TEAM-DET1
 10
32.925592
 20
709.423904
 30
700.0
  0
VERTEX
  5
83A
  8
TEAM-DET1
 10
36.730894
 20
707.985995
 30
700.0
  0
VERTEX
  5
83B
  8
TEAM-DET1
 10
40.583931
 20
706.681382
 30
700.0
  0
VERTEX
  5
83C
  8
TEAM-DET1
 10
44.389827
 20
705.542187
 30
700.0
  0
VERTEX
  5
83D
  8
TEAM-DET1
 10
48.054869
 20
704.596461
 30
700.0
  0
VERTEX
  5
83E
  8
TEAM-DET1
 10
51.488812
 20
703.867492
 30
700.0
  0
VERTEX
  5
83F
  8
TEAM-DET1
 10
54.6071
 20
703.373229
 30
700.0
  0
VERTEX
  5
840
  8
TEAM-DET1
 10
57.332949
 20
703.125842
 30
700.0
  0
VERTEX
  5
841
  8
TEAM-DET1
 10
59.599243
 20
703.131423
 30
700.0
  0
VERTEX
  5
842
  8
TEAM-DET1
 10
61.350176
 20
703.389836
 30
700.0
  0
VERTEX
  5
843
  8
TEAM-DET1
 10
62.542634
 20
703.894715
 30
700.0
  0
VERTEX
  5
844
  8
TEAM-DET1
 10
63.147256
 20
704.63363
 30
700.0
  0
VERTEX
  5
845
  8
TEAM-DET1
 10
63.149153
 20
705.588386
 30
700.0
  0
VERTEX
  5
846
  8
TEAM-DET1
 10
62.54828
 20
706.735474
 30
700.0
  0
VERTEX
  5
847
  8
TEAM-DET1
 10
61.35943
 20
708.046649
 30
700.0
  0
VERTEX
  5
848
  8
TEAM-DET1
 10
59.611879
 20
709.489625
 30
700.0
  0
VERTEX
  5
849
  8
TEAM-DET1
 10
57.348656
 20
711.028872
 30
700.0
  0
VERTEX
  5
84A
  8
TEAM-DET1
 10
54.625489
 20
712.626487
 30
700.0
  0
VERTEX
  5
84B
  8
TEAM-DET1
 10
51.509432
 20
714.243134
 30
700.0
  0
VERTEX
  5
84C
  8
TEAM-DET1
 10
48.077213
 20
715.839004
 30
700.0
  0
VERTEX
  5
84D
  8
TEAM-DET1
 10
44.413343
 20
717.374801
 30
700.0
  0
VERTEX
  5
84E
  8
TEAM-DET1
 10
40.60804
 20
718.812709
 30
700.0
  0
VERTEX
  5
84F
  8
TEAM-DET1
 10
36.755004
 20
720.117323
 30
700.0
  0
VERTEX
  5
850
  8
TEAM-DET1
 10
32.949108
 20
721.256518
 30
700.0
  0
VERTEX
  5
851
  8
TEAM-DET1
 10
29.284065
 20
722.202243
 30
700.0
  0
VERTEX
  5
852
  8
TEAM-DET1
 10
25.850123
 20
722.931211
 30
700.0
  0
VERTEX
  5
853
  8
TEAM-DET1
 10
22.731836
 20
723.425475
 30
700.0
  0
VERTEX
  5
854
  8
TEAM-DET1
 10
20.005986
 20
723.672861
 30
700.0
  0
VERTEX
  5
855
  8
TEAM-DET1
 10
17.739693
 20
723.66728
 30
700.0
  0
VERTEX
  5
856
  8
TEAM-DET1
 10
15.988759
 20
723.408868
 30
700.0
  0
VERTEX
  5
857
  8
TEAM-DET1
 10
14.796302
 20
722.903989
 30
700.0
  0
SEQEND
  5
858
  8
TEAM-DET1
  0
POLYLINE
  5
510
  8
TEAM-DET1
 66
     1
 10
0.0
 20
0.0
 30
700.0
 70
     1
  0
VERTEX
  5
859
  8
TEAM-DET1
 10
-5.035894
 20
738.87912
 30
700.0
  0
VERTEX
  5
85A
  8
TEAM-DET1
 10
88.614033
 20
705.342216
 30
700.0
  0
VERTEX
  5
85B
  8
TEAM-DET1
 10
82.374828
 20
687.919585
 30
700.0
  0
VERTEX
  5
85C
  8
TEAM-DET1
 10
-11.275099
 20
721.456489
 30
700.0
  0
SEQEND
  5
85D
  8
TEAM-DET1
  0
TEXT
  5
511
  8
TEAM-TXT
 10
-558.121735
 20
589.153454
 30
700.0
 40
30.0
  1
team 121025
 41
0.8
 51
15.0
  7
TEAM
  0
ENDSEC
  0
EOF
