  0
SECTION
  2
HEADER
  9
$ACADVER
  1
AC1009
  9
$INSBASE
 10
0.0
 20
0.0
 30
0.0
  9
$EXTMIN
 10
-1099.686204
 20
-1037.235735
 30
-0.015405
  9
$EXTMAX
 10
1099.633334
 20
1037.170405
 30
700.038763
  9
$LIMMIN
 10
-1099.686204
 20
-1037.235735
  9
$LIMMAX
 10
1099.633334
 20
1037.170405
  9
$ORTHOMODE
 70
     1
  9
$REGENMODE
 70
     1
  9
$FILLMODE
 70
     1
  9
$QTEXTMODE
 70
     0
  9
$MIRRTEXT
 70
     0
  9
$DRAGMODE
 70
     2
  9
$LTSCALE
 40
50.0
  9
$OSMODE
 70
     7
  9
$ATTMODE
 70
     1
  9
$TEXTSIZE
 40
200.0
  9
$TRACEWID
 40
1.0
  9
$TEXTSTYLE
  7
STANDARD
  9
$CLAYER
  8
TEAM-MAS
  9
$CELTYPE
  6
BYLAYER
  9
$CECOLOR
 62
   256
  9
$DIMSCALE
 40
1.0
  9
$DIMASZ
 40
20.0
  9
$DIMEXO
 40
10.0
  9
$DIMDLI
 40
1.0
  9
$DIMRND
 40
0.0
  9
$DIMDLE
 40
0.0
  9
$DIMEXE
 40
1.0
  9
$DIMTP
 40
0.0
  9
$DIMTM
 40
0.0
  9
$DIMTXT
 40
35.0
  9
$DIMCEN
 40
1.0
  9
$DIMTSZ
 40
0.0
  9
$DIMTOL
 70
     0
  9
$DIMLIM
 70
     0
  9
$DIMTIH
 70
     0
  9
$DIMTOH
 70
     0
  9
$DIMSE1
 70
     0
  9
$DIMSE2
 70
     0
  9
$DIMTAD
 70
     0
  9
$DIMZIN
 70
     0
  9
$DIMBLK
  1

  9
$DIMASO
 70
     1
  9
$DIMSHO
 70
     0
  9
$DIMPOST
  1

  9
$DIMAPOST
  1

  9
$DIMALT
 70
     0
  9
$DIMALTD
 70
     2
  9
$DIMALTF
 40
25.4
  9
$DIMLFAC
 40
1.0
  9
$DIMTOFL
 70
     0
  9
$DIMTVP
 40
0.0
  9
$DIMTIX
 70
     0
  9
$DIMSOXD
 70
     0
  9
$DIMSAH
 70
     0
  9
$DIMBLK1
  1

  9
$DIMBLK2
  1

  9
$DIMSTYLE
  2
TEAM
  9
$DIMCLRD
 70
     9
  9
$DIMCLRE
 70
     9
  9
$DIMCLRT
 70
    11
  9
$DIMTFAC
 40
1.0
  9
$DIMGAP
 40
15.0
  9
$LUNITS
 70
     2
  9
$LUPREC
 70
     1
  9
$SKETCHINC
 40
1.0
  9
$FILLETRAD
 40
300.0
  9
$AUNITS
 70
     0
  9
$AUPREC
 70
     0
  9
$MENU
  1
ROPLANS
  9
$ELEVATION
 40
0.0
  9
$PELEVATION
 40
0.0
  9
$THICKNESS
 40
0.0
  9
$LIMCHECK
 70
     0
  9
$BLIPMODE
 70
     1
  9
$CHAMFERA
 40
0.0
  9
$CHAMFERB
 40
0.0
  9
$SKPOLY
 70
     0
  9
$TDCREATE
 40
2450392.957851
  9
$TDUPDATE
 40
2455843.591272
  9
$TDINDWG
 40
2.850297
  9
$TDUSRTIMER
 40
2.850297
  9
$USRTIMER
 70
     1
  9
$ANGBASE
 50
0.0
  9
$ANGDIR
 70
     0
  9
$PDMODE
 70
     0
  9
$PDSIZE
 40
0.0
  9
$PLINEWID
 40
0.0
  9
$COORDS
 70
     2
  9
$SPLFRAME
 70
     0
  9
$SPLINETYPE
 70
     6
  9
$SPLINESEGS
 70
     8
  9
$ATTDIA
 70
     0
  9
$ATTREQ
 70
     0
  9
$HANDLING
 70
     1
  9
$HANDSEED
  5
72B
  9
$SURFTAB1
 70
    64
  9
$SURFTAB2
 70
    64
  9
$SURFTYPE
 70
     6
  9
$SURFU
 70
     6
  9
$SURFV
 70
     6
  9
$UCSNAME
  2

  9
$UCSORG
 10
0.0
 20
0.0
 30
0.0
  9
$UCSXDIR
 10
1.0
 20
0.0
 30
0.0
  9
$UCSYDIR
 10
0.0
 20
1.0
 30
0.0
  9
$PUCSNAME
  2

  9
$PUCSORG
 10
0.0
 20
0.0
 30
0.0
  9
$PUCSXDIR
 10
1.0
 20
0.0
 30
0.0
  9
$PUCSYDIR
 10
0.0
 20
1.0
 30
0.0
  9
$USERI1
 70
     0
  9
$USERI2
 70
     0
  9
$USERI3
 70
     0
  9
$USERI4
 70
     0
  9
$USERI5
 70
     0
  9
$USERR1
 40
0.0
  9
$USERR2
 40
0.0
  9
$USERR3
 40
0.0
  9
$USERR4
 40
0.0
  9
$USERR5
 40
0.0
  9
$WORLDVIEW
 70
     1
  9
$SHADEDGE
 70
     0
  9
$SHADEDIF
 70
    70
  9
$TILEMODE
 70
     1
  9
$MAXACTVP
 70
    16
  9
$PLIMCHECK
 70
     0
  9
$PEXTMIN
 10
-0.805942
 20
0.005011
 30
0.0
  9
$PEXTMAX
 10
20.250094
 20
11.356329
 30
0.0
  9
$PLIMMIN
 10
0.0
 20
0.0
  9
$PLIMMAX
 10
12.0
 20
9.0
  9
$UNITMODE
 70
     0
  9
$VISRETAIN
 70
     0
  9
$PLINEGEN
 70
     0
  9
$PSLTSCALE
 70
     0
  0
ENDSEC
  0
SECTION
  2
TABLES
  0
TABLE
  2
VPORT
 70
     2
  0
VPORT
  2
*ACTIVE
 70
     0
 10
0.0
 20
0.0
 11
1.0
 21
1.0
 12
-0.026435
 22
-0.032665
 13
0.0
 23
0.0
 14
1.0
 24
1.0
 15
50.0
 25
50.0
 16
0.0
 26
0.0
 36
1.0
 17
0.0
 27
0.0
 37
0.0
 40
2087.411821
 41
1.903766
 42
50.0
 43
0.0
 44
0.0
 50
0.0
 51
0.0
 71
     0
 72
   100
 73
     1
 74
     1
 75
     0
 76
     0
 77
     0
 78
     0
  0
ENDTAB
  0
TABLE
  2
LTYPE
 70
     1
  0
LTYPE
  2
CONTINUOUS
 70
     0
  3
Solid Line
 72
    65
 73
     0
 40
0.0
  0
ENDTAB
  0
TABLE
  2
LAYER
 70
     7
  0
LAYER
  2
0
 70
     0
 62
     7
  6
CONTINUOUS
  0
LAYER
  2
TEAM-BODY
 70
     0
 62
     2
  6
CONTINUOUS
  0
LAYER
  2
TEAM-MAS
 70
     0
 62
     9
  6
CONTINUOUS
  0
LAYER
  2
TEAM-TXT
 70
     0
 62
    11
  6
CONTINUOUS
  0
LAYER
  2
TEAM-DET1
 70
     0
 62
     4
  6
CONTINUOUS
  0
LAYER
  2
TEAM-NET
 70
     0
 62
    15
  6
CONTINUOUS
  0
LAYER
  2
TEAM-INSP
 70
     0
 62
     5
  6
CONTINUOUS
  0
ENDTAB
  0
TABLE
  2
STYLE
 70
     2
  0
STYLE
  2
STANDARD
 70
     0
 40
0.0
 41
1.0
 50
0.0
 71
     0
 42
200.0
  3
txt
  4

  0
STYLE
  2
TEAM
 70
     0
 40
0.0
 41
0.8
 50
15.0
 71
     0
 42
7.0
  3
ROMANS.shx
  4

  0
ENDTAB
  0
TABLE
  2
VIEW
 70
     0
  0
ENDTAB
  0
TABLE
  2
UCS
 70
     0
  0
ENDTAB
  0
TABLE
  2
APPID
 70
     1
  0
APPID
  2
ACAD
 70
     0
  0
ENDTAB
  0
TABLE
  2
DIMSTYLE
 70
     1
  0
DIMSTYLE
  2
TEAM
 70
     0
  3

  4

  5

  6

  7

 40
1.0
 41
20.0
 42
10.0
 43
1.0
 44
1.0
 45
0.0
 46
0.0
 47
0.0
 48
0.0
140
35.0
141
1.0
142
0.0
143
25.4
144
1.0
145
0.0
146
1.0
147
15.0
 71
     0
 72
     0
 73
     0
 74
     0
 75
     0
 76
     0
 77
     0
 78
     0
170
     0
171
     2
172
     0
173
     0
174
     0
175
     0
176
     9
177
     9
178
    11
  0
ENDTAB
  0
ENDSEC
  0
SECTION
  2
BLOCKS
  0
BLOCK
  8
0
  2
$MODEL_SPACE
 70
     0
 10
0.0
 20
0.0
 30
0.0
  3
$MODEL_SPACE
  1

  0
ENDBLK
  5
62A
  8
0
  0
BLOCK
 67
     1
  8
0
  2
$PAPER_SPACE
 70
     0
 10
0.0
 20
0.0
 30
0.0
  3
$PAPER_SPACE
  1

  0
ENDBLK
  5
628
 67
     1
  8
0
  0
ENDSEC
  0
SECTION
  2
ENTITIES
  0
POLYLINE
  5
20
  8
TEAM-NET
 66
     1
 10
0.0
 20
0.0
 30
0.0
 70
    16
 71
     2
 72
    65
  0
VERTEX
  5
21
  8
TEAM-NET
 10
-397.5
 20
0.0
 30
220.0
 70
    64
  0
VERTEX
  5
22
  8
TEAM-NET
 10
-397.5
 20
-34.719994
 30
220.0
 70
    64
  0
VERTEX
  5
23
  8
TEAM-NET
 10
-397.5
 20
-69.439989
 30
220.0
 70
    64
  0
VERTEX
  5
24
  8
TEAM-NET
 10
-397.5
 20
-104.159983
 30
220.0
 70
    64
  0
VERTEX
  5
25
  8
TEAM-NET
 10
-397.5
 20
-138.879977
 30
220.0
 70
    64
  0
VERTEX
  5
26
  8
TEAM-NET
 10
-397.5
 20
-173.599971
 30
220.0
 70
    64
  0
VERTEX
  5
27
  8
TEAM-NET
 10
-397.5
 20
-208.319966
 30
220.0
 70
    64
  0
VERTEX
  5
28
  8
TEAM-NET
 10
-397.5
 20
-243.03996
 30
220.0
 70
    64
  0
VERTEX
  5
29
  8
TEAM-NET
 10
-397.5
 20
-277.759954
 30
220.0
 70
    64
  0
VERTEX
  5
2A
  8
TEAM-NET
 10
-397.5
 20
-312.479948
 30
220.0
 70
    64
  0
VERTEX
  5
2B
  8
TEAM-NET
 10
-397.5
 20
-347.199943
 30
220.0
 70
    64
  0
VERTEX
  5
2C
  8
TEAM-NET
 10
-397.5
 20
-381.919937
 30
220.0
 70
    64
  0
VERTEX
  5
2D
  8
TEAM-NET
 10
-397.5
 20
-416.639931
 30
220.0
 70
    64
  0
VERTEX
  5
2E
  8
TEAM-NET
 10
-397.5
 20
-451.359925
 30
220.0
 70
    64
  0
VERTEX
  5
2F
  8
TEAM-NET
 10
-397.5
 20
-486.07992
 30
220.0
 70
    64
  0
VERTEX
  5
30
  8
TEAM-NET
 10
-397.5
 20
-520.799914
 30
220.0
 70
    64
  0
VERTEX
  5
31
  8
TEAM-NET
 10
-397.5
 20
-555.519908
 30
220.0
 70
    64
  0
VERTEX
  5
32
  8
TEAM-NET
 10
-397.225685
 20
-590.230316
 30
220.0
 70
    64
  0
VERTEX
  5
33
  8
TEAM-NET
 10
-382.364093
 20
-620.839853
 30
220.0
 70
    64
  0
VERTEX
  5
34
  8
TEAM-NET
 10
-351.356093
 20
-634.851084
 30
220.0
 70
    64
  0
VERTEX
  5
35
  8
TEAM-NET
 10
-316.639931
 20
-635.0
 30
220.0
 70
    64
  0
VERTEX
  5
36
  8
TEAM-NET
 10
-281.919937
 20
-635.0
 30
220.0
 70
    64
  0
VERTEX
  5
37
  8
TEAM-NET
 10
-247.199943
 20
-635.0
 30
220.0
 70
    64
  0
VERTEX
  5
38
  8
TEAM-NET
 10
-212.479948
 20
-635.0
 30
220.0
 70
    64
  0
VERTEX
  5
39
  8
TEAM-NET
 10
-177.759954
 20
-635.0
 30
220.0
 70
    64
  0
VERTEX
  5
3A
  8
TEAM-NET
 10
-143.03996
 20
-635.0
 30
220.0
 70
    64
  0
VERTEX
  5
3B
  8
TEAM-NET
 10
-108.319966
 20
-635.0
 30
220.0
 70
    64
  0
VERTEX
  5
3C
  8
TEAM-NET
 10
-73.599971
 20
-635.0
 30
220.0
 70
    64
  0
VERTEX
  5
3D
  8
TEAM-NET
 10
-38.879977
 20
-635.0
 30
220.0
 70
    64
  0
VERTEX
  5
3E
  8
TEAM-NET
 10
-4.159983
 20
-635.0
 30
220.0
 70
    64
  0
VERTEX
  5
3F
  8
TEAM-NET
 10
30.560011
 20
-635.0
 30
220.0
 70
    64
  0
VERTEX
  5
40
  8
TEAM-NET
 10
65.280006
 20
-635.0
 30
220.0
 70
    64
  0
VERTEX
  5
41
  8
TEAM-NET
 10
100.0
 20
-635.0
 30
220.0
 70
    64
  0
VERTEX
  5
42
  8
TEAM-NET
 10
134.719994
 20
-635.0
 30
220.0
 70
    64
  0
VERTEX
  5
43
  8
TEAM-NET
 10
169.439989
 20
-635.0
 30
220.0
 70
    64
  0
VERTEX
  5
44
  8
TEAM-NET
 10
204.159983
 20
-635.0
 30
220.0
 70
    64
  0
VERTEX
  5
45
  8
TEAM-NET
 10
238.879977
 20
-635.0
 30
220.0
 70
    64
  0
VERTEX
  5
46
  8
TEAM-NET
 10
273.599971
 20
-635.0
 30
220.0
 70
    64
  0
VERTEX
  5
47
  8
TEAM-NET
 10
308.319966
 20
-635.0
 30
220.0
 70
    64
  0
VERTEX
  5
48
  8
TEAM-NET
 10
343.03996
 20
-635.0
 30
220.0
 70
    64
  0
VERTEX
  5
49
  8
TEAM-NET
 10
377.759954
 20
-635.0
 30
220.0
 70
    64
  0
VERTEX
  5
4A
  8
TEAM-NET
 10
412.479948
 20
-635.0
 30
220.0
 70
    64
  0
VERTEX
  5
4B
  8
TEAM-NET
 10
447.199943
 20
-635.0
 30
220.0
 70
    64
  0
VERTEX
  5
4C
  8
TEAM-NET
 10
481.919937
 20
-635.0
 30
220.0
 70
    64
  0
VERTEX
  5
4D
  8
TEAM-NET
 10
516.639931
 20
-635.0
 30
220.0
 70
    64
  0
VERTEX
  5
4E
  8
TEAM-NET
 10
551.356093
 20
-634.851084
 30
220.0
 70
    64
  0
VERTEX
  5
4F
  8
TEAM-NET
 10
582.364093
 20
-620.839853
 30
220.0
 70
    64
  0
VERTEX
  5
50
  8
TEAM-NET
 10
597.225685
 20
-590.230316
 30
220.0
 70
    64
  0
VERTEX
  5
51
  8
TEAM-NET
 10
597.5
 20
-555.519908
 30
220.0
 70
    64
  0
VERTEX
  5
52
  8
TEAM-NET
 10
597.5
 20
-520.799914
 30
220.0
 70
    64
  0
VERTEX
  5
53
  8
TEAM-NET
 10
597.5
 20
-486.07992
 30
220.0
 70
    64
  0
VERTEX
  5
54
  8
TEAM-NET
 10
597.5
 20
-451.359925
 30
220.0
 70
    64
  0
VERTEX
  5
55
  8
TEAM-NET
 10
597.5
 20
-416.639931
 30
220.0
 70
    64
  0
VERTEX
  5
56
  8
TEAM-NET
 10
597.5
 20
-381.919937
 30
220.0
 70
    64
  0
VERTEX
  5
57
  8
TEAM-NET
 10
597.5
 20
-347.199943
 30
220.0
 70
    64
  0
VERTEX
  5
58
  8
TEAM-NET
 10
597.5
 20
-312.479948
 30
220.0
 70
    64
  0
VERTEX
  5
59
  8
TEAM-NET
 10
597.5
 20
-277.759954
 30
220.0
 70
    64
  0
VERTEX
  5
5A
  8
TEAM-NET
 10
597.5
 20
-243.03996
 30
220.0
 70
    64
  0
VERTEX
  5
5B
  8
TEAM-NET
 10
597.5
 20
-208.319966
 30
220.0
 70
    64
  0
VERTEX
  5
5C
  8
TEAM-NET
 10
597.5
 20
-173.599971
 30
220.0
 70
    64
  0
VERTEX
  5
5D
  8
TEAM-NET
 10
597.5
 20
-138.879977
 30
220.0
 70
    64
  0
VERTEX
  5
5E
  8
TEAM-NET
 10
597.5
 20
-104.159983
 30
220.0
 70
    64
  0
VERTEX
  5
5F
  8
TEAM-NET
 10
597.5
 20
-69.439989
 30
220.0
 70
    64
  0
VERTEX
  5
60
  8
TEAM-NET
 10
597.5
 20
-34.719994
 30
220.0
 70
    64
  0
VERTEX
  5
61
  8
TEAM-NET
 10
597.5
 20
0.0
 30
220.0
 70
    64
  0
VERTEX
  5
62
  8
TEAM-NET
 10
-897.5
 20
0.0
 30
700.0
 70
    64
  0
VERTEX
  5
63
  8
TEAM-NET
 10
-897.5
 20
-51.994607
 30
700.0
 70
    64
  0
VERTEX
  5
64
  8
TEAM-NET
 10
-897.5
 20
-103.989213
 30
700.0
 70
    64
  0
VERTEX
  5
65
  8
TEAM-NET
 10
-897.5
 20
-155.98382
 30
700.0
 70
    64
  0
VERTEX
  5
66
  8
TEAM-NET
 10
-897.5
 20
-207.978427
 30
700.0
 70
    64
  0
VERTEX
  5
67
  8
TEAM-NET
 10
-897.5
 20
-259.973033
 30
700.0
 70
    64
  0
VERTEX
  5
68
  8
TEAM-NET
 10
-897.5
 20
-311.96764
 30
700.0
 70
    64
  0
VERTEX
  5
69
  8
TEAM-NET
 10
-897.5
 20
-363.962246
 30
700.0
 70
    64
  0
VERTEX
  5
6A
  8
TEAM-NET
 10
-897.5
 20
-415.956853
 30
700.0
 70
    64
  0
VERTEX
  5
6B
  8
TEAM-NET
 10
-897.5
 20
-467.95146
 30
700.0
 70
    64
  0
VERTEX
  5
6C
  8
TEAM-NET
 10
-897.5
 20
-519.946066
 30
700.0
 70
    64
  0
VERTEX
  5
6D
  8
TEAM-NET
 10
-897.5
 20
-571.940673
 30
700.0
 70
    64
  0
VERTEX
  5
6E
  8
TEAM-NET
 10
-897.5
 20
-623.93528
 30
700.0
 70
    64
  0
VERTEX
  5
6F
  8
TEAM-NET
 10
-897.497298
 20
-675.929881
 30
700.0
 70
    64
  0
VERTEX
  5
70
  8
TEAM-NET
 10
-888.826388
 20
-726.964644
 30
700.0
 70
    64
  0
VERTEX
  5
71
  8
TEAM-NET
 10
-864.315083
 20
-772.559904
 30
700.0
 70
    64
  0
VERTEX
  5
72
  8
TEAM-NET
 10
-826.529152
 20
-807.942883
 30
700.0
 70
    64
  0
VERTEX
  5
73
  8
TEAM-NET
 10
-779.423915
 20
-829.409797
 30
700.0
 70
    64
  0
VERTEX
  5
74
  8
TEAM-NET
 10
-727.924493
 20
-835.0
 30
700.0
 70
    64
  0
VERTEX
  5
75
  8
TEAM-NET
 10
-675.929886
 20
-835.0
 30
700.0
 70
    64
  0
VERTEX
  5
76
  8
TEAM-NET
 10
-623.93528
 20
-835.0
 30
700.0
 70
    64
  0
VERTEX
  5
77
  8
TEAM-NET
 10
-571.940673
 20
-835.0
 30
700.0
 70
    64
  0
VERTEX
  5
78
  8
TEAM-NET
 10
-519.946066
 20
-835.0
 30
700.0
 70
    64
  0
VERTEX
  5
79
  8
TEAM-NET
 10
-467.95146
 20
-835.0
 30
700.0
 70
    64
  0
VERTEX
  5
7A
  8
TEAM-NET
 10
-415.956853
 20
-835.0
 30
700.0
 70
    64
  0
VERTEX
  5
7B
  8
TEAM-NET
 10
-363.962246
 20
-835.0
 30
700.0
 70
    64
  0
VERTEX
  5
7C
  8
TEAM-NET
 10
-311.96764
 20
-835.0
 30
700.0
 70
    64
  0
VERTEX
  5
7D
  8
TEAM-NET
 10
-259.973033
 20
-835.0
 30
700.0
 70
    64
  0
VERTEX
  5
7E
  8
TEAM-NET
 10
-207.978427
 20
-835.0
 30
700.0
 70
    64
  0
VERTEX
  5
7F
  8
TEAM-NET
 10
-155.98382
 20
-835.0
 30
700.0
 70
    64
  0
VERTEX
  5
80
  8
TEAM-NET
 10
-103.989213
 20
-835.0
 30
700.0
 70
    64
  0
VERTEX
  5
81
  8
TEAM-NET
 10
-51.994607
 20
-835.0
 30
700.0
 70
    64
  0
VERTEX
  5
82
  8
TEAM-NET
 10
0.0
 20
-835.0
 30
700.0
 70
    64
  0
VERTEX
  5
83
  8
TEAM-NET
 10
51.994607
 20
-835.0
 30
700.0
 70
    64
  0
VERTEX
  5
84
  8
TEAM-NET
 10
103.989213
 20
-835.0
 30
700.0
 70
    64
  0
VERTEX
  5
85
  8
TEAM-NET
 10
155.98382
 20
-835.0
 30
700.0
 70
    64
  0
VERTEX
  5
86
  8
TEAM-NET
 10
207.978427
 20
-835.0
 30
700.0
 70
    64
  0
VERTEX
  5
87
  8
TEAM-NET
 10
259.973033
 20
-835.0
 30
700.0
 70
    64
  0
VERTEX
  5
88
  8
TEAM-NET
 10
311.96764
 20
-835.0
 30
700.0
 70
    64
  0
VERTEX
  5
89
  8
TEAM-NET
 10
363.962246
 20
-835.0
 30
700.0
 70
    64
  0
VERTEX
  5
8A
  8
TEAM-NET
 10
415.956853
 20
-835.0
 30
700.0
 70
    64
  0
VERTEX
  5
8B
  8
TEAM-NET
 10
467.95146
 20
-835.0
 30
700.0
 70
    64
  0
VERTEX
  5
8C
  8
TEAM-NET
 10
519.946066
 20
-835.0
 30
700.0
 70
    64
  0
VERTEX
  5
8D
  8
TEAM-NET
 10
571.940673
 20
-835.0
 30
700.0
 70
    64
  0
VERTEX
  5
8E
  8
TEAM-NET
 10
623.93528
 20
-835.0
 30
700.0
 70
    64
  0
VERTEX
  5
8F
  8
TEAM-NET
 10
675.929886
 20
-835.0
 30
700.0
 70
    64
  0
VERTEX
  5
90
  8
TEAM-NET
 10
727.924493
 20
-835.0
 30
700.0
 70
    64
  0
VERTEX
  5
91
  8
TEAM-NET
 10
779.423915
 20
-829.409797
 30
700.0
 70
    64
  0
VERTEX
  5
92
  8
TEAM-NET
 10
826.529152
 20
-807.942883
 30
700.0
 70
    64
  0
VERTEX
  5
93
  8
TEAM-NET
 10
864.315083
 20
-772.559904
 30
700.0
 70
    64
  0
VERTEX
  5
94
  8
TEAM-NET
 10
888.826388
 20
-726.964644
 30
700.0
 70
    64
  0
VERTEX
  5
95
  8
TEAM-NET
 10
897.497298
 20
-675.929881
 30
700.0
 70
    64
  0
VERTEX
  5
96
  8
TEAM-NET
 10
897.5
 20
-623.93528
 30
700.0
 70
    64
  0
VERTEX
  5
97
  8
TEAM-NET
 10
897.5
 20
-571.940673
 30
700.0
 70
    64
  0
VERTEX
  5
98
  8
TEAM-NET
 10
897.5
 20
-519.946066
 30
700.0
 70
    64
  0
VERTEX
  5
99
  8
TEAM-NET
 10
897.5
 20
-467.95146
 30
700.0
 70
    64
  0
VERTEX
  5
9A
  8
TEAM-NET
 10
897.5
 20
-415.956853
 30
700.0
 70
    64
  0
VERTEX
  5
9B
  8
TEAM-NET
 10
897.5
 20
-363.962246
 30
700.0
 70
    64
  0
VERTEX
  5
9C
  8
TEAM-NET
 10
897.5
 20
-311.96764
 30
700.0
 70
    64
  0
VERTEX
  5
9D
  8
TEAM-NET
 10
897.5
 20
-259.973033
 30
700.0
 70
    64
  0
VERTEX
  5
9E
  8
TEAM-NET
 10
897.5
 20
-207.978427
 30
700.0
 70
    64
  0
VERTEX
  5
9F
  8
TEAM-NET
 10
897.5
 20
-155.98382
 30
700.0
 70
    64
  0
VERTEX
  5
A0
  8
TEAM-NET
 10
897.5
 20
-103.989213
 30
700.0
 70
    64
  0
VERTEX
  5
A1
  8
TEAM-NET
 10
897.5
 20
-51.994607
 30
700.0
 70
    64
  0
VERTEX
  5
A2
  8
TEAM-NET
 10
897.5
 20
0.0
 30
700.0
 70
    64
  0
SEQEND
  5
A4
  8
TEAM-NET
  0
POLYLINE
  5
A5
  8
TEAM-NET
 66
     1
 10
0.0
 20
0.0
 30
0.0
 70
    16
 71
     2
 72
    65
  0
VERTEX
  5
A6
  8
TEAM-NET
 10
-397.5
 20
0.0
 30
220.0
 70
    64
  0
VERTEX
  5
A7
  8
TEAM-NET
 10
-397.5
 20
34.719994
 30
220.0
 70
    64
  0
VERTEX
  5
A8
  8
TEAM-NET
 10
-397.5
 20
69.439989
 30
220.0
 70
    64
  0
VERTEX
  5
A9
  8
TEAM-NET
 10
-397.5
 20
104.159983
 30
220.0
 70
    64
  0
VERTEX
  5
AA
  8
TEAM-NET
 10
-397.5
 20
138.879977
 30
220.0
 70
    64
  0
VERTEX
  5
AB
  8
TEAM-NET
 10
-397.5
 20
173.599971
 30
220.0
 70
    64
  0
VERTEX
  5
AC
  8
TEAM-NET
 10
-397.5
 20
208.319966
 30
220.0
 70
    64
  0
VERTEX
  5
AD
  8
TEAM-NET
 10
-397.5
 20
243.03996
 30
220.0
 70
    64
  0
VERTEX
  5
AE
  8
TEAM-NET
 10
-397.5
 20
277.759954
 30
220.0
 70
    64
  0
VERTEX
  5
AF
  8
TEAM-NET
 10
-397.5
 20
312.479948
 30
220.0
 70
    64
  0
VERTEX
  5
B0
  8
TEAM-NET
 10
-397.5
 20
347.199943
 30
220.0
 70
    64
  0
VERTEX
  5
B1
  8
TEAM-NET
 10
-397.5
 20
381.919937
 30
220.0
 70
    64
  0
VERTEX
  5
B2
  8
TEAM-NET
 10
-397.5
 20
416.639931
 30
220.0
 70
    64
  0
VERTEX
  5
B3
  8
TEAM-NET
 10
-397.5
 20
451.359925
 30
220.0
 70
    64
  0
VERTEX
  5
B4
  8
TEAM-NET
 10
-397.5
 20
486.07992
 30
220.0
 70
    64
  0
VERTEX
  5
B5
  8
TEAM-NET
 10
-397.5
 20
520.799914
 30
220.0
 70
    64
  0
VERTEX
  5
B6
  8
TEAM-NET
 10
-397.5
 20
555.519908
 30
220.0
 70
    64
  0
VERTEX
  5
B7
  8
TEAM-NET
 10
-397.225685
 20
590.230316
 30
220.0
 70
    64
  0
VERTEX
  5
B8
  8
TEAM-NET
 10
-382.364093
 20
620.839853
 30
220.0
 70
    64
  0
VERTEX
  5
B9
  8
TEAM-NET
 10
-351.356093
 20
634.851084
 30
220.0
 70
    64
  0
VERTEX
  5
BA
  8
TEAM-NET
 10
-316.639931
 20
635.0
 30
220.0
 70
    64
  0
VERTEX
  5
BB
  8
TEAM-NET
 10
-281.919937
 20
635.0
 30
220.0
 70
    64
  0
VERTEX
  5
BC
  8
TEAM-NET
 10
-247.199943
 20
635.0
 30
220.0
 70
    64
  0
VERTEX
  5
BD
  8
TEAM-NET
 10
-212.479948
 20
635.0
 30
220.0
 70
    64
  0
VERTEX
  5
BE
  8
TEAM-NET
 10
-177.759954
 20
635.0
 30
220.0
 70
    64
  0
VERTEX
  5
BF
  8
TEAM-NET
 10
-143.03996
 20
635.0
 30
220.0
 70
    64
  0
VERTEX
  5
C0
  8
TEAM-NET
 10
-108.319966
 20
635.0
 30
220.0
 70
    64
  0
VERTEX
  5
C1
  8
TEAM-NET
 10
-73.599971
 20
635.0
 30
220.0
 70
    64
  0
VERTEX
  5
C2
  8
TEAM-NET
 10
-38.879977
 20
635.0
 30
220.0
 70
    64
  0
VERTEX
  5
C3
  8
TEAM-NET
 10
-4.159983
 20
635.0
 30
220.0
 70
    64
  0
VERTEX
  5
C4
  8
TEAM-NET
 10
30.560011
 20
635.0
 30
220.0
 70
    64
  0
VERTEX
  5
C5
  8
TEAM-NET
 10
65.280006
 20
635.0
 30
220.0
 70
    64
  0
VERTEX
  5
C6
  8
TEAM-NET
 10
100.0
 20
635.0
 30
220.0
 70
    64
  0
VERTEX
  5
C7
  8
TEAM-NET
 10
134.719994
 20
635.0
 30
220.0
 70
    64
  0
VERTEX
  5
C8
  8
TEAM-NET
 10
169.439989
 20
635.0
 30
220.0
 70
    64
  0
VERTEX
  5
C9
  8
TEAM-NET
 10
204.159983
 20
635.0
 30
220.0
 70
    64
  0
VERTEX
  5
CA
  8
TEAM-NET
 10
238.879977
 20
635.0
 30
220.0
 70
    64
  0
VERTEX
  5
CB
  8
TEAM-NET
 10
273.599971
 20
635.0
 30
220.0
 70
    64
  0
VERTEX
  5
CC
  8
TEAM-NET
 10
308.319966
 20
635.0
 30
220.0
 70
    64
  0
VERTEX
  5
CD
  8
TEAM-NET
 10
343.03996
 20
635.0
 30
220.0
 70
    64
  0
VERTEX
  5
CE
  8
TEAM-NET
 10
377.759954
 20
635.0
 30
220.0
 70
    64
  0
VERTEX
  5
CF
  8
TEAM-NET
 10
412.479948
 20
635.0
 30
220.0
 70
    64
  0
VERTEX
  5
D0
  8
TEAM-NET
 10
447.199943
 20
635.0
 30
220.0
 70
    64
  0
VERTEX
  5
D1
  8
TEAM-NET
 10
481.919937
 20
635.0
 30
220.0
 70
    64
  0
VERTEX
  5
D2
  8
TEAM-NET
 10
516.639931
 20
635.0
 30
220.0
 70
    64
  0
VERTEX
  5
D3
  8
TEAM-NET
 10
551.356093
 20
634.851084
 30
220.0
 70
    64
  0
VERTEX
  5
D4
  8
TEAM-NET
 10
582.364093
 20
620.839853
 30
220.0
 70
    64
  0
VERTEX
  5
D5
  8
TEAM-NET
 10
597.225685
 20
590.230316
 30
220.0
 70
    64
  0
VERTEX
  5
D6
  8
TEAM-NET
 10
597.5
 20
555.519908
 30
220.0
 70
    64
  0
VERTEX
  5
D7
  8
TEAM-NET
 10
597.5
 20
520.799914
 30
220.0
 70
    64
  0
VERTEX
  5
D8
  8
TEAM-NET
 10
597.5
 20
486.07992
 30
220.0
 70
    64
  0
VERTEX
  5
D9
  8
TEAM-NET
 10
597.5
 20
451.359925
 30
220.0
 70
    64
  0
VERTEX
  5
DA
  8
TEAM-NET
 10
597.5
 20
416.639931
 30
220.0
 70
    64
  0
VERTEX
  5
DB
  8
TEAM-NET
 10
597.5
 20
381.919937
 30
220.0
 70
    64
  0
VERTEX
  5
DC
  8
TEAM-NET
 10
597.5
 20
347.199943
 30
220.0
 70
    64
  0
VERTEX
  5
DD
  8
TEAM-NET
 10
597.5
 20
312.479948
 30
220.0
 70
    64
  0
VERTEX
  5
DE
  8
TEAM-NET
 10
597.5
 20
277.759954
 30
220.0
 70
    64
  0
VERTEX
  5
DF
  8
TEAM-NET
 10
597.5
 20
243.03996
 30
220.0
 70
    64
  0
VERTEX
  5
E0
  8
TEAM-NET
 10
597.5
 20
208.319966
 30
220.0
 70
    64
  0
VERTEX
  5
E1
  8
TEAM-NET
 10
597.5
 20
173.599971
 30
220.0
 70
    64
  0
VERTEX
  5
E2
  8
TEAM-NET
 10
597.5
 20
138.879977
 30
220.0
 70
    64
  0
VERTEX
  5
E3
  8
TEAM-NET
 10
597.5
 20
104.159983
 30
220.0
 70
    64
  0
VERTEX
  5
E4
  8
TEAM-NET
 10
597.5
 20
69.439989
 30
220.0
 70
    64
  0
VERTEX
  5
E5
  8
TEAM-NET
 10
597.5
 20
34.719994
 30
220.0
 70
    64
  0
VERTEX
  5
E6
  8
TEAM-NET
 10
597.5
 20
0.0
 30
220.0
 70
    64
  0
VERTEX
  5
E7
  8
TEAM-NET
 10
-897.5
 20
0.0
 30
700.0
 70
    64
  0
VERTEX
  5
E8
  8
TEAM-NET
 10
-897.5
 20
51.994607
 30
700.0
 70
    64
  0
VERTEX
  5
E9
  8
TEAM-NET
 10
-897.5
 20
103.989213
 30
700.0
 70
    64
  0
VERTEX
  5
EA
  8
TEAM-NET
 10
-897.5
 20
155.98382
 30
700.0
 70
    64
  0
VERTEX
  5
EB
  8
TEAM-NET
 10
-897.5
 20
207.978427
 30
700.0
 70
    64
  0
VERTEX
  5
EC
  8
TEAM-NET
 10
-897.5
 20
259.973033
 30
700.0
 70
    64
  0
VERTEX
  5
ED
  8
TEAM-NET
 10
-897.5
 20
311.96764
 30
700.0
 70
    64
  0
VERTEX
  5
EE
  8
TEAM-NET
 10
-897.5
 20
363.962246
 30
700.0
 70
    64
  0
VERTEX
  5
EF
  8
TEAM-NET
 10
-897.5
 20
415.956853
 30
700.0
 70
    64
  0
VERTEX
  5
F0
  8
TEAM-NET
 10
-897.5
 20
467.95146
 30
700.0
 70
    64
  0
VERTEX
  5
F1
  8
TEAM-NET
 10
-897.5
 20
519.946066
 30
700.0
 70
    64
  0
VERTEX
  5
F2
  8
TEAM-NET
 10
-897.5
 20
571.940673
 30
700.0
 70
    64
  0
VERTEX
  5
F3
  8
TEAM-NET
 10
-897.5
 20
623.93528
 30
700.0
 70
    64
  0
VERTEX
  5
F4
  8
TEAM-NET
 10
-897.497298
 20
675.929881
 30
700.0
 70
    64
  0
VERTEX
  5
F5
  8
TEAM-NET
 10
-888.826388
 20
726.964644
 30
700.0
 70
    64
  0
VERTEX
  5
F6
  8
TEAM-NET
 10
-864.315083
 20
772.559904
 30
700.0
 70
    64
  0
VERTEX
  5
F7
  8
TEAM-NET
 10
-826.529152
 20
807.942883
 30
700.0
 70
    64
  0
VERTEX
  5
F8
  8
TEAM-NET
 10
-779.423915
 20
829.409797
 30
700.0
 70
    64
  0
VERTEX
  5
F9
  8
TEAM-NET
 10
-727.924493
 20
835.0
 30
700.0
 70
    64
  0
VERTEX
  5
FA
  8
TEAM-NET
 10
-675.929886
 20
835.0
 30
700.0
 70
    64
  0
VERTEX
  5
FB
  8
TEAM-NET
 10
-623.93528
 20
835.0
 30
700.0
 70
    64
  0
VERTEX
  5
FC
  8
TEAM-NET
 10
-571.940673
 20
835.0
 30
700.0
 70
    64
  0
VERTEX
  5
FD
  8
TEAM-NET
 10
-519.946066
 20
835.0
 30
700.0
 70
    64
  0
VERTEX
  5
FE
  8
TEAM-NET
 10
-467.95146
 20
835.0
 30
700.0
 70
    64
  0
VERTEX
  5
FF
  8
TEAM-NET
 10
-415.956853
 20
835.0
 30
700.0
 70
    64
  0
VERTEX
  5
100
  8
TEAM-NET
 10
-363.962246
 20
835.0
 30
700.0
 70
    64
  0
VERTEX
  5
101
  8
TEAM-NET
 10
-311.96764
 20
835.0
 30
700.0
 70
    64
  0
VERTEX
  5
102
  8
TEAM-NET
 10
-259.973033
 20
835.0
 30
700.0
 70
    64
  0
VERTEX
  5
103
  8
TEAM-NET
 10
-207.978427
 20
835.0
 30
700.0
 70
    64
  0
VERTEX
  5
104
  8
TEAM-NET
 10
-155.98382
 20
835.0
 30
700.0
 70
    64
  0
VERTEX
  5
105
  8
TEAM-NET
 10
-103.989213
 20
835.0
 30
700.0
 70
    64
  0
VERTEX
  5
106
  8
TEAM-NET
 10
-51.994607
 20
835.0
 30
700.0
 70
    64
  0
VERTEX
  5
107
  8
TEAM-NET
 10
0.0
 20
835.0
 30
700.0
 70
    64
  0
VERTEX
  5
108
  8
TEAM-NET
 10
51.994607
 20
835.0
 30
700.0
 70
    64
  0
VERTEX
  5
109
  8
TEAM-NET
 10
103.989213
 20
835.0
 30
700.0
 70
    64
  0
VERTEX
  5
10A
  8
TEAM-NET
 10
155.98382
 20
835.0
 30
700.0
 70
    64
  0
VERTEX
  5
10B
  8
TEAM-NET
 10
207.978427
 20
835.0
 30
700.0
 70
    64
  0
VERTEX
  5
10C
  8
TEAM-NET
 10
259.973033
 20
835.0
 30
700.0
 70
    64
  0
VERTEX
  5
10D
  8
TEAM-NET
 10
311.96764
 20
835.0
 30
700.0
 70
    64
  0
VERTEX
  5
10E
  8
TEAM-NET
 10
363.962246
 20
835.0
 30
700.0
 70
    64
  0
VERTEX
  5
10F
  8
TEAM-NET
 10
415.956853
 20
835.0
 30
700.0
 70
    64
  0
VERTEX
  5
110
  8
TEAM-NET
 10
467.95146
 20
835.0
 30
700.0
 70
    64
  0
VERTEX
  5
111
  8
TEAM-NET
 10
519.946066
 20
835.0
 30
700.0
 70
    64
  0
VERTEX
  5
112
  8
TEAM-NET
 10
571.940673
 20
835.0
 30
700.0
 70
    64
  0
VERTEX
  5
113
  8
TEAM-NET
 10
623.93528
 20
835.0
 30
700.0
 70
    64
  0
VERTEX
  5
114
  8
TEAM-NET
 10
675.929886
 20
835.0
 30
700.0
 70
    64
  0
VERTEX
  5
115
  8
TEAM-NET
 10
727.924493
 20
835.0
 30
700.0
 70
    64
  0
VERTEX
  5
116
  8
TEAM-NET
 10
779.423915
 20
829.409797
 30
700.0
 70
    64
  0
VERTEX
  5
117
  8
TEAM-NET
 10
826.529152
 20
807.942883
 30
700.0
 70
    64
  0
VERTEX
  5
118
  8
TEAM-NET
 10
864.315083
 20
772.559904
 30
700.0
 70
    64
  0
VERTEX
  5
119
  8
TEAM-NET
 10
888.826388
 20
726.964644
 30
700.0
 70
    64
  0
VERTEX
  5
11A
  8
TEAM-NET
 10
897.497298
 20
675.929881
 30
700.0
 70
    64
  0
VERTEX
  5
11B
  8
TEAM-NET
 10
897.5
 20
623.93528
 30
700.0
 70
    64
  0
VERTEX
  5
11C
  8
TEAM-NET
 10
897.5
 20
571.940673
 30
700.0
 70
    64
  0
VERTEX
  5
11D
  8
TEAM-NET
 10
897.5
 20
519.946066
 30
700.0
 70
    64
  0
VERTEX
  5
11E
  8
TEAM-NET
 10
897.5
 20
467.95146
 30
700.0
 70
    64
  0
VERTEX
  5
11F
  8
TEAM-NET
 10
897.5
 20
415.956853
 30
700.0
 70
    64
  0
VERTEX
  5
120
  8
TEAM-NET
 10
897.5
 20
363.962246
 30
700.0
 70
    64
  0
VERTEX
  5
121
  8
TEAM-NET
 10
897.5
 20
311.96764
 30
700.0
 70
    64
  0
VERTEX
  5
122
  8
TEAM-NET
 10
897.5
 20
259.973033
 30
700.0
 70
    64
  0
VERTEX
  5
123
  8
TEAM-NET
 10
897.5
 20
207.978427
 30
700.0
 70
    64
  0
VERTEX
  5
124
  8
TEAM-NET
 10
897.5
 20
155.98382
 30
700.0
 70
    64
  0
VERTEX
  5
125
  8
TEAM-NET
 10
897.5
 20
103.989213
 30
700.0
 70
    64
  0
VERTEX
  5
126
  8
TEAM-NET
 10
897.5
 20
51.994607
 30
700.0
 70
    64
  0
VERTEX
  5
127
  8
TEAM-NET
 10
897.5
 20
0.0
 30
700.0
 70
    64
  0
SEQEND
  5
128
  8
TEAM-NET
  0
CIRCLE
  5
129
  8
TEAM-INSP
 10
0.0
 20
0.0
 30
0.0
 40
10.0
  0
POLYLINE
  5
12B
  8
TEAM-NET
 66
     1
 10
0.0
 20
0.0
 30
0.0
 70
    16
 71
     2
 72
    65
  0
VERTEX
  5
12C
  8
TEAM-NET
 10
-397.5
 20
0.0
 30
220.0
 70
    64
  0
VERTEX
  5
12D
  8
TEAM-NET
 10
-397.5
 20
-34.719994
 30
220.0
 70
    64
  0
VERTEX
  5
12E
  8
TEAM-NET
 10
-397.5
 20
-69.439989
 30
220.0
 70
    64
  0
VERTEX
  5
12F
  8
TEAM-NET
 10
-397.5
 20
-104.159983
 30
220.0
 70
    64
  0
VERTEX
  5
130
  8
TEAM-NET
 10
-397.5
 20
-138.879977
 30
220.0
 70
    64
  0
VERTEX
  5
131
  8
TEAM-NET
 10
-397.5
 20
-173.599971
 30
220.0
 70
    64
  0
VERTEX
  5
132
  8
TEAM-NET
 10
-397.5
 20
-208.319966
 30
220.0
 70
    64
  0
VERTEX
  5
133
  8
TEAM-NET
 10
-397.5
 20
-243.03996
 30
220.0
 70
    64
  0
VERTEX
  5
134
  8
TEAM-NET
 10
-397.5
 20
-277.759954
 30
220.0
 70
    64
  0
VERTEX
  5
135
  8
TEAM-NET
 10
-397.5
 20
-312.479948
 30
220.0
 70
    64
  0
VERTEX
  5
136
  8
TEAM-NET
 10
-397.5
 20
-347.199943
 30
220.0
 70
    64
  0
VERTEX
  5
137
  8
TEAM-NET
 10
-397.5
 20
-381.919937
 30
220.0
 70
    64
  0
VERTEX
  5
138
  8
TEAM-NET
 10
-397.5
 20
-416.639931
 30
220.0
 70
    64
  0
VERTEX
  5
139
  8
TEAM-NET
 10
-397.5
 20
-451.359925
 30
220.0
 70
    64
  0
VERTEX
  5
13A
  8
TEAM-NET
 10
-397.5
 20
-486.07992
 30
220.0
 70
    64
  0
VERTEX
  5
13B
  8
TEAM-NET
 10
-397.5
 20
-520.799914
 30
220.0
 70
    64
  0
VERTEX
  5
13C
  8
TEAM-NET
 10
-397.5
 20
-555.519908
 30
220.0
 70
    64
  0
VERTEX
  5
13D
  8
TEAM-NET
 10
-397.225685
 20
-590.230316
 30
220.0
 70
    64
  0
VERTEX
  5
13E
  8
TEAM-NET
 10
-382.364093
 20
-620.839853
 30
220.0
 70
    64
  0
VERTEX
  5
13F
  8
TEAM-NET
 10
-351.356093
 20
-634.851084
 30
220.0
 70
    64
  0
VERTEX
  5
140
  8
TEAM-NET
 10
-316.639931
 20
-635.0
 30
220.0
 70
    64
  0
VERTEX
  5
141
  8
TEAM-NET
 10
-281.919937
 20
-635.0
 30
220.0
 70
    64
  0
VERTEX
  5
142
  8
TEAM-NET
 10
-247.199943
 20
-635.0
 30
220.0
 70
    64
  0
VERTEX
  5
143
  8
TEAM-NET
 10
-212.479948
 20
-635.0
 30
220.0
 70
    64
  0
VERTEX
  5
144
  8
TEAM-NET
 10
-177.759954
 20
-635.0
 30
220.0
 70
    64
  0
VERTEX
  5
145
  8
TEAM-NET
 10
-143.03996
 20
-635.0
 30
220.0
 70
    64
  0
VERTEX
  5
146
  8
TEAM-NET
 10
-108.319966
 20
-635.0
 30
220.0
 70
    64
  0
VERTEX
  5
147
  8
TEAM-NET
 10
-73.599971
 20
-635.0
 30
220.0
 70
    64
  0
VERTEX
  5
148
  8
TEAM-NET
 10
-38.879977
 20
-635.0
 30
220.0
 70
    64
  0
VERTEX
  5
149
  8
TEAM-NET
 10
-4.159983
 20
-635.0
 30
220.0
 70
    64
  0
VERTEX
  5
14A
  8
TEAM-NET
 10
30.560011
 20
-635.0
 30
220.0
 70
    64
  0
VERTEX
  5
14B
  8
TEAM-NET
 10
65.280006
 20
-635.0
 30
220.0
 70
    64
  0
VERTEX
  5
14C
  8
TEAM-NET
 10
100.0
 20
-635.0
 30
220.0
 70
    64
  0
VERTEX
  5
14D
  8
TEAM-NET
 10
134.719994
 20
-635.0
 30
220.0
 70
    64
  0
VERTEX
  5
14E
  8
TEAM-NET
 10
169.439989
 20
-635.0
 30
220.0
 70
    64
  0
VERTEX
  5
14F
  8
TEAM-NET
 10
204.159983
 20
-635.0
 30
220.0
 70
    64
  0
VERTEX
  5
150
  8
TEAM-NET
 10
238.879977
 20
-635.0
 30
220.0
 70
    64
  0
VERTEX
  5
151
  8
TEAM-NET
 10
273.599971
 20
-635.0
 30
220.0
 70
    64
  0
VERTEX
  5
152
  8
TEAM-NET
 10
308.319966
 20
-635.0
 30
220.0
 70
    64
  0
VERTEX
  5
153
  8
TEAM-NET
 10
343.03996
 20
-635.0
 30
220.0
 70
    64
  0
VERTEX
  5
154
  8
TEAM-NET
 10
377.759954
 20
-635.0
 30
220.0
 70
    64
  0
VERTEX
  5
155
  8
TEAM-NET
 10
412.479948
 20
-635.0
 30
220.0
 70
    64
  0
VERTEX
  5
156
  8
TEAM-NET
 10
447.199943
 20
-635.0
 30
220.0
 70
    64
  0
VERTEX
  5
157
  8
TEAM-NET
 10
481.919937
 20
-635.0
 30
220.0
 70
    64
  0
VERTEX
  5
158
  8
TEAM-NET
 10
516.639931
 20
-635.0
 30
220.0
 70
    64
  0
VERTEX
  5
159
  8
TEAM-NET
 10
551.356093
 20
-634.851084
 30
220.0
 70
    64
  0
VERTEX
  5
15A
  8
TEAM-NET
 10
582.364093
 20
-620.839853
 30
220.0
 70
    64
  0
VERTEX
  5
15B
  8
TEAM-NET
 10
597.225685
 20
-590.230316
 30
220.0
 70
    64
  0
VERTEX
  5
15C
  8
TEAM-NET
 10
597.5
 20
-555.519908
 30
220.0
 70
    64
  0
VERTEX
  5
15D
  8
TEAM-NET
 10
597.5
 20
-520.799914
 30
220.0
 70
    64
  0
VERTEX
  5
15E
  8
TEAM-NET
 10
597.5
 20
-486.07992
 30
220.0
 70
    64
  0
VERTEX
  5
15F
  8
TEAM-NET
 10
597.5
 20
-451.359925
 30
220.0
 70
    64
  0
VERTEX
  5
160
  8
TEAM-NET
 10
597.5
 20
-416.639931
 30
220.0
 70
    64
  0
VERTEX
  5
161
  8
TEAM-NET
 10
597.5
 20
-381.919937
 30
220.0
 70
    64
  0
VERTEX
  5
162
  8
TEAM-NET
 10
597.5
 20
-347.199943
 30
220.0
 70
    64
  0
VERTEX
  5
163
  8
TEAM-NET
 10
597.5
 20
-312.479948
 30
220.0
 70
    64
  0
VERTEX
  5
164
  8
TEAM-NET
 10
597.5
 20
-277.759954
 30
220.0
 70
    64
  0
VERTEX
  5
165
  8
TEAM-NET
 10
597.5
 20
-243.03996
 30
220.0
 70
    64
  0
VERTEX
  5
166
  8
TEAM-NET
 10
597.5
 20
-208.319966
 30
220.0
 70
    64
  0
VERTEX
  5
167
  8
TEAM-NET
 10
597.5
 20
-173.599971
 30
220.0
 70
    64
  0
VERTEX
  5
168
  8
TEAM-NET
 10
597.5
 20
-138.879977
 30
220.0
 70
    64
  0
VERTEX
  5
169
  8
TEAM-NET
 10
597.5
 20
-104.159983
 30
220.0
 70
    64
  0
VERTEX
  5
16A
  8
TEAM-NET
 10
597.5
 20
-69.439989
 30
220.0
 70
    64
  0
VERTEX
  5
16B
  8
TEAM-NET
 10
597.5
 20
-34.719994
 30
220.0
 70
    64
  0
VERTEX
  5
16C
  8
TEAM-NET
 10
597.5
 20
0.0
 30
220.0
 70
    64
  0
VERTEX
  5
16D
  8
TEAM-NET
 10
-397.5
 20
0.0
 30
220.0
 70
    64
  0
VERTEX
  5
16E
  8
TEAM-NET
 10
-397.5
 20
34.719994
 30
220.0
 70
    64
  0
VERTEX
  5
16F
  8
TEAM-NET
 10
-397.5
 20
69.439989
 30
220.0
 70
    64
  0
VERTEX
  5
170
  8
TEAM-NET
 10
-397.5
 20
104.159983
 30
220.0
 70
    64
  0
VERTEX
  5
171
  8
TEAM-NET
 10
-397.5
 20
138.879977
 30
220.0
 70
    64
  0
VERTEX
  5
172
  8
TEAM-NET
 10
-397.5
 20
173.599971
 30
220.0
 70
    64
  0
VERTEX
  5
173
  8
TEAM-NET
 10
-397.5
 20
208.319966
 30
220.0
 70
    64
  0
VERTEX
  5
174
  8
TEAM-NET
 10
-397.5
 20
243.03996
 30
220.0
 70
    64
  0
VERTEX
  5
175
  8
TEAM-NET
 10
-397.5
 20
277.759954
 30
220.0
 70
    64
  0
VERTEX
  5
176
  8
TEAM-NET
 10
-397.5
 20
312.479948
 30
220.0
 70
    64
  0
VERTEX
  5
177
  8
TEAM-NET
 10
-397.5
 20
347.199943
 30
220.0
 70
    64
  0
VERTEX
  5
178
  8
TEAM-NET
 10
-397.5
 20
381.919937
 30
220.0
 70
    64
  0
VERTEX
  5
179
  8
TEAM-NET
 10
-397.5
 20
416.639931
 30
220.0
 70
    64
  0
VERTEX
  5
17A
  8
TEAM-NET
 10
-397.5
 20
451.359925
 30
220.0
 70
    64
  0
VERTEX
  5
17B
  8
TEAM-NET
 10
-397.5
 20
486.07992
 30
220.0
 70
    64
  0
VERTEX
  5
17C
  8
TEAM-NET
 10
-397.5
 20
520.799914
 30
220.0
 70
    64
  0
VERTEX
  5
17D
  8
TEAM-NET
 10
-397.5
 20
555.519908
 30
220.0
 70
    64
  0
VERTEX
  5
17E
  8
TEAM-NET
 10
-397.225685
 20
590.230316
 30
220.0
 70
    64
  0
VERTEX
  5
17F
  8
TEAM-NET
 10
-382.364093
 20
620.839853
 30
220.0
 70
    64
  0
VERTEX
  5
180
  8
TEAM-NET
 10
-351.356093
 20
634.851084
 30
220.0
 70
    64
  0
VERTEX
  5
181
  8
TEAM-NET
 10
-316.639931
 20
635.0
 30
220.0
 70
    64
  0
VERTEX
  5
182
  8
TEAM-NET
 10
-281.919937
 20
635.0
 30
220.0
 70
    64
  0
VERTEX
  5
183
  8
TEAM-NET
 10
-247.199943
 20
635.0
 30
220.0
 70
    64
  0
VERTEX
  5
184
  8
TEAM-NET
 10
-212.479948
 20
635.0
 30
220.0
 70
    64
  0
VERTEX
  5
185
  8
TEAM-NET
 10
-177.759954
 20
635.0
 30
220.0
 70
    64
  0
VERTEX
  5
186
  8
TEAM-NET
 10
-143.03996
 20
635.0
 30
220.0
 70
    64
  0
VERTEX
  5
187
  8
TEAM-NET
 10
-108.319966
 20
635.0
 30
220.0
 70
    64
  0
VERTEX
  5
188
  8
TEAM-NET
 10
-73.599971
 20
635.0
 30
220.0
 70
    64
  0
VERTEX
  5
189
  8
TEAM-NET
 10
-38.879977
 20
635.0
 30
220.0
 70
    64
  0
VERTEX
  5
18A
  8
TEAM-NET
 10
-4.159983
 20
635.0
 30
220.0
 70
    64
  0
VERTEX
  5
18B
  8
TEAM-NET
 10
30.560011
 20
635.0
 30
220.0
 70
    64
  0
VERTEX
  5
18C
  8
TEAM-NET
 10
65.280006
 20
635.0
 30
220.0
 70
    64
  0
VERTEX
  5
18D
  8
TEAM-NET
 10
100.0
 20
635.0
 30
220.0
 70
    64
  0
VERTEX
  5
18E
  8
TEAM-NET
 10
134.719994
 20
635.0
 30
220.0
 70
    64
  0
VERTEX
  5
18F
  8
TEAM-NET
 10
169.439989
 20
635.0
 30
220.0
 70
    64
  0
VERTEX
  5
190
  8
TEAM-NET
 10
204.159983
 20
635.0
 30
220.0
 70
    64
  0
VERTEX
  5
191
  8
TEAM-NET
 10
238.879977
 20
635.0
 30
220.0
 70
    64
  0
VERTEX
  5
192
  8
TEAM-NET
 10
273.599971
 20
635.0
 30
220.0
 70
    64
  0
VERTEX
  5
193
  8
TEAM-NET
 10
308.319966
 20
635.0
 30
220.0
 70
    64
  0
VERTEX
  5
194
  8
TEAM-NET
 10
343.03996
 20
635.0
 30
220.0
 70
    64
  0
VERTEX
  5
195
  8
TEAM-NET
 10
377.759954
 20
635.0
 30
220.0
 70
    64
  0
VERTEX
  5
196
  8
TEAM-NET
 10
412.479948
 20
635.0
 30
220.0
 70
    64
  0
VERTEX
  5
197
  8
TEAM-NET
 10
447.199943
 20
635.0
 30
220.0
 70
    64
  0
VERTEX
  5
198
  8
TEAM-NET
 10
481.919937
 20
635.0
 30
220.0
 70
    64
  0
VERTEX
  5
199
  8
TEAM-NET
 10
516.639931
 20
635.0
 30
220.0
 70
    64
  0
VERTEX
  5
19A
  8
TEAM-NET
 10
551.356093
 20
634.851084
 30
220.0
 70
    64
  0
VERTEX
  5
19B
  8
TEAM-NET
 10
582.364093
 20
620.839853
 30
220.0
 70
    64
  0
VERTEX
  5
19C
  8
TEAM-NET
 10
597.225685
 20
590.230316
 30
220.0
 70
    64
  0
VERTEX
  5
19D
  8
TEAM-NET
 10
597.5
 20
555.519908
 30
220.0
 70
    64
  0
VERTEX
  5
19E
  8
TEAM-NET
 10
597.5
 20
520.799914
 30
220.0
 70
    64
  0
VERTEX
  5
19F
  8
TEAM-NET
 10
597.5
 20
486.07992
 30
220.0
 70
    64
  0
VERTEX
  5
1A0
  8
TEAM-NET
 10
597.5
 20
451.359925
 30
220.0
 70
    64
  0
VERTEX
  5
1A1
  8
TEAM-NET
 10
597.5
 20
416.639931
 30
220.0
 70
    64
  0
VERTEX
  5
1A2
  8
TEAM-NET
 10
597.5
 20
381.919937
 30
220.0
 70
    64
  0
VERTEX
  5
1A3
  8
TEAM-NET
 10
597.5
 20
347.199943
 30
220.0
 70
    64
  0
VERTEX
  5
1A4
  8
TEAM-NET
 10
597.5
 20
312.479948
 30
220.0
 70
    64
  0
VERTEX
  5
1A5
  8
TEAM-NET
 10
597.5
 20
277.759954
 30
220.0
 70
    64
  0
VERTEX
  5
1A6
  8
TEAM-NET
 10
597.5
 20
243.03996
 30
220.0
 70
    64
  0
VERTEX
  5
1A7
  8
TEAM-NET
 10
597.5
 20
208.319966
 30
220.0
 70
    64
  0
VERTEX
  5
1A8
  8
TEAM-NET
 10
597.5
 20
173.599971
 30
220.0
 70
    64
  0
VERTEX
  5
1A9
  8
TEAM-NET
 10
597.5
 20
138.879977
 30
220.0
 70
    64
  0
VERTEX
  5
1AA
  8
TEAM-NET
 10
597.5
 20
104.159983
 30
220.0
 70
    64
  0
VERTEX
  5
1AB
  8
TEAM-NET
 10
597.5
 20
69.439989
 30
220.0
 70
    64
  0
VERTEX
  5
1AC
  8
TEAM-NET
 10
597.5
 20
34.719994
 30
220.0
 70
    64
  0
VERTEX
  5
1AD
  8
TEAM-NET
 10
597.5
 20
0.0
 30
220.0
 70
    64
  0
SEQEND
  5
1AE
  8
TEAM-NET
  0
POLYLINE
  5
1AF
  8
TEAM-NET
 66
     1
 10
0.0
 20
0.0
 30
0.0
 70
    16
 71
     2
 72
    25
  0
VERTEX
  5
1B0
  8
TEAM-NET
 10
197.5
 20
-350.0
 30
220.0
 70
    64
  0
VERTEX
  5
1B1
  8
TEAM-NET
 10
185.0
 20
-350.0
 30
220.0
 70
    64
  0
VERTEX
  5
1B2
  8
TEAM-NET
 10
172.5
 20
-350.0
 30
220.0
 70
    64
  0
VERTEX
  5
1B3
  8
TEAM-NET
 10
160.0
 20
-350.0
 30
220.0
 70
    64
  0
VERTEX
  5
1B4
  8
TEAM-NET
 10
147.5
 20
-350.0
 30
220.0
 70
    64
  0
VERTEX
  5
1B5
  8
TEAM-NET
 10
135.0
 20
-350.0
 30
220.0
 70
    64
  0
VERTEX
  5
1B6
  8
TEAM-NET
 10
122.5
 20
-350.0
 30
220.0
 70
    64
  0
VERTEX
  5
1B7
  8
TEAM-NET
 10
122.5
 20
-337.5
 30
220.0
 70
    64
  0
VERTEX
  5
1B8
  8
TEAM-NET
 10
122.5
 20
-325.0
 30
220.0
 70
    64
  0
VERTEX
  5
1B9
  8
TEAM-NET
 10
122.5
 20
-312.5
 30
220.0
 70
    64
  0
VERTEX
  5
1BA
  8
TEAM-NET
 10
122.5
 20
-300.0
 30
220.0
 70
    64
  0
VERTEX
  5
1BB
  8
TEAM-NET
 10
122.5
 20
-287.5
 30
220.0
 70
    64
  0
VERTEX
  5
1BC
  8
TEAM-NET
 10
122.5
 20
-275.0
 30
220.0
 70
    64
  0
VERTEX
  5
1BD
  8
TEAM-NET
 10
122.5
 20
-262.5
 30
220.0
 70
    64
  0
VERTEX
  5
1BE
  8
TEAM-NET
 10
122.5
 20
-250.0
 30
220.0
 70
    64
  0
VERTEX
  5
1BF
  8
TEAM-NET
 10
122.5
 20
-237.5
 30
220.0
 70
    64
  0
VERTEX
  5
1C0
  8
TEAM-NET
 10
122.5
 20
-225.0
 30
220.0
 70
    64
  0
VERTEX
  5
1C1
  8
TEAM-NET
 10
122.5
 20
-212.5
 30
220.0
 70
    64
  0
VERTEX
  5
1C2
  8
TEAM-NET
 10
122.5
 20
-200.0
 30
220.0
 70
    64
  0
VERTEX
  5
1C3
  8
TEAM-NET
 10
135.0
 20
-200.0
 30
220.0
 70
    64
  0
VERTEX
  5
1C4
  8
TEAM-NET
 10
147.5
 20
-200.0
 30
220.0
 70
    64
  0
VERTEX
  5
1C5
  8
TEAM-NET
 10
160.0
 20
-200.0
 30
220.0
 70
    64
  0
VERTEX
  5
1C6
  8
TEAM-NET
 10
172.5
 20
-200.0
 30
220.0
 70
    64
  0
VERTEX
  5
1C7
  8
TEAM-NET
 10
185.0
 20
-200.0
 30
220.0
 70
    64
  0
VERTEX
  5
1C8
  8
TEAM-NET
 10
197.5
 20
-200.0
 30
220.0
 70
    64
  0
VERTEX
  5
1C9
  8
TEAM-NET
 10
197.5
 20
-350.0
 30
220.0
 70
    64
  0
VERTEX
  5
1CA
  8
TEAM-NET
 10
210.0
 20
-350.0
 30
220.0
 70
    64
  0
VERTEX
  5
1CB
  8
TEAM-NET
 10
222.5
 20
-350.0
 30
220.0
 70
    64
  0
VERTEX
  5
1CC
  8
TEAM-NET
 10
235.0
 20
-350.0
 30
220.0
 70
    64
  0
VERTEX
  5
1CD
  8
TEAM-NET
 10
247.5
 20
-350.0
 30
220.0
 70
    64
  0
VERTEX
  5
1CE
  8
TEAM-NET
 10
260.0
 20
-350.0
 30
220.0
 70
    64
  0
VERTEX
  5
1CF
  8
TEAM-NET
 10
272.5
 20
-350.0
 30
220.0
 70
    64
  0
VERTEX
  5
1D0
  8
TEAM-NET
 10
272.5
 20
-337.5
 30
220.0
 70
    64
  0
VERTEX
  5
1D1
  8
TEAM-NET
 10
272.5
 20
-325.0
 30
220.0
 70
    64
  0
VERTEX
  5
1D2
  8
TEAM-NET
 10
272.5
 20
-312.5
 30
220.0
 70
    64
  0
VERTEX
  5
1D3
  8
TEAM-NET
 10
272.5
 20
-300.0
 30
220.0
 70
    64
  0
VERTEX
  5
1D4
  8
TEAM-NET
 10
272.5
 20
-287.5
 30
220.0
 70
    64
  0
VERTEX
  5
1D5
  8
TEAM-NET
 10
272.5
 20
-275.0
 30
220.0
 70
    64
  0
VERTEX
  5
1D6
  8
TEAM-NET
 10
272.5
 20
-262.5
 30
220.0
 70
    64
  0
VERTEX
  5
1D7
  8
TEAM-NET
 10
272.5
 20
-250.0
 30
220.0
 70
    64
  0
VERTEX
  5
1D8
  8
TEAM-NET
 10
272.5
 20
-237.5
 30
220.0
 70
    64
  0
VERTEX
  5
1D9
  8
TEAM-NET
 10
272.5
 20
-225.0
 30
220.0
 70
    64
  0
VERTEX
  5
1DA
  8
TEAM-NET
 10
272.5
 20
-212.5
 30
220.0
 70
    64
  0
VERTEX
  5
1DB
  8
TEAM-NET
 10
272.5
 20
-200.0
 30
220.0
 70
    64
  0
VERTEX
  5
1DC
  8
TEAM-NET
 10
260.0
 20
-200.0
 30
220.0
 70
    64
  0
VERTEX
  5
1DD
  8
TEAM-NET
 10
247.5
 20
-200.0
 30
220.0
 70
    64
  0
VERTEX
  5
1DE
  8
TEAM-NET
 10
235.0
 20
-200.0
 30
220.0
 70
    64
  0
VERTEX
  5
1DF
  8
TEAM-NET
 10
222.5
 20
-200.0
 30
220.0
 70
    64
  0
VERTEX
  5
1E0
  8
TEAM-NET
 10
210.0
 20
-200.0
 30
220.0
 70
    64
  0
VERTEX
  5
1E1
  8
TEAM-NET
 10
197.5
 20
-200.0
 30
220.0
 70
    64
  0
SEQEND
  5
1E2
  8
TEAM-NET
  0
POLYLINE
  5
1E3
  8
TEAM-BODY
 66
     1
 10
0.0
 20
0.0
 30
220.0
  0
VERTEX
  5
630
  8
TEAM-BODY
 10
197.5
 20
-350.0
 30
220.0
  0
VERTEX
  5
631
  8
TEAM-BODY
 10
122.5
 20
-350.0
 30
220.0
  0
VERTEX
  5
632
  8
TEAM-BODY
 10
122.5
 20
-200.0
 30
220.0
  0
VERTEX
  5
633
  8
TEAM-BODY
 10
197.5
 20
-200.0
 30
220.0
  0
SEQEND
  5
634
  8
TEAM-BODY
  0
POLYLINE
  5
1E5
  8
TEAM-BODY
 66
     1
 10
0.0
 20
0.0
 30
220.0
  0
VERTEX
  5
635
  8
TEAM-BODY
 10
197.5
 20
-350.0
 30
220.0
  0
VERTEX
  5
636
  8
TEAM-BODY
 10
272.5
 20
-350.0
 30
220.0
  0
VERTEX
  5
637
  8
TEAM-BODY
 10
272.5
 20
-200.0
 30
220.0
  0
VERTEX
  5
638
  8
TEAM-BODY
 10
197.5
 20
-200.0
 30
220.0
  0
SEQEND
  5
639
  8
TEAM-BODY
  0
POLYLINE
  5
1E6
  8
TEAM-BODY
 66
     1
 10
0.0
 20
0.0
 30
220.0
  0
VERTEX
  5
63A
  8
TEAM-BODY
 10
-397.5
 20
0.0
 30
220.0
  0
VERTEX
  5
63B
  8
TEAM-BODY
 10
-397.5
 20
-585.0
 30
220.0
 42
0.414214
  0
VERTEX
  5
63C
  8
TEAM-BODY
 10
-347.5
 20
-635.0
 30
220.0
  0
VERTEX
  5
63D
  8
TEAM-BODY
 10
547.5
 20
-635.0
 30
220.0
 42
0.414214
  0
VERTEX
  5
63E
  8
TEAM-BODY
 10
597.5
 20
-585.0
 30
220.0
  0
VERTEX
  5
63F
  8
TEAM-BODY
 10
597.5
 20
0.0
 30
220.0
  0
SEQEND
  5
640
  8
TEAM-BODY
  0
POLYLINE
  5
1E7
  8
TEAM-BODY
 66
     1
 10
0.0
 20
0.0
 30
220.0
  0
VERTEX
  5
641
  8
TEAM-BODY
 10
597.5
 20
0.0
 30
220.0
  0
VERTEX
  5
642
  8
TEAM-BODY
 10
597.5
 20
585.0
 30
220.0
 42
0.414214
  0
VERTEX
  5
643
  8
TEAM-BODY
 10
547.5
 20
635.0
 30
220.0
  0
VERTEX
  5
644
  8
TEAM-BODY
 10
-347.5
 20
635.0
 30
220.0
 42
0.414214
  0
VERTEX
  5
645
  8
TEAM-BODY
 10
-397.5
 20
585.0
 30
220.0
  0
VERTEX
  5
646
  8
TEAM-BODY
 10
-397.5
 20
0.0
 30
220.0
  0
SEQEND
  5
647
  8
TEAM-BODY
  0
POLYLINE
  5
1E8
  8
TEAM-BODY
 66
     1
 10
0.0
 20
0.0
 30
700.0
 39
-50.0
  0
VERTEX
  5
648
  8
TEAM-BODY
 10
-1037.5
 20
0.0
 30
700.0
  0
VERTEX
  5
649
  8
TEAM-BODY
 10
-1037.5
 20
-675.0
 30
700.0
 42
0.414214
  0
VERTEX
  5
64A
  8
TEAM-BODY
 10
-737.5
 20
-975.0
 30
700.0
  0
VERTEX
  5
64B
  8
TEAM-BODY
 10
737.5
 20
-975.0
 30
700.0
 42
0.414214
  0
VERTEX
  5
64C
  8
TEAM-BODY
 10
1037.5
 20
-675.0
 30
700.0
  0
VERTEX
  5
64D
  8
TEAM-BODY
 10
1037.5
 20
0.0
 30
700.0
  0
SEQEND
  5
64E
  8
TEAM-BODY
  0
POLYLINE
  5
1E9
  8
TEAM-BODY
 66
     1
 10
0.0
 20
0.0
 30
700.0
 39
-50.0
  0
VERTEX
  5
64F
  8
TEAM-BODY
 10
1037.5
 20
0.0
 30
700.0
  0
VERTEX
  5
650
  8
TEAM-BODY
 10
1037.5
 20
675.0
 30
700.0
 42
0.414214
  0
VERTEX
  5
651
  8
TEAM-BODY
 10
737.5
 20
975.0
 30
700.0
  0
VERTEX
  5
652
  8
TEAM-BODY
 10
-737.5
 20
975.0
 30
700.0
 42
0.414214
  0
VERTEX
  5
653
  8
TEAM-BODY
 10
-1037.5
 20
675.0
 30
700.0
  0
VERTEX
  5
654
  8
TEAM-BODY
 10
-1037.5
 20
0.0
 30
700.0
  0
SEQEND
  5
655
  8
TEAM-BODY
  0
POLYLINE
  5
1EA
  8
TEAM-NET
 66
     1
 10
0.0
 20
0.0
 30
0.0
 70
    16
 71
     2
 72
    65
  0
VERTEX
  5
1EB
  8
TEAM-NET
 10
-997.5
 20
0.0
 30
700.0
 70
    64
  0
VERTEX
  5
1EC
  8
TEAM-NET
 10
-997.5
 20
-56.903345
 30
700.0
 70
    64
  0
VERTEX
  5
1ED
  8
TEAM-NET
 10
-997.5
 20
-113.80669
 30
700.0
 70
    64
  0
VERTEX
  5
1EE
  8
TEAM-NET
 10
-997.5
 20
-170.710035
 30
700.0
 70
    64
  0
VERTEX
  5
1EF
  8
TEAM-NET
 10
-997.5
 20
-227.613381
 30
700.0
 70
    64
  0
VERTEX
  5
1F0
  8
TEAM-NET
 10
-997.5
 20
-284.516726
 30
700.0
 70
    64
  0
VERTEX
  5
1F1
  8
TEAM-NET
 10
-997.5
 20
-341.420071
 30
700.0
 70
    64
  0
VERTEX
  5
1F2
  8
TEAM-NET
 10
-997.5
 20
-398.323416
 30
700.0
 70
    64
  0
VERTEX
  5
1F3
  8
TEAM-NET
 10
-997.5
 20
-455.226761
 30
700.0
 70
    64
  0
VERTEX
  5
1F4
  8
TEAM-NET
 10
-997.5
 20
-512.130106
 30
700.0
 70
    64
  0
VERTEX
  5
1F5
  8
TEAM-NET
 10
-997.5
 20
-569.033452
 30
700.0
 70
    64
  0
VERTEX
  5
1F6
  8
TEAM-NET
 10
-997.5
 20
-625.936797
 30
700.0
 70
    64
  0
VERTEX
  5
1F7
  8
TEAM-NET
 10
-997.381802
 20
-682.838954
 30
700.0
 70
    64
  0
VERTEX
  5
1F8
  8
TEAM-NET
 10
-989.480569
 20
-739.07646
 30
700.0
 70
    64
  0
VERTEX
  5
1F9
  8
TEAM-NET
 10
-969.557752
 20
-792.256981
 30
700.0
 70
    64
  0
VERTEX
  5
1FA
  8
TEAM-NET
 10
-938.563836
 20
-839.843362
 30
700.0
 70
    64
  0
VERTEX
  5
1FB
  8
TEAM-NET
 10
-897.977489
 20
-879.565333
 30
700.0
 70
    64
  0
VERTEX
  5
1FC
  8
TEAM-NET
 10
-849.735021
 20
-909.527824
 30
700.0
 70
    64
  0
VERTEX
  5
1FD
  8
TEAM-NET
 10
-796.138002
 20
-928.301371
 30
700.0
 70
    64
  0
VERTEX
  5
1FE
  8
TEAM-NET
 10
-739.743459
 20
-934.990321
 30
700.0
 70
    64
  0
VERTEX
  5
1FF
  8
TEAM-NET
 10
-682.840142
 20
-935.0
 30
700.0
 70
    64
  0
VERTEX
  5
200
  8
TEAM-NET
 10
-625.936797
 20
-935.0
 30
700.0
 70
    64
  0
VERTEX
  5
201
  8
TEAM-NET
 10
-569.033452
 20
-935.0
 30
700.0
 70
    64
  0
VERTEX
  5
202
  8
TEAM-NET
 10
-512.130106
 20
-935.0
 30
700.0
 70
    64
  0
VERTEX
  5
203
  8
TEAM-NET
 10
-455.226761
 20
-935.0
 30
700.0
 70
    64
  0
VERTEX
  5
204
  8
TEAM-NET
 10
-398.323416
 20
-935.0
 30
700.0
 70
    64
  0
VERTEX
  5
205
  8
TEAM-NET
 10
-341.420071
 20
-935.0
 30
700.0
 70
    64
  0
VERTEX
  5
206
  8
TEAM-NET
 10
-284.516726
 20
-935.0
 30
700.0
 70
    64
  0
VERTEX
  5
207
  8
TEAM-NET
 10
-227.613381
 20
-935.0
 30
700.0
 70
    64
  0
VERTEX
  5
208
  8
TEAM-NET
 10
-170.710035
 20
-935.0
 30
700.0
 70
    64
  0
VERTEX
  5
209
  8
TEAM-NET
 10
-113.80669
 20
-935.0
 30
700.0
 70
    64
  0
VERTEX
  5
20A
  8
TEAM-NET
 10
-56.903345
 20
-935.0
 30
700.0
 70
    64
  0
VERTEX
  5
20B
  8
TEAM-NET
 10
0.0
 20
-935.0
 30
700.0
 70
    64
  0
VERTEX
  5
20C
  8
TEAM-NET
 10
56.903345
 20
-935.0
 30
700.0
 70
    64
  0
VERTEX
  5
20D
  8
TEAM-NET
 10
113.80669
 20
-935.0
 30
700.0
 70
    64
  0
VERTEX
  5
20E
  8
TEAM-NET
 10
170.710035
 20
-935.0
 30
700.0
 70
    64
  0
VERTEX
  5
20F
  8
TEAM-NET
 10
227.613381
 20
-935.0
 30
700.0
 70
    64
  0
VERTEX
  5
210
  8
TEAM-NET
 10
284.516726
 20
-935.0
 30
700.0
 70
    64
  0
VERTEX
  5
211
  8
TEAM-NET
 10
341.420071
 20
-935.0
 30
700.0
 70
    64
  0
VERTEX
  5
212
  8
TEAM-NET
 10
398.323416
 20
-935.0
 30
700.0
 70
    64
  0
VERTEX
  5
213
  8
TEAM-NET
 10
455.226761
 20
-935.0
 30
700.0
 70
    64
  0
VERTEX
  5
214
  8
TEAM-NET
 10
512.130106
 20
-935.0
 30
700.0
 70
    64
  0
VERTEX
  5
215
  8
TEAM-NET
 10
569.033452
 20
-935.0
 30
700.0
 70
    64
  0
VERTEX
  5
216
  8
TEAM-NET
 10
625.936797
 20
-935.0
 30
700.0
 70
    64
  0
VERTEX
  5
217
  8
TEAM-NET
 10
682.840142
 20
-935.0
 30
700.0
 70
    64
  0
VERTEX
  5
218
  8
TEAM-NET
 10
739.743459
 20
-934.990321
 30
700.0
 70
    64
  0
VERTEX
  5
219
  8
TEAM-NET
 10
796.138002
 20
-928.301371
 30
700.0
 70
    64
  0
VERTEX
  5
21A
  8
TEAM-NET
 10
849.735021
 20
-909.527824
 30
700.0
 70
    64
  0
VERTEX
  5
21B
  8
TEAM-NET
 10
897.977489
 20
-879.565333
 30
700.0
 70
    64
  0
VERTEX
  5
21C
  8
TEAM-NET
 10
938.563836
 20
-839.843362
 30
700.0
 70
    64
  0
VERTEX
  5
21D
  8
TEAM-NET
 10
969.557752
 20
-792.256981
 30
700.0
 70
    64
  0
VERTEX
  5
21E
  8
TEAM-NET
 10
989.480569
 20
-739.07646
 30
700.0
 70
    64
  0
VERTEX
  5
21F
  8
TEAM-NET
 10
997.381802
 20
-682.838954
 30
700.0
 70
    64
  0
VERTEX
  5
220
  8
TEAM-NET
 10
997.5
 20
-625.936797
 30
700.0
 70
    64
  0
VERTEX
  5
221
  8
TEAM-NET
 10
997.5
 20
-569.033452
 30
700.0
 70
    64
  0
VERTEX
  5
222
  8
TEAM-NET
 10
997.5
 20
-512.130106
 30
700.0
 70
    64
  0
VERTEX
  5
223
  8
TEAM-NET
 10
997.5
 20
-455.226761
 30
700.0
 70
    64
  0
VERTEX
  5
224
  8
TEAM-NET
 10
997.5
 20
-398.323416
 30
700.0
 70
    64
  0
VERTEX
  5
225
  8
TEAM-NET
 10
997.5
 20
-341.420071
 30
700.0
 70
    64
  0
VERTEX
  5
226
  8
TEAM-NET
 10
997.5
 20
-284.516726
 30
700.0
 70
    64
  0
VERTEX
  5
227
  8
TEAM-NET
 10
997.5
 20
-227.613381
 30
700.0
 70
    64
  0
VERTEX
  5
228
  8
TEAM-NET
 10
997.5
 20
-170.710035
 30
700.0
 70
    64
  0
VERTEX
  5
229
  8
TEAM-NET
 10
997.5
 20
-113.80669
 30
700.0
 70
    64
  0
VERTEX
  5
22A
  8
TEAM-NET
 10
997.5
 20
-56.903345
 30
700.0
 70
    64
  0
VERTEX
  5
22B
  8
TEAM-NET
 10
997.5
 20
0.0
 30
700.0
 70
    64
  0
VERTEX
  5
22C
  8
TEAM-NET
 10
-1037.5
 20
0.0
 30
700.0
 70
    64
  0
VERTEX
  5
22D
  8
TEAM-NET
 10
-1037.5
 20
-58.866841
 30
700.0
 70
    64
  0
VERTEX
  5
22E
  8
TEAM-NET
 10
-1037.5
 20
-117.733681
 30
700.0
 70
    64
  0
VERTEX
  5
22F
  8
TEAM-NET
 10
-1037.5
 20
-176.600522
 30
700.0
 70
    64
  0
VERTEX
  5
230
  8
TEAM-NET
 10
-1037.5
 20
-235.467362
 30
700.0
 70
    64
  0
VERTEX
  5
231
  8
TEAM-NET
 10
-1037.5
 20
-294.334203
 30
700.0
 70
    64
  0
VERTEX
  5
232
  8
TEAM-NET
 10
-1037.5
 20
-353.201043
 30
700.0
 70
    64
  0
VERTEX
  5
233
  8
TEAM-NET
 10
-1037.5
 20
-412.067884
 30
700.0
 70
    64
  0
VERTEX
  5
234
  8
TEAM-NET
 10
-1037.5
 20
-470.934725
 30
700.0
 70
    64
  0
VERTEX
  5
235
  8
TEAM-NET
 10
-1037.5
 20
-529.801565
 30
700.0
 70
    64
  0
VERTEX
  5
236
  8
TEAM-NET
 10
-1037.5
 20
-588.668406
 30
700.0
 70
    64
  0
VERTEX
  5
237
  8
TEAM-NET
 10
-1037.5
 20
-647.535246
 30
700.0
 70
    64
  0
VERTEX
  5
238
  8
TEAM-NET
 10
-1035.858015
 20
-706.344775
 30
700.0
 70
    64
  0
VERTEX
  5
239
  8
TEAM-NET
 10
-1024.021358
 20
-763.912942
 30
700.0
 70
    64
  0
VERTEX
  5
23A
  8
TEAM-NET
 10
-1001.18801
 20
-818.068631
 30
700.0
 70
    64
  0
VERTEX
  5
23B
  8
TEAM-NET
 10
-968.234316
 20
-866.733345
 30
700.0
 70
    64
  0
VERTEX
  5
23C
  8
TEAM-NET
 10
-926.425038
 20
-908.039332
 30
700.0
 70
    64
  0
VERTEX
  5
23D
  8
TEAM-NET
 10
-877.364815
 20
-940.401269
 30
700.0
 70
    64
  0
VERTEX
  5
23E
  8
TEAM-NET
 10
-822.936581
 20
-962.577104
 30
700.0
 70
    64
  0
VERTEX
  5
23F
  8
TEAM-NET
 10
-765.229291
 20
-973.715728
 30
700.0
 70
    64
  0
VERTEX
  5
240
  8
TEAM-NET
 10
-706.402087
 20
-975.0
 30
700.0
 70
    64
  0
VERTEX
  5
241
  8
TEAM-NET
 10
-647.535246
 20
-975.0
 30
700.0
 70
    64
  0
VERTEX
  5
242
  8
TEAM-NET
 10
-588.668406
 20
-975.0
 30
700.0
 70
    64
  0
VERTEX
  5
243
  8
TEAM-NET
 10
-529.801565
 20
-975.0
 30
700.0
 70
    64
  0
VERTEX
  5
244
  8
TEAM-NET
 10
-470.934725
 20
-975.0
 30
700.0
 70
    64
  0
VERTEX
  5
245
  8
TEAM-NET
 10
-412.067884
 20
-975.0
 30
700.0
 70
    64
  0
VERTEX
  5
246
  8
TEAM-NET
 10
-353.201043
 20
-975.0
 30
700.0
 70
    64
  0
VERTEX
  5
247
  8
TEAM-NET
 10
-294.334203
 20
-975.0
 30
700.0
 70
    64
  0
VERTEX
  5
248
  8
TEAM-NET
 10
-235.467362
 20
-975.0
 30
700.0
 70
    64
  0
VERTEX
  5
249
  8
TEAM-NET
 10
-176.600522
 20
-975.0
 30
700.0
 70
    64
  0
VERTEX
  5
24A
  8
TEAM-NET
 10
-117.733681
 20
-975.0
 30
700.0
 70
    64
  0
VERTEX
  5
24B
  8
TEAM-NET
 10
-58.866841
 20
-975.0
 30
700.0
 70
    64
  0
VERTEX
  5
24C
  8
TEAM-NET
 10
0.0
 20
-975.0
 30
700.0
 70
    64
  0
VERTEX
  5
24D
  8
TEAM-NET
 10
58.866841
 20
-975.0
 30
700.0
 70
    64
  0
VERTEX
  5
24E
  8
TEAM-NET
 10
117.733681
 20
-975.0
 30
700.0
 70
    64
  0
VERTEX
  5
24F
  8
TEAM-NET
 10
176.600522
 20
-975.0
 30
700.0
 70
    64
  0
VERTEX
  5
250
  8
TEAM-NET
 10
235.467362
 20
-975.0
 30
700.0
 70
    64
  0
VERTEX
  5
251
  8
TEAM-NET
 10
294.334203
 20
-975.0
 30
700.0
 70
    64
  0
VERTEX
  5
252
  8
TEAM-NET
 10
353.201043
 20
-975.0
 30
700.0
 70
    64
  0
VERTEX
  5
253
  8
TEAM-NET
 10
412.067884
 20
-975.0
 30
700.0
 70
    64
  0
VERTEX
  5
254
  8
TEAM-NET
 10
470.934725
 20
-975.0
 30
700.0
 70
    64
  0
VERTEX
  5
255
  8
TEAM-NET
 10
529.801565
 20
-975.0
 30
700.0
 70
    64
  0
VERTEX
  5
256
  8
TEAM-NET
 10
588.668406
 20
-975.0
 30
700.0
 70
    64
  0
VERTEX
  5
257
  8
TEAM-NET
 10
647.535246
 20
-975.0
 30
700.0
 70
    64
  0
VERTEX
  5
258
  8
TEAM-NET
 10
706.402087
 20
-975.0
 30
700.0
 70
    64
  0
VERTEX
  5
259
  8
TEAM-NET
 10
765.229291
 20
-973.715728
 30
700.0
 70
    64
  0
VERTEX
  5
25A
  8
TEAM-NET
 10
822.936581
 20
-962.577104
 30
700.0
 70
    64
  0
VERTEX
  5
25B
  8
TEAM-NET
 10
877.364815
 20
-940.401269
 30
700.0
 70
    64
  0
VERTEX
  5
25C
  8
TEAM-NET
 10
926.425038
 20
-908.039332
 30
700.0
 70
    64
  0
VERTEX
  5
25D
  8
TEAM-NET
 10
968.234316
 20
-866.733345
 30
700.0
 70
    64
  0
VERTEX
  5
25E
  8
TEAM-NET
 10
1001.18801
 20
-818.068631
 30
700.0
 70
    64
  0
VERTEX
  5
25F
  8
TEAM-NET
 10
1024.021358
 20
-763.912942
 30
700.0
 70
    64
  0
VERTEX
  5
260
  8
TEAM-NET
 10
1035.858015
 20
-706.344775
 30
700.0
 70
    64
  0
VERTEX
  5
261
  8
TEAM-NET
 10
1037.5
 20
-647.535246
 30
700.0
 70
    64
  0
VERTEX
  5
262
  8
TEAM-NET
 10
1037.5
 20
-588.668406
 30
700.0
 70
    64
  0
VERTEX
  5
263
  8
TEAM-NET
 10
1037.5
 20
-529.801565
 30
700.0
 70
    64
  0
VERTEX
  5
264
  8
TEAM-NET
 10
1037.5
 20
-470.934725
 30
700.0
 70
    64
  0
VERTEX
  5
265
  8
TEAM-NET
 10
1037.5
 20
-412.067884
 30
700.0
 70
    64
  0
VERTEX
  5
266
  8
TEAM-NET
 10
1037.5
 20
-353.201043
 30
700.0
 70
    64
  0
VERTEX
  5
267
  8
TEAM-NET
 10
1037.5
 20
-294.334203
 30
700.0
 70
    64
  0
VERTEX
  5
268
  8
TEAM-NET
 10
1037.5
 20
-235.467362
 30
700.0
 70
    64
  0
VERTEX
  5
269
  8
TEAM-NET
 10
1037.5
 20
-176.600522
 30
700.0
 70
    64
  0
VERTEX
  5
26A
  8
TEAM-NET
 10
1037.5
 20
-117.733681
 30
700.0
 70
    64
  0
VERTEX
  5
26B
  8
TEAM-NET
 10
1037.5
 20
-58.866841
 30
700.0
 70
    64
  0
VERTEX
  5
26C
  8
TEAM-NET
 10
1037.5
 20
0.0
 30
700.0
 70
    64
  0
SEQEND
  5
26D
  8
TEAM-NET
  0
POLYLINE
  5
26E
  8
TEAM-NET
 66
     1
 10
0.0
 20
0.0
 30
0.0
 70
    16
 71
     2
 72
    65
  0
VERTEX
  5
26F
  8
TEAM-NET
 10
-997.5
 20
0.0
 30
700.0
 70
    64
  0
VERTEX
  5
270
  8
TEAM-NET
 10
-997.5
 20
56.903345
 30
700.0
 70
    64
  0
VERTEX
  5
271
  8
TEAM-NET
 10
-997.5
 20
113.80669
 30
700.0
 70
    64
  0
VERTEX
  5
272
  8
TEAM-NET
 10
-997.5
 20
170.710035
 30
700.0
 70
    64
  0
VERTEX
  5
273
  8
TEAM-NET
 10
-997.5
 20
227.613381
 30
700.0
 70
    64
  0
VERTEX
  5
274
  8
TEAM-NET
 10
-997.5
 20
284.516726
 30
700.0
 70
    64
  0
VERTEX
  5
275
  8
TEAM-NET
 10
-997.5
 20
341.420071
 30
700.0
 70
    64
  0
VERTEX
  5
276
  8
TEAM-NET
 10
-997.5
 20
398.323416
 30
700.0
 70
    64
  0
VERTEX
  5
277
  8
TEAM-NET
 10
-997.5
 20
455.226761
 30
700.0
 70
    64
  0
VERTEX
  5
278
  8
TEAM-NET
 10
-997.5
 20
512.130106
 30
700.0
 70
    64
  0
VERTEX
  5
279
  8
TEAM-NET
 10
-997.5
 20
569.033452
 30
700.0
 70
    64
  0
VERTEX
  5
27A
  8
TEAM-NET
 10
-997.5
 20
625.936797
 30
700.0
 70
    64
  0
VERTEX
  5
27B
  8
TEAM-NET
 10
-997.381802
 20
682.838954
 30
700.0
 70
    64
  0
VERTEX
  5
27C
  8
TEAM-NET
 10
-989.480569
 20
739.07646
 30
700.0
 70
    64
  0
VERTEX
  5
27D
  8
TEAM-NET
 10
-969.557752
 20
792.256981
 30
700.0
 70
    64
  0
VERTEX
  5
27E
  8
TEAM-NET
 10
-938.563836
 20
839.843362
 30
700.0
 70
    64
  0
VERTEX
  5
27F
  8
TEAM-NET
 10
-897.977489
 20
879.565333
 30
700.0
 70
    64
  0
VERTEX
  5
280
  8
TEAM-NET
 10
-849.735021
 20
909.527824
 30
700.0
 70
    64
  0
VERTEX
  5
281
  8
TEAM-NET
 10
-796.138002
 20
928.301371
 30
700.0
 70
    64
  0
VERTEX
  5
282
  8
TEAM-NET
 10
-739.743459
 20
934.990321
 30
700.0
 70
    64
  0
VERTEX
  5
283
  8
TEAM-NET
 10
-682.840142
 20
935.0
 30
700.0
 70
    64
  0
VERTEX
  5
284
  8
TEAM-NET
 10
-625.936797
 20
935.0
 30
700.0
 70
    64
  0
VERTEX
  5
285
  8
TEAM-NET
 10
-569.033452
 20
935.0
 30
700.0
 70
    64
  0
VERTEX
  5
286
  8
TEAM-NET
 10
-512.130106
 20
935.0
 30
700.0
 70
    64
  0
VERTEX
  5
287
  8
TEAM-NET
 10
-455.226761
 20
935.0
 30
700.0
 70
    64
  0
VERTEX
  5
288
  8
TEAM-NET
 10
-398.323416
 20
935.0
 30
700.0
 70
    64
  0
VERTEX
  5
289
  8
TEAM-NET
 10
-341.420071
 20
935.0
 30
700.0
 70
    64
  0
VERTEX
  5
28A
  8
TEAM-NET
 10
-284.516726
 20
935.0
 30
700.0
 70
    64
  0
VERTEX
  5
28B
  8
TEAM-NET
 10
-227.613381
 20
935.0
 30
700.0
 70
    64
  0
VERTEX
  5
28C
  8
TEAM-NET
 10
-170.710035
 20
935.0
 30
700.0
 70
    64
  0
VERTEX
  5
28D
  8
TEAM-NET
 10
-113.80669
 20
935.0
 30
700.0
 70
    64
  0
VERTEX
  5
28E
  8
TEAM-NET
 10
-56.903345
 20
935.0
 30
700.0
 70
    64
  0
VERTEX
  5
28F
  8
TEAM-NET
 10
0.0
 20
935.0
 30
700.0
 70
    64
  0
VERTEX
  5
290
  8
TEAM-NET
 10
56.903345
 20
935.0
 30
700.0
 70
    64
  0
VERTEX
  5
291
  8
TEAM-NET
 10
113.80669
 20
935.0
 30
700.0
 70
    64
  0
VERTEX
  5
292
  8
TEAM-NET
 10
170.710035
 20
935.0
 30
700.0
 70
    64
  0
VERTEX
  5
293
  8
TEAM-NET
 10
227.613381
 20
935.0
 30
700.0
 70
    64
  0
VERTEX
  5
294
  8
TEAM-NET
 10
284.516726
 20
935.0
 30
700.0
 70
    64
  0
VERTEX
  5
295
  8
TEAM-NET
 10
341.420071
 20
935.0
 30
700.0
 70
    64
  0
VERTEX
  5
296
  8
TEAM-NET
 10
398.323416
 20
935.0
 30
700.0
 70
    64
  0
VERTEX
  5
297
  8
TEAM-NET
 10
455.226761
 20
935.0
 30
700.0
 70
    64
  0
VERTEX
  5
298
  8
TEAM-NET
 10
512.130106
 20
935.0
 30
700.0
 70
    64
  0
VERTEX
  5
299
  8
TEAM-NET
 10
569.033452
 20
935.0
 30
700.0
 70
    64
  0
VERTEX
  5
29A
  8
TEAM-NET
 10
625.936797
 20
935.0
 30
700.0
 70
    64
  0
VERTEX
  5
29B
  8
TEAM-NET
 10
682.840142
 20
935.0
 30
700.0
 70
    64
  0
VERTEX
  5
29C
  8
TEAM-NET
 10
739.743459
 20
934.990321
 30
700.0
 70
    64
  0
VERTEX
  5
29D
  8
TEAM-NET
 10
796.138002
 20
928.301371
 30
700.0
 70
    64
  0
VERTEX
  5
29E
  8
TEAM-NET
 10
849.735021
 20
909.527824
 30
700.0
 70
    64
  0
VERTEX
  5
29F
  8
TEAM-NET
 10
897.977489
 20
879.565333
 30
700.0
 70
    64
  0
VERTEX
  5
2A0
  8
TEAM-NET
 10
938.563836
 20
839.843362
 30
700.0
 70
    64
  0
VERTEX
  5
2A1
  8
TEAM-NET
 10
969.557752
 20
792.256981
 30
700.0
 70
    64
  0
VERTEX
  5
2A2
  8
TEAM-NET
 10
989.480569
 20
739.07646
 30
700.0
 70
    64
  0
VERTEX
  5
2A3
  8
TEAM-NET
 10
997.381802
 20
682.838954
 30
700.0
 70
    64
  0
VERTEX
  5
2A4
  8
TEAM-NET
 10
997.5
 20
625.936797
 30
700.0
 70
    64
  0
VERTEX
  5
2A5
  8
TEAM-NET
 10
997.5
 20
569.033452
 30
700.0
 70
    64
  0
VERTEX
  5
2A6
  8
TEAM-NET
 10
997.5
 20
512.130106
 30
700.0
 70
    64
  0
VERTEX
  5
2A7
  8
TEAM-NET
 10
997.5
 20
455.226761
 30
700.0
 70
    64
  0
VERTEX
  5
2A8
  8
TEAM-NET
 10
997.5
 20
398.323416
 30
700.0
 70
    64
  0
VERTEX
  5
2A9
  8
TEAM-NET
 10
997.5
 20
341.420071
 30
700.0
 70
    64
  0
VERTEX
  5
2AA
  8
TEAM-NET
 10
997.5
 20
284.516726
 30
700.0
 70
    64
  0
VERTEX
  5
2AB
  8
TEAM-NET
 10
997.5
 20
227.613381
 30
700.0
 70
    64
  0
VERTEX
  5
2AC
  8
TEAM-NET
 10
997.5
 20
170.710035
 30
700.0
 70
    64
  0
VERTEX
  5
2AD
  8
TEAM-NET
 10
997.5
 20
113.80669
 30
700.0
 70
    64
  0
VERTEX
  5
2AE
  8
TEAM-NET
 10
997.5
 20
56.903345
 30
700.0
 70
    64
  0
VERTEX
  5
2AF
  8
TEAM-NET
 10
997.5
 20
0.0
 30
700.0
 70
    64
  0
VERTEX
  5
2B0
  8
TEAM-NET
 10
-1037.5
 20
0.0
 30
700.0
 70
    64
  0
VERTEX
  5
2B1
  8
TEAM-NET
 10
-1037.5
 20
58.866841
 30
700.0
 70
    64
  0
VERTEX
  5
2B2
  8
TEAM-NET
 10
-1037.5
 20
117.733681
 30
700.0
 70
    64
  0
VERTEX
  5
2B3
  8
TEAM-NET
 10
-1037.5
 20
176.600522
 30
700.0
 70
    64
  0
VERTEX
  5
2B4
  8
TEAM-NET
 10
-1037.5
 20
235.467362
 30
700.0
 70
    64
  0
VERTEX
  5
2B5
  8
TEAM-NET
 10
-1037.5
 20
294.334203
 30
700.0
 70
    64
  0
VERTEX
  5
2B6
  8
TEAM-NET
 10
-1037.5
 20
353.201043
 30
700.0
 70
    64
  0
VERTEX
  5
2B7
  8
TEAM-NET
 10
-1037.5
 20
412.067884
 30
700.0
 70
    64
  0
VERTEX
  5
2B8
  8
TEAM-NET
 10
-1037.5
 20
470.934725
 30
700.0
 70
    64
  0
VERTEX
  5
2B9
  8
TEAM-NET
 10
-1037.5
 20
529.801565
 30
700.0
 70
    64
  0
VERTEX
  5
2BA
  8
TEAM-NET
 10
-1037.5
 20
588.668406
 30
700.0
 70
    64
  0
VERTEX
  5
2BB
  8
TEAM-NET
 10
-1037.5
 20
647.535246
 30
700.0
 70
    64
  0
VERTEX
  5
2BC
  8
TEAM-NET
 10
-1035.858015
 20
706.344775
 30
700.0
 70
    64
  0
VERTEX
  5
2BD
  8
TEAM-NET
 10
-1024.021358
 20
763.912942
 30
700.0
 70
    64
  0
VERTEX
  5
2BE
  8
TEAM-NET
 10
-1001.18801
 20
818.068631
 30
700.0
 70
    64
  0
VERTEX
  5
2BF
  8
TEAM-NET
 10
-968.234316
 20
866.733345
 30
700.0
 70
    64
  0
VERTEX
  5
2C0
  8
TEAM-NET
 10
-926.425038
 20
908.039332
 30
700.0
 70
    64
  0
VERTEX
  5
2C1
  8
TEAM-NET
 10
-877.364815
 20
940.401269
 30
700.0
 70
    64
  0
VERTEX
  5
2C2
  8
TEAM-NET
 10
-822.936581
 20
962.577104
 30
700.0
 70
    64
  0
VERTEX
  5
2C3
  8
TEAM-NET
 10
-765.229291
 20
973.715728
 30
700.0
 70
    64
  0
VERTEX
  5
2C4
  8
TEAM-NET
 10
-706.402087
 20
975.0
 30
700.0
 70
    64
  0
VERTEX
  5
2C5
  8
TEAM-NET
 10
-647.535246
 20
975.0
 30
700.0
 70
    64
  0
VERTEX
  5
2C6
  8
TEAM-NET
 10
-588.668406
 20
975.0
 30
700.0
 70
    64
  0
VERTEX
  5
2C7
  8
TEAM-NET
 10
-529.801565
 20
975.0
 30
700.0
 70
    64
  0
VERTEX
  5
2C8
  8
TEAM-NET
 10
-470.934725
 20
975.0
 30
700.0
 70
    64
  0
VERTEX
  5
2C9
  8
TEAM-NET
 10
-412.067884
 20
975.0
 30
700.0
 70
    64
  0
VERTEX
  5
2CA
  8
TEAM-NET
 10
-353.201043
 20
975.0
 30
700.0
 70
    64
  0
VERTEX
  5
2CB
  8
TEAM-NET
 10
-294.334203
 20
975.0
 30
700.0
 70
    64
  0
VERTEX
  5
2CC
  8
TEAM-NET
 10
-235.467362
 20
975.0
 30
700.0
 70
    64
  0
VERTEX
  5
2CD
  8
TEAM-NET
 10
-176.600522
 20
975.0
 30
700.0
 70
    64
  0
VERTEX
  5
2CE
  8
TEAM-NET
 10
-117.733681
 20
975.0
 30
700.0
 70
    64
  0
VERTEX
  5
2CF
  8
TEAM-NET
 10
-58.866841
 20
975.0
 30
700.0
 70
    64
  0
VERTEX
  5
2D0
  8
TEAM-NET
 10
0.0
 20
975.0
 30
700.0
 70
    64
  0
VERTEX
  5
2D1
  8
TEAM-NET
 10
58.866841
 20
975.0
 30
700.0
 70
    64
  0
VERTEX
  5
2D2
  8
TEAM-NET
 10
117.733681
 20
975.0
 30
700.0
 70
    64
  0
VERTEX
  5
2D3
  8
TEAM-NET
 10
176.600522
 20
975.0
 30
700.0
 70
    64
  0
VERTEX
  5
2D4
  8
TEAM-NET
 10
235.467362
 20
975.0
 30
700.0
 70
    64
  0
VERTEX
  5
2D5
  8
TEAM-NET
 10
294.334203
 20
975.0
 30
700.0
 70
    64
  0
VERTEX
  5
2D6
  8
TEAM-NET
 10
353.201043
 20
975.0
 30
700.0
 70
    64
  0
VERTEX
  5
2D7
  8
TEAM-NET
 10
412.067884
 20
975.0
 30
700.0
 70
    64
  0
VERTEX
  5
2D8
  8
TEAM-NET
 10
470.934725
 20
975.0
 30
700.0
 70
    64
  0
VERTEX
  5
2D9
  8
TEAM-NET
 10
529.801565
 20
975.0
 30
700.0
 70
    64
  0
VERTEX
  5
2DA
  8
TEAM-NET
 10
588.668406
 20
975.0
 30
700.0
 70
    64
  0
VERTEX
  5
2DB
  8
TEAM-NET
 10
647.535246
 20
975.0
 30
700.0
 70
    64
  0
VERTEX
  5
2DC
  8
TEAM-NET
 10
706.402087
 20
975.0
 30
700.0
 70
    64
  0
VERTEX
  5
2DD
  8
TEAM-NET
 10
765.229291
 20
973.715728
 30
700.0
 70
    64
  0
VERTEX
  5
2DE
  8
TEAM-NET
 10
822.936581
 20
962.577104
 30
700.0
 70
    64
  0
VERTEX
  5
2DF
  8
TEAM-NET
 10
877.364815
 20
940.401269
 30
700.0
 70
    64
  0
VERTEX
  5
2E0
  8
TEAM-NET
 10
926.425038
 20
908.039332
 30
700.0
 70
    64
  0
VERTEX
  5
2E1
  8
TEAM-NET
 10
968.234316
 20
866.733345
 30
700.0
 70
    64
  0
VERTEX
  5
2E2
  8
TEAM-NET
 10
1001.18801
 20
818.068631
 30
700.0
 70
    64
  0
VERTEX
  5
2E3
  8
TEAM-NET
 10
1024.021358
 20
763.912942
 30
700.0
 70
    64
  0
VERTEX
  5
2E4
  8
TEAM-NET
 10
1035.858015
 20
706.344775
 30
700.0
 70
    64
  0
VERTEX
  5
2E5
  8
TEAM-NET
 10
1037.5
 20
647.535246
 30
700.0
 70
    64
  0
VERTEX
  5
2E6
  8
TEAM-NET
 10
1037.5
 20
588.668406
 30
700.0
 70
    64
  0
VERTEX
  5
2E7
  8
TEAM-NET
 10
1037.5
 20
529.801565
 30
700.0
 70
    64
  0
VERTEX
  5
2E8
  8
TEAM-NET
 10
1037.5
 20
470.934725
 30
700.0
 70
    64
  0
VERTEX
  5
2E9
  8
TEAM-NET
 10
1037.5
 20
412.067884
 30
700.0
 70
    64
  0
VERTEX
  5
2EA
  8
TEAM-NET
 10
1037.5
 20
353.201043
 30
700.0
 70
    64
  0
VERTEX
  5
2EB
  8
TEAM-NET
 10
1037.5
 20
294.334203
 30
700.0
 70
    64
  0
VERTEX
  5
2EC
  8
TEAM-NET
 10
1037.5
 20
235.467362
 30
700.0
 70
    64
  0
VERTEX
  5
2ED
  8
TEAM-NET
 10
1037.5
 20
176.600522
 30
700.0
 70
    64
  0
VERTEX
  5
2EE
  8
TEAM-NET
 10
1037.5
 20
117.733681
 30
700.0
 70
    64
  0
VERTEX
  5
2EF
  8
TEAM-NET
 10
1037.5
 20
58.866841
 30
700.0
 70
    64
  0
VERTEX
  5
2F0
  8
TEAM-NET
 10
1037.5
 20
0.0
 30
700.0
 70
    64
  0
SEQEND
  5
2F1
  8
TEAM-NET
  0
POLYLINE
  5
2F2
  8
TEAM-NET
 66
     1
 10
0.0
 20
0.0
 30
0.0
 70
    16
 71
     2
 72
    65
  0
VERTEX
  5
2F3
  8
TEAM-NET
 10
-897.5
 20
0.0
 30
700.0
 70
    64
  0
VERTEX
  5
2F4
  8
TEAM-NET
 10
-897.5
 20
51.994607
 30
700.0
 70
    64
  0
VERTEX
  5
2F5
  8
TEAM-NET
 10
-897.5
 20
103.989213
 30
700.0
 70
    64
  0
VERTEX
  5
2F6
  8
TEAM-NET
 10
-897.5
 20
155.98382
 30
700.0
 70
    64
  0
VERTEX
  5
2F7
  8
TEAM-NET
 10
-897.5
 20
207.978427
 30
700.0
 70
    64
  0
VERTEX
  5
2F8
  8
TEAM-NET
 10
-897.5
 20
259.973033
 30
700.0
 70
    64
  0
VERTEX
  5
2F9
  8
TEAM-NET
 10
-897.5
 20
311.96764
 30
700.0
 70
    64
  0
VERTEX
  5
2FA
  8
TEAM-NET
 10
-897.5
 20
363.962246
 30
700.0
 70
    64
  0
VERTEX
  5
2FB
  8
TEAM-NET
 10
-897.5
 20
415.956853
 30
700.0
 70
    64
  0
VERTEX
  5
2FC
  8
TEAM-NET
 10
-897.5
 20
467.95146
 30
700.0
 70
    64
  0
VERTEX
  5
2FD
  8
TEAM-NET
 10
-897.5
 20
519.946066
 30
700.0
 70
    64
  0
VERTEX
  5
2FE
  8
TEAM-NET
 10
-897.5
 20
571.940673
 30
700.0
 70
    64
  0
VERTEX
  5
2FF
  8
TEAM-NET
 10
-897.5
 20
623.93528
 30
700.0
 70
    64
  0
VERTEX
  5
300
  8
TEAM-NET
 10
-897.497298
 20
675.929881
 30
700.0
 70
    64
  0
VERTEX
  5
301
  8
TEAM-NET
 10
-888.826388
 20
726.964644
 30
700.0
 70
    64
  0
VERTEX
  5
302
  8
TEAM-NET
 10
-864.315083
 20
772.559904
 30
700.0
 70
    64
  0
VERTEX
  5
303
  8
TEAM-NET
 10
-826.529152
 20
807.942883
 30
700.0
 70
    64
  0
VERTEX
  5
304
  8
TEAM-NET
 10
-779.423915
 20
829.409797
 30
700.0
 70
    64
  0
VERTEX
  5
305
  8
TEAM-NET
 10
-727.924493
 20
835.0
 30
700.0
 70
    64
  0
VERTEX
  5
306
  8
TEAM-NET
 10
-675.929886
 20
835.0
 30
700.0
 70
    64
  0
VERTEX
  5
307
  8
TEAM-NET
 10
-623.93528
 20
835.0
 30
700.0
 70
    64
  0
VERTEX
  5
308
  8
TEAM-NET
 10
-571.940673
 20
835.0
 30
700.0
 70
    64
  0
VERTEX
  5
309
  8
TEAM-NET
 10
-519.946066
 20
835.0
 30
700.0
 70
    64
  0
VERTEX
  5
30A
  8
TEAM-NET
 10
-467.95146
 20
835.0
 30
700.0
 70
    64
  0
VERTEX
  5
30B
  8
TEAM-NET
 10
-415.956853
 20
835.0
 30
700.0
 70
    64
  0
VERTEX
  5
30C
  8
TEAM-NET
 10
-363.962246
 20
835.0
 30
700.0
 70
    64
  0
VERTEX
  5
30D
  8
TEAM-NET
 10
-311.96764
 20
835.0
 30
700.0
 70
    64
  0
VERTEX
  5
30E
  8
TEAM-NET
 10
-259.973033
 20
835.0
 30
700.0
 70
    64
  0
VERTEX
  5
30F
  8
TEAM-NET
 10
-207.978427
 20
835.0
 30
700.0
 70
    64
  0
VERTEX
  5
310
  8
TEAM-NET
 10
-155.98382
 20
835.0
 30
700.0
 70
    64
  0
VERTEX
  5
311
  8
TEAM-NET
 10
-103.989213
 20
835.0
 30
700.0
 70
    64
  0
VERTEX
  5
312
  8
TEAM-NET
 10
-51.994607
 20
835.0
 30
700.0
 70
    64
  0
VERTEX
  5
313
  8
TEAM-NET
 10
0.0
 20
835.0
 30
700.0
 70
    64
  0
VERTEX
  5
314
  8
TEAM-NET
 10
51.994607
 20
835.0
 30
700.0
 70
    64
  0
VERTEX
  5
315
  8
TEAM-NET
 10
103.989213
 20
835.0
 30
700.0
 70
    64
  0
VERTEX
  5
316
  8
TEAM-NET
 10
155.98382
 20
835.0
 30
700.0
 70
    64
  0
VERTEX
  5
317
  8
TEAM-NET
 10
207.978427
 20
835.0
 30
700.0
 70
    64
  0
VERTEX
  5
318
  8
TEAM-NET
 10
259.973033
 20
835.0
 30
700.0
 70
    64
  0
VERTEX
  5
319
  8
TEAM-NET
 10
311.96764
 20
835.0
 30
700.0
 70
    64
  0
VERTEX
  5
31A
  8
TEAM-NET
 10
363.962246
 20
835.0
 30
700.0
 70
    64
  0
VERTEX
  5
31B
  8
TEAM-NET
 10
415.956853
 20
835.0
 30
700.0
 70
    64
  0
VERTEX
  5
31C
  8
TEAM-NET
 10
467.95146
 20
835.0
 30
700.0
 70
    64
  0
VERTEX
  5
31D
  8
TEAM-NET
 10
519.946066
 20
835.0
 30
700.0
 70
    64
  0
VERTEX
  5
31E
  8
TEAM-NET
 10
571.940673
 20
835.0
 30
700.0
 70
    64
  0
VERTEX
  5
31F
  8
TEAM-NET
 10
623.93528
 20
835.0
 30
700.0
 70
    64
  0
VERTEX
  5
320
  8
TEAM-NET
 10
675.929886
 20
835.0
 30
700.0
 70
    64
  0
VERTEX
  5
321
  8
TEAM-NET
 10
727.924493
 20
835.0
 30
700.0
 70
    64
  0
VERTEX
  5
322
  8
TEAM-NET
 10
779.423915
 20
829.409797
 30
700.0
 70
    64
  0
VERTEX
  5
323
  8
TEAM-NET
 10
826.529152
 20
807.942883
 30
700.0
 70
    64
  0
VERTEX
  5
324
  8
TEAM-NET
 10
864.315083
 20
772.559904
 30
700.0
 70
    64
  0
VERTEX
  5
325
  8
TEAM-NET
 10
888.826388
 20
726.964644
 30
700.0
 70
    64
  0
VERTEX
  5
326
  8
TEAM-NET
 10
897.497298
 20
675.929881
 30
700.0
 70
    64
  0
VERTEX
  5
327
  8
TEAM-NET
 10
897.5
 20
623.93528
 30
700.0
 70
    64
  0
VERTEX
  5
328
  8
TEAM-NET
 10
897.5
 20
571.940673
 30
700.0
 70
    64
  0
VERTEX
  5
329
  8
TEAM-NET
 10
897.5
 20
519.946066
 30
700.0
 70
    64
  0
VERTEX
  5
32A
  8
TEAM-NET
 10
897.5
 20
467.95146
 30
700.0
 70
    64
  0
VERTEX
  5
32B
  8
TEAM-NET
 10
897.5
 20
415.956853
 30
700.0
 70
    64
  0
VERTEX
  5
32C
  8
TEAM-NET
 10
897.5
 20
363.962246
 30
700.0
 70
    64
  0
VERTEX
  5
32D
  8
TEAM-NET
 10
897.5
 20
311.96764
 30
700.0
 70
    64
  0
VERTEX
  5
32E
  8
TEAM-NET
 10
897.5
 20
259.973033
 30
700.0
 70
    64
  0
VERTEX
  5
32F
  8
TEAM-NET
 10
897.5
 20
207.978427
 30
700.0
 70
    64
  0
VERTEX
  5
330
  8
TEAM-NET
 10
897.5
 20
155.98382
 30
700.0
 70
    64
  0
VERTEX
  5
331
  8
TEAM-NET
 10
897.5
 20
103.989213
 30
700.0
 70
    64
  0
VERTEX
  5
332
  8
TEAM-NET
 10
897.5
 20
51.994607
 30
700.0
 70
    64
  0
VERTEX
  5
333
  8
TEAM-NET
 10
897.5
 20
0.0
 30
700.0
 70
    64
  0
VERTEX
  5
334
  8
TEAM-NET
 10
-997.5
 20
0.0
 30
700.0
 70
    64
  0
VERTEX
  5
335
  8
TEAM-NET
 10
-997.5
 20
56.903345
 30
700.0
 70
    64
  0
VERTEX
  5
336
  8
TEAM-NET
 10
-997.5
 20
113.80669
 30
700.0
 70
    64
  0
VERTEX
  5
337
  8
TEAM-NET
 10
-997.5
 20
170.710035
 30
700.0
 70
    64
  0
VERTEX
  5
338
  8
TEAM-NET
 10
-997.5
 20
227.613381
 30
700.0
 70
    64
  0
VERTEX
  5
339
  8
TEAM-NET
 10
-997.5
 20
284.516726
 30
700.0
 70
    64
  0
VERTEX
  5
33A
  8
TEAM-NET
 10
-997.5
 20
341.420071
 30
700.0
 70
    64
  0
VERTEX
  5
33B
  8
TEAM-NET
 10
-997.5
 20
398.323416
 30
700.0
 70
    64
  0
VERTEX
  5
33C
  8
TEAM-NET
 10
-997.5
 20
455.226761
 30
700.0
 70
    64
  0
VERTEX
  5
33D
  8
TEAM-NET
 10
-997.5
 20
512.130106
 30
700.0
 70
    64
  0
VERTEX
  5
33E
  8
TEAM-NET
 10
-997.5
 20
569.033452
 30
700.0
 70
    64
  0
VERTEX
  5
33F
  8
TEAM-NET
 10
-997.5
 20
625.936797
 30
700.0
 70
    64
  0
VERTEX
  5
340
  8
TEAM-NET
 10
-997.381802
 20
682.838954
 30
700.0
 70
    64
  0
VERTEX
  5
341
  8
TEAM-NET
 10
-989.480569
 20
739.07646
 30
700.0
 70
    64
  0
VERTEX
  5
342
  8
TEAM-NET
 10
-969.557752
 20
792.256981
 30
700.0
 70
    64
  0
VERTEX
  5
343
  8
TEAM-NET
 10
-938.563836
 20
839.843362
 30
700.0
 70
    64
  0
VERTEX
  5
344
  8
TEAM-NET
 10
-897.977489
 20
879.565333
 30
700.0
 70
    64
  0
VERTEX
  5
345
  8
TEAM-NET
 10
-849.735021
 20
909.527824
 30
700.0
 70
    64
  0
VERTEX
  5
346
  8
TEAM-NET
 10
-796.138002
 20
928.301371
 30
700.0
 70
    64
  0
VERTEX
  5
347
  8
TEAM-NET
 10
-739.743459
 20
934.990321
 30
700.0
 70
    64
  0
VERTEX
  5
348
  8
TEAM-NET
 10
-682.840142
 20
935.0
 30
700.0
 70
    64
  0
VERTEX
  5
349
  8
TEAM-NET
 10
-625.936797
 20
935.0
 30
700.0
 70
    64
  0
VERTEX
  5
34A
  8
TEAM-NET
 10
-569.033452
 20
935.0
 30
700.0
 70
    64
  0
VERTEX
  5
34B
  8
TEAM-NET
 10
-512.130106
 20
935.0
 30
700.0
 70
    64
  0
VERTEX
  5
34C
  8
TEAM-NET
 10
-455.226761
 20
935.0
 30
700.0
 70
    64
  0
VERTEX
  5
34D
  8
TEAM-NET
 10
-398.323416
 20
935.0
 30
700.0
 70
    64
  0
VERTEX
  5
34E
  8
TEAM-NET
 10
-341.420071
 20
935.0
 30
700.0
 70
    64
  0
VERTEX
  5
34F
  8
TEAM-NET
 10
-284.516726
 20
935.0
 30
700.0
 70
    64
  0
VERTEX
  5
350
  8
TEAM-NET
 10
-227.613381
 20
935.0
 30
700.0
 70
    64
  0
VERTEX
  5
351
  8
TEAM-NET
 10
-170.710035
 20
935.0
 30
700.0
 70
    64
  0
VERTEX
  5
352
  8
TEAM-NET
 10
-113.80669
 20
935.0
 30
700.0
 70
    64
  0
VERTEX
  5
353
  8
TEAM-NET
 10
-56.903345
 20
935.0
 30
700.0
 70
    64
  0
VERTEX
  5
354
  8
TEAM-NET
 10
0.0
 20
935.0
 30
700.0
 70
    64
  0
VERTEX
  5
355
  8
TEAM-NET
 10
56.903345
 20
935.0
 30
700.0
 70
    64
  0
VERTEX
  5
356
  8
TEAM-NET
 10
113.80669
 20
935.0
 30
700.0
 70
    64
  0
VERTEX
  5
357
  8
TEAM-NET
 10
170.710035
 20
935.0
 30
700.0
 70
    64
  0
VERTEX
  5
358
  8
TEAM-NET
 10
227.613381
 20
935.0
 30
700.0
 70
    64
  0
VERTEX
  5
359
  8
TEAM-NET
 10
284.516726
 20
935.0
 30
700.0
 70
    64
  0
VERTEX
  5
35A
  8
TEAM-NET
 10
341.420071
 20
935.0
 30
700.0
 70
    64
  0
VERTEX
  5
35B
  8
TEAM-NET
 10
398.323416
 20
935.0
 30
700.0
 70
    64
  0
VERTEX
  5
35C
  8
TEAM-NET
 10
455.226761
 20
935.0
 30
700.0
 70
    64
  0
VERTEX
  5
35D
  8
TEAM-NET
 10
512.130106
 20
935.0
 30
700.0
 70
    64
  0
VERTEX
  5
35E
  8
TEAM-NET
 10
569.033452
 20
935.0
 30
700.0
 70
    64
  0
VERTEX
  5
35F
  8
TEAM-NET
 10
625.936797
 20
935.0
 30
700.0
 70
    64
  0
VERTEX
  5
360
  8
TEAM-NET
 10
682.840142
 20
935.0
 30
700.0
 70
    64
  0
VERTEX
  5
361
  8
TEAM-NET
 10
739.743459
 20
934.990321
 30
700.0
 70
    64
  0
VERTEX
  5
362
  8
TEAM-NET
 10
796.138002
 20
928.301371
 30
700.0
 70
    64
  0
VERTEX
  5
363
  8
TEAM-NET
 10
849.735021
 20
909.527824
 30
700.0
 70
    64
  0
VERTEX
  5
364
  8
TEAM-NET
 10
897.977489
 20
879.565333
 30
700.0
 70
    64
  0
VERTEX
  5
365
  8
TEAM-NET
 10
938.563836
 20
839.843362
 30
700.0
 70
    64
  0
VERTEX
  5
366
  8
TEAM-NET
 10
969.557752
 20
792.256981
 30
700.0
 70
    64
  0
VERTEX
  5
367
  8
TEAM-NET
 10
989.480569
 20
739.07646
 30
700.0
 70
    64
  0
VERTEX
  5
368
  8
TEAM-NET
 10
997.381802
 20
682.838954
 30
700.0
 70
    64
  0
VERTEX
  5
369
  8
TEAM-NET
 10
997.5
 20
625.936797
 30
700.0
 70
    64
  0
VERTEX
  5
36A
  8
TEAM-NET
 10
997.5
 20
569.033452
 30
700.0
 70
    64
  0
VERTEX
  5
36B
  8
TEAM-NET
 10
997.5
 20
512.130106
 30
700.0
 70
    64
  0
VERTEX
  5
36C
  8
TEAM-NET
 10
997.5
 20
455.226761
 30
700.0
 70
    64
  0
VERTEX
  5
36D
  8
TEAM-NET
 10
997.5
 20
398.323416
 30
700.0
 70
    64
  0
VERTEX
  5
36E
  8
TEAM-NET
 10
997.5
 20
341.420071
 30
700.0
 70
    64
  0
VERTEX
  5
36F
  8
TEAM-NET
 10
997.5
 20
284.516726
 30
700.0
 70
    64
  0
VERTEX
  5
370
  8
TEAM-NET
 10
997.5
 20
227.613381
 30
700.0
 70
    64
  0
VERTEX
  5
371
  8
TEAM-NET
 10
997.5
 20
170.710035
 30
700.0
 70
    64
  0
VERTEX
  5
372
  8
TEAM-NET
 10
997.5
 20
113.80669
 30
700.0
 70
    64
  0
VERTEX
  5
373
  8
TEAM-NET
 10
997.5
 20
56.903345
 30
700.0
 70
    64
  0
VERTEX
  5
374
  8
TEAM-NET
 10
997.5
 20
0.0
 30
700.0
 70
    64
  0
SEQEND
  5
375
  8
TEAM-NET
  0
POLYLINE
  5
376
  8
TEAM-NET
 66
     1
 10
0.0
 20
0.0
 30
0.0
 70
    16
 71
     2
 72
    65
  0
VERTEX
  5
377
  8
TEAM-NET
 10
-897.5
 20
0.0
 30
700.0
 70
    64
  0
VERTEX
  5
378
  8
TEAM-NET
 10
-897.5
 20
-51.994607
 30
700.0
 70
    64
  0
VERTEX
  5
379
  8
TEAM-NET
 10
-897.5
 20
-103.989213
 30
700.0
 70
    64
  0
VERTEX
  5
37A
  8
TEAM-NET
 10
-897.5
 20
-155.98382
 30
700.0
 70
    64
  0
VERTEX
  5
37B
  8
TEAM-NET
 10
-897.5
 20
-207.978427
 30
700.0
 70
    64
  0
VERTEX
  5
37C
  8
TEAM-NET
 10
-897.5
 20
-259.973033
 30
700.0
 70
    64
  0
VERTEX
  5
37D
  8
TEAM-NET
 10
-897.5
 20
-311.96764
 30
700.0
 70
    64
  0
VERTEX
  5
37E
  8
TEAM-NET
 10
-897.5
 20
-363.962246
 30
700.0
 70
    64
  0
VERTEX
  5
37F
  8
TEAM-NET
 10
-897.5
 20
-415.956853
 30
700.0
 70
    64
  0
VERTEX
  5
380
  8
TEAM-NET
 10
-897.5
 20
-467.95146
 30
700.0
 70
    64
  0
VERTEX
  5
381
  8
TEAM-NET
 10
-897.5
 20
-519.946066
 30
700.0
 70
    64
  0
VERTEX
  5
382
  8
TEAM-NET
 10
-897.5
 20
-571.940673
 30
700.0
 70
    64
  0
VERTEX
  5
383
  8
TEAM-NET
 10
-897.5
 20
-623.93528
 30
700.0
 70
    64
  0
VERTEX
  5
384
  8
TEAM-NET
 10
-897.497298
 20
-675.929881
 30
700.0
 70
    64
  0
VERTEX
  5
385
  8
TEAM-NET
 10
-888.826388
 20
-726.964644
 30
700.0
 70
    64
  0
VERTEX
  5
386
  8
TEAM-NET
 10
-864.315083
 20
-772.559904
 30
700.0
 70
    64
  0
VERTEX
  5
387
  8
TEAM-NET
 10
-826.529152
 20
-807.942883
 30
700.0
 70
    64
  0
VERTEX
  5
388
  8
TEAM-NET
 10
-779.423915
 20
-829.409797
 30
700.0
 70
    64
  0
VERTEX
  5
389
  8
TEAM-NET
 10
-727.924493
 20
-835.0
 30
700.0
 70
    64
  0
VERTEX
  5
38A
  8
TEAM-NET
 10
-675.929886
 20
-835.0
 30
700.0
 70
    64
  0
VERTEX
  5
38B
  8
TEAM-NET
 10
-623.93528
 20
-835.0
 30
700.0
 70
    64
  0
VERTEX
  5
38C
  8
TEAM-NET
 10
-571.940673
 20
-835.0
 30
700.0
 70
    64
  0
VERTEX
  5
38D
  8
TEAM-NET
 10
-519.946066
 20
-835.0
 30
700.0
 70
    64
  0
VERTEX
  5
38E
  8
TEAM-NET
 10
-467.95146
 20
-835.0
 30
700.0
 70
    64
  0
VERTEX
  5
38F
  8
TEAM-NET
 10
-415.956853
 20
-835.0
 30
700.0
 70
    64
  0
VERTEX
  5
390
  8
TEAM-NET
 10
-363.962246
 20
-835.0
 30
700.0
 70
    64
  0
VERTEX
  5
391
  8
TEAM-NET
 10
-311.96764
 20
-835.0
 30
700.0
 70
    64
  0
VERTEX
  5
392
  8
TEAM-NET
 10
-259.973033
 20
-835.0
 30
700.0
 70
    64
  0
VERTEX
  5
393
  8
TEAM-NET
 10
-207.978427
 20
-835.0
 30
700.0
 70
    64
  0
VERTEX
  5
394
  8
TEAM-NET
 10
-155.98382
 20
-835.0
 30
700.0
 70
    64
  0
VERTEX
  5
395
  8
TEAM-NET
 10
-103.989213
 20
-835.0
 30
700.0
 70
    64
  0
VERTEX
  5
396
  8
TEAM-NET
 10
-51.994607
 20
-835.0
 30
700.0
 70
    64
  0
VERTEX
  5
397
  8
TEAM-NET
 10
0.0
 20
-835.0
 30
700.0
 70
    64
  0
VERTEX
  5
398
  8
TEAM-NET
 10
51.994607
 20
-835.0
 30
700.0
 70
    64
  0
VERTEX
  5
399
  8
TEAM-NET
 10
103.989213
 20
-835.0
 30
700.0
 70
    64
  0
VERTEX
  5
39A
  8
TEAM-NET
 10
155.98382
 20
-835.0
 30
700.0
 70
    64
  0
VERTEX
  5
39B
  8
TEAM-NET
 10
207.978427
 20
-835.0
 30
700.0
 70
    64
  0
VERTEX
  5
39C
  8
TEAM-NET
 10
259.973033
 20
-835.0
 30
700.0
 70
    64
  0
VERTEX
  5
39D
  8
TEAM-NET
 10
311.96764
 20
-835.0
 30
700.0
 70
    64
  0
VERTEX
  5
39E
  8
TEAM-NET
 10
363.962246
 20
-835.0
 30
700.0
 70
    64
  0
VERTEX
  5
39F
  8
TEAM-NET
 10
415.956853
 20
-835.0
 30
700.0
 70
    64
  0
VERTEX
  5
3A0
  8
TEAM-NET
 10
467.95146
 20
-835.0
 30
700.0
 70
    64
  0
VERTEX
  5
3A1
  8
TEAM-NET
 10
519.946066
 20
-835.0
 30
700.0
 70
    64
  0
VERTEX
  5
3A2
  8
TEAM-NET
 10
571.940673
 20
-835.0
 30
700.0
 70
    64
  0
VERTEX
  5
3A3
  8
TEAM-NET
 10
623.93528
 20
-835.0
 30
700.0
 70
    64
  0
VERTEX
  5
3A4
  8
TEAM-NET
 10
675.929886
 20
-835.0
 30
700.0
 70
    64
  0
VERTEX
  5
3A5
  8
TEAM-NET
 10
727.924493
 20
-835.0
 30
700.0
 70
    64
  0
VERTEX
  5
3A6
  8
TEAM-NET
 10
779.423915
 20
-829.409797
 30
700.0
 70
    64
  0
VERTEX
  5
3A7
  8
TEAM-NET
 10
826.529152
 20
-807.942883
 30
700.0
 70
    64
  0
VERTEX
  5
3A8
  8
TEAM-NET
 10
864.315083
 20
-772.559904
 30
700.0
 70
    64
  0
VERTEX
  5
3A9
  8
TEAM-NET
 10
888.826388
 20
-726.964644
 30
700.0
 70
    64
  0
VERTEX
  5
3AA
  8
TEAM-NET
 10
897.497298
 20
-675.929881
 30
700.0
 70
    64
  0
VERTEX
  5
3AB
  8
TEAM-NET
 10
897.5
 20
-623.93528
 30
700.0
 70
    64
  0
VERTEX
  5
3AC
  8
TEAM-NET
 10
897.5
 20
-571.940673
 30
700.0
 70
    64
  0
VERTEX
  5
3AD
  8
TEAM-NET
 10
897.5
 20
-519.946066
 30
700.0
 70
    64
  0
VERTEX
  5
3AE
  8
TEAM-NET
 10
897.5
 20
-467.95146
 30
700.0
 70
    64
  0
VERTEX
  5
3AF
  8
TEAM-NET
 10
897.5
 20
-415.956853
 30
700.0
 70
    64
  0
VERTEX
  5
3B0
  8
TEAM-NET
 10
897.5
 20
-363.962246
 30
700.0
 70
    64
  0
VERTEX
  5
3B1
  8
TEAM-NET
 10
897.5
 20
-311.96764
 30
700.0
 70
    64
  0
VERTEX
  5
3B2
  8
TEAM-NET
 10
897.5
 20
-259.973033
 30
700.0
 70
    64
  0
VERTEX
  5
3B3
  8
TEAM-NET
 10
897.5
 20
-207.978427
 30
700.0
 70
    64
  0
VERTEX
  5
3B4
  8
TEAM-NET
 10
897.5
 20
-155.98382
 30
700.0
 70
    64
  0
VERTEX
  5
3B5
  8
TEAM-NET
 10
897.5
 20
-103.989213
 30
700.0
 70
    64
  0
VERTEX
  5
3B6
  8
TEAM-NET
 10
897.5
 20
-51.994607
 30
700.0
 70
    64
  0
VERTEX
  5
3B7
  8
TEAM-NET
 10
897.5
 20
0.0
 30
700.0
 70
    64
  0
VERTEX
  5
3B8
  8
TEAM-NET
 10
-997.5
 20
0.0
 30
700.0
 70
    64
  0
VERTEX
  5
3B9
  8
TEAM-NET
 10
-997.5
 20
-56.903345
 30
700.0
 70
    64
  0
VERTEX
  5
3BA
  8
TEAM-NET
 10
-997.5
 20
-113.80669
 30
700.0
 70
    64
  0
VERTEX
  5
3BB
  8
TEAM-NET
 10
-997.5
 20
-170.710035
 30
700.0
 70
    64
  0
VERTEX
  5
3BC
  8
TEAM-NET
 10
-997.5
 20
-227.613381
 30
700.0
 70
    64
  0
VERTEX
  5
3BD
  8
TEAM-NET
 10
-997.5
 20
-284.516726
 30
700.0
 70
    64
  0
VERTEX
  5
3BE
  8
TEAM-NET
 10
-997.5
 20
-341.420071
 30
700.0
 70
    64
  0
VERTEX
  5
3BF
  8
TEAM-NET
 10
-997.5
 20
-398.323416
 30
700.0
 70
    64
  0
VERTEX
  5
3C0
  8
TEAM-NET
 10
-997.5
 20
-455.226761
 30
700.0
 70
    64
  0
VERTEX
  5
3C1
  8
TEAM-NET
 10
-997.5
 20
-512.130106
 30
700.0
 70
    64
  0
VERTEX
  5
3C2
  8
TEAM-NET
 10
-997.5
 20
-569.033452
 30
700.0
 70
    64
  0
VERTEX
  5
3C3
  8
TEAM-NET
 10
-997.5
 20
-625.936797
 30
700.0
 70
    64
  0
VERTEX
  5
3C4
  8
TEAM-NET
 10
-997.381802
 20
-682.838954
 30
700.0
 70
    64
  0
VERTEX
  5
3C5
  8
TEAM-NET
 10
-989.480569
 20
-739.07646
 30
700.0
 70
    64
  0
VERTEX
  5
3C6
  8
TEAM-NET
 10
-969.557752
 20
-792.256981
 30
700.0
 70
    64
  0
VERTEX
  5
3C7
  8
TEAM-NET
 10
-938.563836
 20
-839.843362
 30
700.0
 70
    64
  0
VERTEX
  5
3C8
  8
TEAM-NET
 10
-897.977489
 20
-879.565333
 30
700.0
 70
    64
  0
VERTEX
  5
3C9
  8
TEAM-NET
 10
-849.735021
 20
-909.527824
 30
700.0
 70
    64
  0
VERTEX
  5
3CA
  8
TEAM-NET
 10
-796.138002
 20
-928.301371
 30
700.0
 70
    64
  0
VERTEX
  5
3CB
  8
TEAM-NET
 10
-739.743459
 20
-934.990321
 30
700.0
 70
    64
  0
VERTEX
  5
3CC
  8
TEAM-NET
 10
-682.840142
 20
-935.0
 30
700.0
 70
    64
  0
VERTEX
  5
3CD
  8
TEAM-NET
 10
-625.936797
 20
-935.0
 30
700.0
 70
    64
  0
VERTEX
  5
3CE
  8
TEAM-NET
 10
-569.033452
 20
-935.0
 30
700.0
 70
    64
  0
VERTEX
  5
3CF
  8
TEAM-NET
 10
-512.130106
 20
-935.0
 30
700.0
 70
    64
  0
VERTEX
  5
3D0
  8
TEAM-NET
 10
-455.226761
 20
-935.0
 30
700.0
 70
    64
  0
VERTEX
  5
3D1
  8
TEAM-NET
 10
-398.323416
 20
-935.0
 30
700.0
 70
    64
  0
VERTEX
  5
3D2
  8
TEAM-NET
 10
-341.420071
 20
-935.0
 30
700.0
 70
    64
  0
VERTEX
  5
3D3
  8
TEAM-NET
 10
-284.516726
 20
-935.0
 30
700.0
 70
    64
  0
VERTEX
  5
3D4
  8
TEAM-NET
 10
-227.613381
 20
-935.0
 30
700.0
 70
    64
  0
VERTEX
  5
3D5
  8
TEAM-NET
 10
-170.710035
 20
-935.0
 30
700.0
 70
    64
  0
VERTEX
  5
3D6
  8
TEAM-NET
 10
-113.80669
 20
-935.0
 30
700.0
 70
    64
  0
VERTEX
  5
3D7
  8
TEAM-NET
 10
-56.903345
 20
-935.0
 30
700.0
 70
    64
  0
VERTEX
  5
3D8
  8
TEAM-NET
 10
0.0
 20
-935.0
 30
700.0
 70
    64
  0
VERTEX
  5
3D9
  8
TEAM-NET
 10
56.903345
 20
-935.0
 30
700.0
 70
    64
  0
VERTEX
  5
3DA
  8
TEAM-NET
 10
113.80669
 20
-935.0
 30
700.0
 70
    64
  0
VERTEX
  5
3DB
  8
TEAM-NET
 10
170.710035
 20
-935.0
 30
700.0
 70
    64
  0
VERTEX
  5
3DC
  8
TEAM-NET
 10
227.613381
 20
-935.0
 30
700.0
 70
    64
  0
VERTEX
  5
3DD
  8
TEAM-NET
 10
284.516726
 20
-935.0
 30
700.0
 70
    64
  0
VERTEX
  5
3DE
  8
TEAM-NET
 10
341.420071
 20
-935.0
 30
700.0
 70
    64
  0
VERTEX
  5
3DF
  8
TEAM-NET
 10
398.323416
 20
-935.0
 30
700.0
 70
    64
  0
VERTEX
  5
3E0
  8
TEAM-NET
 10
455.226761
 20
-935.0
 30
700.0
 70
    64
  0
VERTEX
  5
3E1
  8
TEAM-NET
 10
512.130106
 20
-935.0
 30
700.0
 70
    64
  0
VERTEX
  5
3E2
  8
TEAM-NET
 10
569.033452
 20
-935.0
 30
700.0
 70
    64
  0
VERTEX
  5
3E3
  8
TEAM-NET
 10
625.936797
 20
-935.0
 30
700.0
 70
    64
  0
VERTEX
  5
3E4
  8
TEAM-NET
 10
682.840142
 20
-935.0
 30
700.0
 70
    64
  0
VERTEX
  5
3E5
  8
TEAM-NET
 10
739.743459
 20
-934.990321
 30
700.0
 70
    64
  0
VERTEX
  5
3E6
  8
TEAM-NET
 10
796.138002
 20
-928.301371
 30
700.0
 70
    64
  0
VERTEX
  5
3E7
  8
TEAM-NET
 10
849.735021
 20
-909.527824
 30
700.0
 70
    64
  0
VERTEX
  5
3E8
  8
TEAM-NET
 10
897.977489
 20
-879.565333
 30
700.0
 70
    64
  0
VERTEX
  5
3E9
  8
TEAM-NET
 10
938.563836
 20
-839.843362
 30
700.0
 70
    64
  0
VERTEX
  5
3EA
  8
TEAM-NET
 10
969.557752
 20
-792.256981
 30
700.0
 70
    64
  0
VERTEX
  5
3EB
  8
TEAM-NET
 10
989.480569
 20
-739.07646
 30
700.0
 70
    64
  0
VERTEX
  5
3EC
  8
TEAM-NET
 10
997.381802
 20
-682.838954
 30
700.0
 70
    64
  0
VERTEX
  5
3ED
  8
TEAM-NET
 10
997.5
 20
-625.936797
 30
700.0
 70
    64
  0
VERTEX
  5
3EE
  8
TEAM-NET
 10
997.5
 20
-569.033452
 30
700.0
 70
    64
  0
VERTEX
  5
3EF
  8
TEAM-NET
 10
997.5
 20
-512.130106
 30
700.0
 70
    64
  0
VERTEX
  5
3F0
  8
TEAM-NET
 10
997.5
 20
-455.226761
 30
700.0
 70
    64
  0
VERTEX
  5
3F1
  8
TEAM-NET
 10
997.5
 20
-398.323416
 30
700.0
 70
    64
  0
VERTEX
  5
3F2
  8
TEAM-NET
 10
997.5
 20
-341.420071
 30
700.0
 70
    64
  0
VERTEX
  5
3F3
  8
TEAM-NET
 10
997.5
 20
-284.516726
 30
700.0
 70
    64
  0
VERTEX
  5
3F4
  8
TEAM-NET
 10
997.5
 20
-227.613381
 30
700.0
 70
    64
  0
VERTEX
  5
3F5
  8
TEAM-NET
 10
997.5
 20
-170.710035
 30
700.0
 70
    64
  0
VERTEX
  5
3F6
  8
TEAM-NET
 10
997.5
 20
-113.80669
 30
700.0
 70
    64
  0
VERTEX
  5
3F7
  8
TEAM-NET
 10
997.5
 20
-56.903345
 30
700.0
 70
    64
  0
VERTEX
  5
3F8
  8
TEAM-NET
 10
997.5
 20
0.0
 30
700.0
 70
    64
  0
SEQEND
  5
3F9
  8
TEAM-NET
  0
POLYLINE
  5
3FA
  8
TEAM-BODY
 66
     1
 10
0.0
 20
0.0
 30
700.0
  0
VERTEX
  5
656
  8
TEAM-BODY
 10
-897.5
 20
0.0
 30
700.0
  0
VERTEX
  5
657
  8
TEAM-BODY
 10
-897.5
 20
-675.0
 30
700.0
 42
0.414214
  0
VERTEX
  5
658
  8
TEAM-BODY
 10
-737.5
 20
-835.0
 30
700.0
  0
VERTEX
  5
659
  8
TEAM-BODY
 10
737.5
 20
-835.0
 30
700.0
 42
0.414214
  0
VERTEX
  5
65A
  8
TEAM-BODY
 10
897.5
 20
-675.0
 30
700.0
  0
VERTEX
  5
65B
  8
TEAM-BODY
 10
897.5
 20
0.0
 30
700.0
  0
SEQEND
  5
65C
  8
TEAM-BODY
  0
POLYLINE
  5
3FB
  8
TEAM-BODY
 66
     1
 10
0.0
 20
0.0
 30
700.0
  0
VERTEX
  5
65D
  8
TEAM-BODY
 10
-997.5
 20
0.0
 30
700.0
  0
VERTEX
  5
65E
  8
TEAM-BODY
 10
-997.5
 20
-675.0
 30
700.0
 42
0.414214
  0
VERTEX
  5
65F
  8
TEAM-BODY
 10
-737.5
 20
-935.0
 30
700.0
  0
VERTEX
  5
660
  8
TEAM-BODY
 10
737.5
 20
-935.0
 30
700.0
 42
0.414214
  0
VERTEX
  5
661
  8
TEAM-BODY
 10
997.5
 20
-675.0
 30
700.0
  0
VERTEX
  5
662
  8
TEAM-BODY
 10
997.5
 20
0.0
 30
700.0
  0
SEQEND
  5
663
  8
TEAM-BODY
  0
POLYLINE
  5
3FC
  8
TEAM-BODY
 66
     1
 10
0.0
 20
0.0
 30
700.0
  0
VERTEX
  5
664
  8
TEAM-BODY
 10
897.5
 20
0.0
 30
700.0
  0
VERTEX
  5
665
  8
TEAM-BODY
 10
897.5
 20
675.0
 30
700.0
 42
0.414214
  0
VERTEX
  5
666
  8
TEAM-BODY
 10
737.5
 20
835.0
 30
700.0
  0
VERTEX
  5
667
  8
TEAM-BODY
 10
-737.5
 20
835.0
 30
700.0
 42
0.414214
  0
VERTEX
  5
668
  8
TEAM-BODY
 10
-897.5
 20
675.0
 30
700.0
  0
VERTEX
  5
669
  8
TEAM-BODY
 10
-897.5
 20
0.0
 30
700.0
  0
SEQEND
  5
66A
  8
TEAM-BODY
  0
POLYLINE
  5
3FD
  8
TEAM-BODY
 66
     1
 10
0.0
 20
0.0
 30
700.0
  0
VERTEX
  5
66B
  8
TEAM-BODY
 10
997.5
 20
0.0
 30
700.0
  0
VERTEX
  5
66C
  8
TEAM-BODY
 10
997.5
 20
675.0
 30
700.0
 42
0.414214
  0
VERTEX
  5
66D
  8
TEAM-BODY
 10
737.5
 20
935.0
 30
700.0
  0
VERTEX
  5
66E
  8
TEAM-BODY
 10
-737.5
 20
935.0
 30
700.0
 42
0.414214
  0
VERTEX
  5
66F
  8
TEAM-BODY
 10
-997.5
 20
675.0
 30
700.0
  0
VERTEX
  5
670
  8
TEAM-BODY
 10
-997.5
 20
0.0
 30
700.0
  0
SEQEND
  5
671
  8
TEAM-BODY
  0
POLYLINE
  5
3FE
  8
TEAM-DET1
 66
     1
 10
0.0
 20
0.0
 30
700.0
 70
     1
  0
VERTEX
  5
672
  8
TEAM-DET1
 10
-970.854377
 20
-79.73689
 30
700.0
  0
VERTEX
  5
673
  8
TEAM-DET1
 10
-970.854377
 20
79.73689
 30
700.0
  0
VERTEX
  5
674
  8
TEAM-DET1
 10
-922.348277
 20
79.73689
 30
700.0
  0
VERTEX
  5
675
  8
TEAM-DET1
 10
-922.348277
 20
-79.73689
 30
700.0
  0
SEQEND
  5
676
  8
TEAM-DET1
  0
POLYLINE
  5
400
  8
TEAM-DET1
 66
     1
 10
0.0
 20
0.0
 30
700.0
 70
     1
  0
VERTEX
  5
677
  8
TEAM-DET1
 10
-946.601327
 20
-52.0
 30
700.0
  0
VERTEX
  5
678
  8
TEAM-DET1
 10
-944.802331
 20
-51.359792
 30
700.0
  0
VERTEX
  5
679
  8
TEAM-DET1
 10
-943.047631
 20
-49.454938
 30
700.0
  0
VERTEX
  5
67A
  8
TEAM-DET1
 10
-941.380435
 20
-46.332338
 30
700.0
  0
VERTEX
  5
67B
  8
TEAM-DET1
 10
-939.841795
 20
-42.068882
 30
700.0
  0
VERTEX
  5
67C
  8
TEAM-DET1
 10
-938.469599
 20
-36.769552
 30
700.0
  0
VERTEX
  5
67D
  8
TEAM-DET1
 10
-937.297631
 20
-30.564832
 30
700.0
  0
VERTEX
  5
67E
  8
TEAM-DET1
 10
-936.354751
 20
-23.607506
 30
700.0
  0
VERTEX
  5
67F
  8
TEAM-DET1
 10
-935.664177
 20
-16.068882
 30
700.0
  0
VERTEX
  5
680
  8
TEAM-DET1
 10
-935.242911
 20
-8.134592
 30
700.0
  0
VERTEX
  5
681
  8
TEAM-DET1
 10
-935.101327
 20
0.0
 30
700.0
  0
VERTEX
  5
682
  8
TEAM-DET1
 10
-935.242911
 20
8.134592
 30
700.0
  0
VERTEX
  5
683
  8
TEAM-DET1
 10
-935.664177
 20
16.068884
 30
700.0
  0
VERTEX
  5
684
  8
TEAM-DET1
 10
-936.354751
 20
23.607506
 30
700.0
  0
VERTEX
  5
685
  8
TEAM-DET1
 10
-937.297631
 20
30.564834
 30
700.0
  0
VERTEX
  5
686
  8
TEAM-DET1
 10
-938.469599
 20
36.769554
 30
700.0
  0
VERTEX
  5
687
  8
TEAM-DET1
 10
-939.841795
 20
42.068884
 30
700.0
  0
VERTEX
  5
688
  8
TEAM-DET1
 10
-941.380435
 20
46.33234
 30
700.0
  0
VERTEX
  5
689
  8
TEAM-DET1
 10
-943.047631
 20
49.45494
 30
700.0
  0
VERTEX
  5
68A
  8
TEAM-DET1
 10
-944.802331
 20
51.359794
 30
700.0
  0
VERTEX
  5
68B
  8
TEAM-DET1
 10
-946.601327
 20
52.0
 30
700.0
  0
VERTEX
  5
68C
  8
TEAM-DET1
 10
-948.400323
 20
51.359794
 30
700.0
  0
VERTEX
  5
68D
  8
TEAM-DET1
 10
-950.155021
 20
49.45494
 30
700.0
  0
VERTEX
  5
68E
  8
TEAM-DET1
 10
-951.822217
 20
46.33234
 30
700.0
  0
VERTEX
  5
68F
  8
TEAM-DET1
 10
-953.360857
 20
42.068884
 30
700.0
  0
VERTEX
  5
690
  8
TEAM-DET1
 10
-954.733055
 20
36.769554
 30
700.0
  0
VERTEX
  5
691
  8
TEAM-DET1
 10
-955.905021
 20
30.564834
 30
700.0
  0
VERTEX
  5
692
  8
TEAM-DET1
 10
-956.847901
 20
23.607506
 30
700.0
  0
VERTEX
  5
693
  8
TEAM-DET1
 10
-957.538477
 20
16.068884
 30
700.0
  0
VERTEX
  5
694
  8
TEAM-DET1
 10
-957.959743
 20
8.134592
 30
700.0
  0
VERTEX
  5
695
  8
TEAM-DET1
 10
-958.101327
 20
0.0
 30
700.0
  0
VERTEX
  5
696
  8
TEAM-DET1
 10
-957.959743
 20
-8.134592
 30
700.0
  0
VERTEX
  5
697
  8
TEAM-DET1
 10
-957.538477
 20
-16.068882
 30
700.0
  0
VERTEX
  5
698
  8
TEAM-DET1
 10
-956.847901
 20
-23.607506
 30
700.0
  0
VERTEX
  5
699
  8
TEAM-DET1
 10
-955.905021
 20
-30.564832
 30
700.0
  0
VERTEX
  5
69A
  8
TEAM-DET1
 10
-954.733055
 20
-36.769552
 30
700.0
  0
VERTEX
  5
69B
  8
TEAM-DET1
 10
-953.360857
 20
-42.068882
 30
700.0
  0
VERTEX
  5
69C
  8
TEAM-DET1
 10
-951.822217
 20
-46.332338
 30
700.0
  0
VERTEX
  5
69D
  8
TEAM-DET1
 10
-950.155021
 20
-49.454938
 30
700.0
  0
VERTEX
  5
69E
  8
TEAM-DET1
 10
-948.400323
 20
-51.359792
 30
700.0
  0
SEQEND
  5
69F
  8
TEAM-DET1
  0
POLYLINE
  5
401
  8
TEAM-DET1
 66
     1
 10
0.0
 20
0.0
 30
700.0
 70
     1
  0
VERTEX
  5
6A0
  8
TEAM-DET1
 10
-79.73689
 20
-913.182898
 30
700.0
  0
VERTEX
  5
6A1
  8
TEAM-DET1
 10
79.73689
 20
-913.182898
 30
700.0
  0
VERTEX
  5
6A2
  8
TEAM-DET1
 10
79.73689
 20
-864.676798
 30
700.0
  0
VERTEX
  5
6A3
  8
TEAM-DET1
 10
-79.73689
 20
-864.676798
 30
700.0
  0
SEQEND
  5
6A4
  8
TEAM-DET1
  0
POLYLINE
  5
402
  8
TEAM-DET1
 66
     1
 10
0.0
 20
0.0
 30
700.0
 70
     1
  0
VERTEX
  5
6A5
  8
TEAM-DET1
 10
-52.0
 20
-888.929848
 30
700.0
  0
VERTEX
  5
6A6
  8
TEAM-DET1
 10
-51.359792
 20
-887.130852
 30
700.0
  0
VERTEX
  5
6A7
  8
TEAM-DET1
 10
-49.454938
 20
-885.376152
 30
700.0
  0
VERTEX
  5
6A8
  8
TEAM-DET1
 10
-46.332338
 20
-883.708956
 30
700.0
  0
VERTEX
  5
6A9
  8
TEAM-DET1
 10
-42.068882
 20
-882.170316
 30
700.0
  0
VERTEX
  5
6AA
  8
TEAM-DET1
 10
-36.769552
 20
-880.79812
 30
700.0
  0
VERTEX
  5
6AB
  8
TEAM-DET1
 10
-30.564832
 20
-879.626152
 30
700.0
  0
VERTEX
  5
6AC
  8
TEAM-DET1
 10
-23.607506
 20
-878.683272
 30
700.0
  0
VERTEX
  5
6AD
  8
TEAM-DET1
 10
-16.068882
 20
-877.992698
 30
700.0
  0
VERTEX
  5
6AE
  8
TEAM-DET1
 10
-8.134592
 20
-877.571432
 30
700.0
  0
VERTEX
  5
6AF
  8
TEAM-DET1
 10
0.0
 20
-877.429848
 30
700.0
  0
VERTEX
  5
6B0
  8
TEAM-DET1
 10
8.134592
 20
-877.571432
 30
700.0
  0
VERTEX
  5
6B1
  8
TEAM-DET1
 10
16.068884
 20
-877.992698
 30
700.0
  0
VERTEX
  5
6B2
  8
TEAM-DET1
 10
23.607506
 20
-878.683272
 30
700.0
  0
VERTEX
  5
6B3
  8
TEAM-DET1
 10
30.564834
 20
-879.626152
 30
700.0
  0
VERTEX
  5
6B4
  8
TEAM-DET1
 10
36.769554
 20
-880.79812
 30
700.0
  0
VERTEX
  5
6B5
  8
TEAM-DET1
 10
42.068884
 20
-882.170316
 30
700.0
  0
VERTEX
  5
6B6
  8
TEAM-DET1
 10
46.33234
 20
-883.708956
 30
700.0
  0
VERTEX
  5
6B7
  8
TEAM-DET1
 10
49.45494
 20
-885.376152
 30
700.0
  0
VERTEX
  5
6B8
  8
TEAM-DET1
 10
51.359794
 20
-887.130852
 30
700.0
  0
VERTEX
  5
6B9
  8
TEAM-DET1
 10
52.0
 20
-888.929848
 30
700.0
  0
VERTEX
  5
6BA
  8
TEAM-DET1
 10
51.359794
 20
-890.728844
 30
700.0
  0
VERTEX
  5
6BB
  8
TEAM-DET1
 10
49.45494
 20
-892.483542
 30
700.0
  0
VERTEX
  5
6BC
  8
TEAM-DET1
 10
46.33234
 20
-894.150738
 30
700.0
  0
VERTEX
  5
6BD
  8
TEAM-DET1
 10
42.068884
 20
-895.689378
 30
700.0
  0
VERTEX
  5
6BE
  8
TEAM-DET1
 10
36.769554
 20
-897.061576
 30
700.0
  0
VERTEX
  5
6BF
  8
TEAM-DET1
 10
30.564834
 20
-898.233542
 30
700.0
  0
VERTEX
  5
6C0
  8
TEAM-DET1
 10
23.607506
 20
-899.176422
 30
700.0
  0
VERTEX
  5
6C1
  8
TEAM-DET1
 10
16.068884
 20
-899.866998
 30
700.0
  0
VERTEX
  5
6C2
  8
TEAM-DET1
 10
8.134592
 20
-900.288264
 30
700.0
  0
VERTEX
  5
6C3
  8
TEAM-DET1
 10
0.0
 20
-900.429848
 30
700.0
  0
VERTEX
  5
6C4
  8
TEAM-DET1
 10
-8.134592
 20
-900.288264
 30
700.0
  0
VERTEX
  5
6C5
  8
TEAM-DET1
 10
-16.068882
 20
-899.866998
 30
700.0
  0
VERTEX
  5
6C6
  8
TEAM-DET1
 10
-23.607506
 20
-899.176422
 30
700.0
  0
VERTEX
  5
6C7
  8
TEAM-DET1
 10
-30.564832
 20
-898.233542
 30
700.0
  0
VERTEX
  5
6C8
  8
TEAM-DET1
 10
-36.769552
 20
-897.061576
 30
700.0
  0
VERTEX
  5
6C9
  8
TEAM-DET1
 10
-42.068882
 20
-895.689378
 30
700.0
  0
VERTEX
  5
6CA
  8
TEAM-DET1
 10
-46.332338
 20
-894.150738
 30
700.0
  0
VERTEX
  5
6CB
  8
TEAM-DET1
 10
-49.454938
 20
-892.483542
 30
700.0
  0
VERTEX
  5
6CC
  8
TEAM-DET1
 10
-51.359792
 20
-890.728844
 30
700.0
  0
SEQEND
  5
6CD
  8
TEAM-DET1
  0
POLYLINE
  5
403
  8
TEAM-DET1
 66
     1
 10
0.0
 20
0.0
 30
700.0
 70
     1
  0
VERTEX
  5
6CE
  8
TEAM-DET1
 10
946.601327
 20
-52.0
 30
700.0
  0
VERTEX
  5
6CF
  8
TEAM-DET1
 10
944.802331
 20
-51.359792
 30
700.0
  0
VERTEX
  5
6D0
  8
TEAM-DET1
 10
943.047631
 20
-49.454938
 30
700.0
  0
VERTEX
  5
6D1
  8
TEAM-DET1
 10
941.380435
 20
-46.332338
 30
700.0
  0
VERTEX
  5
6D2
  8
TEAM-DET1
 10
939.841795
 20
-42.068882
 30
700.0
  0
VERTEX
  5
6D3
  8
TEAM-DET1
 10
938.469599
 20
-36.769552
 30
700.0
  0
VERTEX
  5
6D4
  8
TEAM-DET1
 10
937.297631
 20
-30.564832
 30
700.0
  0
VERTEX
  5
6D5
  8
TEAM-DET1
 10
936.354751
 20
-23.607506
 30
700.0
  0
VERTEX
  5
6D6
  8
TEAM-DET1
 10
935.664177
 20
-16.068882
 30
700.0
  0
VERTEX
  5
6D7
  8
TEAM-DET1
 10
935.242911
 20
-8.134592
 30
700.0
  0
VERTEX
  5
6D8
  8
TEAM-DET1
 10
935.101327
 20
0.0
 30
700.0
  0
VERTEX
  5
6D9
  8
TEAM-DET1
 10
935.242911
 20
8.134592
 30
700.0
  0
VERTEX
  5
6DA
  8
TEAM-DET1
 10
935.664177
 20
16.068884
 30
700.0
  0
VERTEX
  5
6DB
  8
TEAM-DET1
 10
936.354751
 20
23.607506
 30
700.0
  0
VERTEX
  5
6DC
  8
TEAM-DET1
 10
937.297631
 20
30.564834
 30
700.0
  0
VERTEX
  5
6DD
  8
TEAM-DET1
 10
938.469599
 20
36.769554
 30
700.0
  0
VERTEX
  5
6DE
  8
TEAM-DET1
 10
939.841795
 20
42.068884
 30
700.0
  0
VERTEX
  5
6DF
  8
TEAM-DET1
 10
941.380435
 20
46.33234
 30
700.0
  0
VERTEX
  5
6E0
  8
TEAM-DET1
 10
943.047631
 20
49.45494
 30
700.0
  0
VERTEX
  5
6E1
  8
TEAM-DET1
 10
944.802331
 20
51.359794
 30
700.0
  0
VERTEX
  5
6E2
  8
TEAM-DET1
 10
946.601327
 20
52.0
 30
700.0
  0
VERTEX
  5
6E3
  8
TEAM-DET1
 10
948.400323
 20
51.359794
 30
700.0
  0
VERTEX
  5
6E4
  8
TEAM-DET1
 10
950.155021
 20
49.45494
 30
700.0
  0
VERTEX
  5
6E5
  8
TEAM-DET1
 10
951.822217
 20
46.33234
 30
700.0
  0
VERTEX
  5
6E6
  8
TEAM-DET1
 10
953.360857
 20
42.068884
 30
700.0
  0
VERTEX
  5
6E7
  8
TEAM-DET1
 10
954.733055
 20
36.769554
 30
700.0
  0
VERTEX
  5
6E8
  8
TEAM-DET1
 10
955.905021
 20
30.564834
 30
700.0
  0
VERTEX
  5
6E9
  8
TEAM-DET1
 10
956.847901
 20
23.607506
 30
700.0
  0
VERTEX
  5
6EA
  8
TEAM-DET1
 10
957.538477
 20
16.068884
 30
700.0
  0
VERTEX
  5
6EB
  8
TEAM-DET1
 10
957.959743
 20
8.134592
 30
700.0
  0
VERTEX
  5
6EC
  8
TEAM-DET1
 10
958.101327
 20
0.0
 30
700.0
  0
VERTEX
  5
6ED
  8
TEAM-DET1
 10
957.959743
 20
-8.134592
 30
700.0
  0
VERTEX
  5
6EE
  8
TEAM-DET1
 10
957.538477
 20
-16.068882
 30
700.0
  0
VERTEX
  5
6EF
  8
TEAM-DET1
 10
956.847901
 20
-23.607506
 30
700.0
  0
VERTEX
  5
6F0
  8
TEAM-DET1
 10
955.905021
 20
-30.564832
 30
700.0
  0
VERTEX
  5
6F1
  8
TEAM-DET1
 10
954.733055
 20
-36.769552
 30
700.0
  0
VERTEX
  5
6F2
  8
TEAM-DET1
 10
953.360857
 20
-42.068882
 30
700.0
  0
VERTEX
  5
6F3
  8
TEAM-DET1
 10
951.822217
 20
-46.332338
 30
700.0
  0
VERTEX
  5
6F4
  8
TEAM-DET1
 10
950.155021
 20
-49.454938
 30
700.0
  0
VERTEX
  5
6F5
  8
TEAM-DET1
 10
948.400323
 20
-51.359792
 30
700.0
  0
SEQEND
  5
6F6
  8
TEAM-DET1
  0
POLYLINE
  5
404
  8
TEAM-DET1
 66
     1
 10
0.0
 20
0.0
 30
700.0
 70
     1
  0
VERTEX
  5
6F7
  8
TEAM-DET1
 10
970.854377
 20
-79.73689
 30
700.0
  0
VERTEX
  5
6F8
  8
TEAM-DET1
 10
970.854377
 20
79.73689
 30
700.0
  0
VERTEX
  5
6F9
  8
TEAM-DET1
 10
922.348277
 20
79.73689
 30
700.0
  0
VERTEX
  5
6FA
  8
TEAM-DET1
 10
922.348277
 20
-79.73689
 30
700.0
  0
SEQEND
  5
6FB
  8
TEAM-DET1
  0
POLYLINE
  5
405
  8
TEAM-DET1
 66
     1
 10
0.0
 20
0.0
 30
700.0
 70
     1
  0
VERTEX
  5
6FC
  8
TEAM-DET1
 10
-52.0
 20
888.929848
 30
700.0
  0
VERTEX
  5
6FD
  8
TEAM-DET1
 10
-51.359792
 20
887.130852
 30
700.0
  0
VERTEX
  5
6FE
  8
TEAM-DET1
 10
-49.454938
 20
885.376152
 30
700.0
  0
VERTEX
  5
6FF
  8
TEAM-DET1
 10
-46.332338
 20
883.708956
 30
700.0
  0
VERTEX
  5
700
  8
TEAM-DET1
 10
-42.068882
 20
882.170316
 30
700.0
  0
VERTEX
  5
701
  8
TEAM-DET1
 10
-36.769552
 20
880.79812
 30
700.0
  0
VERTEX
  5
702
  8
TEAM-DET1
 10
-30.564832
 20
879.626152
 30
700.0
  0
VERTEX
  5
703
  8
TEAM-DET1
 10
-23.607506
 20
878.683272
 30
700.0
  0
VERTEX
  5
704
  8
TEAM-DET1
 10
-16.068882
 20
877.992698
 30
700.0
  0
VERTEX
  5
705
  8
TEAM-DET1
 10
-8.134592
 20
877.571432
 30
700.0
  0
VERTEX
  5
706
  8
TEAM-DET1
 10
0.0
 20
877.429848
 30
700.0
  0
VERTEX
  5
707
  8
TEAM-DET1
 10
8.134592
 20
877.571432
 30
700.0
  0
VERTEX
  5
708
  8
TEAM-DET1
 10
16.068884
 20
877.992698
 30
700.0
  0
VERTEX
  5
709
  8
TEAM-DET1
 10
23.607506
 20
878.683272
 30
700.0
  0
VERTEX
  5
70A
  8
TEAM-DET1
 10
30.564834
 20
879.626152
 30
700.0
  0
VERTEX
  5
70B
  8
TEAM-DET1
 10
36.769554
 20
880.79812
 30
700.0
  0
VERTEX
  5
70C
  8
TEAM-DET1
 10
42.068884
 20
882.170316
 30
700.0
  0
VERTEX
  5
70D
  8
TEAM-DET1
 10
46.33234
 20
883.708956
 30
700.0
  0
VERTEX
  5
70E
  8
TEAM-DET1
 10
49.45494
 20
885.376152
 30
700.0
  0
VERTEX
  5
70F
  8
TEAM-DET1
 10
51.359794
 20
887.130852
 30
700.0
  0
VERTEX
  5
710
  8
TEAM-DET1
 10
52.0
 20
888.929848
 30
700.0
  0
VERTEX
  5
711
  8
TEAM-DET1
 10
51.359794
 20
890.728844
 30
700.0
  0
VERTEX
  5
712
  8
TEAM-DET1
 10
49.45494
 20
892.483542
 30
700.0
  0
VERTEX
  5
713
  8
TEAM-DET1
 10
46.33234
 20
894.150738
 30
700.0
  0
VERTEX
  5
714
  8
TEAM-DET1
 10
42.068884
 20
895.689378
 30
700.0
  0
VERTEX
  5
715
  8
TEAM-DET1
 10
36.769554
 20
897.061576
 30
700.0
  0
VERTEX
  5
716
  8
TEAM-DET1
 10
30.564834
 20
898.233542
 30
700.0
  0
VERTEX
  5
717
  8
TEAM-DET1
 10
23.607506
 20
899.176422
 30
700.0
  0
VERTEX
  5
718
  8
TEAM-DET1
 10
16.068884
 20
899.866998
 30
700.0
  0
VERTEX
  5
719
  8
TEAM-DET1
 10
8.134592
 20
900.288264
 30
700.0
  0
VERTEX
  5
71A
  8
TEAM-DET1
 10
0.0
 20
900.429848
 30
700.0
  0
VERTEX
  5
71B
  8
TEAM-DET1
 10
-8.134592
 20
900.288264
 30
700.0
  0
VERTEX
  5
71C
  8
TEAM-DET1
 10
-16.068882
 20
899.866998
 30
700.0
  0
VERTEX
  5
71D
  8
TEAM-DET1
 10
-23.607506
 20
899.176422
 30
700.0
  0
VERTEX
  5
71E
  8
TEAM-DET1
 10
-30.564832
 20
898.233542
 30
700.0
  0
VERTEX
  5
71F
  8
TEAM-DET1
 10
-36.769552
 20
897.061576
 30
700.0
  0
VERTEX
  5
720
  8
TEAM-DET1
 10
-42.068882
 20
895.689378
 30
700.0
  0
VERTEX
  5
721
  8
TEAM-DET1
 10
-46.332338
 20
894.150738
 30
700.0
  0
VERTEX
  5
722
  8
TEAM-DET1
 10
-49.454938
 20
892.483542
 30
700.0
  0
VERTEX
  5
723
  8
TEAM-DET1
 10
-51.359792
 20
890.728844
 30
700.0
  0
SEQEND
  5
724
  8
TEAM-DET1
  0
POLYLINE
  5
406
  8
TEAM-DET1
 66
     1
 10
0.0
 20
0.0
 30
700.0
 70
     1
  0
VERTEX
  5
725
  8
TEAM-DET1
 10
-79.73689
 20
913.182898
 30
700.0
  0
VERTEX
  5
726
  8
TEAM-DET1
 10
79.73689
 20
913.182898
 30
700.0
  0
VERTEX
  5
727
  8
TEAM-DET1
 10
79.73689
 20
864.676798
 30
700.0
  0
VERTEX
  5
728
  8
TEAM-DET1
 10
-79.73689
 20
864.676798
 30
700.0
  0
SEQEND
  5
729
  8
TEAM-DET1
  0
TEXT
  5
407
  8
TEAM-TXT
 10
-654.925599
 20
678.93036
 30
700.0
 40
30.0
  1
team 121027
 41
0.8
 51
15.0
  7
TEAM
  0
ENDSEC
  0
EOF
