  0
SECTION
  2
HEADER
  9
$ACADVER
  1
AC1009
  9
$INSBASE
 10
0.0
 20
0.0
 30
0.0
  9
$EXTMIN
 10
-1099.686204
 20
-599.65919
 30
-0.015405
  9
$EXTMAX
 10
1099.633334
 20
599.684583
 30
700.038763
  9
$LIMMIN
 10
-1099.686204
 20
-599.65919
  9
$LIMMAX
 10
1099.633334
 20
599.684583
  9
$ORTHOMODE
 70
     1
  9
$REGENMODE
 70
     1
  9
$FILLMODE
 70
     1
  9
$QTEXTMODE
 70
     0
  9
$MIRRTEXT
 70
     0
  9
$DRAGMODE
 70
     2
  9
$LTSCALE
 40
50.0
  9
$OSMODE
 70
     7
  9
$ATTMODE
 70
     1
  9
$TEXTSIZE
 40
200.0
  9
$TRACEWID
 40
1.0
  9
$TEXTSTYLE
  7
STANDARD
  9
$CLAYER
  8
TEAM-MAS
  9
$CELTYPE
  6
BYLAYER
  9
$CECOLOR
 62
   256
  9
$DIMSCALE
 40
1.0
  9
$DIMASZ
 40
20.0
  9
$DIMEXO
 40
10.0
  9
$DIMDLI
 40
1.0
  9
$DIMRND
 40
0.0
  9
$DIMDLE
 40
0.0
  9
$DIMEXE
 40
1.0
  9
$DIMTP
 40
0.0
  9
$DIMTM
 40
0.0
  9
$DIMTXT
 40
35.0
  9
$DIMCEN
 40
1.0
  9
$DIMTSZ
 40
0.0
  9
$DIMTOL
 70
     0
  9
$DIMLIM
 70
     0
  9
$DIMTIH
 70
     0
  9
$DIMTOH
 70
     0
  9
$DIMSE1
 70
     0
  9
$DIMSE2
 70
     0
  9
$DIMTAD
 70
     0
  9
$DIMZIN
 70
     0
  9
$DIMBLK
  1

  9
$DIMASO
 70
     1
  9
$DIMSHO
 70
     0
  9
$DIMPOST
  1

  9
$DIMAPOST
  1

  9
$DIMALT
 70
     0
  9
$DIMALTD
 70
     2
  9
$DIMALTF
 40
25.4
  9
$DIMLFAC
 40
1.0
  9
$DIMTOFL
 70
     0
  9
$DIMTVP
 40
0.0
  9
$DIMTIX
 70
     0
  9
$DIMSOXD
 70
     0
  9
$DIMSAH
 70
     0
  9
$DIMBLK1
  1

  9
$DIMBLK2
  1

  9
$DIMSTYLE
  2
TEAM
  9
$DIMCLRD
 70
     9
  9
$DIMCLRE
 70
     9
  9
$DIMCLRT
 70
    11
  9
$DIMTFAC
 40
1.0
  9
$DIMGAP
 40
15.0
  9
$LUNITS
 70
     2
  9
$LUPREC
 70
     1
  9
$SKETCHINC
 40
1.0
  9
$FILLETRAD
 40
300.0
  9
$AUNITS
 70
     0
  9
$AUPREC
 70
     0
  9
$MENU
  1
ROPLANS
  9
$ELEVATION
 40
0.0
  9
$PELEVATION
 40
0.0
  9
$THICKNESS
 40
0.0
  9
$LIMCHECK
 70
     0
  9
$BLIPMODE
 70
     1
  9
$CHAMFERA
 40
0.0
  9
$CHAMFERB
 40
0.0
  9
$SKPOLY
 70
     0
  9
$TDCREATE
 40
2450392.957851
  9
$TDUPDATE
 40
2455843.591272
  9
$TDINDWG
 40
2.850297
  9
$TDUSRTIMER
 40
2.850297
  9
$USRTIMER
 70
     1
  9
$ANGBASE
 50
0.0
  9
$ANGDIR
 70
     0
  9
$PDMODE
 70
     0
  9
$PDSIZE
 40
0.0
  9
$PLINEWID
 40
0.0
  9
$COORDS
 70
     2
  9
$SPLFRAME
 70
     0
  9
$SPLINETYPE
 70
     6
  9
$SPLINESEGS
 70
     8
  9
$ATTDIA
 70
     0
  9
$ATTREQ
 70
     0
  9
$HANDLING
 70
     1
  9
$HANDSEED
  5
543
  9
$SURFTAB1
 70
    64
  9
$SURFTAB2
 70
    64
  9
$SURFTYPE
 70
     6
  9
$SURFU
 70
     6
  9
$SURFV
 70
     6
  9
$UCSNAME
  2

  9
$UCSORG
 10
0.0
 20
0.0
 30
0.0
  9
$UCSXDIR
 10
1.0
 20
0.0
 30
0.0
  9
$UCSYDIR
 10
0.0
 20
1.0
 30
0.0
  9
$PUCSNAME
  2

  9
$PUCSORG
 10
0.0
 20
0.0
 30
0.0
  9
$PUCSXDIR
 10
1.0
 20
0.0
 30
0.0
  9
$PUCSYDIR
 10
0.0
 20
1.0
 30
0.0
  9
$USERI1
 70
     0
  9
$USERI2
 70
     0
  9
$USERI3
 70
     0
  9
$USERI4
 70
     0
  9
$USERI5
 70
     0
  9
$USERR1
 40
0.0
  9
$USERR2
 40
0.0
  9
$USERR3
 40
0.0
  9
$USERR4
 40
0.0
  9
$USERR5
 40
0.0
  9
$WORLDVIEW
 70
     1
  9
$SHADEDGE
 70
     0
  9
$SHADEDIF
 70
    70
  9
$TILEMODE
 70
     1
  9
$MAXACTVP
 70
    16
  9
$PLIMCHECK
 70
     0
  9
$PEXTMIN
 10
-0.805942
 20
0.005011
 30
0.0
  9
$PEXTMAX
 10
20.250094
 20
11.356329
 30
0.0
  9
$PLIMMIN
 10
0.0
 20
0.0
  9
$PLIMMAX
 10
12.0
 20
9.0
  9
$UNITMODE
 70
     0
  9
$VISRETAIN
 70
     0
  9
$PLINEGEN
 70
     0
  9
$PSLTSCALE
 70
     0
  0
ENDSEC
  0
SECTION
  2
TABLES
  0
TABLE
  2
VPORT
 70
     2
  0
VPORT
  2
*ACTIVE
 70
     0
 10
0.0
 20
0.0
 11
1.0
 21
1.0
 12
-0.026435
 22
0.012697
 13
0.0
 23
0.0
 14
1.0
 24
1.0
 15
50.0
 25
50.0
 16
0.0
 26
0.0
 36
1.0
 17
0.0
 27
0.0
 37
0.0
 40
1206.86317
 41
1.903766
 42
50.0
 43
0.0
 44
0.0
 50
0.0
 51
0.0
 71
     0
 72
   100
 73
     1
 74
     1
 75
     0
 76
     0
 77
     0
 78
     0
  0
ENDTAB
  0
TABLE
  2
LTYPE
 70
     1
  0
LTYPE
  2
CONTINUOUS
 70
     0
  3
Solid Line
 72
    65
 73
     0
 40
0.0
  0
ENDTAB
  0
TABLE
  2
LAYER
 70
     7
  0
LAYER
  2
0
 70
     0
 62
     7
  6
CONTINUOUS
  0
LAYER
  2
TEAM-BODY
 70
     0
 62
     2
  6
CONTINUOUS
  0
LAYER
  2
TEAM-MAS
 70
     0
 62
     9
  6
CONTINUOUS
  0
LAYER
  2
TEAM-TXT
 70
     0
 62
    11
  6
CONTINUOUS
  0
LAYER
  2
TEAM-DET1
 70
     0
 62
     4
  6
CONTINUOUS
  0
LAYER
  2
TEAM-NET
 70
     0
 62
    15
  6
CONTINUOUS
  0
LAYER
  2
TEAM-INSP
 70
     0
 62
     5
  6
CONTINUOUS
  0
ENDTAB
  0
TABLE
  2
STYLE
 70
     2
  0
STYLE
  2
STANDARD
 70
     0
 40
0.0
 41
1.0
 50
0.0
 71
     0
 42
200.0
  3
txt
  4

  0
STYLE
  2
TEAM
 70
     0
 40
0.0
 41
0.8
 50
15.0
 71
     0
 42
7.0
  3
ROMANS.shx
  4

  0
ENDTAB
  0
TABLE
  2
VIEW
 70
     0
  0
ENDTAB
  0
TABLE
  2
UCS
 70
     0
  0
ENDTAB
  0
TABLE
  2
APPID
 70
     1
  0
APPID
  2
ACAD
 70
     0
  0
ENDTAB
  0
TABLE
  2
DIMSTYLE
 70
     1
  0
DIMSTYLE
  2
TEAM
 70
     0
  3

  4

  5

  6

  7

 40
1.0
 41
20.0
 42
10.0
 43
1.0
 44
1.0
 45
0.0
 46
0.0
 47
0.0
 48
0.0
140
35.0
141
1.0
142
0.0
143
25.4
144
1.0
145
0.0
146
1.0
147
15.0
 71
     0
 72
     0
 73
     0
 74
     0
 75
     0
 76
     0
 77
     0
 78
     0
170
     0
171
     2
172
     0
173
     0
174
     0
175
     0
176
     9
177
     9
178
    11
  0
ENDTAB
  0
ENDSEC
  0
SECTION
  2
BLOCKS
  0
BLOCK
  8
0
  2
$MODEL_SPACE
 70
     0
 10
0.0
 20
0.0
 30
0.0
  3
$MODEL_SPACE
  1

  0
ENDBLK
  5
485
  8
0
  0
BLOCK
 67
     1
  8
0
  2
$PAPER_SPACE
 70
     0
 10
0.0
 20
0.0
 30
0.0
  3
$PAPER_SPACE
  1

  0
ENDBLK
  5
483
 67
     1
  8
0
  0
ENDSEC
  0
SECTION
  2
ENTITIES
  0
POLYLINE
  5
20
  8
TEAM-NET
 66
     1
 10
0.0
 20
0.0
 30
0.0
 70
    16
 71
     2
 72
    65
  0
VERTEX
  5
21
  8
TEAM-NET
 10
917.5
 20
0.0
 30
700.0
 70
    64
  0
VERTEX
  5
22
  8
TEAM-NET
 10
917.5
 20
-39.691058
 30
700.0
 70
    64
  0
VERTEX
  5
23
  8
TEAM-NET
 10
917.5
 20
-79.382115
 30
700.0
 70
    64
  0
VERTEX
  5
24
  8
TEAM-NET
 10
917.5
 20
-119.073173
 30
700.0
 70
    64
  0
VERTEX
  5
25
  8
TEAM-NET
 10
917.5
 20
-158.764231
 30
700.0
 70
    64
  0
VERTEX
  5
26
  8
TEAM-NET
 10
917.5
 20
-198.455289
 30
700.0
 70
    64
  0
VERTEX
  5
27
  8
TEAM-NET
 10
917.5
 20
-238.146346
 30
700.0
 70
    64
  0
VERTEX
  5
28
  8
TEAM-NET
 10
917.045534
 20
-277.825408
 30
700.0
 70
    64
  0
VERTEX
  5
29
  8
TEAM-NET
 10
908.839831
 20
-316.543409
 30
700.0
 70
    64
  0
VERTEX
  5
2A
  8
TEAM-NET
 10
890.900233
 20
-351.822128
 30
700.0
 70
    64
  0
VERTEX
  5
2B
  8
TEAM-NET
 10
864.447331
 20
-381.261237
 30
700.0
 70
    64
  0
VERTEX
  5
2C
  8
TEAM-NET
 10
831.280953
 20
-402.85773
 30
700.0
 70
    64
  0
VERTEX
  5
2D
  8
TEAM-NET
 10
793.657705
 20
-415.142204
 30
700.0
 70
    64
  0
VERTEX
  5
2E
  8
TEAM-NET
 10
754.130097
 20
-417.5
 30
700.0
 70
    64
  0
VERTEX
  5
2F
  8
TEAM-NET
 10
714.439039
 20
-417.5
 30
700.0
 70
    64
  0
VERTEX
  5
30
  8
TEAM-NET
 10
674.747982
 20
-417.5
 30
700.0
 70
    64
  0
VERTEX
  5
31
  8
TEAM-NET
 10
635.056924
 20
-417.5
 30
700.0
 70
    64
  0
VERTEX
  5
32
  8
TEAM-NET
 10
595.365866
 20
-417.5
 30
700.0
 70
    64
  0
VERTEX
  5
33
  8
TEAM-NET
 10
555.674808
 20
-417.5
 30
700.0
 70
    64
  0
VERTEX
  5
34
  8
TEAM-NET
 10
515.983751
 20
-417.5
 30
700.0
 70
    64
  0
VERTEX
  5
35
  8
TEAM-NET
 10
476.292693
 20
-417.5
 30
700.0
 70
    64
  0
VERTEX
  5
36
  8
TEAM-NET
 10
436.601635
 20
-417.5
 30
700.0
 70
    64
  0
VERTEX
  5
37
  8
TEAM-NET
 10
396.910577
 20
-417.5
 30
700.0
 70
    64
  0
VERTEX
  5
38
  8
TEAM-NET
 10
357.21952
 20
-417.5
 30
700.0
 70
    64
  0
VERTEX
  5
39
  8
TEAM-NET
 10
317.528462
 20
-417.5
 30
700.0
 70
    64
  0
VERTEX
  5
3A
  8
TEAM-NET
 10
277.837404
 20
-417.5
 30
700.0
 70
    64
  0
VERTEX
  5
3B
  8
TEAM-NET
 10
238.146346
 20
-417.5
 30
700.0
 70
    64
  0
VERTEX
  5
3C
  8
TEAM-NET
 10
198.455289
 20
-417.5
 30
700.0
 70
    64
  0
VERTEX
  5
3D
  8
TEAM-NET
 10
158.764231
 20
-417.5
 30
700.0
 70
    64
  0
VERTEX
  5
3E
  8
TEAM-NET
 10
119.073173
 20
-417.5
 30
700.0
 70
    64
  0
VERTEX
  5
3F
  8
TEAM-NET
 10
79.382115
 20
-417.5
 30
700.0
 70
    64
  0
VERTEX
  5
40
  8
TEAM-NET
 10
39.691058
 20
-417.5
 30
700.0
 70
    64
  0
VERTEX
  5
41
  8
TEAM-NET
 10
0.0
 20
-417.5
 30
700.0
 70
    64
  0
VERTEX
  5
42
  8
TEAM-NET
 10
-39.691058
 20
-417.5
 30
700.0
 70
    64
  0
VERTEX
  5
43
  8
TEAM-NET
 10
-79.382115
 20
-417.5
 30
700.0
 70
    64
  0
VERTEX
  5
44
  8
TEAM-NET
 10
-119.073173
 20
-417.5
 30
700.0
 70
    64
  0
VERTEX
  5
45
  8
TEAM-NET
 10
-158.764231
 20
-417.5
 30
700.0
 70
    64
  0
VERTEX
  5
46
  8
TEAM-NET
 10
-198.455289
 20
-417.5
 30
700.0
 70
    64
  0
VERTEX
  5
47
  8
TEAM-NET
 10
-238.146346
 20
-417.5
 30
700.0
 70
    64
  0
VERTEX
  5
48
  8
TEAM-NET
 10
-277.837404
 20
-417.5
 30
700.0
 70
    64
  0
VERTEX
  5
49
  8
TEAM-NET
 10
-317.528462
 20
-417.5
 30
700.0
 70
    64
  0
VERTEX
  5
4A
  8
TEAM-NET
 10
-357.21952
 20
-417.5
 30
700.0
 70
    64
  0
VERTEX
  5
4B
  8
TEAM-NET
 10
-396.910577
 20
-417.5
 30
700.0
 70
    64
  0
VERTEX
  5
4C
  8
TEAM-NET
 10
-436.601635
 20
-417.5
 30
700.0
 70
    64
  0
VERTEX
  5
4D
  8
TEAM-NET
 10
-476.292693
 20
-417.5
 30
700.0
 70
    64
  0
VERTEX
  5
4E
  8
TEAM-NET
 10
-515.983751
 20
-417.5
 30
700.0
 70
    64
  0
VERTEX
  5
4F
  8
TEAM-NET
 10
-555.674808
 20
-417.5
 30
700.0
 70
    64
  0
VERTEX
  5
50
  8
TEAM-NET
 10
-595.365866
 20
-417.5
 30
700.0
 70
    64
  0
VERTEX
  5
51
  8
TEAM-NET
 10
-635.056924
 20
-417.5
 30
700.0
 70
    64
  0
VERTEX
  5
52
  8
TEAM-NET
 10
-674.747982
 20
-417.5
 30
700.0
 70
    64
  0
VERTEX
  5
53
  8
TEAM-NET
 10
-714.439039
 20
-417.5
 30
700.0
 70
    64
  0
VERTEX
  5
54
  8
TEAM-NET
 10
-754.130097
 20
-417.5
 30
700.0
 70
    64
  0
VERTEX
  5
55
  8
TEAM-NET
 10
-793.657705
 20
-415.142204
 30
700.0
 70
    64
  0
VERTEX
  5
56
  8
TEAM-NET
 10
-831.280953
 20
-402.85773
 30
700.0
 70
    64
  0
VERTEX
  5
57
  8
TEAM-NET
 10
-864.447331
 20
-381.261237
 30
700.0
 70
    64
  0
VERTEX
  5
58
  8
TEAM-NET
 10
-890.900233
 20
-351.822128
 30
700.0
 70
    64
  0
VERTEX
  5
59
  8
TEAM-NET
 10
-908.839831
 20
-316.543409
 30
700.0
 70
    64
  0
VERTEX
  5
5A
  8
TEAM-NET
 10
-917.045534
 20
-277.825408
 30
700.0
 70
    64
  0
VERTEX
  5
5B
  8
TEAM-NET
 10
-917.5
 20
-238.146346
 30
700.0
 70
    64
  0
VERTEX
  5
5C
  8
TEAM-NET
 10
-917.5
 20
-198.455289
 30
700.0
 70
    64
  0
VERTEX
  5
5D
  8
TEAM-NET
 10
-917.5
 20
-158.764231
 30
700.0
 70
    64
  0
VERTEX
  5
5E
  8
TEAM-NET
 10
-917.5
 20
-119.073173
 30
700.0
 70
    64
  0
VERTEX
  5
5F
  8
TEAM-NET
 10
-917.5
 20
-79.382115
 30
700.0
 70
    64
  0
VERTEX
  5
60
  8
TEAM-NET
 10
-917.5
 20
-39.691058
 30
700.0
 70
    64
  0
VERTEX
  5
61
  8
TEAM-NET
 10
-917.5
 20
0.0
 30
700.0
 70
    64
  0
VERTEX
  5
62
  8
TEAM-NET
 10
597.5
 20
0.0
 30
220.0
 70
    64
  0
VERTEX
  5
63
  8
TEAM-NET
 10
597.5
 20
-22.610619
 30
220.0
 70
    64
  0
VERTEX
  5
64
  8
TEAM-NET
 10
597.5
 20
-45.221239
 30
220.0
 70
    64
  0
VERTEX
  5
65
  8
TEAM-NET
 10
597.5
 20
-67.831858
 30
220.0
 70
    64
  0
VERTEX
  5
66
  8
TEAM-NET
 10
597.5
 20
-90.442477
 30
220.0
 70
    64
  0
VERTEX
  5
67
  8
TEAM-NET
 10
597.5
 20
-113.053096
 30
220.0
 70
    64
  0
VERTEX
  5
68
  8
TEAM-NET
 10
597.5
 20
-135.663716
 30
220.0
 70
    64
  0
VERTEX
  5
69
  8
TEAM-NET
 10
597.5
 20
-158.274335
 30
220.0
 70
    64
  0
VERTEX
  5
6A
  8
TEAM-NET
 10
597.5
 20
-180.884954
 30
220.0
 70
    64
  0
VERTEX
  5
6B
  8
TEAM-NET
 10
597.140962
 20
-203.481216
 30
220.0
 70
    64
  0
VERTEX
  5
6C
  8
TEAM-NET
 10
589.537649
 20
-224.570945
 30
220.0
 70
    64
  0
VERTEX
  5
6D
  8
TEAM-NET
 10
573.483305
 20
-240.218472
 30
220.0
 70
    64
  0
VERTEX
  5
6E
  8
TEAM-NET
 10
552.205412
 20
-247.278099
 30
220.0
 70
    64
  0
VERTEX
  5
6F
  8
TEAM-NET
 10
529.601766
 20
-247.5
 30
220.0
 70
    64
  0
VERTEX
  5
70
  8
TEAM-NET
 10
506.991147
 20
-247.5
 30
220.0
 70
    64
  0
VERTEX
  5
71
  8
TEAM-NET
 10
484.380527
 20
-247.5
 30
220.0
 70
    64
  0
VERTEX
  5
72
  8
TEAM-NET
 10
461.769908
 20
-247.5
 30
220.0
 70
    64
  0
VERTEX
  5
73
  8
TEAM-NET
 10
439.159289
 20
-247.5
 30
220.0
 70
    64
  0
VERTEX
  5
74
  8
TEAM-NET
 10
416.54867
 20
-247.5
 30
220.0
 70
    64
  0
VERTEX
  5
75
  8
TEAM-NET
 10
393.93805
 20
-247.5
 30
220.0
 70
    64
  0
VERTEX
  5
76
  8
TEAM-NET
 10
371.327431
 20
-247.5
 30
220.0
 70
    64
  0
VERTEX
  5
77
  8
TEAM-NET
 10
348.716812
 20
-247.5
 30
220.0
 70
    64
  0
VERTEX
  5
78
  8
TEAM-NET
 10
326.106193
 20
-247.5
 30
220.0
 70
    64
  0
VERTEX
  5
79
  8
TEAM-NET
 10
303.495573
 20
-247.5
 30
220.0
 70
    64
  0
VERTEX
  5
7A
  8
TEAM-NET
 10
280.884954
 20
-247.5
 30
220.0
 70
    64
  0
VERTEX
  5
7B
  8
TEAM-NET
 10
258.274335
 20
-247.5
 30
220.0
 70
    64
  0
VERTEX
  5
7C
  8
TEAM-NET
 10
235.663716
 20
-247.5
 30
220.0
 70
    64
  0
VERTEX
  5
7D
  8
TEAM-NET
 10
213.053096
 20
-247.5
 30
220.0
 70
    64
  0
VERTEX
  5
7E
  8
TEAM-NET
 10
190.442477
 20
-247.5
 30
220.0
 70
    64
  0
VERTEX
  5
7F
  8
TEAM-NET
 10
167.831858
 20
-247.5
 30
220.0
 70
    64
  0
VERTEX
  5
80
  8
TEAM-NET
 10
145.221239
 20
-247.5
 30
220.0
 70
    64
  0
VERTEX
  5
81
  8
TEAM-NET
 10
122.610619
 20
-247.5
 30
220.0
 70
    64
  0
VERTEX
  5
82
  8
TEAM-NET
 10
100.0
 20
-247.5
 30
220.0
 70
    64
  0
VERTEX
  5
83
  8
TEAM-NET
 10
77.389381
 20
-247.5
 30
220.0
 70
    64
  0
VERTEX
  5
84
  8
TEAM-NET
 10
54.778761
 20
-247.5
 30
220.0
 70
    64
  0
VERTEX
  5
85
  8
TEAM-NET
 10
32.168142
 20
-247.5
 30
220.0
 70
    64
  0
VERTEX
  5
86
  8
TEAM-NET
 10
9.557523
 20
-247.5
 30
220.0
 70
    64
  0
VERTEX
  5
87
  8
TEAM-NET
 10
-13.053096
 20
-247.5
 30
220.0
 70
    64
  0
VERTEX
  5
88
  8
TEAM-NET
 10
-35.663716
 20
-247.5
 30
220.0
 70
    64
  0
VERTEX
  5
89
  8
TEAM-NET
 10
-58.274335
 20
-247.5
 30
220.0
 70
    64
  0
VERTEX
  5
8A
  8
TEAM-NET
 10
-80.884954
 20
-247.5
 30
220.0
 70
    64
  0
VERTEX
  5
8B
  8
TEAM-NET
 10
-103.495573
 20
-247.5
 30
220.0
 70
    64
  0
VERTEX
  5
8C
  8
TEAM-NET
 10
-126.106193
 20
-247.5
 30
220.0
 70
    64
  0
VERTEX
  5
8D
  8
TEAM-NET
 10
-148.716812
 20
-247.5
 30
220.0
 70
    64
  0
VERTEX
  5
8E
  8
TEAM-NET
 10
-171.327431
 20
-247.5
 30
220.0
 70
    64
  0
VERTEX
  5
8F
  8
TEAM-NET
 10
-193.93805
 20
-247.5
 30
220.0
 70
    64
  0
VERTEX
  5
90
  8
TEAM-NET
 10
-216.54867
 20
-247.5
 30
220.0
 70
    64
  0
VERTEX
  5
91
  8
TEAM-NET
 10
-239.159289
 20
-247.5
 30
220.0
 70
    64
  0
VERTEX
  5
92
  8
TEAM-NET
 10
-261.769908
 20
-247.5
 30
220.0
 70
    64
  0
VERTEX
  5
93
  8
TEAM-NET
 10
-284.380527
 20
-247.5
 30
220.0
 70
    64
  0
VERTEX
  5
94
  8
TEAM-NET
 10
-306.991147
 20
-247.5
 30
220.0
 70
    64
  0
VERTEX
  5
95
  8
TEAM-NET
 10
-329.601766
 20
-247.5
 30
220.0
 70
    64
  0
VERTEX
  5
96
  8
TEAM-NET
 10
-352.205412
 20
-247.278099
 30
220.0
 70
    64
  0
VERTEX
  5
97
  8
TEAM-NET
 10
-373.483305
 20
-240.218472
 30
220.0
 70
    64
  0
VERTEX
  5
98
  8
TEAM-NET
 10
-389.537649
 20
-224.570945
 30
220.0
 70
    64
  0
VERTEX
  5
99
  8
TEAM-NET
 10
-397.140962
 20
-203.481216
 30
220.0
 70
    64
  0
VERTEX
  5
9A
  8
TEAM-NET
 10
-397.5
 20
-180.884954
 30
220.0
 70
    64
  0
VERTEX
  5
9B
  8
TEAM-NET
 10
-397.5
 20
-158.274335
 30
220.0
 70
    64
  0
VERTEX
  5
9C
  8
TEAM-NET
 10
-397.5
 20
-135.663716
 30
220.0
 70
    64
  0
VERTEX
  5
9D
  8
TEAM-NET
 10
-397.5
 20
-113.053096
 30
220.0
 70
    64
  0
VERTEX
  5
9E
  8
TEAM-NET
 10
-397.5
 20
-90.442477
 30
220.0
 70
    64
  0
VERTEX
  5
9F
  8
TEAM-NET
 10
-397.5
 20
-67.831858
 30
220.0
 70
    64
  0
VERTEX
  5
A0
  8
TEAM-NET
 10
-397.5
 20
-45.221239
 30
220.0
 70
    64
  0
VERTEX
  5
A1
  8
TEAM-NET
 10
-397.5
 20
-22.610619
 30
220.0
 70
    64
  0
VERTEX
  5
A2
  8
TEAM-NET
 10
-397.5
 20
0.0
 30
220.0
 70
    64
  0
SEQEND
  5
A4
  8
TEAM-NET
  0
POLYLINE
  5
A5
  8
TEAM-NET
 66
     1
 10
0.0
 20
0.0
 30
0.0
 70
    16
 71
     2
 72
    65
  0
VERTEX
  5
A6
  8
TEAM-NET
 10
597.5
 20
0.0
 30
220.0
 70
    64
  0
VERTEX
  5
A7
  8
TEAM-NET
 10
597.5
 20
22.425602
 30
220.0
 70
    64
  0
VERTEX
  5
A8
  8
TEAM-NET
 10
597.5
 20
44.851205
 30
220.0
 70
    64
  0
VERTEX
  5
A9
  8
TEAM-NET
 10
597.5
 20
67.276807
 30
220.0
 70
    64
  0
VERTEX
  5
AA
  8
TEAM-NET
 10
597.5
 20
89.70241
 30
220.0
 70
    64
  0
VERTEX
  5
AB
  8
TEAM-NET
 10
597.5
 20
112.128012
 30
220.0
 70
    64
  0
VERTEX
  5
AC
  8
TEAM-NET
 10
597.5
 20
134.553614
 30
220.0
 70
    64
  0
VERTEX
  5
AD
  8
TEAM-NET
 10
597.5
 20
156.979217
 30
220.0
 70
    64
  0
VERTEX
  5
AE
  8
TEAM-NET
 10
597.5
 20
179.404819
 30
220.0
 70
    64
  0
VERTEX
  5
AF
  8
TEAM-NET
 10
597.114397
 20
201.811323
 30
220.0
 70
    64
  0
VERTEX
  5
B0
  8
TEAM-NET
 10
588.374544
 20
222.179511
 30
220.0
 70
    64
  0
VERTEX
  5
B1
  8
TEAM-NET
 10
570.537854
 20
235.336283
 30
220.0
 70
    64
  0
VERTEX
  5
B2
  8
TEAM-NET
 10
548.497209
 20
237.672533
 30
220.0
 70
    64
  0
VERTEX
  5
B3
  8
TEAM-NET
 10
526.086446
 20
237.5
 30
220.0
 70
    64
  0
VERTEX
  5
B4
  8
TEAM-NET
 10
503.660843
 20
237.5
 30
220.0
 70
    64
  0
VERTEX
  5
B5
  8
TEAM-NET
 10
481.235241
 20
237.5
 30
220.0
 70
    64
  0
VERTEX
  5
B6
  8
TEAM-NET
 10
458.809639
 20
237.5
 30
220.0
 70
    64
  0
VERTEX
  5
B7
  8
TEAM-NET
 10
436.384036
 20
237.5
 30
220.0
 70
    64
  0
VERTEX
  5
B8
  8
TEAM-NET
 10
413.958434
 20
237.5
 30
220.0
 70
    64
  0
VERTEX
  5
B9
  8
TEAM-NET
 10
391.532831
 20
237.5
 30
220.0
 70
    64
  0
VERTEX
  5
BA
  8
TEAM-NET
 10
369.107229
 20
237.5
 30
220.0
 70
    64
  0
VERTEX
  5
BB
  8
TEAM-NET
 10
346.681627
 20
237.5
 30
220.0
 70
    64
  0
VERTEX
  5
BC
  8
TEAM-NET
 10
324.256024
 20
237.5
 30
220.0
 70
    64
  0
VERTEX
  5
BD
  8
TEAM-NET
 10
301.830422
 20
237.5
 30
220.0
 70
    64
  0
VERTEX
  5
BE
  8
TEAM-NET
 10
279.404819
 20
237.5
 30
220.0
 70
    64
  0
VERTEX
  5
BF
  8
TEAM-NET
 10
256.979217
 20
237.5
 30
220.0
 70
    64
  0
VERTEX
  5
C0
  8
TEAM-NET
 10
234.553614
 20
237.5
 30
220.0
 70
    64
  0
VERTEX
  5
C1
  8
TEAM-NET
 10
212.128012
 20
237.5
 30
220.0
 70
    64
  0
VERTEX
  5
C2
  8
TEAM-NET
 10
189.70241
 20
237.5
 30
220.0
 70
    64
  0
VERTEX
  5
C3
  8
TEAM-NET
 10
167.276807
 20
237.5
 30
220.0
 70
    64
  0
VERTEX
  5
C4
  8
TEAM-NET
 10
144.851205
 20
237.5
 30
220.0
 70
    64
  0
VERTEX
  5
C5
  8
TEAM-NET
 10
122.425602
 20
237.5
 30
220.0
 70
    64
  0
VERTEX
  5
C6
  8
TEAM-NET
 10
100.0
 20
237.5
 30
220.0
 70
    64
  0
VERTEX
  5
C7
  8
TEAM-NET
 10
77.574398
 20
237.5
 30
220.0
 70
    64
  0
VERTEX
  5
C8
  8
TEAM-NET
 10
55.148795
 20
237.5
 30
220.0
 70
    64
  0
VERTEX
  5
C9
  8
TEAM-NET
 10
32.723193
 20
237.5
 30
220.0
 70
    64
  0
VERTEX
  5
CA
  8
TEAM-NET
 10
10.29759
 20
237.5
 30
220.0
 70
    64
  0
VERTEX
  5
CB
  8
TEAM-NET
 10
-12.128012
 20
237.5
 30
220.0
 70
    64
  0
VERTEX
  5
CC
  8
TEAM-NET
 10
-34.553614
 20
237.5
 30
220.0
 70
    64
  0
VERTEX
  5
CD
  8
TEAM-NET
 10
-56.979217
 20
237.5
 30
220.0
 70
    64
  0
VERTEX
  5
CE
  8
TEAM-NET
 10
-79.404819
 20
237.5
 30
220.0
 70
    64
  0
VERTEX
  5
CF
  8
TEAM-NET
 10
-101.830422
 20
237.5
 30
220.0
 70
    64
  0
VERTEX
  5
D0
  8
TEAM-NET
 10
-124.256024
 20
237.5
 30
220.0
 70
    64
  0
VERTEX
  5
D1
  8
TEAM-NET
 10
-146.681627
 20
237.5
 30
220.0
 70
    64
  0
VERTEX
  5
D2
  8
TEAM-NET
 10
-169.107229
 20
237.5
 30
220.0
 70
    64
  0
VERTEX
  5
D3
  8
TEAM-NET
 10
-191.532831
 20
237.5
 30
220.0
 70
    64
  0
VERTEX
  5
D4
  8
TEAM-NET
 10
-213.958434
 20
237.5
 30
220.0
 70
    64
  0
VERTEX
  5
D5
  8
TEAM-NET
 10
-236.384036
 20
237.5
 30
220.0
 70
    64
  0
VERTEX
  5
D6
  8
TEAM-NET
 10
-258.809639
 20
237.5
 30
220.0
 70
    64
  0
VERTEX
  5
D7
  8
TEAM-NET
 10
-281.235241
 20
237.5
 30
220.0
 70
    64
  0
VERTEX
  5
D8
  8
TEAM-NET
 10
-303.660843
 20
237.5
 30
220.0
 70
    64
  0
VERTEX
  5
D9
  8
TEAM-NET
 10
-326.086446
 20
237.5
 30
220.0
 70
    64
  0
VERTEX
  5
DA
  8
TEAM-NET
 10
-348.497209
 20
237.672533
 30
220.0
 70
    64
  0
VERTEX
  5
DB
  8
TEAM-NET
 10
-370.537854
 20
235.336283
 30
220.0
 70
    64
  0
VERTEX
  5
DC
  8
TEAM-NET
 10
-388.374544
 20
222.179511
 30
220.0
 70
    64
  0
VERTEX
  5
DD
  8
TEAM-NET
 10
-397.114397
 20
201.811323
 30
220.0
 70
    64
  0
VERTEX
  5
DE
  8
TEAM-NET
 10
-397.5
 20
179.404819
 30
220.0
 70
    64
  0
VERTEX
  5
DF
  8
TEAM-NET
 10
-397.5
 20
156.979217
 30
220.0
 70
    64
  0
VERTEX
  5
E0
  8
TEAM-NET
 10
-397.5
 20
134.553614
 30
220.0
 70
    64
  0
VERTEX
  5
E1
  8
TEAM-NET
 10
-397.5
 20
112.128012
 30
220.0
 70
    64
  0
VERTEX
  5
E2
  8
TEAM-NET
 10
-397.5
 20
89.70241
 30
220.0
 70
    64
  0
VERTEX
  5
E3
  8
TEAM-NET
 10
-397.5
 20
67.276807
 30
220.0
 70
    64
  0
VERTEX
  5
E4
  8
TEAM-NET
 10
-397.5
 20
44.851205
 30
220.0
 70
    64
  0
VERTEX
  5
E5
  8
TEAM-NET
 10
-397.5
 20
22.425602
 30
220.0
 70
    64
  0
VERTEX
  5
E6
  8
TEAM-NET
 10
-397.5
 20
0.0
 30
220.0
 70
    64
  0
VERTEX
  5
E7
  8
TEAM-NET
 10
917.5
 20
0.0
 30
700.0
 70
    64
  0
VERTEX
  5
E8
  8
TEAM-NET
 10
917.5
 20
39.572732
 30
700.0
 70
    64
  0
VERTEX
  5
E9
  8
TEAM-NET
 10
917.5
 20
79.145463
 30
700.0
 70
    64
  0
VERTEX
  5
EA
  8
TEAM-NET
 10
917.5
 20
118.718195
 30
700.0
 70
    64
  0
VERTEX
  5
EB
  8
TEAM-NET
 10
917.5
 20
158.290927
 30
700.0
 70
    64
  0
VERTEX
  5
EC
  8
TEAM-NET
 10
917.5
 20
197.863658
 30
700.0
 70
    64
  0
VERTEX
  5
ED
  8
TEAM-NET
 10
917.5
 20
237.43639
 30
700.0
 70
    64
  0
VERTEX
  5
EE
  8
TEAM-NET
 10
916.31208
 20
276.960816
 30
700.0
 70
    64
  0
VERTEX
  5
EF
  8
TEAM-NET
 10
906.715058
 20
315.248302
 30
700.0
 70
    64
  0
VERTEX
  5
F0
  8
TEAM-NET
 10
888.036701
 20
350.021185
 30
700.0
 70
    64
  0
VERTEX
  5
F1
  8
TEAM-NET
 10
861.413787
 20
379.163162
 30
700.0
 70
    64
  0
VERTEX
  5
F2
  8
TEAM-NET
 10
828.466604
 20
400.900631
 30
700.0
 70
    64
  0
VERTEX
  5
F3
  8
TEAM-NET
 10
791.200343
 20
413.910635
 30
700.0
 70
    64
  0
VERTEX
  5
F4
  8
TEAM-NET
 10
751.881901
 20
417.5
 30
700.0
 70
    64
  0
VERTEX
  5
F5
  8
TEAM-NET
 10
712.309169
 20
417.5
 30
700.0
 70
    64
  0
VERTEX
  5
F6
  8
TEAM-NET
 10
672.736438
 20
417.5
 30
700.0
 70
    64
  0
VERTEX
  5
F7
  8
TEAM-NET
 10
633.163706
 20
417.5
 30
700.0
 70
    64
  0
VERTEX
  5
F8
  8
TEAM-NET
 10
593.590975
 20
417.5
 30
700.0
 70
    64
  0
VERTEX
  5
F9
  8
TEAM-NET
 10
554.018243
 20
417.5
 30
700.0
 70
    64
  0
VERTEX
  5
FA
  8
TEAM-NET
 10
514.445511
 20
417.5
 30
700.0
 70
    64
  0
VERTEX
  5
FB
  8
TEAM-NET
 10
474.87278
 20
417.5
 30
700.0
 70
    64
  0
VERTEX
  5
FC
  8
TEAM-NET
 10
435.300048
 20
417.5
 30
700.0
 70
    64
  0
VERTEX
  5
FD
  8
TEAM-NET
 10
395.727316
 20
417.5
 30
700.0
 70
    64
  0
VERTEX
  5
FE
  8
TEAM-NET
 10
356.154585
 20
417.5
 30
700.0
 70
    64
  0
VERTEX
  5
FF
  8
TEAM-NET
 10
316.581853
 20
417.5
 30
700.0
 70
    64
  0
VERTEX
  5
100
  8
TEAM-NET
 10
277.009121
 20
417.5
 30
700.0
 70
    64
  0
VERTEX
  5
101
  8
TEAM-NET
 10
237.43639
 20
417.5
 30
700.0
 70
    64
  0
VERTEX
  5
102
  8
TEAM-NET
 10
197.863658
 20
417.5
 30
700.0
 70
    64
  0
VERTEX
  5
103
  8
TEAM-NET
 10
158.290927
 20
417.5
 30
700.0
 70
    64
  0
VERTEX
  5
104
  8
TEAM-NET
 10
118.718195
 20
417.5
 30
700.0
 70
    64
  0
VERTEX
  5
105
  8
TEAM-NET
 10
79.145463
 20
417.5
 30
700.0
 70
    64
  0
VERTEX
  5
106
  8
TEAM-NET
 10
39.572732
 20
417.5
 30
700.0
 70
    64
  0
VERTEX
  5
107
  8
TEAM-NET
 10
0.0
 20
417.5
 30
700.0
 70
    64
  0
VERTEX
  5
108
  8
TEAM-NET
 10
-39.572732
 20
417.5
 30
700.0
 70
    64
  0
VERTEX
  5
109
  8
TEAM-NET
 10
-79.145463
 20
417.5
 30
700.0
 70
    64
  0
VERTEX
  5
10A
  8
TEAM-NET
 10
-118.718195
 20
417.5
 30
700.0
 70
    64
  0
VERTEX
  5
10B
  8
TEAM-NET
 10
-158.290927
 20
417.5
 30
700.0
 70
    64
  0
VERTEX
  5
10C
  8
TEAM-NET
 10
-197.863658
 20
417.5
 30
700.0
 70
    64
  0
VERTEX
  5
10D
  8
TEAM-NET
 10
-237.43639
 20
417.5
 30
700.0
 70
    64
  0
VERTEX
  5
10E
  8
TEAM-NET
 10
-277.009121
 20
417.5
 30
700.0
 70
    64
  0
VERTEX
  5
10F
  8
TEAM-NET
 10
-316.581853
 20
417.5
 30
700.0
 70
    64
  0
VERTEX
  5
110
  8
TEAM-NET
 10
-356.154585
 20
417.5
 30
700.0
 70
    64
  0
VERTEX
  5
111
  8
TEAM-NET
 10
-395.727316
 20
417.5
 30
700.0
 70
    64
  0
VERTEX
  5
112
  8
TEAM-NET
 10
-435.300048
 20
417.5
 30
700.0
 70
    64
  0
VERTEX
  5
113
  8
TEAM-NET
 10
-474.87278
 20
417.5
 30
700.0
 70
    64
  0
VERTEX
  5
114
  8
TEAM-NET
 10
-514.445511
 20
417.5
 30
700.0
 70
    64
  0
VERTEX
  5
115
  8
TEAM-NET
 10
-554.018243
 20
417.5
 30
700.0
 70
    64
  0
VERTEX
  5
116
  8
TEAM-NET
 10
-593.590975
 20
417.5
 30
700.0
 70
    64
  0
VERTEX
  5
117
  8
TEAM-NET
 10
-633.163706
 20
417.5
 30
700.0
 70
    64
  0
VERTEX
  5
118
  8
TEAM-NET
 10
-672.736438
 20
417.5
 30
700.0
 70
    64
  0
VERTEX
  5
119
  8
TEAM-NET
 10
-712.309169
 20
417.5
 30
700.0
 70
    64
  0
VERTEX
  5
11A
  8
TEAM-NET
 10
-751.881901
 20
417.5
 30
700.0
 70
    64
  0
VERTEX
  5
11B
  8
TEAM-NET
 10
-791.200343
 20
413.910635
 30
700.0
 70
    64
  0
VERTEX
  5
11C
  8
TEAM-NET
 10
-828.466604
 20
400.900631
 30
700.0
 70
    64
  0
VERTEX
  5
11D
  8
TEAM-NET
 10
-861.413787
 20
379.163162
 30
700.0
 70
    64
  0
VERTEX
  5
11E
  8
TEAM-NET
 10
-888.036701
 20
350.021185
 30
700.0
 70
    64
  0
VERTEX
  5
11F
  8
TEAM-NET
 10
-906.715058
 20
315.248302
 30
700.0
 70
    64
  0
VERTEX
  5
120
  8
TEAM-NET
 10
-916.31208
 20
276.960816
 30
700.0
 70
    64
  0
VERTEX
  5
121
  8
TEAM-NET
 10
-917.5
 20
237.43639
 30
700.0
 70
    64
  0
VERTEX
  5
122
  8
TEAM-NET
 10
-917.5
 20
197.863658
 30
700.0
 70
    64
  0
VERTEX
  5
123
  8
TEAM-NET
 10
-917.5
 20
158.290927
 30
700.0
 70
    64
  0
VERTEX
  5
124
  8
TEAM-NET
 10
-917.5
 20
118.718195
 30
700.0
 70
    64
  0
VERTEX
  5
125
  8
TEAM-NET
 10
-917.5
 20
79.145463
 30
700.0
 70
    64
  0
VERTEX
  5
126
  8
TEAM-NET
 10
-917.5
 20
39.572732
 30
700.0
 70
    64
  0
VERTEX
  5
127
  8
TEAM-NET
 10
-917.5
 20
0.0
 30
700.0
 70
    64
  0
SEQEND
  5
128
  8
TEAM-NET
  0
CIRCLE
  5
129
  8
TEAM-INSP
 10
0.0
 20
0.0
 30
0.0
 40
10.0
  0
POLYLINE
  5
12B
  8
TEAM-BODY
 66
     1
 10
0.0
 20
0.0
 30
220.0
  0
VERTEX
  5
48B
  8
TEAM-BODY
 10
597.5
 20
0.0
 30
220.0
  0
VERTEX
  5
48C
  8
TEAM-BODY
 10
597.5
 20
197.5
 30
220.0
 42
0.457422
  0
VERTEX
  5
48D
  8
TEAM-BODY
 10
547.5
 20
237.5
 30
220.0
  0
VERTEX
  5
48E
  8
TEAM-BODY
 10
-347.5
 20
237.5
 30
220.0
 42
0.457422
  0
VERTEX
  5
48F
  8
TEAM-BODY
 10
-397.5
 20
197.5
 30
220.0
  0
VERTEX
  5
490
  8
TEAM-BODY
 10
-397.5
 20
0.0
 30
220.0
  0
SEQEND
  5
491
  8
TEAM-BODY
  0
POLYLINE
  5
12D
  8
TEAM-NET
 66
     1
 10
0.0
 20
0.0
 30
0.0
 70
    16
 71
     2
 72
    65
  0
VERTEX
  5
12E
  8
TEAM-NET
 10
597.5
 20
0.0
 30
220.0
 70
    64
  0
VERTEX
  5
12F
  8
TEAM-NET
 10
597.5
 20
-22.610619
 30
220.0
 70
    64
  0
VERTEX
  5
130
  8
TEAM-NET
 10
597.5
 20
-45.221239
 30
220.0
 70
    64
  0
VERTEX
  5
131
  8
TEAM-NET
 10
597.5
 20
-67.831858
 30
220.0
 70
    64
  0
VERTEX
  5
132
  8
TEAM-NET
 10
597.5
 20
-90.442477
 30
220.0
 70
    64
  0
VERTEX
  5
133
  8
TEAM-NET
 10
597.5
 20
-113.053096
 30
220.0
 70
    64
  0
VERTEX
  5
134
  8
TEAM-NET
 10
597.5
 20
-135.663716
 30
220.0
 70
    64
  0
VERTEX
  5
135
  8
TEAM-NET
 10
597.5
 20
-158.274335
 30
220.0
 70
    64
  0
VERTEX
  5
136
  8
TEAM-NET
 10
597.5
 20
-180.884954
 30
220.0
 70
    64
  0
VERTEX
  5
137
  8
TEAM-NET
 10
597.140962
 20
-203.481216
 30
220.0
 70
    64
  0
VERTEX
  5
138
  8
TEAM-NET
 10
589.537649
 20
-224.570945
 30
220.0
 70
    64
  0
VERTEX
  5
139
  8
TEAM-NET
 10
573.483305
 20
-240.218472
 30
220.0
 70
    64
  0
VERTEX
  5
13A
  8
TEAM-NET
 10
552.205412
 20
-247.278099
 30
220.0
 70
    64
  0
VERTEX
  5
13B
  8
TEAM-NET
 10
529.601766
 20
-247.5
 30
220.0
 70
    64
  0
VERTEX
  5
13C
  8
TEAM-NET
 10
506.991147
 20
-247.5
 30
220.0
 70
    64
  0
VERTEX
  5
13D
  8
TEAM-NET
 10
484.380527
 20
-247.5
 30
220.0
 70
    64
  0
VERTEX
  5
13E
  8
TEAM-NET
 10
461.769908
 20
-247.5
 30
220.0
 70
    64
  0
VERTEX
  5
13F
  8
TEAM-NET
 10
439.159289
 20
-247.5
 30
220.0
 70
    64
  0
VERTEX
  5
140
  8
TEAM-NET
 10
416.54867
 20
-247.5
 30
220.0
 70
    64
  0
VERTEX
  5
141
  8
TEAM-NET
 10
393.93805
 20
-247.5
 30
220.0
 70
    64
  0
VERTEX
  5
142
  8
TEAM-NET
 10
371.327431
 20
-247.5
 30
220.0
 70
    64
  0
VERTEX
  5
143
  8
TEAM-NET
 10
348.716812
 20
-247.5
 30
220.0
 70
    64
  0
VERTEX
  5
144
  8
TEAM-NET
 10
326.106193
 20
-247.5
 30
220.0
 70
    64
  0
VERTEX
  5
145
  8
TEAM-NET
 10
303.495573
 20
-247.5
 30
220.0
 70
    64
  0
VERTEX
  5
146
  8
TEAM-NET
 10
280.884954
 20
-247.5
 30
220.0
 70
    64
  0
VERTEX
  5
147
  8
TEAM-NET
 10
258.274335
 20
-247.5
 30
220.0
 70
    64
  0
VERTEX
  5
148
  8
TEAM-NET
 10
235.663716
 20
-247.5
 30
220.0
 70
    64
  0
VERTEX
  5
149
  8
TEAM-NET
 10
213.053096
 20
-247.5
 30
220.0
 70
    64
  0
VERTEX
  5
14A
  8
TEAM-NET
 10
190.442477
 20
-247.5
 30
220.0
 70
    64
  0
VERTEX
  5
14B
  8
TEAM-NET
 10
167.831858
 20
-247.5
 30
220.0
 70
    64
  0
VERTEX
  5
14C
  8
TEAM-NET
 10
145.221239
 20
-247.5
 30
220.0
 70
    64
  0
VERTEX
  5
14D
  8
TEAM-NET
 10
122.610619
 20
-247.5
 30
220.0
 70
    64
  0
VERTEX
  5
14E
  8
TEAM-NET
 10
100.0
 20
-247.5
 30
220.0
 70
    64
  0
VERTEX
  5
14F
  8
TEAM-NET
 10
77.389381
 20
-247.5
 30
220.0
 70
    64
  0
VERTEX
  5
150
  8
TEAM-NET
 10
54.778761
 20
-247.5
 30
220.0
 70
    64
  0
VERTEX
  5
151
  8
TEAM-NET
 10
32.168142
 20
-247.5
 30
220.0
 70
    64
  0
VERTEX
  5
152
  8
TEAM-NET
 10
9.557523
 20
-247.5
 30
220.0
 70
    64
  0
VERTEX
  5
153
  8
TEAM-NET
 10
-13.053096
 20
-247.5
 30
220.0
 70
    64
  0
VERTEX
  5
154
  8
TEAM-NET
 10
-35.663716
 20
-247.5
 30
220.0
 70
    64
  0
VERTEX
  5
155
  8
TEAM-NET
 10
-58.274335
 20
-247.5
 30
220.0
 70
    64
  0
VERTEX
  5
156
  8
TEAM-NET
 10
-80.884954
 20
-247.5
 30
220.0
 70
    64
  0
VERTEX
  5
157
  8
TEAM-NET
 10
-103.495573
 20
-247.5
 30
220.0
 70
    64
  0
VERTEX
  5
158
  8
TEAM-NET
 10
-126.106193
 20
-247.5
 30
220.0
 70
    64
  0
VERTEX
  5
159
  8
TEAM-NET
 10
-148.716812
 20
-247.5
 30
220.0
 70
    64
  0
VERTEX
  5
15A
  8
TEAM-NET
 10
-171.327431
 20
-247.5
 30
220.0
 70
    64
  0
VERTEX
  5
15B
  8
TEAM-NET
 10
-193.93805
 20
-247.5
 30
220.0
 70
    64
  0
VERTEX
  5
15C
  8
TEAM-NET
 10
-216.54867
 20
-247.5
 30
220.0
 70
    64
  0
VERTEX
  5
15D
  8
TEAM-NET
 10
-239.159289
 20
-247.5
 30
220.0
 70
    64
  0
VERTEX
  5
15E
  8
TEAM-NET
 10
-261.769908
 20
-247.5
 30
220.0
 70
    64
  0
VERTEX
  5
15F
  8
TEAM-NET
 10
-284.380527
 20
-247.5
 30
220.0
 70
    64
  0
VERTEX
  5
160
  8
TEAM-NET
 10
-306.991147
 20
-247.5
 30
220.0
 70
    64
  0
VERTEX
  5
161
  8
TEAM-NET
 10
-329.601766
 20
-247.5
 30
220.0
 70
    64
  0
VERTEX
  5
162
  8
TEAM-NET
 10
-352.205412
 20
-247.278099
 30
220.0
 70
    64
  0
VERTEX
  5
163
  8
TEAM-NET
 10
-373.483305
 20
-240.218472
 30
220.0
 70
    64
  0
VERTEX
  5
164
  8
TEAM-NET
 10
-389.537649
 20
-224.570945
 30
220.0
 70
    64
  0
VERTEX
  5
165
  8
TEAM-NET
 10
-397.140962
 20
-203.481216
 30
220.0
 70
    64
  0
VERTEX
  5
166
  8
TEAM-NET
 10
-397.5
 20
-180.884954
 30
220.0
 70
    64
  0
VERTEX
  5
167
  8
TEAM-NET
 10
-397.5
 20
-158.274335
 30
220.0
 70
    64
  0
VERTEX
  5
168
  8
TEAM-NET
 10
-397.5
 20
-135.663716
 30
220.0
 70
    64
  0
VERTEX
  5
169
  8
TEAM-NET
 10
-397.5
 20
-113.053096
 30
220.0
 70
    64
  0
VERTEX
  5
16A
  8
TEAM-NET
 10
-397.5
 20
-90.442477
 30
220.0
 70
    64
  0
VERTEX
  5
16B
  8
TEAM-NET
 10
-397.5
 20
-67.831858
 30
220.0
 70
    64
  0
VERTEX
  5
16C
  8
TEAM-NET
 10
-397.5
 20
-45.221239
 30
220.0
 70
    64
  0
VERTEX
  5
16D
  8
TEAM-NET
 10
-397.5
 20
-22.610619
 30
220.0
 70
    64
  0
VERTEX
  5
16E
  8
TEAM-NET
 10
-397.5
 20
0.0
 30
220.0
 70
    64
  0
VERTEX
  5
16F
  8
TEAM-NET
 10
597.5
 20
0.0
 30
220.0
 70
    64
  0
VERTEX
  5
170
  8
TEAM-NET
 10
597.5
 20
22.425602
 30
220.0
 70
    64
  0
VERTEX
  5
171
  8
TEAM-NET
 10
597.5
 20
44.851205
 30
220.0
 70
    64
  0
VERTEX
  5
172
  8
TEAM-NET
 10
597.5
 20
67.276807
 30
220.0
 70
    64
  0
VERTEX
  5
173
  8
TEAM-NET
 10
597.5
 20
89.70241
 30
220.0
 70
    64
  0
VERTEX
  5
174
  8
TEAM-NET
 10
597.5
 20
112.128012
 30
220.0
 70
    64
  0
VERTEX
  5
175
  8
TEAM-NET
 10
597.5
 20
134.553614
 30
220.0
 70
    64
  0
VERTEX
  5
176
  8
TEAM-NET
 10
597.5
 20
156.979217
 30
220.0
 70
    64
  0
VERTEX
  5
177
  8
TEAM-NET
 10
597.5
 20
179.404819
 30
220.0
 70
    64
  0
VERTEX
  5
178
  8
TEAM-NET
 10
597.114397
 20
201.811323
 30
220.0
 70
    64
  0
VERTEX
  5
179
  8
TEAM-NET
 10
588.374544
 20
222.179511
 30
220.0
 70
    64
  0
VERTEX
  5
17A
  8
TEAM-NET
 10
570.537854
 20
235.336283
 30
220.0
 70
    64
  0
VERTEX
  5
17B
  8
TEAM-NET
 10
548.497209
 20
237.672533
 30
220.0
 70
    64
  0
VERTEX
  5
17C
  8
TEAM-NET
 10
526.086446
 20
237.5
 30
220.0
 70
    64
  0
VERTEX
  5
17D
  8
TEAM-NET
 10
503.660843
 20
237.5
 30
220.0
 70
    64
  0
VERTEX
  5
17E
  8
TEAM-NET
 10
481.235241
 20
237.5
 30
220.0
 70
    64
  0
VERTEX
  5
17F
  8
TEAM-NET
 10
458.809639
 20
237.5
 30
220.0
 70
    64
  0
VERTEX
  5
180
  8
TEAM-NET
 10
436.384036
 20
237.5
 30
220.0
 70
    64
  0
VERTEX
  5
181
  8
TEAM-NET
 10
413.958434
 20
237.5
 30
220.0
 70
    64
  0
VERTEX
  5
182
  8
TEAM-NET
 10
391.532831
 20
237.5
 30
220.0
 70
    64
  0
VERTEX
  5
183
  8
TEAM-NET
 10
369.107229
 20
237.5
 30
220.0
 70
    64
  0
VERTEX
  5
184
  8
TEAM-NET
 10
346.681627
 20
237.5
 30
220.0
 70
    64
  0
VERTEX
  5
185
  8
TEAM-NET
 10
324.256024
 20
237.5
 30
220.0
 70
    64
  0
VERTEX
  5
186
  8
TEAM-NET
 10
301.830422
 20
237.5
 30
220.0
 70
    64
  0
VERTEX
  5
187
  8
TEAM-NET
 10
279.404819
 20
237.5
 30
220.0
 70
    64
  0
VERTEX
  5
188
  8
TEAM-NET
 10
256.979217
 20
237.5
 30
220.0
 70
    64
  0
VERTEX
  5
189
  8
TEAM-NET
 10
234.553614
 20
237.5
 30
220.0
 70
    64
  0
VERTEX
  5
18A
  8
TEAM-NET
 10
212.128012
 20
237.5
 30
220.0
 70
    64
  0
VERTEX
  5
18B
  8
TEAM-NET
 10
189.70241
 20
237.5
 30
220.0
 70
    64
  0
VERTEX
  5
18C
  8
TEAM-NET
 10
167.276807
 20
237.5
 30
220.0
 70
    64
  0
VERTEX
  5
18D
  8
TEAM-NET
 10
144.851205
 20
237.5
 30
220.0
 70
    64
  0
VERTEX
  5
18E
  8
TEAM-NET
 10
122.425602
 20
237.5
 30
220.0
 70
    64
  0
VERTEX
  5
18F
  8
TEAM-NET
 10
100.0
 20
237.5
 30
220.0
 70
    64
  0
VERTEX
  5
190
  8
TEAM-NET
 10
77.574398
 20
237.5
 30
220.0
 70
    64
  0
VERTEX
  5
191
  8
TEAM-NET
 10
55.148795
 20
237.5
 30
220.0
 70
    64
  0
VERTEX
  5
192
  8
TEAM-NET
 10
32.723193
 20
237.5
 30
220.0
 70
    64
  0
VERTEX
  5
193
  8
TEAM-NET
 10
10.29759
 20
237.5
 30
220.0
 70
    64
  0
VERTEX
  5
194
  8
TEAM-NET
 10
-12.128012
 20
237.5
 30
220.0
 70
    64
  0
VERTEX
  5
195
  8
TEAM-NET
 10
-34.553614
 20
237.5
 30
220.0
 70
    64
  0
VERTEX
  5
196
  8
TEAM-NET
 10
-56.979217
 20
237.5
 30
220.0
 70
    64
  0
VERTEX
  5
197
  8
TEAM-NET
 10
-79.404819
 20
237.5
 30
220.0
 70
    64
  0
VERTEX
  5
198
  8
TEAM-NET
 10
-101.830422
 20
237.5
 30
220.0
 70
    64
  0
VERTEX
  5
199
  8
TEAM-NET
 10
-124.256024
 20
237.5
 30
220.0
 70
    64
  0
VERTEX
  5
19A
  8
TEAM-NET
 10
-146.681627
 20
237.5
 30
220.0
 70
    64
  0
VERTEX
  5
19B
  8
TEAM-NET
 10
-169.107229
 20
237.5
 30
220.0
 70
    64
  0
VERTEX
  5
19C
  8
TEAM-NET
 10
-191.532831
 20
237.5
 30
220.0
 70
    64
  0
VERTEX
  5
19D
  8
TEAM-NET
 10
-213.958434
 20
237.5
 30
220.0
 70
    64
  0
VERTEX
  5
19E
  8
TEAM-NET
 10
-236.384036
 20
237.5
 30
220.0
 70
    64
  0
VERTEX
  5
19F
  8
TEAM-NET
 10
-258.809639
 20
237.5
 30
220.0
 70
    64
  0
VERTEX
  5
1A0
  8
TEAM-NET
 10
-281.235241
 20
237.5
 30
220.0
 70
    64
  0
VERTEX
  5
1A1
  8
TEAM-NET
 10
-303.660843
 20
237.5
 30
220.0
 70
    64
  0
VERTEX
  5
1A2
  8
TEAM-NET
 10
-326.086446
 20
237.5
 30
220.0
 70
    64
  0
VERTEX
  5
1A3
  8
TEAM-NET
 10
-348.497209
 20
237.672533
 30
220.0
 70
    64
  0
VERTEX
  5
1A4
  8
TEAM-NET
 10
-370.537854
 20
235.336283
 30
220.0
 70
    64
  0
VERTEX
  5
1A5
  8
TEAM-NET
 10
-388.374544
 20
222.179511
 30
220.0
 70
    64
  0
VERTEX
  5
1A6
  8
TEAM-NET
 10
-397.114397
 20
201.811323
 30
220.0
 70
    64
  0
VERTEX
  5
1A7
  8
TEAM-NET
 10
-397.5
 20
179.404819
 30
220.0
 70
    64
  0
VERTEX
  5
1A8
  8
TEAM-NET
 10
-397.5
 20
156.979217
 30
220.0
 70
    64
  0
VERTEX
  5
1A9
  8
TEAM-NET
 10
-397.5
 20
134.553614
 30
220.0
 70
    64
  0
VERTEX
  5
1AA
  8
TEAM-NET
 10
-397.5
 20
112.128012
 30
220.0
 70
    64
  0
VERTEX
  5
1AB
  8
TEAM-NET
 10
-397.5
 20
89.70241
 30
220.0
 70
    64
  0
VERTEX
  5
1AC
  8
TEAM-NET
 10
-397.5
 20
67.276807
 30
220.0
 70
    64
  0
VERTEX
  5
1AD
  8
TEAM-NET
 10
-397.5
 20
44.851205
 30
220.0
 70
    64
  0
VERTEX
  5
1AE
  8
TEAM-NET
 10
-397.5
 20
22.425602
 30
220.0
 70
    64
  0
VERTEX
  5
1AF
  8
TEAM-NET
 10
-397.5
 20
0.0
 30
220.0
 70
    64
  0
SEQEND
  5
1B0
  8
TEAM-NET
  0
POLYLINE
  5
1B1
  8
TEAM-NET
 66
     1
 10
0.0
 20
0.0
 30
0.0
 70
    16
 71
     2
 72
    13
  0
VERTEX
  5
1B2
  8
TEAM-NET
 10
119.9
 20
-85.1
 30
220.0
 70
    64
  0
VERTEX
  5
1B3
  8
TEAM-NET
 10
94.9
 20
-85.1
 30
220.0
 70
    64
  0
VERTEX
  5
1B4
  8
TEAM-NET
 10
69.9
 20
-85.1
 30
220.0
 70
    64
  0
VERTEX
  5
1B5
  8
TEAM-NET
 10
44.9
 20
-85.1
 30
220.0
 70
    64
  0
VERTEX
  5
1B6
  8
TEAM-NET
 10
44.9
 20
-110.1
 30
220.0
 70
    64
  0
VERTEX
  5
1B7
  8
TEAM-NET
 10
44.9
 20
-135.1
 30
220.0
 70
    64
  0
VERTEX
  5
1B8
  8
TEAM-NET
 10
44.9
 20
-160.1
 30
220.0
 70
    64
  0
VERTEX
  5
1B9
  8
TEAM-NET
 10
44.9
 20
-185.1
 30
220.0
 70
    64
  0
VERTEX
  5
1BA
  8
TEAM-NET
 10
44.9
 20
-210.1
 30
220.0
 70
    64
  0
VERTEX
  5
1BB
  8
TEAM-NET
 10
44.9
 20
-235.1
 30
220.0
 70
    64
  0
VERTEX
  5
1BC
  8
TEAM-NET
 10
69.9
 20
-235.1
 30
220.0
 70
    64
  0
VERTEX
  5
1BD
  8
TEAM-NET
 10
94.9
 20
-235.1
 30
220.0
 70
    64
  0
VERTEX
  5
1BE
  8
TEAM-NET
 10
119.9
 20
-235.1
 30
220.0
 70
    64
  0
VERTEX
  5
1BF
  8
TEAM-NET
 10
119.9
 20
-85.1
 30
220.0
 70
    64
  0
VERTEX
  5
1C0
  8
TEAM-NET
 10
144.9
 20
-85.1
 30
220.0
 70
    64
  0
VERTEX
  5
1C1
  8
TEAM-NET
 10
169.9
 20
-85.1
 30
220.0
 70
    64
  0
VERTEX
  5
1C2
  8
TEAM-NET
 10
194.9
 20
-85.1
 30
220.0
 70
    64
  0
VERTEX
  5
1C3
  8
TEAM-NET
 10
194.9
 20
-110.1
 30
220.0
 70
    64
  0
VERTEX
  5
1C4
  8
TEAM-NET
 10
194.9
 20
-135.1
 30
220.0
 70
    64
  0
VERTEX
  5
1C5
  8
TEAM-NET
 10
194.9
 20
-160.1
 30
220.0
 70
    64
  0
VERTEX
  5
1C6
  8
TEAM-NET
 10
194.9
 20
-185.1
 30
220.0
 70
    64
  0
VERTEX
  5
1C7
  8
TEAM-NET
 10
194.9
 20
-210.1
 30
220.0
 70
    64
  0
VERTEX
  5
1C8
  8
TEAM-NET
 10
194.9
 20
-235.1
 30
220.0
 70
    64
  0
VERTEX
  5
1C9
  8
TEAM-NET
 10
169.9
 20
-235.1
 30
220.0
 70
    64
  0
VERTEX
  5
1CA
  8
TEAM-NET
 10
144.9
 20
-235.1
 30
220.0
 70
    64
  0
VERTEX
  5
1CB
  8
TEAM-NET
 10
119.9
 20
-235.1
 30
220.0
 70
    64
  0
SEQEND
  5
1CC
  8
TEAM-NET
  0
POLYLINE
  5
1CD
  8
TEAM-BODY
 66
     1
 10
0.0
 20
0.0
 30
220.0
  0
VERTEX
  5
492
  8
TEAM-BODY
 10
-397.5
 20
0.0
 30
220.0
  0
VERTEX
  5
493
  8
TEAM-BODY
 10
-397.5
 20
-197.5
 30
220.0
 42
0.414214
  0
VERTEX
  5
494
  8
TEAM-BODY
 10
-347.5
 20
-247.5
 30
220.0
  0
VERTEX
  5
495
  8
TEAM-BODY
 10
547.5
 20
-247.5
 30
220.0
 42
0.414214
  0
VERTEX
  5
496
  8
TEAM-BODY
 10
597.5
 20
-197.5
 30
220.0
  0
VERTEX
  5
497
  8
TEAM-BODY
 10
597.5
 20
0.0
 30
220.0
  0
SEQEND
  5
498
  8
TEAM-BODY
  0
POLYLINE
  5
1CE
  8
TEAM-BODY
 66
     1
 10
0.0
 20
0.0
 30
220.0
  0
VERTEX
  5
499
  8
TEAM-BODY
 10
119.9
 20
-235.1
 30
220.0
  0
VERTEX
  5
49A
  8
TEAM-BODY
 10
44.9
 20
-235.1
 30
220.0
  0
VERTEX
  5
49B
  8
TEAM-BODY
 10
44.9
 20
-85.1
 30
220.0
  0
VERTEX
  5
49C
  8
TEAM-BODY
 10
119.9
 20
-85.1
 30
220.0
  0
SEQEND
  5
49D
  8
TEAM-BODY
  0
POLYLINE
  5
1CF
  8
TEAM-BODY
 66
     1
 10
0.0
 20
0.0
 30
220.0
  0
VERTEX
  5
49E
  8
TEAM-BODY
 10
119.9
 20
-235.1
 30
220.0
  0
VERTEX
  5
49F
  8
TEAM-BODY
 10
194.9
 20
-235.1
 30
220.0
  0
VERTEX
  5
4A0
  8
TEAM-BODY
 10
194.9
 20
-85.1
 30
220.0
  0
VERTEX
  5
4A1
  8
TEAM-BODY
 10
119.9
 20
-85.1
 30
220.0
  0
SEQEND
  5
4A2
  8
TEAM-BODY
  0
POLYLINE
  5
1D0
  8
TEAM-BODY
 66
     1
 10
0.0
 20
0.0
 30
700.0
 39
-50.0
  0
VERTEX
  5
4A3
  8
TEAM-BODY
 10
1037.5
 20
0.0
 30
700.0
  0
VERTEX
  5
4A4
  8
TEAM-BODY
 10
1037.5
 20
237.5
 30
700.0
 42
0.414214
  0
VERTEX
  5
4A5
  8
TEAM-BODY
 10
737.5
 20
537.5
 30
700.0
  0
VERTEX
  5
4A6
  8
TEAM-BODY
 10
-737.5
 20
537.5
 30
700.0
 42
0.414214
  0
VERTEX
  5
4A7
  8
TEAM-BODY
 10
-1037.5
 20
237.5
 30
700.0
  0
VERTEX
  5
4A8
  8
TEAM-BODY
 10
-1037.5
 20
0.0
 30
700.0
  0
SEQEND
  5
4A9
  8
TEAM-BODY
  0
POLYLINE
  5
1D1
  8
TEAM-BODY
 66
     1
 10
0.0
 20
0.0
 30
700.0
 39
-50.0
  0
VERTEX
  5
4AA
  8
TEAM-BODY
 10
-1037.5
 20
0.0
 30
700.0
  0
VERTEX
  5
4AB
  8
TEAM-BODY
 10
-1037.5
 20
-237.5
 30
700.0
 42
0.414214
  0
VERTEX
  5
4AC
  8
TEAM-BODY
 10
-737.5
 20
-537.5
 30
700.0
  0
VERTEX
  5
4AD
  8
TEAM-BODY
 10
737.5
 20
-537.5
 30
700.0
 42
0.414214
  0
VERTEX
  5
4AE
  8
TEAM-BODY
 10
1037.5
 20
-237.5
 30
700.0
  0
VERTEX
  5
4AF
  8
TEAM-BODY
 10
1037.5
 20
0.0
 30
700.0
  0
SEQEND
  5
4B0
  8
TEAM-BODY
  0
POLYLINE
  5
1D2
  8
TEAM-NET
 66
     1
 10
0.0
 20
0.0
 30
0.0
 70
    16
 71
     2
 72
    65
  0
VERTEX
  5
1D3
  8
TEAM-NET
 10
917.5
 20
0.0
 30
700.0
 70
    64
  0
VERTEX
  5
1D4
  8
TEAM-NET
 10
917.5
 20
-39.691058
 30
700.0
 70
    64
  0
VERTEX
  5
1D5
  8
TEAM-NET
 10
917.5
 20
-79.382115
 30
700.0
 70
    64
  0
VERTEX
  5
1D6
  8
TEAM-NET
 10
917.5
 20
-119.073173
 30
700.0
 70
    64
  0
VERTEX
  5
1D7
  8
TEAM-NET
 10
917.5
 20
-158.764231
 30
700.0
 70
    64
  0
VERTEX
  5
1D8
  8
TEAM-NET
 10
917.5
 20
-198.455289
 30
700.0
 70
    64
  0
VERTEX
  5
1D9
  8
TEAM-NET
 10
917.5
 20
-238.146346
 30
700.0
 70
    64
  0
VERTEX
  5
1DA
  8
TEAM-NET
 10
917.045534
 20
-277.825408
 30
700.0
 70
    64
  0
VERTEX
  5
1DB
  8
TEAM-NET
 10
908.839831
 20
-316.543409
 30
700.0
 70
    64
  0
VERTEX
  5
1DC
  8
TEAM-NET
 10
890.900233
 20
-351.822128
 30
700.0
 70
    64
  0
VERTEX
  5
1DD
  8
TEAM-NET
 10
864.447331
 20
-381.261237
 30
700.0
 70
    64
  0
VERTEX
  5
1DE
  8
TEAM-NET
 10
831.280953
 20
-402.85773
 30
700.0
 70
    64
  0
VERTEX
  5
1DF
  8
TEAM-NET
 10
793.657705
 20
-415.142204
 30
700.0
 70
    64
  0
VERTEX
  5
1E0
  8
TEAM-NET
 10
754.130097
 20
-417.5
 30
700.0
 70
    64
  0
VERTEX
  5
1E1
  8
TEAM-NET
 10
714.439039
 20
-417.5
 30
700.0
 70
    64
  0
VERTEX
  5
1E2
  8
TEAM-NET
 10
674.747982
 20
-417.5
 30
700.0
 70
    64
  0
VERTEX
  5
1E3
  8
TEAM-NET
 10
635.056924
 20
-417.5
 30
700.0
 70
    64
  0
VERTEX
  5
1E4
  8
TEAM-NET
 10
595.365866
 20
-417.5
 30
700.0
 70
    64
  0
VERTEX
  5
1E5
  8
TEAM-NET
 10
555.674808
 20
-417.5
 30
700.0
 70
    64
  0
VERTEX
  5
1E6
  8
TEAM-NET
 10
515.983751
 20
-417.5
 30
700.0
 70
    64
  0
VERTEX
  5
1E7
  8
TEAM-NET
 10
476.292693
 20
-417.5
 30
700.0
 70
    64
  0
VERTEX
  5
1E8
  8
TEAM-NET
 10
436.601635
 20
-417.5
 30
700.0
 70
    64
  0
VERTEX
  5
1E9
  8
TEAM-NET
 10
396.910577
 20
-417.5
 30
700.0
 70
    64
  0
VERTEX
  5
1EA
  8
TEAM-NET
 10
357.21952
 20
-417.5
 30
700.0
 70
    64
  0
VERTEX
  5
1EB
  8
TEAM-NET
 10
317.528462
 20
-417.5
 30
700.0
 70
    64
  0
VERTEX
  5
1EC
  8
TEAM-NET
 10
277.837404
 20
-417.5
 30
700.0
 70
    64
  0
VERTEX
  5
1ED
  8
TEAM-NET
 10
238.146346
 20
-417.5
 30
700.0
 70
    64
  0
VERTEX
  5
1EE
  8
TEAM-NET
 10
198.455289
 20
-417.5
 30
700.0
 70
    64
  0
VERTEX
  5
1EF
  8
TEAM-NET
 10
158.764231
 20
-417.5
 30
700.0
 70
    64
  0
VERTEX
  5
1F0
  8
TEAM-NET
 10
119.073173
 20
-417.5
 30
700.0
 70
    64
  0
VERTEX
  5
1F1
  8
TEAM-NET
 10
79.382115
 20
-417.5
 30
700.0
 70
    64
  0
VERTEX
  5
1F2
  8
TEAM-NET
 10
39.691058
 20
-417.5
 30
700.0
 70
    64
  0
VERTEX
  5
1F3
  8
TEAM-NET
 10
0.0
 20
-417.5
 30
700.0
 70
    64
  0
VERTEX
  5
1F4
  8
TEAM-NET
 10
-39.691058
 20
-417.5
 30
700.0
 70
    64
  0
VERTEX
  5
1F5
  8
TEAM-NET
 10
-79.382115
 20
-417.5
 30
700.0
 70
    64
  0
VERTEX
  5
1F6
  8
TEAM-NET
 10
-119.073173
 20
-417.5
 30
700.0
 70
    64
  0
VERTEX
  5
1F7
  8
TEAM-NET
 10
-158.764231
 20
-417.5
 30
700.0
 70
    64
  0
VERTEX
  5
1F8
  8
TEAM-NET
 10
-198.455289
 20
-417.5
 30
700.0
 70
    64
  0
VERTEX
  5
1F9
  8
TEAM-NET
 10
-238.146346
 20
-417.5
 30
700.0
 70
    64
  0
VERTEX
  5
1FA
  8
TEAM-NET
 10
-277.837404
 20
-417.5
 30
700.0
 70
    64
  0
VERTEX
  5
1FB
  8
TEAM-NET
 10
-317.528462
 20
-417.5
 30
700.0
 70
    64
  0
VERTEX
  5
1FC
  8
TEAM-NET
 10
-357.21952
 20
-417.5
 30
700.0
 70
    64
  0
VERTEX
  5
1FD
  8
TEAM-NET
 10
-396.910577
 20
-417.5
 30
700.0
 70
    64
  0
VERTEX
  5
1FE
  8
TEAM-NET
 10
-436.601635
 20
-417.5
 30
700.0
 70
    64
  0
VERTEX
  5
1FF
  8
TEAM-NET
 10
-476.292693
 20
-417.5
 30
700.0
 70
    64
  0
VERTEX
  5
200
  8
TEAM-NET
 10
-515.983751
 20
-417.5
 30
700.0
 70
    64
  0
VERTEX
  5
201
  8
TEAM-NET
 10
-555.674808
 20
-417.5
 30
700.0
 70
    64
  0
VERTEX
  5
202
  8
TEAM-NET
 10
-595.365866
 20
-417.5
 30
700.0
 70
    64
  0
VERTEX
  5
203
  8
TEAM-NET
 10
-635.056924
 20
-417.5
 30
700.0
 70
    64
  0
VERTEX
  5
204
  8
TEAM-NET
 10
-674.747982
 20
-417.5
 30
700.0
 70
    64
  0
VERTEX
  5
205
  8
TEAM-NET
 10
-714.439039
 20
-417.5
 30
700.0
 70
    64
  0
VERTEX
  5
206
  8
TEAM-NET
 10
-754.130097
 20
-417.5
 30
700.0
 70
    64
  0
VERTEX
  5
207
  8
TEAM-NET
 10
-793.657705
 20
-415.142204
 30
700.0
 70
    64
  0
VERTEX
  5
208
  8
TEAM-NET
 10
-831.280953
 20
-402.85773
 30
700.0
 70
    64
  0
VERTEX
  5
209
  8
TEAM-NET
 10
-864.447331
 20
-381.261237
 30
700.0
 70
    64
  0
VERTEX
  5
20A
  8
TEAM-NET
 10
-890.900233
 20
-351.822128
 30
700.0
 70
    64
  0
VERTEX
  5
20B
  8
TEAM-NET
 10
-908.839831
 20
-316.543409
 30
700.0
 70
    64
  0
VERTEX
  5
20C
  8
TEAM-NET
 10
-917.045534
 20
-277.825408
 30
700.0
 70
    64
  0
VERTEX
  5
20D
  8
TEAM-NET
 10
-917.5
 20
-238.146346
 30
700.0
 70
    64
  0
VERTEX
  5
20E
  8
TEAM-NET
 10
-917.5
 20
-198.455289
 30
700.0
 70
    64
  0
VERTEX
  5
20F
  8
TEAM-NET
 10
-917.5
 20
-158.764231
 30
700.0
 70
    64
  0
VERTEX
  5
210
  8
TEAM-NET
 10
-917.5
 20
-119.073173
 30
700.0
 70
    64
  0
VERTEX
  5
211
  8
TEAM-NET
 10
-917.5
 20
-79.382115
 30
700.0
 70
    64
  0
VERTEX
  5
212
  8
TEAM-NET
 10
-917.5
 20
-39.691058
 30
700.0
 70
    64
  0
VERTEX
  5
213
  8
TEAM-NET
 10
-917.5
 20
0.0
 30
700.0
 70
    64
  0
VERTEX
  5
214
  8
TEAM-NET
 10
1037.5
 20
0.0
 30
700.0
 70
    64
  0
VERTEX
  5
215
  8
TEAM-NET
 10
1037.5
 20
-45.194966
 30
700.0
 70
    64
  0
VERTEX
  5
216
  8
TEAM-NET
 10
1037.5
 20
-90.389931
 30
700.0
 70
    64
  0
VERTEX
  5
217
  8
TEAM-NET
 10
1037.5
 20
-135.584897
 30
700.0
 70
    64
  0
VERTEX
  5
218
  8
TEAM-NET
 10
1037.5
 20
-180.779862
 30
700.0
 70
    64
  0
VERTEX
  5
219
  8
TEAM-NET
 10
1037.5
 20
-225.974828
 30
700.0
 70
    64
  0
VERTEX
  5
21A
  8
TEAM-NET
 10
1035.612557
 20
-271.099153
 30
700.0
 70
    64
  0
VERTEX
  5
21B
  8
TEAM-NET
 10
1027.193477
 20
-315.459538
 30
700.0
 70
    64
  0
VERTEX
  5
21C
  8
TEAM-NET
 10
1012.212115
 20
-358.053946
 30
700.0
 70
    64
  0
VERTEX
  5
21D
  8
TEAM-NET
 10
991.007838
 20
-397.917505
 30
700.0
 70
    64
  0
VERTEX
  5
21E
  8
TEAM-NET
 10
964.060976
 20
-434.147208
 30
700.0
 70
    64
  0
VERTEX
  5
21F
  8
TEAM-NET
 10
931.981942
 20
-465.92236
 30
700.0
 70
    64
  0
VERTEX
  5
220
  8
TEAM-NET
 10
895.497406
 20
-492.523175
 30
700.0
 70
    64
  0
VERTEX
  5
221
  8
TEAM-NET
 10
855.433834
 20
-513.347079
 30
700.0
 70
    64
  0
VERTEX
  5
222
  8
TEAM-NET
 10
812.698767
 20
-527.922357
 30
700.0
 70
    64
  0
VERTEX
  5
223
  8
TEAM-NET
 10
768.26026
 20
-535.918844
 30
700.0
 70
    64
  0
VERTEX
  5
224
  8
TEAM-NET
 10
723.119449
 20
-537.5
 30
700.0
 70
    64
  0
VERTEX
  5
225
  8
TEAM-NET
 10
677.924483
 20
-537.5
 30
700.0
 70
    64
  0
VERTEX
  5
226
  8
TEAM-NET
 10
632.729518
 20
-537.5
 30
700.0
 70
    64
  0
VERTEX
  5
227
  8
TEAM-NET
 10
587.534552
 20
-537.5
 30
700.0
 70
    64
  0
VERTEX
  5
228
  8
TEAM-NET
 10
542.339587
 20
-537.5
 30
700.0
 70
    64
  0
VERTEX
  5
229
  8
TEAM-NET
 10
497.144621
 20
-537.5
 30
700.0
 70
    64
  0
VERTEX
  5
22A
  8
TEAM-NET
 10
451.949656
 20
-537.5
 30
700.0
 70
    64
  0
VERTEX
  5
22B
  8
TEAM-NET
 10
406.75469
 20
-537.5
 30
700.0
 70
    64
  0
VERTEX
  5
22C
  8
TEAM-NET
 10
361.559725
 20
-537.5
 30
700.0
 70
    64
  0
VERTEX
  5
22D
  8
TEAM-NET
 10
316.364759
 20
-537.5
 30
700.0
 70
    64
  0
VERTEX
  5
22E
  8
TEAM-NET
 10
271.169793
 20
-537.5
 30
700.0
 70
    64
  0
VERTEX
  5
22F
  8
TEAM-NET
 10
225.974828
 20
-537.5
 30
700.0
 70
    64
  0
VERTEX
  5
230
  8
TEAM-NET
 10
180.779862
 20
-537.5
 30
700.0
 70
    64
  0
VERTEX
  5
231
  8
TEAM-NET
 10
135.584897
 20
-537.5
 30
700.0
 70
    64
  0
VERTEX
  5
232
  8
TEAM-NET
 10
90.389931
 20
-537.5
 30
700.0
 70
    64
  0
VERTEX
  5
233
  8
TEAM-NET
 10
45.194966
 20
-537.5
 30
700.0
 70
    64
  0
VERTEX
  5
234
  8
TEAM-NET
 10
0.0
 20
-537.5
 30
700.0
 70
    64
  0
VERTEX
  5
235
  8
TEAM-NET
 10
-45.194966
 20
-537.5
 30
700.0
 70
    64
  0
VERTEX
  5
236
  8
TEAM-NET
 10
-90.389931
 20
-537.5
 30
700.0
 70
    64
  0
VERTEX
  5
237
  8
TEAM-NET
 10
-135.584897
 20
-537.5
 30
700.0
 70
    64
  0
VERTEX
  5
238
  8
TEAM-NET
 10
-180.779862
 20
-537.5
 30
700.0
 70
    64
  0
VERTEX
  5
239
  8
TEAM-NET
 10
-225.974828
 20
-537.5
 30
700.0
 70
    64
  0
VERTEX
  5
23A
  8
TEAM-NET
 10
-271.169793
 20
-537.5
 30
700.0
 70
    64
  0
VERTEX
  5
23B
  8
TEAM-NET
 10
-316.364759
 20
-537.5
 30
700.0
 70
    64
  0
VERTEX
  5
23C
  8
TEAM-NET
 10
-361.559725
 20
-537.5
 30
700.0
 70
    64
  0
VERTEX
  5
23D
  8
TEAM-NET
 10
-406.75469
 20
-537.5
 30
700.0
 70
    64
  0
VERTEX
  5
23E
  8
TEAM-NET
 10
-451.949656
 20
-537.5
 30
700.0
 70
    64
  0
VERTEX
  5
23F
  8
TEAM-NET
 10
-497.144621
 20
-537.5
 30
700.0
 70
    64
  0
VERTEX
  5
240
  8
TEAM-NET
 10
-542.339587
 20
-537.5
 30
700.0
 70
    64
  0
VERTEX
  5
241
  8
TEAM-NET
 10
-587.534552
 20
-537.5
 30
700.0
 70
    64
  0
VERTEX
  5
242
  8
TEAM-NET
 10
-632.729518
 20
-537.5
 30
700.0
 70
    64
  0
VERTEX
  5
243
  8
TEAM-NET
 10
-677.924483
 20
-537.5
 30
700.0
 70
    64
  0
VERTEX
  5
244
  8
TEAM-NET
 10
-723.119449
 20
-537.5
 30
700.0
 70
    64
  0
VERTEX
  5
245
  8
TEAM-NET
 10
-768.26026
 20
-535.918844
 30
700.0
 70
    64
  0
VERTEX
  5
246
  8
TEAM-NET
 10
-812.698767
 20
-527.922357
 30
700.0
 70
    64
  0
VERTEX
  5
247
  8
TEAM-NET
 10
-855.433834
 20
-513.347079
 30
700.0
 70
    64
  0
VERTEX
  5
248
  8
TEAM-NET
 10
-895.497406
 20
-492.523175
 30
700.0
 70
    64
  0
VERTEX
  5
249
  8
TEAM-NET
 10
-931.981942
 20
-465.92236
 30
700.0
 70
    64
  0
VERTEX
  5
24A
  8
TEAM-NET
 10
-964.060976
 20
-434.147208
 30
700.0
 70
    64
  0
VERTEX
  5
24B
  8
TEAM-NET
 10
-991.007838
 20
-397.917505
 30
700.0
 70
    64
  0
VERTEX
  5
24C
  8
TEAM-NET
 10
-1012.212115
 20
-358.053946
 30
700.0
 70
    64
  0
VERTEX
  5
24D
  8
TEAM-NET
 10
-1027.193477
 20
-315.459538
 30
700.0
 70
    64
  0
VERTEX
  5
24E
  8
TEAM-NET
 10
-1035.612557
 20
-271.099153
 30
700.0
 70
    64
  0
VERTEX
  5
24F
  8
TEAM-NET
 10
-1037.5
 20
-225.974828
 30
700.0
 70
    64
  0
VERTEX
  5
250
  8
TEAM-NET
 10
-1037.5
 20
-180.779862
 30
700.0
 70
    64
  0
VERTEX
  5
251
  8
TEAM-NET
 10
-1037.5
 20
-135.584897
 30
700.0
 70
    64
  0
VERTEX
  5
252
  8
TEAM-NET
 10
-1037.5
 20
-90.389931
 30
700.0
 70
    64
  0
VERTEX
  5
253
  8
TEAM-NET
 10
-1037.5
 20
-45.194966
 30
700.0
 70
    64
  0
VERTEX
  5
254
  8
TEAM-NET
 10
-1037.5
 20
0.0
 30
700.0
 70
    64
  0
SEQEND
  5
255
  8
TEAM-NET
  0
POLYLINE
  5
256
  8
TEAM-NET
 66
     1
 10
0.0
 20
0.0
 30
0.0
 70
    16
 71
     2
 72
    65
  0
VERTEX
  5
257
  8
TEAM-NET
 10
917.5
 20
0.0
 30
700.0
 70
    64
  0
VERTEX
  5
258
  8
TEAM-NET
 10
917.5
 20
39.572732
 30
700.0
 70
    64
  0
VERTEX
  5
259
  8
TEAM-NET
 10
917.5
 20
79.145463
 30
700.0
 70
    64
  0
VERTEX
  5
25A
  8
TEAM-NET
 10
917.5
 20
118.718195
 30
700.0
 70
    64
  0
VERTEX
  5
25B
  8
TEAM-NET
 10
917.5
 20
158.290927
 30
700.0
 70
    64
  0
VERTEX
  5
25C
  8
TEAM-NET
 10
917.5
 20
197.863658
 30
700.0
 70
    64
  0
VERTEX
  5
25D
  8
TEAM-NET
 10
917.5
 20
237.43639
 30
700.0
 70
    64
  0
VERTEX
  5
25E
  8
TEAM-NET
 10
916.31208
 20
276.960816
 30
700.0
 70
    64
  0
VERTEX
  5
25F
  8
TEAM-NET
 10
906.715058
 20
315.248302
 30
700.0
 70
    64
  0
VERTEX
  5
260
  8
TEAM-NET
 10
888.036701
 20
350.021185
 30
700.0
 70
    64
  0
VERTEX
  5
261
  8
TEAM-NET
 10
861.413787
 20
379.163162
 30
700.0
 70
    64
  0
VERTEX
  5
262
  8
TEAM-NET
 10
828.466604
 20
400.900631
 30
700.0
 70
    64
  0
VERTEX
  5
263
  8
TEAM-NET
 10
791.200343
 20
413.910635
 30
700.0
 70
    64
  0
VERTEX
  5
264
  8
TEAM-NET
 10
751.881901
 20
417.5
 30
700.0
 70
    64
  0
VERTEX
  5
265
  8
TEAM-NET
 10
712.309169
 20
417.5
 30
700.0
 70
    64
  0
VERTEX
  5
266
  8
TEAM-NET
 10
672.736438
 20
417.5
 30
700.0
 70
    64
  0
VERTEX
  5
267
  8
TEAM-NET
 10
633.163706
 20
417.5
 30
700.0
 70
    64
  0
VERTEX
  5
268
  8
TEAM-NET
 10
593.590975
 20
417.5
 30
700.0
 70
    64
  0
VERTEX
  5
269
  8
TEAM-NET
 10
554.018243
 20
417.5
 30
700.0
 70
    64
  0
VERTEX
  5
26A
  8
TEAM-NET
 10
514.445511
 20
417.5
 30
700.0
 70
    64
  0
VERTEX
  5
26B
  8
TEAM-NET
 10
474.87278
 20
417.5
 30
700.0
 70
    64
  0
VERTEX
  5
26C
  8
TEAM-NET
 10
435.300048
 20
417.5
 30
700.0
 70
    64
  0
VERTEX
  5
26D
  8
TEAM-NET
 10
395.727316
 20
417.5
 30
700.0
 70
    64
  0
VERTEX
  5
26E
  8
TEAM-NET
 10
356.154585
 20
417.5
 30
700.0
 70
    64
  0
VERTEX
  5
26F
  8
TEAM-NET
 10
316.581853
 20
417.5
 30
700.0
 70
    64
  0
VERTEX
  5
270
  8
TEAM-NET
 10
277.009121
 20
417.5
 30
700.0
 70
    64
  0
VERTEX
  5
271
  8
TEAM-NET
 10
237.43639
 20
417.5
 30
700.0
 70
    64
  0
VERTEX
  5
272
  8
TEAM-NET
 10
197.863658
 20
417.5
 30
700.0
 70
    64
  0
VERTEX
  5
273
  8
TEAM-NET
 10
158.290927
 20
417.5
 30
700.0
 70
    64
  0
VERTEX
  5
274
  8
TEAM-NET
 10
118.718195
 20
417.5
 30
700.0
 70
    64
  0
VERTEX
  5
275
  8
TEAM-NET
 10
79.145463
 20
417.5
 30
700.0
 70
    64
  0
VERTEX
  5
276
  8
TEAM-NET
 10
39.572732
 20
417.5
 30
700.0
 70
    64
  0
VERTEX
  5
277
  8
TEAM-NET
 10
0.0
 20
417.5
 30
700.0
 70
    64
  0
VERTEX
  5
278
  8
TEAM-NET
 10
-39.572732
 20
417.5
 30
700.0
 70
    64
  0
VERTEX
  5
279
  8
TEAM-NET
 10
-79.145463
 20
417.5
 30
700.0
 70
    64
  0
VERTEX
  5
27A
  8
TEAM-NET
 10
-118.718195
 20
417.5
 30
700.0
 70
    64
  0
VERTEX
  5
27B
  8
TEAM-NET
 10
-158.290927
 20
417.5
 30
700.0
 70
    64
  0
VERTEX
  5
27C
  8
TEAM-NET
 10
-197.863658
 20
417.5
 30
700.0
 70
    64
  0
VERTEX
  5
27D
  8
TEAM-NET
 10
-237.43639
 20
417.5
 30
700.0
 70
    64
  0
VERTEX
  5
27E
  8
TEAM-NET
 10
-277.009121
 20
417.5
 30
700.0
 70
    64
  0
VERTEX
  5
27F
  8
TEAM-NET
 10
-316.581853
 20
417.5
 30
700.0
 70
    64
  0
VERTEX
  5
280
  8
TEAM-NET
 10
-356.154585
 20
417.5
 30
700.0
 70
    64
  0
VERTEX
  5
281
  8
TEAM-NET
 10
-395.727316
 20
417.5
 30
700.0
 70
    64
  0
VERTEX
  5
282
  8
TEAM-NET
 10
-435.300048
 20
417.5
 30
700.0
 70
    64
  0
VERTEX
  5
283
  8
TEAM-NET
 10
-474.87278
 20
417.5
 30
700.0
 70
    64
  0
VERTEX
  5
284
  8
TEAM-NET
 10
-514.445511
 20
417.5
 30
700.0
 70
    64
  0
VERTEX
  5
285
  8
TEAM-NET
 10
-554.018243
 20
417.5
 30
700.0
 70
    64
  0
VERTEX
  5
286
  8
TEAM-NET
 10
-593.590975
 20
417.5
 30
700.0
 70
    64
  0
VERTEX
  5
287
  8
TEAM-NET
 10
-633.163706
 20
417.5
 30
700.0
 70
    64
  0
VERTEX
  5
288
  8
TEAM-NET
 10
-672.736438
 20
417.5
 30
700.0
 70
    64
  0
VERTEX
  5
289
  8
TEAM-NET
 10
-712.309169
 20
417.5
 30
700.0
 70
    64
  0
VERTEX
  5
28A
  8
TEAM-NET
 10
-751.881901
 20
417.5
 30
700.0
 70
    64
  0
VERTEX
  5
28B
  8
TEAM-NET
 10
-791.200343
 20
413.910635
 30
700.0
 70
    64
  0
VERTEX
  5
28C
  8
TEAM-NET
 10
-828.466604
 20
400.900631
 30
700.0
 70
    64
  0
VERTEX
  5
28D
  8
TEAM-NET
 10
-861.413787
 20
379.163162
 30
700.0
 70
    64
  0
VERTEX
  5
28E
  8
TEAM-NET
 10
-888.036701
 20
350.021185
 30
700.0
 70
    64
  0
VERTEX
  5
28F
  8
TEAM-NET
 10
-906.715058
 20
315.248302
 30
700.0
 70
    64
  0
VERTEX
  5
290
  8
TEAM-NET
 10
-916.31208
 20
276.960816
 30
700.0
 70
    64
  0
VERTEX
  5
291
  8
TEAM-NET
 10
-917.5
 20
237.43639
 30
700.0
 70
    64
  0
VERTEX
  5
292
  8
TEAM-NET
 10
-917.5
 20
197.863658
 30
700.0
 70
    64
  0
VERTEX
  5
293
  8
TEAM-NET
 10
-917.5
 20
158.290927
 30
700.0
 70
    64
  0
VERTEX
  5
294
  8
TEAM-NET
 10
-917.5
 20
118.718195
 30
700.0
 70
    64
  0
VERTEX
  5
295
  8
TEAM-NET
 10
-917.5
 20
79.145463
 30
700.0
 70
    64
  0
VERTEX
  5
296
  8
TEAM-NET
 10
-917.5
 20
39.572732
 30
700.0
 70
    64
  0
VERTEX
  5
297
  8
TEAM-NET
 10
-917.5
 20
0.0
 30
700.0
 70
    64
  0
VERTEX
  5
298
  8
TEAM-NET
 10
1037.5
 20
0.0
 30
700.0
 70
    64
  0
VERTEX
  5
299
  8
TEAM-NET
 10
1037.5
 20
45.194966
 30
700.0
 70
    64
  0
VERTEX
  5
29A
  8
TEAM-NET
 10
1037.5
 20
90.389931
 30
700.0
 70
    64
  0
VERTEX
  5
29B
  8
TEAM-NET
 10
1037.5
 20
135.584897
 30
700.0
 70
    64
  0
VERTEX
  5
29C
  8
TEAM-NET
 10
1037.5
 20
180.779862
 30
700.0
 70
    64
  0
VERTEX
  5
29D
  8
TEAM-NET
 10
1037.5
 20
225.974828
 30
700.0
 70
    64
  0
VERTEX
  5
29E
  8
TEAM-NET
 10
1035.612557
 20
271.099153
 30
700.0
 70
    64
  0
VERTEX
  5
29F
  8
TEAM-NET
 10
1027.193477
 20
315.459538
 30
700.0
 70
    64
  0
VERTEX
  5
2A0
  8
TEAM-NET
 10
1012.212115
 20
358.053946
 30
700.0
 70
    64
  0
VERTEX
  5
2A1
  8
TEAM-NET
 10
991.007838
 20
397.917505
 30
700.0
 70
    64
  0
VERTEX
  5
2A2
  8
TEAM-NET
 10
964.060976
 20
434.147208
 30
700.0
 70
    64
  0
VERTEX
  5
2A3
  8
TEAM-NET
 10
931.981942
 20
465.92236
 30
700.0
 70
    64
  0
VERTEX
  5
2A4
  8
TEAM-NET
 10
895.497406
 20
492.523175
 30
700.0
 70
    64
  0
VERTEX
  5
2A5
  8
TEAM-NET
 10
855.433834
 20
513.347079
 30
700.0
 70
    64
  0
VERTEX
  5
2A6
  8
TEAM-NET
 10
812.698767
 20
527.922357
 30
700.0
 70
    64
  0
VERTEX
  5
2A7
  8
TEAM-NET
 10
768.26026
 20
535.918844
 30
700.0
 70
    64
  0
VERTEX
  5
2A8
  8
TEAM-NET
 10
723.119449
 20
537.5
 30
700.0
 70
    64
  0
VERTEX
  5
2A9
  8
TEAM-NET
 10
677.924483
 20
537.5
 30
700.0
 70
    64
  0
VERTEX
  5
2AA
  8
TEAM-NET
 10
632.729518
 20
537.5
 30
700.0
 70
    64
  0
VERTEX
  5
2AB
  8
TEAM-NET
 10
587.534552
 20
537.5
 30
700.0
 70
    64
  0
VERTEX
  5
2AC
  8
TEAM-NET
 10
542.339587
 20
537.5
 30
700.0
 70
    64
  0
VERTEX
  5
2AD
  8
TEAM-NET
 10
497.144621
 20
537.5
 30
700.0
 70
    64
  0
VERTEX
  5
2AE
  8
TEAM-NET
 10
451.949656
 20
537.5
 30
700.0
 70
    64
  0
VERTEX
  5
2AF
  8
TEAM-NET
 10
406.75469
 20
537.5
 30
700.0
 70
    64
  0
VERTEX
  5
2B0
  8
TEAM-NET
 10
361.559725
 20
537.5
 30
700.0
 70
    64
  0
VERTEX
  5
2B1
  8
TEAM-NET
 10
316.364759
 20
537.5
 30
700.0
 70
    64
  0
VERTEX
  5
2B2
  8
TEAM-NET
 10
271.169793
 20
537.5
 30
700.0
 70
    64
  0
VERTEX
  5
2B3
  8
TEAM-NET
 10
225.974828
 20
537.5
 30
700.0
 70
    64
  0
VERTEX
  5
2B4
  8
TEAM-NET
 10
180.779862
 20
537.5
 30
700.0
 70
    64
  0
VERTEX
  5
2B5
  8
TEAM-NET
 10
135.584897
 20
537.5
 30
700.0
 70
    64
  0
VERTEX
  5
2B6
  8
TEAM-NET
 10
90.389931
 20
537.5
 30
700.0
 70
    64
  0
VERTEX
  5
2B7
  8
TEAM-NET
 10
45.194966
 20
537.5
 30
700.0
 70
    64
  0
VERTEX
  5
2B8
  8
TEAM-NET
 10
0.0
 20
537.5
 30
700.0
 70
    64
  0
VERTEX
  5
2B9
  8
TEAM-NET
 10
-45.194966
 20
537.5
 30
700.0
 70
    64
  0
VERTEX
  5
2BA
  8
TEAM-NET
 10
-90.389931
 20
537.5
 30
700.0
 70
    64
  0
VERTEX
  5
2BB
  8
TEAM-NET
 10
-135.584897
 20
537.5
 30
700.0
 70
    64
  0
VERTEX
  5
2BC
  8
TEAM-NET
 10
-180.779862
 20
537.5
 30
700.0
 70
    64
  0
VERTEX
  5
2BD
  8
TEAM-NET
 10
-225.974828
 20
537.5
 30
700.0
 70
    64
  0
VERTEX
  5
2BE
  8
TEAM-NET
 10
-271.169793
 20
537.5
 30
700.0
 70
    64
  0
VERTEX
  5
2BF
  8
TEAM-NET
 10
-316.364759
 20
537.5
 30
700.0
 70
    64
  0
VERTEX
  5
2C0
  8
TEAM-NET
 10
-361.559725
 20
537.5
 30
700.0
 70
    64
  0
VERTEX
  5
2C1
  8
TEAM-NET
 10
-406.75469
 20
537.5
 30
700.0
 70
    64
  0
VERTEX
  5
2C2
  8
TEAM-NET
 10
-451.949656
 20
537.5
 30
700.0
 70
    64
  0
VERTEX
  5
2C3
  8
TEAM-NET
 10
-497.144621
 20
537.5
 30
700.0
 70
    64
  0
VERTEX
  5
2C4
  8
TEAM-NET
 10
-542.339587
 20
537.5
 30
700.0
 70
    64
  0
VERTEX
  5
2C5
  8
TEAM-NET
 10
-587.534552
 20
537.5
 30
700.0
 70
    64
  0
VERTEX
  5
2C6
  8
TEAM-NET
 10
-632.729518
 20
537.5
 30
700.0
 70
    64
  0
VERTEX
  5
2C7
  8
TEAM-NET
 10
-677.924483
 20
537.5
 30
700.0
 70
    64
  0
VERTEX
  5
2C8
  8
TEAM-NET
 10
-723.119449
 20
537.5
 30
700.0
 70
    64
  0
VERTEX
  5
2C9
  8
TEAM-NET
 10
-768.26026
 20
535.918844
 30
700.0
 70
    64
  0
VERTEX
  5
2CA
  8
TEAM-NET
 10
-812.698767
 20
527.922357
 30
700.0
 70
    64
  0
VERTEX
  5
2CB
  8
TEAM-NET
 10
-855.433834
 20
513.347079
 30
700.0
 70
    64
  0
VERTEX
  5
2CC
  8
TEAM-NET
 10
-895.497406
 20
492.523175
 30
700.0
 70
    64
  0
VERTEX
  5
2CD
  8
TEAM-NET
 10
-931.981942
 20
465.92236
 30
700.0
 70
    64
  0
VERTEX
  5
2CE
  8
TEAM-NET
 10
-964.060976
 20
434.147208
 30
700.0
 70
    64
  0
VERTEX
  5
2CF
  8
TEAM-NET
 10
-991.007838
 20
397.917505
 30
700.0
 70
    64
  0
VERTEX
  5
2D0
  8
TEAM-NET
 10
-1012.212115
 20
358.053946
 30
700.0
 70
    64
  0
VERTEX
  5
2D1
  8
TEAM-NET
 10
-1027.193477
 20
315.459538
 30
700.0
 70
    64
  0
VERTEX
  5
2D2
  8
TEAM-NET
 10
-1035.612557
 20
271.099153
 30
700.0
 70
    64
  0
VERTEX
  5
2D3
  8
TEAM-NET
 10
-1037.5
 20
225.974828
 30
700.0
 70
    64
  0
VERTEX
  5
2D4
  8
TEAM-NET
 10
-1037.5
 20
180.779862
 30
700.0
 70
    64
  0
VERTEX
  5
2D5
  8
TEAM-NET
 10
-1037.5
 20
135.584897
 30
700.0
 70
    64
  0
VERTEX
  5
2D6
  8
TEAM-NET
 10
-1037.5
 20
90.389931
 30
700.0
 70
    64
  0
VERTEX
  5
2D7
  8
TEAM-NET
 10
-1037.5
 20
45.194966
 30
700.0
 70
    64
  0
VERTEX
  5
2D8
  8
TEAM-NET
 10
-1037.5
 20
0.0
 30
700.0
 70
    64
  0
SEQEND
  5
2D9
  8
TEAM-NET
  0
POLYLINE
  5
2DA
  8
TEAM-BODY
 66
     1
 10
0.0
 20
0.0
 30
700.0
  0
VERTEX
  5
4B1
  8
TEAM-BODY
 10
-917.5
 20
0.0
 30
700.0
  0
VERTEX
  5
4B2
  8
TEAM-BODY
 10
-917.5
 20
-267.5
 30
700.0
 42
0.427353
  0
VERTEX
  5
4B3
  8
TEAM-BODY
 10
-757.5
 20
-417.5
 30
700.0
  0
VERTEX
  5
4B4
  8
TEAM-BODY
 10
757.5
 20
-417.5
 30
700.0
 42
0.427353
  0
VERTEX
  5
4B5
  8
TEAM-BODY
 10
917.5
 20
-267.5
 30
700.0
  0
VERTEX
  5
4B6
  8
TEAM-BODY
 10
917.5
 20
0.0
 30
700.0
  0
SEQEND
  5
4B7
  8
TEAM-BODY
  0
POLYLINE
  5
2DB
  8
TEAM-BODY
 66
     1
 10
0.0
 20
0.0
 30
700.0
  0
VERTEX
  5
4B8
  8
TEAM-BODY
 10
917.5
 20
0.0
 30
700.0
  0
VERTEX
  5
4B9
  8
TEAM-BODY
 10
917.5
 20
257.5
 30
700.0
 42
0.414214
  0
VERTEX
  5
4BA
  8
TEAM-BODY
 10
757.5
 20
417.5
 30
700.0
  0
VERTEX
  5
4BB
  8
TEAM-BODY
 10
-757.5
 20
417.5
 30
700.0
 42
0.414214
  0
VERTEX
  5
4BC
  8
TEAM-BODY
 10
-917.5
 20
257.5
 30
700.0
  0
VERTEX
  5
4BD
  8
TEAM-BODY
 10
-917.5
 20
0.0
 30
700.0
  0
SEQEND
  5
4BE
  8
TEAM-BODY
  0
POLYLINE
  5
2DC
  8
TEAM-BODY
 66
     1
 10
0.0
 20
0.0
 30
700.0
  0
VERTEX
  5
4BF
  8
TEAM-BODY
 10
997.5
 20
0.0
 30
700.0
  0
VERTEX
  5
4C0
  8
TEAM-BODY
 10
997.5
 20
237.5
 30
700.0
 42
0.414214
  0
VERTEX
  5
4C1
  8
TEAM-BODY
 10
737.5
 20
497.5
 30
700.0
  0
VERTEX
  5
4C2
  8
TEAM-BODY
 10
-737.5
 20
497.5
 30
700.0
 42
0.414214
  0
VERTEX
  5
4C3
  8
TEAM-BODY
 10
-997.5
 20
237.5
 30
700.0
  0
VERTEX
  5
4C4
  8
TEAM-BODY
 10
-997.5
 20
0.0
 30
700.0
  0
SEQEND
  5
4C5
  8
TEAM-BODY
  0
POLYLINE
  5
2DD
  8
TEAM-BODY
 66
     1
 10
0.0
 20
0.0
 30
700.0
  0
VERTEX
  5
4C6
  8
TEAM-BODY
 10
-997.5
 20
0.0
 30
700.0
  0
VERTEX
  5
4C7
  8
TEAM-BODY
 10
-997.5
 20
-237.5
 30
700.0
 42
0.414214
  0
VERTEX
  5
4C8
  8
TEAM-BODY
 10
-737.5
 20
-497.5
 30
700.0
  0
VERTEX
  5
4C9
  8
TEAM-BODY
 10
737.5
 20
-497.5
 30
700.0
 42
0.414214
  0
VERTEX
  5
4CA
  8
TEAM-BODY
 10
997.5
 20
-237.5
 30
700.0
  0
VERTEX
  5
4CB
  8
TEAM-BODY
 10
997.5
 20
0.0
 30
700.0
  0
SEQEND
  5
4CC
  8
TEAM-BODY
  0
POLYLINE
  5
2DE
  8
TEAM-DET1
 66
     1
 10
0.0
 20
0.0
 30
700.0
 70
     1
  0
VERTEX
  5
4CD
  8
TEAM-DET1
 10
-981.729995
 20
-79.73689
 30
700.0
  0
VERTEX
  5
4CE
  8
TEAM-DET1
 10
-981.729995
 20
79.73689
 30
700.0
  0
VERTEX
  5
4CF
  8
TEAM-DET1
 10
-933.223895
 20
79.73689
 30
700.0
  0
VERTEX
  5
4D0
  8
TEAM-DET1
 10
-933.223895
 20
-79.73689
 30
700.0
  0
SEQEND
  5
4D1
  8
TEAM-DET1
  0
POLYLINE
  5
2E0
  8
TEAM-DET1
 66
     1
 10
0.0
 20
0.0
 30
700.0
 70
     1
  0
VERTEX
  5
4D2
  8
TEAM-DET1
 10
-957.476945
 20
-52.0
 30
700.0
  0
VERTEX
  5
4D3
  8
TEAM-DET1
 10
-955.677949
 20
-51.359792
 30
700.0
  0
VERTEX
  5
4D4
  8
TEAM-DET1
 10
-953.923249
 20
-49.454938
 30
700.0
  0
VERTEX
  5
4D5
  8
TEAM-DET1
 10
-952.256053
 20
-46.332338
 30
700.0
  0
VERTEX
  5
4D6
  8
TEAM-DET1
 10
-950.717413
 20
-42.068882
 30
700.0
  0
VERTEX
  5
4D7
  8
TEAM-DET1
 10
-949.345217
 20
-36.769552
 30
700.0
  0
VERTEX
  5
4D8
  8
TEAM-DET1
 10
-948.173249
 20
-30.564832
 30
700.0
  0
VERTEX
  5
4D9
  8
TEAM-DET1
 10
-947.230369
 20
-23.607506
 30
700.0
  0
VERTEX
  5
4DA
  8
TEAM-DET1
 10
-946.539795
 20
-16.068882
 30
700.0
  0
VERTEX
  5
4DB
  8
TEAM-DET1
 10
-946.118529
 20
-8.134592
 30
700.0
  0
VERTEX
  5
4DC
  8
TEAM-DET1
 10
-945.976945
 20
0.0
 30
700.0
  0
VERTEX
  5
4DD
  8
TEAM-DET1
 10
-946.118529
 20
8.134592
 30
700.0
  0
VERTEX
  5
4DE
  8
TEAM-DET1
 10
-946.539795
 20
16.068884
 30
700.0
  0
VERTEX
  5
4DF
  8
TEAM-DET1
 10
-947.230369
 20
23.607506
 30
700.0
  0
VERTEX
  5
4E0
  8
TEAM-DET1
 10
-948.173249
 20
30.564834
 30
700.0
  0
VERTEX
  5
4E1
  8
TEAM-DET1
 10
-949.345217
 20
36.769554
 30
700.0
  0
VERTEX
  5
4E2
  8
TEAM-DET1
 10
-950.717413
 20
42.068884
 30
700.0
  0
VERTEX
  5
4E3
  8
TEAM-DET1
 10
-952.256053
 20
46.33234
 30
700.0
  0
VERTEX
  5
4E4
  8
TEAM-DET1
 10
-953.923249
 20
49.45494
 30
700.0
  0
VERTEX
  5
4E5
  8
TEAM-DET1
 10
-955.677949
 20
51.359794
 30
700.0
  0
VERTEX
  5
4E6
  8
TEAM-DET1
 10
-957.476945
 20
52.0
 30
700.0
  0
VERTEX
  5
4E7
  8
TEAM-DET1
 10
-959.275941
 20
51.359794
 30
700.0
  0
VERTEX
  5
4E8
  8
TEAM-DET1
 10
-961.030639
 20
49.45494
 30
700.0
  0
VERTEX
  5
4E9
  8
TEAM-DET1
 10
-962.697835
 20
46.33234
 30
700.0
  0
VERTEX
  5
4EA
  8
TEAM-DET1
 10
-964.236475
 20
42.068884
 30
700.0
  0
VERTEX
  5
4EB
  8
TEAM-DET1
 10
-965.608673
 20
36.769554
 30
700.0
  0
VERTEX
  5
4EC
  8
TEAM-DET1
 10
-966.780639
 20
30.564834
 30
700.0
  0
VERTEX
  5
4ED
  8
TEAM-DET1
 10
-967.723519
 20
23.607506
 30
700.0
  0
VERTEX
  5
4EE
  8
TEAM-DET1
 10
-968.414095
 20
16.068884
 30
700.0
  0
VERTEX
  5
4EF
  8
TEAM-DET1
 10
-968.835361
 20
8.134592
 30
700.0
  0
VERTEX
  5
4F0
  8
TEAM-DET1
 10
-968.976945
 20
0.0
 30
700.0
  0
VERTEX
  5
4F1
  8
TEAM-DET1
 10
-968.835361
 20
-8.134592
 30
700.0
  0
VERTEX
  5
4F2
  8
TEAM-DET1
 10
-968.414095
 20
-16.068882
 30
700.0
  0
VERTEX
  5
4F3
  8
TEAM-DET1
 10
-967.723519
 20
-23.607506
 30
700.0
  0
VERTEX
  5
4F4
  8
TEAM-DET1
 10
-966.780639
 20
-30.564832
 30
700.0
  0
VERTEX
  5
4F5
  8
TEAM-DET1
 10
-965.608673
 20
-36.769552
 30
700.0
  0
VERTEX
  5
4F6
  8
TEAM-DET1
 10
-964.236475
 20
-42.068882
 30
700.0
  0
VERTEX
  5
4F7
  8
TEAM-DET1
 10
-962.697835
 20
-46.332338
 30
700.0
  0
VERTEX
  5
4F8
  8
TEAM-DET1
 10
-961.030639
 20
-49.454938
 30
700.0
  0
VERTEX
  5
4F9
  8
TEAM-DET1
 10
-959.275941
 20
-51.359792
 30
700.0
  0
SEQEND
  5
4FA
  8
TEAM-DET1
  0
POLYLINE
  5
2E1
  8
TEAM-DET1
 66
     1
 10
0.0
 20
0.0
 30
700.0
 70
     1
  0
VERTEX
  5
4FB
  8
TEAM-DET1
 10
-79.73689
 20
-488.659898
 30
700.0
  0
VERTEX
  5
4FC
  8
TEAM-DET1
 10
79.73689
 20
-488.659898
 30
700.0
  0
VERTEX
  5
4FD
  8
TEAM-DET1
 10
79.73689
 20
-475.682898
 30
700.0
  0
VERTEX
  5
4FE
  8
TEAM-DET1
 10
-79.73689
 20
-475.682898
 30
700.0
  0
SEQEND
  5
4FF
  8
TEAM-DET1
  0
POLYLINE
  5
2E2
  8
TEAM-DET1
 66
     1
 10
0.0
 20
0.0
 30
700.0
 70
     1
  0
VERTEX
  5
500
  8
TEAM-DET1
 10
958.611153
 20
-52.0
 30
700.0
  0
VERTEX
  5
501
  8
TEAM-DET1
 10
956.812157
 20
-51.359792
 30
700.0
  0
VERTEX
  5
502
  8
TEAM-DET1
 10
955.057457
 20
-49.454938
 30
700.0
  0
VERTEX
  5
503
  8
TEAM-DET1
 10
953.390261
 20
-46.332338
 30
700.0
  0
VERTEX
  5
504
  8
TEAM-DET1
 10
951.851621
 20
-42.068882
 30
700.0
  0
VERTEX
  5
505
  8
TEAM-DET1
 10
950.479425
 20
-36.769552
 30
700.0
  0
VERTEX
  5
506
  8
TEAM-DET1
 10
949.307457
 20
-30.564832
 30
700.0
  0
VERTEX
  5
507
  8
TEAM-DET1
 10
948.364577
 20
-23.607506
 30
700.0
  0
VERTEX
  5
508
  8
TEAM-DET1
 10
947.674003
 20
-16.068882
 30
700.0
  0
VERTEX
  5
509
  8
TEAM-DET1
 10
947.252737
 20
-8.134592
 30
700.0
  0
VERTEX
  5
50A
  8
TEAM-DET1
 10
947.111153
 20
0.0
 30
700.0
  0
VERTEX
  5
50B
  8
TEAM-DET1
 10
947.252737
 20
8.134592
 30
700.0
  0
VERTEX
  5
50C
  8
TEAM-DET1
 10
947.674003
 20
16.068884
 30
700.0
  0
VERTEX
  5
50D
  8
TEAM-DET1
 10
948.364577
 20
23.607506
 30
700.0
  0
VERTEX
  5
50E
  8
TEAM-DET1
 10
949.307457
 20
30.564834
 30
700.0
  0
VERTEX
  5
50F
  8
TEAM-DET1
 10
950.479425
 20
36.769554
 30
700.0
  0
VERTEX
  5
510
  8
TEAM-DET1
 10
951.851621
 20
42.068884
 30
700.0
  0
VERTEX
  5
511
  8
TEAM-DET1
 10
953.390261
 20
46.33234
 30
700.0
  0
VERTEX
  5
512
  8
TEAM-DET1
 10
955.057457
 20
49.45494
 30
700.0
  0
VERTEX
  5
513
  8
TEAM-DET1
 10
956.812157
 20
51.359794
 30
700.0
  0
VERTEX
  5
514
  8
TEAM-DET1
 10
958.611153
 20
52.0
 30
700.0
  0
VERTEX
  5
515
  8
TEAM-DET1
 10
960.410149
 20
51.359794
 30
700.0
  0
VERTEX
  5
516
  8
TEAM-DET1
 10
962.164847
 20
49.45494
 30
700.0
  0
VERTEX
  5
517
  8
TEAM-DET1
 10
963.832043
 20
46.33234
 30
700.0
  0
VERTEX
  5
518
  8
TEAM-DET1
 10
965.370683
 20
42.068884
 30
700.0
  0
VERTEX
  5
519
  8
TEAM-DET1
 10
966.742881
 20
36.769554
 30
700.0
  0
VERTEX
  5
51A
  8
TEAM-DET1
 10
967.914847
 20
30.564834
 30
700.0
  0
VERTEX
  5
51B
  8
TEAM-DET1
 10
968.857727
 20
23.607506
 30
700.0
  0
VERTEX
  5
51C
  8
TEAM-DET1
 10
969.548303
 20
16.068884
 30
700.0
  0
VERTEX
  5
51D
  8
TEAM-DET1
 10
969.969569
 20
8.134592
 30
700.0
  0
VERTEX
  5
51E
  8
TEAM-DET1
 10
970.111153
 20
0.0
 30
700.0
  0
VERTEX
  5
51F
  8
TEAM-DET1
 10
969.969569
 20
-8.134592
 30
700.0
  0
VERTEX
  5
520
  8
TEAM-DET1
 10
969.548303
 20
-16.068882
 30
700.0
  0
VERTEX
  5
521
  8
TEAM-DET1
 10
968.857727
 20
-23.607506
 30
700.0
  0
VERTEX
  5
522
  8
TEAM-DET1
 10
967.914847
 20
-30.564832
 30
700.0
  0
VERTEX
  5
523
  8
TEAM-DET1
 10
966.742881
 20
-36.769552
 30
700.0
  0
VERTEX
  5
524
  8
TEAM-DET1
 10
965.370683
 20
-42.068882
 30
700.0
  0
VERTEX
  5
525
  8
TEAM-DET1
 10
963.832043
 20
-46.332338
 30
700.0
  0
VERTEX
  5
526
  8
TEAM-DET1
 10
962.164847
 20
-49.454938
 30
700.0
  0
VERTEX
  5
527
  8
TEAM-DET1
 10
960.410149
 20
-51.359792
 30
700.0
  0
SEQEND
  5
528
  8
TEAM-DET1
  0
POLYLINE
  5
2E3
  8
TEAM-DET1
 66
     1
 10
0.0
 20
0.0
 30
700.0
 70
     1
  0
VERTEX
  5
529
  8
TEAM-DET1
 10
982.864203
 20
-79.73689
 30
700.0
  0
VERTEX
  5
52A
  8
TEAM-DET1
 10
982.864203
 20
79.73689
 30
700.0
  0
VERTEX
  5
52B
  8
TEAM-DET1
 10
934.358103
 20
79.73689
 30
700.0
  0
VERTEX
  5
52C
  8
TEAM-DET1
 10
934.358103
 20
-79.73689
 30
700.0
  0
SEQEND
  5
52D
  8
TEAM-DET1
  0
POLYLINE
  5
2E4
  8
TEAM-DET1
 66
     1
 10
0.0
 20
0.0
 30
700.0
 70
     1
  0
VERTEX
  5
52E
  8
TEAM-DET1
 10
-79.73689
 20
-540.567896
 30
700.0
  0
VERTEX
  5
52F
  8
TEAM-DET1
 10
79.73689
 20
-540.567896
 30
700.0
  0
VERTEX
  5
530
  8
TEAM-DET1
 10
79.73689
 20
-527.590896
 30
700.0
  0
VERTEX
  5
531
  8
TEAM-DET1
 10
-79.73689
 20
-527.590896
 30
700.0
  0
SEQEND
  5
532
  8
TEAM-DET1
  0
POLYLINE
  5
2E5
  8
TEAM-DET1
 66
     1
 10
0.0
 20
0.0
 30
700.0
 70
     1
  0
VERTEX
  5
533
  8
TEAM-DET1
 10
-79.73689
 20
-527.590896
 30
700.0
  0
VERTEX
  5
534
  8
TEAM-DET1
 10
79.73689
 20
-527.590896
 30
700.0
  0
VERTEX
  5
535
  8
TEAM-DET1
 10
79.73689
 20
-514.613897
 30
700.0
  0
VERTEX
  5
536
  8
TEAM-DET1
 10
-79.73689
 20
-514.613897
 30
700.0
  0
SEQEND
  5
537
  8
TEAM-DET1
  0
POLYLINE
  5
2E6
  8
TEAM-DET1
 66
     1
 10
0.0
 20
0.0
 30
700.0
 70
     1
  0
VERTEX
  5
538
  8
TEAM-DET1
 10
-79.73689
 20
-514.613897
 30
700.0
  0
VERTEX
  5
539
  8
TEAM-DET1
 10
79.73689
 20
-514.613897
 30
700.0
  0
VERTEX
  5
53A
  8
TEAM-DET1
 10
79.73689
 20
-501.636897
 30
700.0
  0
VERTEX
  5
53B
  8
TEAM-DET1
 10
-79.73689
 20
-501.636897
 30
700.0
  0
SEQEND
  5
53C
  8
TEAM-DET1
  0
POLYLINE
  5
2E7
  8
TEAM-DET1
 66
     1
 10
0.0
 20
0.0
 30
700.0
 70
     1
  0
VERTEX
  5
53D
  8
TEAM-DET1
 10
-79.73689
 20
-501.636897
 30
700.0
  0
VERTEX
  5
53E
  8
TEAM-DET1
 10
79.73689
 20
-501.636897
 30
700.0
  0
VERTEX
  5
53F
  8
TEAM-DET1
 10
79.73689
 20
-488.659898
 30
700.0
  0
VERTEX
  5
540
  8
TEAM-DET1
 10
-79.73689
 20
-488.659898
 30
700.0
  0
SEQEND
  5
541
  8
TEAM-DET1
  0
TEXT
  5
2E8
  8
TEAM-TXT
 10
-654.925599
 20
261.43036
 30
700.0
 40
30.0
  1
team 121031
 41
0.8
 51
15.0
  7
TEAM
  0
ENDSEC
  0
EOF
