  0
SECTION
  2
HEADER
  9
$ACADVER
  1
AC1009
  9
$INSBASE
 10
0.0
 20
0.0
 30
0.0
  9
$EXTMIN
 10
-910.064467
 20
-430.011995
 30
-0.010822
  9
$EXTMAX
 10
850.068451
 20
430.37813
 30
600.018921
  9
$LIMMIN
 10
-910.064467
 20
-430.011995
  9
$LIMMAX
 10
850.068451
 20
430.37813
  9
$ORTHOMODE
 70
     1
  9
$REGENMODE
 70
     1
  9
$FILLMODE
 70
     1
  9
$QTEXTMODE
 70
     0
  9
$MIRRTEXT
 70
     0
  9
$DRAGMODE
 70
     2
  9
$LTSCALE
 40
25.0
  9
$OSMODE
 70
     0
  9
$ATTMODE
 70
     1
  9
$TEXTSIZE
 40
200.0
  9
$TRACEWID
 40
1.0
  9
$TEXTSTYLE
  7
STANDARD
  9
$CLAYER
  8
TEAM-MAS
  9
$CELTYPE
  6
BYLAYER
  9
$CECOLOR
 62
   256
  9
$DIMSCALE
 40
0.0
  9
$DIMASZ
 40
20.0
  9
$DIMEXO
 40
10.0
  9
$DIMDLI
 40
1.0
  9
$DIMRND
 40
0.0
  9
$DIMDLE
 40
0.0
  9
$DIMEXE
 40
1.0
  9
$DIMTP
 40
0.0
  9
$DIMTM
 40
0.0
  9
$DIMTXT
 40
35.0
  9
$DIMCEN
 40
1.0
  9
$DIMTSZ
 40
0.0
  9
$DIMTOL
 70
     0
  9
$DIMLIM
 70
     0
  9
$DIMTIH
 70
     0
  9
$DIMTOH
 70
     0
  9
$DIMSE1
 70
     0
  9
$DIMSE2
 70
     0
  9
$DIMTAD
 70
     0
  9
$DIMZIN
 70
     0
  9
$DIMBLK
  1

  9
$DIMASO
 70
     1
  9
$DIMSHO
 70
     0
  9
$DIMPOST
  1

  9
$DIMAPOST
  1

  9
$DIMALT
 70
     0
  9
$DIMALTD
 70
     2
  9
$DIMALTF
 40
25.4
  9
$DIMLFAC
 40
1.0
  9
$DIMTOFL
 70
     0
  9
$DIMTVP
 40
0.0
  9
$DIMTIX
 70
     0
  9
$DIMSOXD
 70
     0
  9
$DIMSAH
 70
     0
  9
$DIMBLK1
  1

  9
$DIMBLK2
  1

  9
$DIMSTYLE
  2
TEAM
  9
$DIMCLRD
 70
     9
  9
$DIMCLRE
 70
     9
  9
$DIMCLRT
 70
    11
  9
$DIMTFAC
 40
1.0
  9
$DIMGAP
 40
15.0
  9
$LUNITS
 70
     2
  9
$LUPREC
 70
     1
  9
$SKETCHINC
 40
1.0
  9
$FILLETRAD
 40
50.0
  9
$AUNITS
 70
     0
  9
$AUPREC
 70
     0
  9
$MENU
  1
ROPLANS
  9
$ELEVATION
 40
0.0
  9
$PELEVATION
 40
0.0
  9
$THICKNESS
 40
0.0
  9
$LIMCHECK
 70
     0
  9
$BLIPMODE
 70
     1
  9
$CHAMFERA
 40
0.0
  9
$CHAMFERB
 40
0.0
  9
$SKPOLY
 70
     0
  9
$TDCREATE
 40
2450392.957851
  9
$TDUPDATE
 40
2455493.900056
  9
$TDINDWG
 40
2.014927
  9
$TDUSRTIMER
 40
2.014927
  9
$USRTIMER
 70
     1
  9
$ANGBASE
 50
0.0
  9
$ANGDIR
 70
     0
  9
$PDMODE
 70
     0
  9
$PDSIZE
 40
0.0
  9
$PLINEWID
 40
0.0
  9
$COORDS
 70
     2
  9
$SPLFRAME
 70
     0
  9
$SPLINETYPE
 70
     6
  9
$SPLINESEGS
 70
     8
  9
$ATTDIA
 70
     0
  9
$ATTREQ
 70
     0
  9
$HANDLING
 70
     1
  9
$HANDSEED
  5
43A
  9
$SURFTAB1
 70
    24
  9
$SURFTAB2
 70
    24
  9
$SURFTYPE
 70
     6
  9
$SURFU
 70
     6
  9
$SURFV
 70
     6
  9
$UCSNAME
  2

  9
$UCSORG
 10
0.0
 20
0.0
 30
0.0
  9
$UCSXDIR
 10
1.0
 20
0.0
 30
0.0
  9
$UCSYDIR
 10
0.0
 20
1.0
 30
0.0
  9
$PUCSNAME
  2

  9
$PUCSORG
 10
0.0
 20
0.0
 30
0.0
  9
$PUCSXDIR
 10
1.0
 20
0.0
 30
0.0
  9
$PUCSYDIR
 10
0.0
 20
1.0
 30
0.0
  9
$USERI1
 70
     0
  9
$USERI2
 70
     0
  9
$USERI3
 70
     0
  9
$USERI4
 70
     0
  9
$USERI5
 70
     0
  9
$USERR1
 40
0.0
  9
$USERR2
 40
0.0
  9
$USERR3
 40
0.0
  9
$USERR4
 40
0.0
  9
$USERR5
 40
0.0
  9
$WORLDVIEW
 70
     1
  9
$SHADEDGE
 70
     0
  9
$SHADEDIF
 70
    70
  9
$TILEMODE
 70
     1
  9
$MAXACTVP
 70
    16
  9
$PLIMCHECK
 70
     0
  9
$PEXTMIN
 10
-0.805942
 20
0.005011
 30
0.0
  9
$PEXTMAX
 10
20.250094
 20
11.356329
 30
0.0
  9
$PLIMMIN
 10
0.0
 20
0.0
  9
$PLIMMAX
 10
12.0
 20
9.0
  9
$UNITMODE
 70
     0
  9
$VISRETAIN
 70
     0
  9
$PLINEGEN
 70
     0
  9
$PSLTSCALE
 70
     0
  0
ENDSEC
  0
SECTION
  2
TABLES
  0
TABLE
  2
VPORT
 70
     2
  0
VPORT
  2
*ACTIVE
 70
     0
 10
0.0
 20
0.0
 11
1.0
 21
1.0
 12
-29.998008
 22
0.183067
 13
0.0
 23
0.0
 14
1.0
 24
1.0
 15
50.0
 25
50.0
 16
0.0
 26
0.0
 36
1.0
 17
0.0
 27
0.0
 37
0.0
 40
946.482261
 41
1.865779
 42
50.0
 43
0.0
 44
0.0
 50
0.0
 51
0.0
 71
     0
 72
   100
 73
     1
 74
     1
 75
     0
 76
     0
 77
     0
 78
     0
  0
ENDTAB
  0
TABLE
  2
LTYPE
 70
     1
  0
LTYPE
  2
CONTINUOUS
 70
     0
  3
Solid Line
 72
    65
 73
     0
 40
0.0
  0
ENDTAB
  0
TABLE
  2
LAYER
 70
     8
  0
LAYER
  2
0
 70
     0
 62
     7
  6
CONTINUOUS
  0
LAYER
  2
TEAM-BODY
 70
     0
 62
     2
  6
CONTINUOUS
  0
LAYER
  2
TEAM-MAS
 70
     0
 62
     9
  6
CONTINUOUS
  0
LAYER
  2
TEAM-TXT
 70
     0
 62
    11
  6
CONTINUOUS
  0
LAYER
  2
TEAM-DET1
 70
     0
 62
     4
  6
CONTINUOUS
  0
LAYER
  2
TEAM-KAN
 70
     0
 62
     6
  6
CONTINUOUS
  0
LAYER
  2
TEAM-NET
 70
     0
 62
    15
  6
CONTINUOUS
  0
LAYER
  2
TEAM-INSP
 70
     0
 62
     5
  6
CONTINUOUS
  0
ENDTAB
  0
TABLE
  2
STYLE
 70
     2
  0
STYLE
  2
STANDARD
 70
     0
 40
0.0
 41
1.0
 50
0.0
 71
     0
 42
200.0
  3
txt
  4

  0
STYLE
  2
TEAM
 70
     0
 40
0.0
 41
0.8
 50
15.0
 71
     0
 42
7.0
  3
ROMANS.shx
  4

  0
ENDTAB
  0
TABLE
  2
VIEW
 70
     0
  0
ENDTAB
  0
TABLE
  2
UCS
 70
     0
  0
ENDTAB
  0
TABLE
  2
APPID
 70
     1
  0
APPID
  2
ACAD
 70
     0
  0
ENDTAB
  0
TABLE
  2
DIMSTYLE
 70
     1
  0
DIMSTYLE
  2
TEAM
 70
     0
  3

  4

  5

  6

  7

 40
0.0
 41
20.0
 42
10.0
 43
1.0
 44
1.0
 45
0.0
 46
0.0
 47
0.0
 48
0.0
140
35.0
141
1.0
142
0.0
143
25.4
144
1.0
145
0.0
146
1.0
147
15.0
 71
     0
 72
     0
 73
     0
 74
     0
 75
     0
 76
     0
 77
     0
 78
     0
170
     0
171
     2
172
     0
173
     0
174
     0
175
     0
176
     9
177
     9
178
    11
  0
ENDTAB
  0
ENDSEC
  0
SECTION
  2
BLOCKS
  0
BLOCK
  8
0
  2
$MODEL_SPACE
 70
     0
 10
0.0
 20
0.0
 30
0.0
  3
$MODEL_SPACE
  1

  0
ENDBLK
  5
3E8
  8
0
  0
BLOCK
 67
     1
  8
0
  2
$PAPER_SPACE
 70
     0
 10
0.0
 20
0.0
 30
0.0
  3
$PAPER_SPACE
  1

  0
ENDBLK
  5
3E6
 67
     1
  8
0
  0
ENDSEC
  0
SECTION
  2
ENTITIES
  0
POLYLINE
  5
20
  8
TEAM-NET
 66
     1
 10
0.0
 20
0.0
 30
0.0
 70
    16
 71
     2
 72
    37
  0
VERTEX
  5
21
  8
TEAM-NET
 10
474.675222
 20
-300.368147
 30
500.0
 70
    64
  0
VERTEX
  5
22
  8
TEAM-NET
 10
403.048335
 20
-300.102235
 30
500.0
 70
    64
  0
VERTEX
  5
23
  8
TEAM-NET
 10
331.421447
 20
-299.836323
 30
500.0
 70
    64
  0
VERTEX
  5
24
  8
TEAM-NET
 10
259.794559
 20
-299.570411
 30
500.0
 70
    64
  0
VERTEX
  5
25
  8
TEAM-NET
 10
188.167672
 20
-299.304499
 30
500.0
 70
    64
  0
VERTEX
  5
26
  8
TEAM-NET
 10
116.540784
 20
-299.038587
 30
500.0
 70
    64
  0
VERTEX
  5
27
  8
TEAM-NET
 10
44.913896
 20
-298.772676
 30
500.0
 70
    64
  0
VERTEX
  5
28
  8
TEAM-NET
 10
-26.712991
 20
-298.506764
 30
500.0
 70
    64
  0
VERTEX
  5
29
  8
TEAM-NET
 10
-98.339879
 20
-298.240852
 30
500.0
 70
    64
  0
VERTEX
  5
2A
  8
TEAM-NET
 10
-169.966767
 20
-297.97494
 30
500.0
 70
    64
  0
VERTEX
  5
2B
  8
TEAM-NET
 10
-241.593654
 20
-297.709028
 30
500.0
 70
    64
  0
VERTEX
  5
2C
  8
TEAM-NET
 10
-313.220542
 20
-297.443116
 30
500.0
 70
    64
  0
VERTEX
  5
2D
  8
TEAM-NET
 10
-384.771693
 20
-295.353765
 30
500.0
 70
    64
  0
VERTEX
  5
2E
  8
TEAM-NET
 10
-454.186866
 20
-278.435742
 30
500.0
 70
    64
  0
VERTEX
  5
2F
  8
TEAM-NET
 10
-517.39623
 20
-245.130155
 30
500.0
 70
    64
  0
VERTEX
  5
30
  8
TEAM-NET
 10
-570.597525
 20
-197.440449
 30
500.0
 70
    64
  0
VERTEX
  5
31
  8
TEAM-NET
 10
-610.59051
 20
-138.235323
 30
500.0
 70
    64
  0
VERTEX
  5
32
  8
TEAM-NET
 10
-634.969471
 20
-71.076169
 30
500.0
 70
    64
  0
VERTEX
  5
33
  8
TEAM-NET
 10
-642.267929
 20
-0.002838
 30
500.0
 70
    64
  0
VERTEX
  5
34
  8
TEAM-NET
 10
-634.970739
 20
71.070635
 30
500.0
 70
    64
  0
VERTEX
  5
35
  8
TEAM-NET
 10
-610.593087
 20
138.230265
 30
500.0
 70
    64
  0
VERTEX
  5
36
  8
TEAM-NET
 10
-570.601256
 20
197.43617
 30
500.0
 70
    64
  0
VERTEX
  5
37
  8
TEAM-NET
 10
-517.40089
 20
245.126913
 30
500.0
 70
    64
  0
VERTEX
  5
38
  8
TEAM-NET
 10
-454.192176
 20
278.433732
 30
500.0
 70
    64
  0
VERTEX
  5
39
  8
TEAM-NET
 10
-384.777332
 20
295.353107
 30
500.0
 70
    64
  0
VERTEX
  5
3A
  8
TEAM-NET
 10
-313.225971
 20
297.309674
 30
500.0
 70
    64
  0
VERTEX
  5
3B
  8
TEAM-NET
 10
-241.59859
 20
297.309674
 30
500.0
 70
    64
  0
VERTEX
  5
3C
  8
TEAM-NET
 10
-169.971209
 20
297.309674
 30
500.0
 70
    64
  0
VERTEX
  5
3D
  8
TEAM-NET
 10
-98.343828
 20
297.309674
 30
500.0
 70
    64
  0
VERTEX
  5
3E
  8
TEAM-NET
 10
-26.716447
 20
297.309674
 30
500.0
 70
    64
  0
VERTEX
  5
3F
  8
TEAM-NET
 10
44.910935
 20
297.309674
 30
500.0
 70
    64
  0
VERTEX
  5
40
  8
TEAM-NET
 10
116.538316
 20
297.309674
 30
500.0
 70
    64
  0
VERTEX
  5
41
  8
TEAM-NET
 10
188.165697
 20
297.309674
 30
500.0
 70
    64
  0
VERTEX
  5
42
  8
TEAM-NET
 10
259.793078
 20
297.309674
 30
500.0
 70
    64
  0
VERTEX
  5
43
  8
TEAM-NET
 10
331.42046
 20
297.309674
 30
500.0
 70
    64
  0
VERTEX
  5
44
  8
TEAM-NET
 10
403.047841
 20
297.309674
 30
500.0
 70
    64
  0
VERTEX
  5
45
  8
TEAM-NET
 10
474.675222
 20
297.309674
 30
500.0
 70
    64
  0
VERTEX
  5
46
  8
TEAM-NET
 10
474.675222
 20
-218.556881
 30
120.0
 70
    64
  0
VERTEX
  5
47
  8
TEAM-NET
 10
408.259297
 20
-218.556881
 30
120.0
 70
    64
  0
VERTEX
  5
48
  8
TEAM-NET
 10
341.843371
 20
-218.556881
 30
120.0
 70
    64
  0
VERTEX
  5
49
  8
TEAM-NET
 10
275.427446
 20
-218.556881
 30
120.0
 70
    64
  0
VERTEX
  5
4A
  8
TEAM-NET
 10
209.01152
 20
-218.556881
 30
120.0
 70
    64
  0
VERTEX
  5
4B
  8
TEAM-NET
 10
142.595594
 20
-218.556881
 30
120.0
 70
    64
  0
VERTEX
  5
4C
  8
TEAM-NET
 10
76.179669
 20
-218.556881
 30
120.0
 70
    64
  0
VERTEX
  5
4D
  8
TEAM-NET
 10
9.763743
 20
-218.556881
 30
120.0
 70
    64
  0
VERTEX
  5
4E
  8
TEAM-NET
 10
-56.652182
 20
-218.556881
 30
120.0
 70
    64
  0
VERTEX
  5
4F
  8
TEAM-NET
 10
-123.068108
 20
-218.556881
 30
120.0
 70
    64
  0
VERTEX
  5
50
  8
TEAM-NET
 10
-189.484033
 20
-218.556881
 30
120.0
 70
    64
  0
VERTEX
  5
51
  8
TEAM-NET
 10
-255.899959
 20
-218.556881
 30
120.0
 70
    64
  0
VERTEX
  5
52
  8
TEAM-NET
 10
-322.315885
 20
-218.556881
 30
120.0
 70
    64
  0
VERTEX
  5
53
  8
TEAM-NET
 10
-388.726871
 20
-218.268498
 30
120.0
 70
    64
  0
VERTEX
  5
54
  8
TEAM-NET
 10
-453.524755
 20
-204.90929
 30
120.0
 70
    64
  0
VERTEX
  5
55
  8
TEAM-NET
 10
-511.356243
 20
-172.772811
 30
120.0
 70
    64
  0
VERTEX
  5
56
  8
TEAM-NET
 10
-556.921831
 20
-124.803951
 30
120.0
 70
    64
  0
VERTEX
  5
57
  8
TEAM-NET
 10
-586.046026
 20
-65.398434
 30
120.0
 70
    64
  0
VERTEX
  5
58
  8
TEAM-NET
 10
-596.059973
 20
0.0
 30
120.0
 70
    64
  0
VERTEX
  5
59
  8
TEAM-NET
 10
-586.046026
 20
65.398434
 30
120.0
 70
    64
  0
VERTEX
  5
5A
  8
TEAM-NET
 10
-556.921831
 20
124.803951
 30
120.0
 70
    64
  0
VERTEX
  5
5B
  8
TEAM-NET
 10
-511.356243
 20
172.772811
 30
120.0
 70
    64
  0
VERTEX
  5
5C
  8
TEAM-NET
 10
-453.524755
 20
204.90929
 30
120.0
 70
    64
  0
VERTEX
  5
5D
  8
TEAM-NET
 10
-388.726871
 20
218.268498
 30
120.0
 70
    64
  0
VERTEX
  5
5E
  8
TEAM-NET
 10
-322.315885
 20
218.556881
 30
120.0
 70
    64
  0
VERTEX
  5
5F
  8
TEAM-NET
 10
-255.899959
 20
218.556881
 30
120.0
 70
    64
  0
VERTEX
  5
60
  8
TEAM-NET
 10
-189.484033
 20
218.556881
 30
120.0
 70
    64
  0
VERTEX
  5
61
  8
TEAM-NET
 10
-123.068108
 20
218.556881
 30
120.0
 70
    64
  0
VERTEX
  5
62
  8
TEAM-NET
 10
-56.652182
 20
218.556881
 30
120.0
 70
    64
  0
VERTEX
  5
63
  8
TEAM-NET
 10
9.763743
 20
218.556881
 30
120.0
 70
    64
  0
VERTEX
  5
64
  8
TEAM-NET
 10
76.179669
 20
218.556881
 30
120.0
 70
    64
  0
VERTEX
  5
65
  8
TEAM-NET
 10
142.595594
 20
218.556881
 30
120.0
 70
    64
  0
VERTEX
  5
66
  8
TEAM-NET
 10
209.01152
 20
218.556881
 30
120.0
 70
    64
  0
VERTEX
  5
67
  8
TEAM-NET
 10
275.427446
 20
218.556881
 30
120.0
 70
    64
  0
VERTEX
  5
68
  8
TEAM-NET
 10
341.843371
 20
218.556881
 30
120.0
 70
    64
  0
VERTEX
  5
69
  8
TEAM-NET
 10
408.259297
 20
218.556881
 30
120.0
 70
    64
  0
VERTEX
  5
6A
  8
TEAM-NET
 10
474.675222
 20
218.556881
 30
120.0
 70
    64
  0
SEQEND
  5
6C
  8
TEAM-NET
  0
POLYLINE
  5
6D
  8
TEAM-NET
 66
     1
 10
0.0
 20
0.0
 30
0.0
 70
    16
 71
     2
 72
    13
  0
VERTEX
  5
6E
  8
TEAM-NET
 10
474.675222
 20
297.309674
 30
500.0
 70
    64
  0
VERTEX
  5
6F
  8
TEAM-NET
 10
551.400388
 20
287.530027
 30
500.0
 70
    64
  0
VERTEX
  5
70
  8
TEAM-NET
 10
622.84751
 20
257.904003
 30
500.0
 70
    64
  0
VERTEX
  5
71
  8
TEAM-NET
 10
683.979831
 20
210.520125
 30
500.0
 70
    64
  0
VERTEX
  5
72
  8
TEAM-NET
 10
730.48775
 20
148.718781
 30
500.0
 70
    64
  0
VERTEX
  5
73
  8
TEAM-NET
 10
759.09263
 20
76.856737
 30
500.0
 70
    64
  0
VERTEX
  5
74
  8
TEAM-NET
 10
767.777934
 20
0.0
 30
500.0
 70
    64
  0
VERTEX
  5
75
  8
TEAM-NET
 10
759.09263
 20
-76.856737
 30
500.0
 70
    64
  0
VERTEX
  5
76
  8
TEAM-NET
 10
730.48775
 20
-148.718781
 30
500.0
 70
    64
  0
VERTEX
  5
77
  8
TEAM-NET
 10
683.979831
 20
-210.520125
 30
500.0
 70
    64
  0
VERTEX
  5
78
  8
TEAM-NET
 10
622.84751
 20
-257.904003
 30
500.0
 70
    64
  0
VERTEX
  5
79
  8
TEAM-NET
 10
551.400388
 20
-287.530027
 30
500.0
 70
    64
  0
VERTEX
  5
7A
  8
TEAM-NET
 10
474.675222
 20
-297.309674
 30
500.0
 70
    64
  0
VERTEX
  5
7B
  8
TEAM-NET
 10
474.675222
 20
216.711956
 30
120.0
 70
    64
  0
VERTEX
  5
7C
  8
TEAM-NET
 10
536.418146
 20
215.988928
 30
120.0
 70
    64
  0
VERTEX
  5
7D
  8
TEAM-NET
 10
595.494725
 20
198.025931
 30
120.0
 70
    64
  0
VERTEX
  5
7E
  8
TEAM-NET
 10
647.18954
 20
164.256751
 30
120.0
 70
    64
  0
VERTEX
  5
7F
  8
TEAM-NET
 10
687.376376
 20
117.376801
 30
120.0
 70
    64
  0
VERTEX
  5
80
  8
TEAM-NET
 10
712.847567
 20
61.12798
 30
120.0
 70
    64
  0
VERTEX
  5
81
  8
TEAM-NET
 10
721.570037
 20
0.0
 30
120.0
 70
    64
  0
VERTEX
  5
82
  8
TEAM-NET
 10
712.847567
 20
-61.12798
 30
120.0
 70
    64
  0
VERTEX
  5
83
  8
TEAM-NET
 10
687.376376
 20
-117.376801
 30
120.0
 70
    64
  0
VERTEX
  5
84
  8
TEAM-NET
 10
647.18954
 20
-164.256751
 30
120.0
 70
    64
  0
VERTEX
  5
85
  8
TEAM-NET
 10
595.494725
 20
-198.025931
 30
120.0
 70
    64
  0
VERTEX
  5
86
  8
TEAM-NET
 10
536.418146
 20
-215.988928
 30
120.0
 70
    64
  0
VERTEX
  5
87
  8
TEAM-NET
 10
474.675222
 20
-216.711956
 30
120.0
 70
    64
  0
SEQEND
  5
88
  8
TEAM-NET
  0
CIRCLE
  5
89
  8
TEAM-INSP
 10
0.0
 20
0.0
 30
0.0
 40
10.0
  0
POLYLINE
  5
8B
  8
TEAM-BODY
 66
     1
 10
0.0
 20
0.0
 30
120.0
  0
VERTEX
  5
3EE
  8
TEAM-BODY
 10
474.675222
 20
218.556881
 30
120.0
  0
VERTEX
  5
3EF
  8
TEAM-BODY
 10
-377.503092
 20
218.556881
 30
120.0
 42
1.0
  0
VERTEX
  5
3F0
  8
TEAM-BODY
 10
-377.503092
 20
-218.556881
 30
120.0
  0
VERTEX
  5
3F1
  8
TEAM-BODY
 10
474.675222
 20
-218.556881
 30
120.0
  0
SEQEND
  5
3F2
  8
TEAM-BODY
  0
POLYLINE
  5
8D
  8
TEAM-BODY
 66
     1
 10
0.0
 20
0.0
 30
120.0
  0
VERTEX
  5
3F3
  8
TEAM-BODY
 10
474.675222
 20
-216.711956
 30
120.0
 42
1.139276
  0
VERTEX
  5
3F4
  8
TEAM-BODY
 10
474.675222
 20
216.711956
 30
120.0
 42
1.139276
  0
SEQEND
  5
3F5
  8
TEAM-BODY
  0
CIRCLE
  5
8E
  8
TEAM-DET1
 10
552.0
 20
0.0
 30
120.0
 40
52.0
  0
CIRCLE
  5
90
  8
TEAM-KAN
 10
552.0
 20
0.0
 30
120.0
 40
26.0
  0
POLYLINE
  5
92
  8
TEAM-NET
 66
     1
 10
0.0
 20
0.0
 30
0.0
 70
    16
 71
     2
 72
    37
  0
VERTEX
  5
93
  8
TEAM-NET
 10
474.675222
 20
216.711956
 30
120.0
 70
    64
  0
VERTEX
  5
94
  8
TEAM-NET
 10
495.24831
 20
218.418903
 30
120.0
 70
    64
  0
VERTEX
  5
95
  8
TEAM-NET
 10
515.890673
 20
218.177175
 30
120.0
 70
    64
  0
VERTEX
  5
96
  8
TEAM-NET
 10
536.418146
 20
215.988928
 30
120.0
 70
    64
  0
VERTEX
  5
97
  8
TEAM-NET
 10
556.647589
 20
211.873684
 30
120.0
 70
    64
  0
VERTEX
  5
98
  8
TEAM-NET
 10
576.39852
 20
205.868158
 30
120.0
 70
    64
  0
VERTEX
  5
99
  8
TEAM-NET
 10
595.494725
 20
198.025931
 30
120.0
 70
    64
  0
VERTEX
  5
9A
  8
TEAM-NET
 10
613.765835
 20
188.416969
 30
120.0
 70
    64
  0
VERTEX
  5
9B
  8
TEAM-NET
 10
631.048838
 20
177.127
 30
120.0
 70
    64
  0
VERTEX
  5
9C
  8
TEAM-NET
 10
647.18954
 20
164.256751
 30
120.0
 70
    64
  0
VERTEX
  5
9D
  8
TEAM-NET
 10
662.043939
 20
149.921046
 30
120.0
 70
    64
  0
VERTEX
  5
9E
  8
TEAM-NET
 10
675.479507
 20
134.247785
 30
120.0
 70
    64
  0
VERTEX
  5
9F
  8
TEAM-NET
 10
687.376376
 20
117.376801
 30
120.0
 70
    64
  0
VERTEX
  5
A0
  8
TEAM-NET
 10
697.628404
 20
99.458612
 30
120.0
 70
    64
  0
VERTEX
  5
A1
  8
TEAM-NET
 10
706.144126
 20
80.653079
 30
120.0
 70
    64
  0
VERTEX
  5
A2
  8
TEAM-NET
 10
712.847567
 20
61.12798
 30
120.0
 70
    64
  0
VERTEX
  5
A3
  8
TEAM-NET
 10
717.678921
 20
41.057514
 30
120.0
 70
    64
  0
VERTEX
  5
A4
  8
TEAM-NET
 10
720.595083
 20
20.620743
 30
120.0
 70
    64
  0
VERTEX
  5
A5
  8
TEAM-NET
 10
721.570037
 20
0.0
 30
120.0
 70
    64
  0
VERTEX
  5
A6
  8
TEAM-NET
 10
720.595083
 20
-20.620743
 30
120.0
 70
    64
  0
VERTEX
  5
A7
  8
TEAM-NET
 10
717.678921
 20
-41.057514
 30
120.0
 70
    64
  0
VERTEX
  5
A8
  8
TEAM-NET
 10
712.847567
 20
-61.12798
 30
120.0
 70
    64
  0
VERTEX
  5
A9
  8
TEAM-NET
 10
706.144126
 20
-80.653079
 30
120.0
 70
    64
  0
VERTEX
  5
AA
  8
TEAM-NET
 10
697.628404
 20
-99.458612
 30
120.0
 70
    64
  0
VERTEX
  5
AB
  8
TEAM-NET
 10
687.376376
 20
-117.376801
 30
120.0
 70
    64
  0
VERTEX
  5
AC
  8
TEAM-NET
 10
675.479507
 20
-134.247785
 30
120.0
 70
    64
  0
VERTEX
  5
AD
  8
TEAM-NET
 10
662.043939
 20
-149.921046
 30
120.0
 70
    64
  0
VERTEX
  5
AE
  8
TEAM-NET
 10
647.18954
 20
-164.256751
 30
120.0
 70
    64
  0
VERTEX
  5
AF
  8
TEAM-NET
 10
631.048838
 20
-177.127
 30
120.0
 70
    64
  0
VERTEX
  5
B0
  8
TEAM-NET
 10
613.765835
 20
-188.416969
 30
120.0
 70
    64
  0
VERTEX
  5
B1
  8
TEAM-NET
 10
595.494725
 20
-198.025931
 30
120.0
 70
    64
  0
VERTEX
  5
B2
  8
TEAM-NET
 10
576.39852
 20
-205.868158
 30
120.0
 70
    64
  0
VERTEX
  5
B3
  8
TEAM-NET
 10
556.647589
 20
-211.873684
 30
120.0
 70
    64
  0
VERTEX
  5
B4
  8
TEAM-NET
 10
536.418146
 20
-215.988928
 30
120.0
 70
    64
  0
VERTEX
  5
B5
  8
TEAM-NET
 10
515.890673
 20
-218.177175
 30
120.0
 70
    64
  0
VERTEX
  5
B6
  8
TEAM-NET
 10
495.24831
 20
-218.418903
 30
120.0
 70
    64
  0
VERTEX
  5
B7
  8
TEAM-NET
 10
474.675222
 20
-216.711956
 30
120.0
 70
    64
  0
VERTEX
  5
B8
  8
TEAM-NET
 10
474.675222
 20
218.556881
 30
120.0
 70
    64
  0
VERTEX
  5
B9
  8
TEAM-NET
 10
408.259297
 20
218.556881
 30
120.0
 70
    64
  0
VERTEX
  5
BA
  8
TEAM-NET
 10
341.843371
 20
218.556881
 30
120.0
 70
    64
  0
VERTEX
  5
BB
  8
TEAM-NET
 10
275.427446
 20
218.556881
 30
120.0
 70
    64
  0
VERTEX
  5
BC
  8
TEAM-NET
 10
209.01152
 20
218.556881
 30
120.0
 70
    64
  0
VERTEX
  5
BD
  8
TEAM-NET
 10
142.595594
 20
218.556881
 30
120.0
 70
    64
  0
VERTEX
  5
BE
  8
TEAM-NET
 10
76.179669
 20
218.556881
 30
120.0
 70
    64
  0
VERTEX
  5
BF
  8
TEAM-NET
 10
9.763743
 20
218.556881
 30
120.0
 70
    64
  0
VERTEX
  5
C0
  8
TEAM-NET
 10
-56.652182
 20
218.556881
 30
120.0
 70
    64
  0
VERTEX
  5
C1
  8
TEAM-NET
 10
-123.068108
 20
218.556881
 30
120.0
 70
    64
  0
VERTEX
  5
C2
  8
TEAM-NET
 10
-189.484033
 20
218.556881
 30
120.0
 70
    64
  0
VERTEX
  5
C3
  8
TEAM-NET
 10
-255.899959
 20
218.556881
 30
120.0
 70
    64
  0
VERTEX
  5
C4
  8
TEAM-NET
 10
-322.315885
 20
218.556881
 30
120.0
 70
    64
  0
VERTEX
  5
C5
  8
TEAM-NET
 10
-388.726871
 20
218.268498
 30
120.0
 70
    64
  0
VERTEX
  5
C6
  8
TEAM-NET
 10
-453.524755
 20
204.90929
 30
120.0
 70
    64
  0
VERTEX
  5
C7
  8
TEAM-NET
 10
-511.356243
 20
172.772811
 30
120.0
 70
    64
  0
VERTEX
  5
C8
  8
TEAM-NET
 10
-556.921831
 20
124.803951
 30
120.0
 70
    64
  0
VERTEX
  5
C9
  8
TEAM-NET
 10
-586.046026
 20
65.398434
 30
120.0
 70
    64
  0
VERTEX
  5
CA
  8
TEAM-NET
 10
-596.059973
 20
0.0
 30
120.0
 70
    64
  0
VERTEX
  5
CB
  8
TEAM-NET
 10
-586.046026
 20
-65.398434
 30
120.0
 70
    64
  0
VERTEX
  5
CC
  8
TEAM-NET
 10
-556.921831
 20
-124.803951
 30
120.0
 70
    64
  0
VERTEX
  5
CD
  8
TEAM-NET
 10
-511.356243
 20
-172.772811
 30
120.0
 70
    64
  0
VERTEX
  5
CE
  8
TEAM-NET
 10
-453.524755
 20
-204.90929
 30
120.0
 70
    64
  0
VERTEX
  5
CF
  8
TEAM-NET
 10
-388.726871
 20
-218.268498
 30
120.0
 70
    64
  0
VERTEX
  5
D0
  8
TEAM-NET
 10
-322.315885
 20
-218.556881
 30
120.0
 70
    64
  0
VERTEX
  5
D1
  8
TEAM-NET
 10
-255.899959
 20
-218.556881
 30
120.0
 70
    64
  0
VERTEX
  5
D2
  8
TEAM-NET
 10
-189.484033
 20
-218.556881
 30
120.0
 70
    64
  0
VERTEX
  5
D3
  8
TEAM-NET
 10
-123.068108
 20
-218.556881
 30
120.0
 70
    64
  0
VERTEX
  5
D4
  8
TEAM-NET
 10
-56.652182
 20
-218.556881
 30
120.0
 70
    64
  0
VERTEX
  5
D5
  8
TEAM-NET
 10
9.763743
 20
-218.556881
 30
120.0
 70
    64
  0
VERTEX
  5
D6
  8
TEAM-NET
 10
76.179669
 20
-218.556881
 30
120.0
 70
    64
  0
VERTEX
  5
D7
  8
TEAM-NET
 10
142.595594
 20
-218.556881
 30
120.0
 70
    64
  0
VERTEX
  5
D8
  8
TEAM-NET
 10
209.01152
 20
-218.556881
 30
120.0
 70
    64
  0
VERTEX
  5
D9
  8
TEAM-NET
 10
275.427446
 20
-218.556881
 30
120.0
 70
    64
  0
VERTEX
  5
DA
  8
TEAM-NET
 10
341.843371
 20
-218.556881
 30
120.0
 70
    64
  0
VERTEX
  5
DB
  8
TEAM-NET
 10
408.259297
 20
-218.556881
 30
120.0
 70
    64
  0
VERTEX
  5
DC
  8
TEAM-NET
 10
474.675222
 20
-218.556881
 30
120.0
 70
    64
  0
SEQEND
  5
DD
  8
TEAM-NET
  0
POLYLINE
  5
DE
  8
TEAM-BODY
 66
     1
 10
0.0
 20
0.0
 30
600.0
 39
-60.0
  0
VERTEX
  5
3F6
  8
TEAM-BODY
 10
474.675222
 20
375.0
 30
600.0
  0
VERTEX
  5
3F7
  8
TEAM-BODY
 10
-850.0
 20
375.0
 30
600.0
  0
VERTEX
  5
3F8
  8
TEAM-BODY
 10
-850.0
 20
-375.0
 30
600.0
  0
VERTEX
  5
3F9
  8
TEAM-BODY
 10
474.675222
 20
-375.0
 30
600.0
  0
SEQEND
  5
3FA
  8
TEAM-BODY
  0
POLYLINE
  5
DF
  8
TEAM-NET
 66
     1
 10
0.0
 20
0.0
 30
0.0
 70
    16
 71
     2
 72
    37
  0
VERTEX
  5
E0
  8
TEAM-NET
 10
474.675222
 20
-300.368147
 30
500.0
 70
    64
  0
VERTEX
  5
E1
  8
TEAM-NET
 10
403.048335
 20
-300.102235
 30
500.0
 70
    64
  0
VERTEX
  5
E2
  8
TEAM-NET
 10
331.421447
 20
-299.836323
 30
500.0
 70
    64
  0
VERTEX
  5
E3
  8
TEAM-NET
 10
259.794559
 20
-299.570411
 30
500.0
 70
    64
  0
VERTEX
  5
E4
  8
TEAM-NET
 10
188.167672
 20
-299.304499
 30
500.0
 70
    64
  0
VERTEX
  5
E5
  8
TEAM-NET
 10
116.540784
 20
-299.038587
 30
500.0
 70
    64
  0
VERTEX
  5
E6
  8
TEAM-NET
 10
44.913896
 20
-298.772676
 30
500.0
 70
    64
  0
VERTEX
  5
E7
  8
TEAM-NET
 10
-26.712991
 20
-298.506764
 30
500.0
 70
    64
  0
VERTEX
  5
E8
  8
TEAM-NET
 10
-98.339879
 20
-298.240852
 30
500.0
 70
    64
  0
VERTEX
  5
E9
  8
TEAM-NET
 10
-169.966767
 20
-297.97494
 30
500.0
 70
    64
  0
VERTEX
  5
EA
  8
TEAM-NET
 10
-241.593654
 20
-297.709028
 30
500.0
 70
    64
  0
VERTEX
  5
EB
  8
TEAM-NET
 10
-313.220542
 20
-297.443116
 30
500.0
 70
    64
  0
VERTEX
  5
EC
  8
TEAM-NET
 10
-384.771693
 20
-295.353765
 30
500.0
 70
    64
  0
VERTEX
  5
ED
  8
TEAM-NET
 10
-454.186866
 20
-278.435742
 30
500.0
 70
    64
  0
VERTEX
  5
EE
  8
TEAM-NET
 10
-517.39623
 20
-245.130155
 30
500.0
 70
    64
  0
VERTEX
  5
EF
  8
TEAM-NET
 10
-570.597525
 20
-197.440449
 30
500.0
 70
    64
  0
VERTEX
  5
F0
  8
TEAM-NET
 10
-610.59051
 20
-138.235323
 30
500.0
 70
    64
  0
VERTEX
  5
F1
  8
TEAM-NET
 10
-634.969471
 20
-71.076169
 30
500.0
 70
    64
  0
VERTEX
  5
F2
  8
TEAM-NET
 10
-642.267929
 20
-0.002838
 30
500.0
 70
    64
  0
VERTEX
  5
F3
  8
TEAM-NET
 10
-634.970739
 20
71.070635
 30
500.0
 70
    64
  0
VERTEX
  5
F4
  8
TEAM-NET
 10
-610.593087
 20
138.230265
 30
500.0
 70
    64
  0
VERTEX
  5
F5
  8
TEAM-NET
 10
-570.601256
 20
197.43617
 30
500.0
 70
    64
  0
VERTEX
  5
F6
  8
TEAM-NET
 10
-517.40089
 20
245.126913
 30
500.0
 70
    64
  0
VERTEX
  5
F7
  8
TEAM-NET
 10
-454.192176
 20
278.433732
 30
500.0
 70
    64
  0
VERTEX
  5
F8
  8
TEAM-NET
 10
-384.777332
 20
295.353107
 30
500.0
 70
    64
  0
VERTEX
  5
F9
  8
TEAM-NET
 10
-313.225971
 20
297.309674
 30
500.0
 70
    64
  0
VERTEX
  5
FA
  8
TEAM-NET
 10
-241.59859
 20
297.309674
 30
500.0
 70
    64
  0
VERTEX
  5
FB
  8
TEAM-NET
 10
-169.971209
 20
297.309674
 30
500.0
 70
    64
  0
VERTEX
  5
FC
  8
TEAM-NET
 10
-98.343828
 20
297.309674
 30
500.0
 70
    64
  0
VERTEX
  5
FD
  8
TEAM-NET
 10
-26.716447
 20
297.309674
 30
500.0
 70
    64
  0
VERTEX
  5
FE
  8
TEAM-NET
 10
44.910935
 20
297.309674
 30
500.0
 70
    64
  0
VERTEX
  5
FF
  8
TEAM-NET
 10
116.538316
 20
297.309674
 30
500.0
 70
    64
  0
VERTEX
  5
100
  8
TEAM-NET
 10
188.165697
 20
297.309674
 30
500.0
 70
    64
  0
VERTEX
  5
101
  8
TEAM-NET
 10
259.793078
 20
297.309674
 30
500.0
 70
    64
  0
VERTEX
  5
102
  8
TEAM-NET
 10
331.42046
 20
297.309674
 30
500.0
 70
    64
  0
VERTEX
  5
103
  8
TEAM-NET
 10
403.047841
 20
297.309674
 30
500.0
 70
    64
  0
VERTEX
  5
104
  8
TEAM-NET
 10
474.675222
 20
297.309674
 30
500.0
 70
    64
  0
VERTEX
  5
105
  8
TEAM-NET
 10
474.675222
 20
-355.999197
 30
600.0
 70
    64
  0
VERTEX
  5
106
  8
TEAM-NET
 10
390.499026
 20
-355.999197
 30
600.0
 70
    64
  0
VERTEX
  5
107
  8
TEAM-NET
 10
306.322831
 20
-355.999197
 30
600.0
 70
    64
  0
VERTEX
  5
108
  8
TEAM-NET
 10
222.146635
 20
-355.999197
 30
600.0
 70
    64
  0
VERTEX
  5
109
  8
TEAM-NET
 10
137.970439
 20
-355.999197
 30
600.0
 70
    64
  0
VERTEX
  5
10A
  8
TEAM-NET
 10
53.794244
 20
-355.999197
 30
600.0
 70
    64
  0
VERTEX
  5
10B
  8
TEAM-NET
 10
-30.381952
 20
-355.999197
 30
600.0
 70
    64
  0
VERTEX
  5
10C
  8
TEAM-NET
 10
-114.558148
 20
-355.999197
 30
600.0
 70
    64
  0
VERTEX
  5
10D
  8
TEAM-NET
 10
-198.734344
 20
-355.999197
 30
600.0
 70
    64
  0
VERTEX
  5
10E
  8
TEAM-NET
 10
-282.910539
 20
-355.999197
 30
600.0
 70
    64
  0
VERTEX
  5
10F
  8
TEAM-NET
 10
-367.086735
 20
-355.999197
 30
600.0
 70
    64
  0
VERTEX
  5
110
  8
TEAM-NET
 10
-451.262931
 20
-355.999197
 30
600.0
 70
    64
  0
VERTEX
  5
111
  8
TEAM-NET
 10
-535.261978
 20
-352.340911
 30
600.0
 70
    64
  0
VERTEX
  5
112
  8
TEAM-NET
 10
-616.300892
 20
-330.335804
 30
600.0
 70
    64
  0
VERTEX
  5
113
  8
TEAM-NET
 10
-689.763987
 20
-289.657751
 30
600.0
 70
    64
  0
VERTEX
  5
114
  8
TEAM-NET
 10
-751.42079
 20
-232.649252
 30
600.0
 70
    64
  0
VERTEX
  5
115
  8
TEAM-NET
 10
-797.720711
 20
-162.59322
 30
600.0
 70
    64
  0
VERTEX
  5
116
  8
TEAM-NET
 10
-825.997505
 20
-83.523925
 30
600.0
 70
    64
  0
VERTEX
  5
117
  8
TEAM-NET
 10
-834.66478
 20
0.005249
 30
600.0
 70
    64
  0
VERTEX
  5
118
  8
TEAM-NET
 10
-826.022026
 20
83.532769
 30
600.0
 70
    64
  0
VERTEX
  5
119
  8
TEAM-NET
 10
-797.732473
 20
162.597585
 30
600.0
 70
    64
  0
VERTEX
  5
11A
  8
TEAM-NET
 10
-751.424572
 20
232.648439
 30
600.0
 70
    64
  0
VERTEX
  5
11B
  8
TEAM-NET
 10
-689.763971
 20
289.652949
 30
600.0
 70
    64
  0
VERTEX
  5
11C
  8
TEAM-NET
 10
-616.30008
 20
330.329731
 30
600.0
 70
    64
  0
VERTEX
  5
11D
  8
TEAM-NET
 10
-535.261746
 20
352.337281
 30
600.0
 70
    64
  0
VERTEX
  5
11E
  8
TEAM-NET
 10
-451.262931
 20
355.999197
 30
600.0
 70
    64
  0
VERTEX
  5
11F
  8
TEAM-NET
 10
-367.086735
 20
355.999197
 30
600.0
 70
    64
  0
VERTEX
  5
120
  8
TEAM-NET
 10
-282.910539
 20
355.999197
 30
600.0
 70
    64
  0
VERTEX
  5
121
  8
TEAM-NET
 10
-198.734344
 20
355.999197
 30
600.0
 70
    64
  0
VERTEX
  5
122
  8
TEAM-NET
 10
-114.558148
 20
355.999197
 30
600.0
 70
    64
  0
VERTEX
  5
123
  8
TEAM-NET
 10
-30.381952
 20
355.999197
 30
600.0
 70
    64
  0
VERTEX
  5
124
  8
TEAM-NET
 10
53.794244
 20
355.999197
 30
600.0
 70
    64
  0
VERTEX
  5
125
  8
TEAM-NET
 10
137.970439
 20
355.999197
 30
600.0
 70
    64
  0
VERTEX
  5
126
  8
TEAM-NET
 10
222.146635
 20
355.999197
 30
600.0
 70
    64
  0
VERTEX
  5
127
  8
TEAM-NET
 10
306.322831
 20
355.999197
 30
600.0
 70
    64
  0
VERTEX
  5
128
  8
TEAM-NET
 10
390.499026
 20
355.999197
 30
600.0
 70
    64
  0
VERTEX
  5
129
  8
TEAM-NET
 10
474.675222
 20
355.999197
 30
600.0
 70
    64
  0
SEQEND
  5
12A
  8
TEAM-NET
  0
POLYLINE
  5
12B
  8
TEAM-BODY
 66
     1
 10
0.0
 20
0.0
 30
600.0
 39
-60.0
  0
VERTEX
  5
3FB
  8
TEAM-BODY
 10
474.675222
 20
375.0
 30
600.0
  0
VERTEX
  5
3FC
  8
TEAM-BODY
 10
850.0
 20
375.0
 30
600.0
  0
VERTEX
  5
3FD
  8
TEAM-BODY
 10
850.0
 20
-375.0
 30
600.0
  0
VERTEX
  5
3FE
  8
TEAM-BODY
 10
474.675222
 20
-375.0
 30
600.0
  0
SEQEND
  5
3FF
  8
TEAM-BODY
  0
POLYLINE
  5
12C
  8
TEAM-NET
 66
     1
 10
0.0
 20
0.0
 30
0.0
 70
    16
 71
     2
 72
    13
  0
VERTEX
  5
12D
  8
TEAM-NET
 10
474.675222
 20
297.309674
 30
500.0
 70
    64
  0
VERTEX
  5
12E
  8
TEAM-NET
 10
551.400388
 20
287.530027
 30
500.0
 70
    64
  0
VERTEX
  5
12F
  8
TEAM-NET
 10
622.84751
 20
257.904003
 30
500.0
 70
    64
  0
VERTEX
  5
130
  8
TEAM-NET
 10
683.979831
 20
210.520125
 30
500.0
 70
    64
  0
VERTEX
  5
131
  8
TEAM-NET
 10
730.48775
 20
148.718781
 30
500.0
 70
    64
  0
VERTEX
  5
132
  8
TEAM-NET
 10
759.09263
 20
76.856737
 30
500.0
 70
    64
  0
VERTEX
  5
133
  8
TEAM-NET
 10
767.777934
 20
0.0
 30
500.0
 70
    64
  0
VERTEX
  5
134
  8
TEAM-NET
 10
759.09263
 20
-76.856737
 30
500.0
 70
    64
  0
VERTEX
  5
135
  8
TEAM-NET
 10
730.48775
 20
-148.718781
 30
500.0
 70
    64
  0
VERTEX
  5
136
  8
TEAM-NET
 10
683.979831
 20
-210.520125
 30
500.0
 70
    64
  0
VERTEX
  5
137
  8
TEAM-NET
 10
622.84751
 20
-257.904003
 30
500.0
 70
    64
  0
VERTEX
  5
138
  8
TEAM-NET
 10
551.400388
 20
-287.530027
 30
500.0
 70
    64
  0
VERTEX
  5
139
  8
TEAM-NET
 10
474.675222
 20
-297.309674
 30
500.0
 70
    64
  0
VERTEX
  5
13A
  8
TEAM-NET
 10
474.675222
 20
375.0
 30
600.0
 70
    64
  0
VERTEX
  5
13B
  8
TEAM-NET
 10
599.729352
 20
375.0
 30
600.0
 70
    64
  0
VERTEX
  5
13C
  8
TEAM-NET
 10
724.783481
 20
375.0
 30
600.0
 70
    64
  0
VERTEX
  5
13D
  8
TEAM-NET
 10
849.837611
 20
375.0
 30
600.0
 70
    64
  0
VERTEX
  5
13E
  8
TEAM-NET
 10
850.0
 20
250.108259
 30
600.0
 70
    64
  0
VERTEX
  5
13F
  8
TEAM-NET
 10
850.0
 20
125.05413
 30
600.0
 70
    64
  0
VERTEX
  5
140
  8
TEAM-NET
 10
850.0
 20
0.0
 30
600.0
 70
    64
  0
VERTEX
  5
141
  8
TEAM-NET
 10
850.0
 20
-125.05413
 30
600.0
 70
    64
  0
VERTEX
  5
142
  8
TEAM-NET
 10
850.0
 20
-250.108259
 30
600.0
 70
    64
  0
VERTEX
  5
143
  8
TEAM-NET
 10
849.837611
 20
-375.0
 30
600.0
 70
    64
  0
VERTEX
  5
144
  8
TEAM-NET
 10
724.783481
 20
-375.0
 30
600.0
 70
    64
  0
VERTEX
  5
145
  8
TEAM-NET
 10
599.729352
 20
-375.0
 30
600.0
 70
    64
  0
VERTEX
  5
146
  8
TEAM-NET
 10
474.675222
 20
-375.0
 30
600.0
 70
    64
  0
SEQEND
  5
147
  8
TEAM-NET
  0
POLYLINE
  5
148
  8
TEAM-KAN
 66
     1
 10
0.0
 20
0.0
 30
460.0
 70
     1
  0
VERTEX
  5
400
  8
TEAM-KAN
 10
757.716288
 20
-30.000299
 30
460.0
  0
VERTEX
  5
401
  8
TEAM-KAN
 10
758.494664
 20
-29.630946
 30
460.0
  0
VERTEX
  5
402
  8
TEAM-KAN
 10
759.253874
 20
-28.53198
 30
460.0
  0
VERTEX
  5
403
  8
TEAM-KAN
 10
759.975223
 20
-26.730462
 30
460.0
  0
VERTEX
  5
404
  8
TEAM-KAN
 10
760.64095
 20
-24.270752
 30
460.0
  0
VERTEX
  5
405
  8
TEAM-KAN
 10
761.234663
 20
-21.213415
 30
460.0
  0
VERTEX
  5
406
  8
TEAM-KAN
 10
761.741741
 20
-17.633733
 30
460.0
  0
VERTEX
  5
407
  8
TEAM-KAN
 10
762.149699
 20
-13.619851
 30
460.0
  0
VERTEX
  5
408
  8
TEAM-KAN
 10
762.448491
 20
-9.270602
 30
460.0
  0
VERTEX
  5
409
  8
TEAM-KAN
 10
762.630762
 20
-4.693081
 30
460.0
  0
VERTEX
  5
40A
  8
TEAM-KAN
 10
762.692021
 20
0.0
 30
460.0
  0
VERTEX
  5
40B
  8
TEAM-KAN
 10
762.630762
 20
4.69308
 30
460.0
  0
VERTEX
  5
40C
  8
TEAM-KAN
 10
762.448491
 20
9.270602
 30
460.0
  0
VERTEX
  5
40D
  8
TEAM-KAN
 10
762.149699
 20
13.61985
 30
460.0
  0
VERTEX
  5
40E
  8
TEAM-KAN
 10
761.741741
 20
17.633733
 30
460.0
  0
VERTEX
  5
40F
  8
TEAM-KAN
 10
761.234663
 20
21.213415
 30
460.0
  0
VERTEX
  5
410
  8
TEAM-KAN
 10
760.64095
 20
24.270751
 30
460.0
  0
VERTEX
  5
411
  8
TEAM-KAN
 10
759.975223
 20
26.730462
 30
460.0
  0
VERTEX
  5
412
  8
TEAM-KAN
 10
759.253874
 20
28.531979
 30
460.0
  0
VERTEX
  5
413
  8
TEAM-KAN
 10
758.494664
 20
29.630945
 30
460.0
  0
VERTEX
  5
414
  8
TEAM-KAN
 10
757.716288
 20
30.000299
 30
460.0
  0
VERTEX
  5
415
  8
TEAM-KAN
 10
756.937911
 20
29.630945
 30
460.0
  0
VERTEX
  5
416
  8
TEAM-KAN
 10
756.178701
 20
28.531979
 30
460.0
  0
VERTEX
  5
417
  8
TEAM-KAN
 10
755.457352
 20
26.730462
 30
460.0
  0
VERTEX
  5
418
  8
TEAM-KAN
 10
754.791625
 20
24.270751
 30
460.0
  0
VERTEX
  5
419
  8
TEAM-KAN
 10
754.197913
 20
21.213415
 30
460.0
  0
VERTEX
  5
41A
  8
TEAM-KAN
 10
753.690835
 20
17.633733
 30
460.0
  0
VERTEX
  5
41B
  8
TEAM-KAN
 10
753.282877
 20
13.61985
 30
460.0
  0
VERTEX
  5
41C
  8
TEAM-KAN
 10
752.984084
 20
9.270602
 30
460.0
  0
VERTEX
  5
41D
  8
TEAM-KAN
 10
752.801814
 20
4.69308
 30
460.0
  0
VERTEX
  5
41E
  8
TEAM-KAN
 10
752.740554
 20
0.0
 30
460.0
  0
VERTEX
  5
41F
  8
TEAM-KAN
 10
752.801814
 20
-4.693081
 30
460.0
  0
VERTEX
  5
420
  8
TEAM-KAN
 10
752.984084
 20
-9.270602
 30
460.0
  0
VERTEX
  5
421
  8
TEAM-KAN
 10
753.282877
 20
-13.619851
 30
460.0
  0
VERTEX
  5
422
  8
TEAM-KAN
 10
753.690835
 20
-17.633733
 30
460.0
  0
VERTEX
  5
423
  8
TEAM-KAN
 10
754.197913
 20
-21.213415
 30
460.0
  0
VERTEX
  5
424
  8
TEAM-KAN
 10
754.791625
 20
-24.270752
 30
460.0
  0
VERTEX
  5
425
  8
TEAM-KAN
 10
755.457352
 20
-26.730462
 30
460.0
  0
VERTEX
  5
426
  8
TEAM-KAN
 10
756.178701
 20
-28.53198
 30
460.0
  0
VERTEX
  5
427
  8
TEAM-KAN
 10
756.937911
 20
-29.630946
 30
460.0
  0
SEQEND
  5
428
  8
TEAM-KAN
  0
POLYLINE
  5
149
  8
TEAM-DET1
 66
     1
 10
0.0
 20
0.0
 30
500.0
  0
VERTEX
  5
429
  8
TEAM-DET1
 10
474.675222
 20
297.309674
 30
500.0
  0
VERTEX
  5
42A
  8
TEAM-DET1
 10
-349.165159
 20
297.309674
 30
500.0
 42
0.422141
  0
VERTEX
  5
42B
  8
TEAM-DET1
 10
-642.267871
 20
0.0
 30
500.0
 42
0.422141
  0
VERTEX
  5
42C
  8
TEAM-DET1
 10
-349.165159
 20
-297.309674
 30
500.0
  0
VERTEX
  5
42D
  8
TEAM-DET1
 10
474.675222
 20
-300.368147
 30
500.0
  0
SEQEND
  5
42E
  8
TEAM-DET1
  0
POLYLINE
  5
14A
  8
TEAM-DET1
 66
     1
 10
0.0
 20
0.0
 30
500.0
  0
VERTEX
  5
42F
  8
TEAM-DET1
 10
474.675222
 20
-297.309674
 30
500.0
 42
0.422141
  0
VERTEX
  5
430
  8
TEAM-DET1
 10
767.777934
 20
0.0
 30
500.0
 42
0.422141
  0
VERTEX
  5
431
  8
TEAM-DET1
 10
474.675222
 20
297.309674
 30
500.0
  0
SEQEND
  5
432
  8
TEAM-DET1
  0
POLYLINE
  5
14B
  8
TEAM-DET1
 66
     1
 10
0.0
 20
0.0
 30
600.0
  0
VERTEX
  5
433
  8
TEAM-DET1
 10
474.675222
 20
355.999197
 30
600.0
  0
VERTEX
  5
434
  8
TEAM-DET1
 10
-482.487076
 20
355.999197
 30
600.0
 42
0.422141
  0
VERTEX
  5
435
  8
TEAM-DET1
 10
-834.641828
 20
-1.210101
 30
600.0
 42
0.420189
  0
VERTEX
  5
436
  8
TEAM-DET1
 10
-482.487076
 20
-355.999197
 30
600.0
  0
VERTEX
  5
437
  8
TEAM-DET1
 10
474.675222
 20
-355.999197
 30
600.0
  0
SEQEND
  5
438
  8
TEAM-DET1
  0
TEXT
  5
14C
  8
TEAM-TXT
 10
-406.970937
 20
143.835019
 30
600.0
 40
30.0
  1
team 121065
 41
0.8
 51
15.0
  7
TEAM
  0
POLYLINE
  5
14F
  8
TEAM-NET
 66
     1
 10
0.0
 20
0.0
 30
0.0
 70
    16
 71
     2
 72
    37
  0
VERTEX
  5
150
  8
TEAM-NET
 10
474.675222
 20
-355.999197
 30
600.0
 70
    64
  0
VERTEX
  5
151
  8
TEAM-NET
 10
390.499026
 20
-355.999197
 30
600.0
 70
    64
  0
VERTEX
  5
152
  8
TEAM-NET
 10
306.322831
 20
-355.999197
 30
600.0
 70
    64
  0
VERTEX
  5
153
  8
TEAM-NET
 10
222.146635
 20
-355.999197
 30
600.0
 70
    64
  0
VERTEX
  5
154
  8
TEAM-NET
 10
137.970439
 20
-355.999197
 30
600.0
 70
    64
  0
VERTEX
  5
155
  8
TEAM-NET
 10
53.794244
 20
-355.999197
 30
600.0
 70
    64
  0
VERTEX
  5
156
  8
TEAM-NET
 10
-30.381952
 20
-355.999197
 30
600.0
 70
    64
  0
VERTEX
  5
157
  8
TEAM-NET
 10
-114.558148
 20
-355.999197
 30
600.0
 70
    64
  0
VERTEX
  5
158
  8
TEAM-NET
 10
-198.734344
 20
-355.999197
 30
600.0
 70
    64
  0
VERTEX
  5
159
  8
TEAM-NET
 10
-282.910539
 20
-355.999197
 30
600.0
 70
    64
  0
VERTEX
  5
15A
  8
TEAM-NET
 10
-367.086735
 20
-355.999197
 30
600.0
 70
    64
  0
VERTEX
  5
15B
  8
TEAM-NET
 10
-451.262931
 20
-355.999197
 30
600.0
 70
    64
  0
VERTEX
  5
15C
  8
TEAM-NET
 10
-535.261978
 20
-352.340911
 30
600.0
 70
    64
  0
VERTEX
  5
15D
  8
TEAM-NET
 10
-616.300892
 20
-330.335804
 30
600.0
 70
    64
  0
VERTEX
  5
15E
  8
TEAM-NET
 10
-689.763987
 20
-289.657751
 30
600.0
 70
    64
  0
VERTEX
  5
15F
  8
TEAM-NET
 10
-751.42079
 20
-232.649252
 30
600.0
 70
    64
  0
VERTEX
  5
160
  8
TEAM-NET
 10
-797.720711
 20
-162.59322
 30
600.0
 70
    64
  0
VERTEX
  5
161
  8
TEAM-NET
 10
-825.997505
 20
-83.523925
 30
600.0
 70
    64
  0
VERTEX
  5
162
  8
TEAM-NET
 10
-834.66478
 20
0.005249
 30
600.0
 70
    64
  0
VERTEX
  5
163
  8
TEAM-NET
 10
-826.022026
 20
83.532769
 30
600.0
 70
    64
  0
VERTEX
  5
164
  8
TEAM-NET
 10
-797.732473
 20
162.597585
 30
600.0
 70
    64
  0
VERTEX
  5
165
  8
TEAM-NET
 10
-751.424572
 20
232.648439
 30
600.0
 70
    64
  0
VERTEX
  5
166
  8
TEAM-NET
 10
-689.763971
 20
289.652949
 30
600.0
 70
    64
  0
VERTEX
  5
167
  8
TEAM-NET
 10
-616.30008
 20
330.329731
 30
600.0
 70
    64
  0
VERTEX
  5
168
  8
TEAM-NET
 10
-535.261746
 20
352.337281
 30
600.0
 70
    64
  0
VERTEX
  5
169
  8
TEAM-NET
 10
-451.262931
 20
355.999197
 30
600.0
 70
    64
  0
VERTEX
  5
16A
  8
TEAM-NET
 10
-367.086735
 20
355.999197
 30
600.0
 70
    64
  0
VERTEX
  5
16B
  8
TEAM-NET
 10
-282.910539
 20
355.999197
 30
600.0
 70
    64
  0
VERTEX
  5
16C
  8
TEAM-NET
 10
-198.734344
 20
355.999197
 30
600.0
 70
    64
  0
VERTEX
  5
16D
  8
TEAM-NET
 10
-114.558148
 20
355.999197
 30
600.0
 70
    64
  0
VERTEX
  5
16E
  8
TEAM-NET
 10
-30.381952
 20
355.999197
 30
600.0
 70
    64
  0
VERTEX
  5
16F
  8
TEAM-NET
 10
53.794244
 20
355.999197
 30
600.0
 70
    64
  0
VERTEX
  5
170
  8
TEAM-NET
 10
137.970439
 20
355.999197
 30
600.0
 70
    64
  0
VERTEX
  5
171
  8
TEAM-NET
 10
222.146635
 20
355.999197
 30
600.0
 70
    64
  0
VERTEX
  5
172
  8
TEAM-NET
 10
306.322831
 20
355.999197
 30
600.0
 70
    64
  0
VERTEX
  5
173
  8
TEAM-NET
 10
390.499026
 20
355.999197
 30
600.0
 70
    64
  0
VERTEX
  5
174
  8
TEAM-NET
 10
474.675222
 20
355.999197
 30
600.0
 70
    64
  0
VERTEX
  5
175
  8
TEAM-NET
 10
474.675222
 20
-375.0
 30
600.0
 70
    64
  0
VERTEX
  5
176
  8
TEAM-NET
 10
380.248821
 20
-375.0
 30
600.0
 70
    64
  0
VERTEX
  5
177
  8
TEAM-NET
 10
285.82242
 20
-375.0
 30
600.0
 70
    64
  0
VERTEX
  5
178
  8
TEAM-NET
 10
191.396018
 20
-375.0
 30
600.0
 70
    64
  0
VERTEX
  5
179
  8
TEAM-NET
 10
96.969617
 20
-375.0
 30
600.0
 70
    64
  0
VERTEX
  5
17A
  8
TEAM-NET
 10
2.543216
 20
-375.0
 30
600.0
 70
    64
  0
VERTEX
  5
17B
  8
TEAM-NET
 10
-91.883185
 20
-375.0
 30
600.0
 70
    64
  0
VERTEX
  5
17C
  8
TEAM-NET
 10
-186.309586
 20
-375.0
 30
600.0
 70
    64
  0
VERTEX
  5
17D
  8
TEAM-NET
 10
-280.735988
 20
-375.0
 30
600.0
 70
    64
  0
VERTEX
  5
17E
  8
TEAM-NET
 10
-375.162389
 20
-375.0
 30
600.0
 70
    64
  0
VERTEX
  5
17F
  8
TEAM-NET
 10
-469.58879
 20
-375.0
 30
600.0
 70
    64
  0
VERTEX
  5
180
  8
TEAM-NET
 10
-564.015191
 20
-375.0
 30
600.0
 70
    64
  0
VERTEX
  5
181
  8
TEAM-NET
 10
-658.441593
 20
-375.0
 30
600.0
 70
    64
  0
VERTEX
  5
182
  8
TEAM-NET
 10
-752.867994
 20
-375.0
 30
600.0
 70
    64
  0
VERTEX
  5
183
  8
TEAM-NET
 10
-847.294395
 20
-375.0
 30
600.0
 70
    64
  0
VERTEX
  5
184
  8
TEAM-NET
 10
-850.0
 20
-283.279204
 30
600.0
 70
    64
  0
VERTEX
  5
185
  8
TEAM-NET
 10
-850.0
 20
-188.852802
 30
600.0
 70
    64
  0
VERTEX
  5
186
  8
TEAM-NET
 10
-850.0
 20
-94.426401
 30
600.0
 70
    64
  0
VERTEX
  5
187
  8
TEAM-NET
 10
-850.0
 20
0.0
 30
600.0
 70
    64
  0
VERTEX
  5
188
  8
TEAM-NET
 10
-850.0
 20
94.426401
 30
600.0
 70
    64
  0
VERTEX
  5
189
  8
TEAM-NET
 10
-850.0
 20
188.852802
 30
600.0
 70
    64
  0
VERTEX
  5
18A
  8
TEAM-NET
 10
-850.0
 20
283.279204
 30
600.0
 70
    64
  0
VERTEX
  5
18B
  8
TEAM-NET
 10
-847.294395
 20
375.0
 30
600.0
 70
    64
  0
VERTEX
  5
18C
  8
TEAM-NET
 10
-752.867994
 20
375.0
 30
600.0
 70
    64
  0
VERTEX
  5
18D
  8
TEAM-NET
 10
-658.441593
 20
375.0
 30
600.0
 70
    64
  0
VERTEX
  5
18E
  8
TEAM-NET
 10
-564.015191
 20
375.0
 30
600.0
 70
    64
  0
VERTEX
  5
18F
  8
TEAM-NET
 10
-469.58879
 20
375.0
 30
600.0
 70
    64
  0
VERTEX
  5
190
  8
TEAM-NET
 10
-375.162389
 20
375.0
 30
600.0
 70
    64
  0
VERTEX
  5
191
  8
TEAM-NET
 10
-280.735988
 20
375.0
 30
600.0
 70
    64
  0
VERTEX
  5
192
  8
TEAM-NET
 10
-186.309586
 20
375.0
 30
600.0
 70
    64
  0
VERTEX
  5
193
  8
TEAM-NET
 10
-91.883185
 20
375.0
 30
600.0
 70
    64
  0
VERTEX
  5
194
  8
TEAM-NET
 10
2.543216
 20
375.0
 30
600.0
 70
    64
  0
VERTEX
  5
195
  8
TEAM-NET
 10
96.969617
 20
375.0
 30
600.0
 70
    64
  0
VERTEX
  5
196
  8
TEAM-NET
 10
191.396018
 20
375.0
 30
600.0
 70
    64
  0
VERTEX
  5
197
  8
TEAM-NET
 10
285.82242
 20
375.0
 30
600.0
 70
    64
  0
VERTEX
  5
198
  8
TEAM-NET
 10
380.248821
 20
375.0
 30
600.0
 70
    64
  0
VERTEX
  5
199
  8
TEAM-NET
 10
474.675222
 20
375.0
 30
600.0
 70
    64
  0
SEQEND
  5
19A
  8
TEAM-NET
  0
ENDSEC
  0
EOF
