  0
SECTION
  2
HEADER
  9
$ACADVER
  1
AC1009
  9
$INSBASE
 10
0.0
 20
0.0
 30
0.0
  9
$EXTMIN
 10
-952.195622
 20
-402.099734
 30
-0.010822
  9
$EXTMAX
 10
952.167882
 20
402.113944
 30
600.018921
  9
$LIMMIN
 10
-952.195622
 20
-402.099734
  9
$LIMMAX
 10
952.167882
 20
402.113944
  9
$ORTHOMODE
 70
     1
  9
$REGENMODE
 70
     1
  9
$FILLMODE
 70
     1
  9
$QTEXTMODE
 70
     0
  9
$MIRRTEXT
 70
     0
  9
$DRAGMODE
 70
     2
  9
$LTSCALE
 40
25.0
  9
$OSMODE
 70
     0
  9
$ATTMODE
 70
     1
  9
$TEXTSIZE
 40
200.0
  9
$TRACEWID
 40
1.0
  9
$TEXTSTYLE
  7
STANDARD
  9
$CLAYER
  8
TEAM-MAS
  9
$CELTYPE
  6
BYLAYER
  9
$CECOLOR
 62
   256
  9
$DIMSCALE
 40
0.0
  9
$DIMASZ
 40
20.0
  9
$DIMEXO
 40
10.0
  9
$DIMDLI
 40
1.0
  9
$DIMRND
 40
0.0
  9
$DIMDLE
 40
0.0
  9
$DIMEXE
 40
1.0
  9
$DIMTP
 40
0.0
  9
$DIMTM
 40
0.0
  9
$DIMTXT
 40
35.0
  9
$DIMCEN
 40
1.0
  9
$DIMTSZ
 40
0.0
  9
$DIMTOL
 70
     0
  9
$DIMLIM
 70
     0
  9
$DIMTIH
 70
     0
  9
$DIMTOH
 70
     0
  9
$DIMSE1
 70
     0
  9
$DIMSE2
 70
     0
  9
$DIMTAD
 70
     0
  9
$DIMZIN
 70
     0
  9
$DIMBLK
  1

  9
$DIMASO
 70
     1
  9
$DIMSHO
 70
     0
  9
$DIMPOST
  1

  9
$DIMAPOST
  1

  9
$DIMALT
 70
     0
  9
$DIMALTD
 70
     2
  9
$DIMALTF
 40
25.4
  9
$DIMLFAC
 40
1.0
  9
$DIMTOFL
 70
     0
  9
$DIMTVP
 40
0.0
  9
$DIMTIX
 70
     0
  9
$DIMSOXD
 70
     0
  9
$DIMSAH
 70
     0
  9
$DIMBLK1
  1

  9
$DIMBLK2
  1

  9
$DIMSTYLE
  2
TEAM
  9
$DIMCLRD
 70
     9
  9
$DIMCLRE
 70
     9
  9
$DIMCLRT
 70
    11
  9
$DIMTFAC
 40
1.0
  9
$DIMGAP
 40
15.0
  9
$LUNITS
 70
     2
  9
$LUPREC
 70
     1
  9
$SKETCHINC
 40
1.0
  9
$FILLETRAD
 40
50.0
  9
$AUNITS
 70
     0
  9
$AUPREC
 70
     0
  9
$MENU
  1
ROPLANS
  9
$ELEVATION
 40
0.0
  9
$PELEVATION
 40
0.0
  9
$THICKNESS
 40
0.0
  9
$LIMCHECK
 70
     0
  9
$BLIPMODE
 70
     1
  9
$CHAMFERA
 40
0.0
  9
$CHAMFERB
 40
0.0
  9
$SKPOLY
 70
     0
  9
$TDCREATE
 40
2450392.957851
  9
$TDUPDATE
 40
2455493.900056
  9
$TDINDWG
 40
2.014927
  9
$TDUSRTIMER
 40
2.014927
  9
$USRTIMER
 70
     1
  9
$ANGBASE
 50
0.0
  9
$ANGDIR
 70
     0
  9
$PDMODE
 70
     0
  9
$PDSIZE
 40
0.0
  9
$PLINEWID
 40
0.0
  9
$COORDS
 70
     2
  9
$SPLFRAME
 70
     0
  9
$SPLINETYPE
 70
     6
  9
$SPLINESEGS
 70
     8
  9
$ATTDIA
 70
     0
  9
$ATTREQ
 70
     0
  9
$HANDLING
 70
     1
  9
$HANDSEED
  5
485
  9
$SURFTAB1
 70
    24
  9
$SURFTAB2
 70
    24
  9
$SURFTYPE
 70
     6
  9
$SURFU
 70
     6
  9
$SURFV
 70
     6
  9
$UCSNAME
  2

  9
$UCSORG
 10
0.0
 20
0.0
 30
0.0
  9
$UCSXDIR
 10
1.0
 20
0.0
 30
0.0
  9
$UCSYDIR
 10
0.0
 20
1.0
 30
0.0
  9
$PUCSNAME
  2

  9
$PUCSORG
 10
0.0
 20
0.0
 30
0.0
  9
$PUCSXDIR
 10
1.0
 20
0.0
 30
0.0
  9
$PUCSYDIR
 10
0.0
 20
1.0
 30
0.0
  9
$USERI1
 70
     0
  9
$USERI2
 70
     0
  9
$USERI3
 70
     0
  9
$USERI4
 70
     0
  9
$USERI5
 70
     0
  9
$USERR1
 40
0.0
  9
$USERR2
 40
0.0
  9
$USERR3
 40
0.0
  9
$USERR4
 40
0.0
  9
$USERR5
 40
0.0
  9
$WORLDVIEW
 70
     1
  9
$SHADEDGE
 70
     0
  9
$SHADEDIF
 70
    70
  9
$TILEMODE
 70
     1
  9
$MAXACTVP
 70
    16
  9
$PLIMCHECK
 70
     0
  9
$PEXTMIN
 10
-0.805942
 20
0.005011
 30
0.0
  9
$PEXTMAX
 10
20.250094
 20
11.356329
 30
0.0
  9
$PLIMMIN
 10
0.0
 20
0.0
  9
$PLIMMAX
 10
12.0
 20
9.0
  9
$UNITMODE
 70
     0
  9
$VISRETAIN
 70
     0
  9
$PLINEGEN
 70
     0
  9
$PSLTSCALE
 70
     0
  0
ENDSEC
  0
SECTION
  2
TABLES
  0
TABLE
  2
VPORT
 70
     2
  0
VPORT
  2
*ACTIVE
 70
     0
 10
0.0
 20
0.0
 11
1.0
 21
1.0
 12
-0.01387
 22
0.007105
 13
0.0
 23
0.0
 14
1.0
 24
1.0
 15
50.0
 25
50.0
 16
0.0
 26
0.0
 36
1.0
 17
0.0
 27
0.0
 37
0.0
 40
1024.039865
 41
1.865779
 42
50.0
 43
0.0
 44
0.0
 50
0.0
 51
0.0
 71
     0
 72
   100
 73
     1
 74
     1
 75
     0
 76
     0
 77
     0
 78
     0
  0
ENDTAB
  0
TABLE
  2
LTYPE
 70
     1
  0
LTYPE
  2
CONTINUOUS
 70
     0
  3
Solid Line
 72
    65
 73
     0
 40
0.0
  0
ENDTAB
  0
TABLE
  2
LAYER
 70
     8
  0
LAYER
  2
0
 70
     0
 62
     7
  6
CONTINUOUS
  0
LAYER
  2
TEAM-BODY
 70
     0
 62
     2
  6
CONTINUOUS
  0
LAYER
  2
TEAM-MAS
 70
     0
 62
     9
  6
CONTINUOUS
  0
LAYER
  2
TEAM-TXT
 70
     0
 62
    11
  6
CONTINUOUS
  0
LAYER
  2
TEAM-DET1
 70
     0
 62
     4
  6
CONTINUOUS
  0
LAYER
  2
TEAM-DET3
 70
     0
 62
    14
  6
CONTINUOUS
  0
LAYER
  2
TEAM-NET
 70
     0
 62
    15
  6
CONTINUOUS
  0
LAYER
  2
TEAM-INSP
 70
     0
 62
     5
  6
CONTINUOUS
  0
ENDTAB
  0
TABLE
  2
STYLE
 70
     2
  0
STYLE
  2
STANDARD
 70
     0
 40
0.0
 41
1.0
 50
0.0
 71
     0
 42
200.0
  3
txt
  4

  0
STYLE
  2
TEAM
 70
     0
 40
0.0
 41
0.8
 50
15.0
 71
     0
 42
7.0
  3
ROMANS.shx
  4

  0
ENDTAB
  0
TABLE
  2
VIEW
 70
     0
  0
ENDTAB
  0
TABLE
  2
UCS
 70
     0
  0
ENDTAB
  0
TABLE
  2
APPID
 70
     1
  0
APPID
  2
ACAD
 70
     0
  0
ENDTAB
  0
TABLE
  2
DIMSTYLE
 70
     1
  0
DIMSTYLE
  2
TEAM
 70
     0
  3

  4

  5

  6

  7

 40
0.0
 41
20.0
 42
10.0
 43
1.0
 44
1.0
 45
0.0
 46
0.0
 47
0.0
 48
0.0
140
35.0
141
1.0
142
0.0
143
25.4
144
1.0
145
0.0
146
1.0
147
15.0
 71
     0
 72
     0
 73
     0
 74
     0
 75
     0
 76
     0
 77
     0
 78
     0
170
     0
171
     2
172
     0
173
     0
174
     0
175
     0
176
     9
177
     9
178
    11
  0
ENDTAB
  0
ENDSEC
  0
SECTION
  2
BLOCKS
  0
BLOCK
  8
0
  2
$MODEL_SPACE
 70
     0
 10
0.0
 20
0.0
 30
0.0
  3
$MODEL_SPACE
  1

  0
ENDBLK
  5
42B
  8
0
  0
BLOCK
 67
     1
  8
0
  2
$PAPER_SPACE
 70
     0
 10
0.0
 20
0.0
 30
0.0
  3
$PAPER_SPACE
  1

  0
ENDBLK
  5
429
 67
     1
  8
0
  0
ENDSEC
  0
SECTION
  2
ENTITIES
  0
POLYLINE
  5
20
  8
TEAM-NET
 66
     1
 10
0.0
 20
0.0
 30
0.0
 70
    16
 71
     2
 72
    37
  0
VERTEX
  5
21
  8
TEAM-NET
 10
-849.99842
 20
0.0
 30
600.0
 70
    64
  0
VERTEX
  5
22
  8
TEAM-NET
 10
-849.99842
 20
-63.292747
 30
600.0
 70
    64
  0
VERTEX
  5
23
  8
TEAM-NET
 10
-849.99842
 20
-126.585494
 30
600.0
 70
    64
  0
VERTEX
  5
24
  8
TEAM-NET
 10
-849.99842
 20
-189.878241
 30
600.0
 70
    64
  0
VERTEX
  5
25
  8
TEAM-NET
 10
-849.99842
 20
-253.170988
 30
600.0
 70
    64
  0
VERTEX
  5
26
  8
TEAM-NET
 10
-822.80413
 20
-299.999536
 30
600.0
 70
    64
  0
VERTEX
  5
27
  8
TEAM-NET
 10
-759.511383
 20
-299.999536
 30
600.0
 70
    64
  0
VERTEX
  5
28
  8
TEAM-NET
 10
-696.218636
 20
-299.999536
 30
600.0
 70
    64
  0
VERTEX
  5
29
  8
TEAM-NET
 10
-632.925889
 20
-299.999536
 30
600.0
 70
    64
  0
VERTEX
  5
2A
  8
TEAM-NET
 10
-569.633142
 20
-299.999536
 30
600.0
 70
    64
  0
VERTEX
  5
2B
  8
TEAM-NET
 10
-506.340395
 20
-299.999536
 30
600.0
 70
    64
  0
VERTEX
  5
2C
  8
TEAM-NET
 10
-443.047648
 20
-299.999536
 30
600.0
 70
    64
  0
VERTEX
  5
2D
  8
TEAM-NET
 10
-379.754901
 20
-299.999536
 30
600.0
 70
    64
  0
VERTEX
  5
2E
  8
TEAM-NET
 10
-316.462154
 20
-299.999536
 30
600.0
 70
    64
  0
VERTEX
  5
2F
  8
TEAM-NET
 10
-253.169408
 20
-299.999536
 30
600.0
 70
    64
  0
VERTEX
  5
30
  8
TEAM-NET
 10
-189.876661
 20
-299.999536
 30
600.0
 70
    64
  0
VERTEX
  5
31
  8
TEAM-NET
 10
-126.583914
 20
-299.999536
 30
600.0
 70
    64
  0
VERTEX
  5
32
  8
TEAM-NET
 10
-63.291167
 20
-299.999536
 30
600.0
 70
    64
  0
VERTEX
  5
33
  8
TEAM-NET
 10
0.00158
 20
-299.999536
 30
600.0
 70
    64
  0
VERTEX
  5
34
  8
TEAM-NET
 10
63.294327
 20
-299.999536
 30
600.0
 70
    64
  0
VERTEX
  5
35
  8
TEAM-NET
 10
126.587074
 20
-299.999536
 30
600.0
 70
    64
  0
VERTEX
  5
36
  8
TEAM-NET
 10
189.879821
 20
-299.999536
 30
600.0
 70
    64
  0
VERTEX
  5
37
  8
TEAM-NET
 10
253.172568
 20
-299.999536
 30
600.0
 70
    64
  0
VERTEX
  5
38
  8
TEAM-NET
 10
316.465314
 20
-299.999536
 30
600.0
 70
    64
  0
VERTEX
  5
39
  8
TEAM-NET
 10
379.758061
 20
-299.999536
 30
600.0
 70
    64
  0
VERTEX
  5
3A
  8
TEAM-NET
 10
443.050808
 20
-299.999536
 30
600.0
 70
    64
  0
VERTEX
  5
3B
  8
TEAM-NET
 10
506.343555
 20
-299.999536
 30
600.0
 70
    64
  0
VERTEX
  5
3C
  8
TEAM-NET
 10
569.636302
 20
-299.999536
 30
600.0
 70
    64
  0
VERTEX
  5
3D
  8
TEAM-NET
 10
632.929049
 20
-299.999536
 30
600.0
 70
    64
  0
VERTEX
  5
3E
  8
TEAM-NET
 10
696.221796
 20
-299.999536
 30
600.0
 70
    64
  0
VERTEX
  5
3F
  8
TEAM-NET
 10
759.514543
 20
-299.999536
 30
600.0
 70
    64
  0
VERTEX
  5
40
  8
TEAM-NET
 10
822.80729
 20
-299.999536
 30
600.0
 70
    64
  0
VERTEX
  5
41
  8
TEAM-NET
 10
850.00158
 20
-253.170988
 30
600.0
 70
    64
  0
VERTEX
  5
42
  8
TEAM-NET
 10
850.00158
 20
-189.878241
 30
600.0
 70
    64
  0
VERTEX
  5
43
  8
TEAM-NET
 10
850.00158
 20
-126.585494
 30
600.0
 70
    64
  0
VERTEX
  5
44
  8
TEAM-NET
 10
850.00158
 20
-63.292747
 30
600.0
 70
    64
  0
VERTEX
  5
45
  8
TEAM-NET
 10
850.00158
 20
0.0
 30
600.0
 70
    64
  0
VERTEX
  5
46
  8
TEAM-NET
 10
-774.737483
 20
0.0
 30
120.0
 70
    64
  0
VERTEX
  5
47
  8
TEAM-NET
 10
-774.737483
 20
-54.090232
 30
120.0
 70
    64
  0
VERTEX
  5
48
  8
TEAM-NET
 10
-774.737483
 20
-108.180464
 30
120.0
 70
    64
  0
VERTEX
  5
49
  8
TEAM-NET
 10
-774.226717
 20
-162.251438
 30
120.0
 70
    64
  0
VERTEX
  5
4A
  8
TEAM-NET
 10
-751.091188
 20
-210.008389
 30
120.0
 70
    64
  0
VERTEX
  5
4B
  8
TEAM-NET
 10
-703.160213
 20
-232.781197
 30
120.0
 70
    64
  0
VERTEX
  5
4C
  8
TEAM-NET
 10
-649.08562
 20
-233.225822
 30
120.0
 70
    64
  0
VERTEX
  5
4D
  8
TEAM-NET
 10
-594.995388
 20
-233.225822
 30
120.0
 70
    64
  0
VERTEX
  5
4E
  8
TEAM-NET
 10
-540.905156
 20
-233.225822
 30
120.0
 70
    64
  0
VERTEX
  5
4F
  8
TEAM-NET
 10
-486.814924
 20
-233.225822
 30
120.0
 70
    64
  0
VERTEX
  5
50
  8
TEAM-NET
 10
-432.724692
 20
-233.225822
 30
120.0
 70
    64
  0
VERTEX
  5
51
  8
TEAM-NET
 10
-378.634461
 20
-233.225822
 30
120.0
 70
    64
  0
VERTEX
  5
52
  8
TEAM-NET
 10
-324.544229
 20
-233.225822
 30
120.0
 70
    64
  0
VERTEX
  5
53
  8
TEAM-NET
 10
-270.453997
 20
-233.225822
 30
120.0
 70
    64
  0
VERTEX
  5
54
  8
TEAM-NET
 10
-216.363765
 20
-233.225822
 30
120.0
 70
    64
  0
VERTEX
  5
55
  8
TEAM-NET
 10
-162.273533
 20
-233.225822
 30
120.0
 70
    64
  0
VERTEX
  5
56
  8
TEAM-NET
 10
-108.183301
 20
-233.225822
 30
120.0
 70
    64
  0
VERTEX
  5
57
  8
TEAM-NET
 10
-54.093069
 20
-233.225822
 30
120.0
 70
    64
  0
VERTEX
  5
58
  8
TEAM-NET
 10
-0.002838
 20
-233.225822
 30
120.0
 70
    64
  0
VERTEX
  5
59
  8
TEAM-NET
 10
54.087394
 20
-233.225822
 30
120.0
 70
    64
  0
VERTEX
  5
5A
  8
TEAM-NET
 10
108.177626
 20
-233.225822
 30
120.0
 70
    64
  0
VERTEX
  5
5B
  8
TEAM-NET
 10
162.267858
 20
-233.225822
 30
120.0
 70
    64
  0
VERTEX
  5
5C
  8
TEAM-NET
 10
216.35809
 20
-233.225822
 30
120.0
 70
    64
  0
VERTEX
  5
5D
  8
TEAM-NET
 10
270.448322
 20
-233.225822
 30
120.0
 70
    64
  0
VERTEX
  5
5E
  8
TEAM-NET
 10
324.538554
 20
-233.225822
 30
120.0
 70
    64
  0
VERTEX
  5
5F
  8
TEAM-NET
 10
378.628786
 20
-233.225822
 30
120.0
 70
    64
  0
VERTEX
  5
60
  8
TEAM-NET
 10
432.719017
 20
-233.225822
 30
120.0
 70
    64
  0
VERTEX
  5
61
  8
TEAM-NET
 10
486.809249
 20
-233.225822
 30
120.0
 70
    64
  0
VERTEX
  5
62
  8
TEAM-NET
 10
540.899481
 20
-233.225822
 30
120.0
 70
    64
  0
VERTEX
  5
63
  8
TEAM-NET
 10
594.989713
 20
-233.225822
 30
120.0
 70
    64
  0
VERTEX
  5
64
  8
TEAM-NET
 10
649.079945
 20
-233.225822
 30
120.0
 70
    64
  0
VERTEX
  5
65
  8
TEAM-NET
 10
703.154538
 20
-232.781197
 30
120.0
 70
    64
  0
VERTEX
  5
66
  8
TEAM-NET
 10
751.085513
 20
-210.008389
 30
120.0
 70
    64
  0
VERTEX
  5
67
  8
TEAM-NET
 10
774.221042
 20
-162.251438
 30
120.0
 70
    64
  0
VERTEX
  5
68
  8
TEAM-NET
 10
774.731808
 20
-108.180464
 30
120.0
 70
    64
  0
VERTEX
  5
69
  8
TEAM-NET
 10
774.731808
 20
-54.090232
 30
120.0
 70
    64
  0
VERTEX
  5
6A
  8
TEAM-NET
 10
774.731808
 20
0.0
 30
120.0
 70
    64
  0
SEQEND
  5
6C
  8
TEAM-NET
  0
POLYLINE
  5
6D
  8
TEAM-NET
 66
     1
 10
0.0
 20
0.0
 30
0.0
 70
    16
 71
     2
 72
    37
  0
VERTEX
  5
6E
  8
TEAM-NET
 10
-849.99842
 20
0.0
 30
600.0
 70
    64
  0
VERTEX
  5
6F
  8
TEAM-NET
 10
-849.99842
 20
63.292747
 30
600.0
 70
    64
  0
VERTEX
  5
70
  8
TEAM-NET
 10
-849.99842
 20
126.585494
 30
600.0
 70
    64
  0
VERTEX
  5
71
  8
TEAM-NET
 10
-849.99842
 20
189.878241
 30
600.0
 70
    64
  0
VERTEX
  5
72
  8
TEAM-NET
 10
-849.99842
 20
253.170988
 30
600.0
 70
    64
  0
VERTEX
  5
73
  8
TEAM-NET
 10
-822.80413
 20
299.999536
 30
600.0
 70
    64
  0
VERTEX
  5
74
  8
TEAM-NET
 10
-759.511383
 20
299.999536
 30
600.0
 70
    64
  0
VERTEX
  5
75
  8
TEAM-NET
 10
-696.218636
 20
299.999536
 30
600.0
 70
    64
  0
VERTEX
  5
76
  8
TEAM-NET
 10
-632.925889
 20
299.999536
 30
600.0
 70
    64
  0
VERTEX
  5
77
  8
TEAM-NET
 10
-569.633142
 20
299.999536
 30
600.0
 70
    64
  0
VERTEX
  5
78
  8
TEAM-NET
 10
-506.340395
 20
299.999536
 30
600.0
 70
    64
  0
VERTEX
  5
79
  8
TEAM-NET
 10
-443.047648
 20
299.999536
 30
600.0
 70
    64
  0
VERTEX
  5
7A
  8
TEAM-NET
 10
-379.754901
 20
299.999536
 30
600.0
 70
    64
  0
VERTEX
  5
7B
  8
TEAM-NET
 10
-316.462154
 20
299.999536
 30
600.0
 70
    64
  0
VERTEX
  5
7C
  8
TEAM-NET
 10
-253.169408
 20
299.999536
 30
600.0
 70
    64
  0
VERTEX
  5
7D
  8
TEAM-NET
 10
-189.876661
 20
299.999536
 30
600.0
 70
    64
  0
VERTEX
  5
7E
  8
TEAM-NET
 10
-126.583914
 20
299.999536
 30
600.0
 70
    64
  0
VERTEX
  5
7F
  8
TEAM-NET
 10
-63.291167
 20
299.999536
 30
600.0
 70
    64
  0
VERTEX
  5
80
  8
TEAM-NET
 10
0.00158
 20
299.999536
 30
600.0
 70
    64
  0
VERTEX
  5
81
  8
TEAM-NET
 10
63.294327
 20
299.999536
 30
600.0
 70
    64
  0
VERTEX
  5
82
  8
TEAM-NET
 10
126.587074
 20
299.999536
 30
600.0
 70
    64
  0
VERTEX
  5
83
  8
TEAM-NET
 10
189.879821
 20
299.999536
 30
600.0
 70
    64
  0
VERTEX
  5
84
  8
TEAM-NET
 10
253.172568
 20
299.999536
 30
600.0
 70
    64
  0
VERTEX
  5
85
  8
TEAM-NET
 10
316.465314
 20
299.999536
 30
600.0
 70
    64
  0
VERTEX
  5
86
  8
TEAM-NET
 10
379.758061
 20
299.999536
 30
600.0
 70
    64
  0
VERTEX
  5
87
  8
TEAM-NET
 10
443.050808
 20
299.999536
 30
600.0
 70
    64
  0
VERTEX
  5
88
  8
TEAM-NET
 10
506.343555
 20
299.999536
 30
600.0
 70
    64
  0
VERTEX
  5
89
  8
TEAM-NET
 10
569.636302
 20
299.999536
 30
600.0
 70
    64
  0
VERTEX
  5
8A
  8
TEAM-NET
 10
632.929049
 20
299.999536
 30
600.0
 70
    64
  0
VERTEX
  5
8B
  8
TEAM-NET
 10
696.221796
 20
299.999536
 30
600.0
 70
    64
  0
VERTEX
  5
8C
  8
TEAM-NET
 10
759.514543
 20
299.999536
 30
600.0
 70
    64
  0
VERTEX
  5
8D
  8
TEAM-NET
 10
822.80729
 20
299.999536
 30
600.0
 70
    64
  0
VERTEX
  5
8E
  8
TEAM-NET
 10
850.00158
 20
253.170988
 30
600.0
 70
    64
  0
VERTEX
  5
8F
  8
TEAM-NET
 10
850.00158
 20
189.878241
 30
600.0
 70
    64
  0
VERTEX
  5
90
  8
TEAM-NET
 10
850.00158
 20
126.585494
 30
600.0
 70
    64
  0
VERTEX
  5
91
  8
TEAM-NET
 10
850.00158
 20
63.292747
 30
600.0
 70
    64
  0
VERTEX
  5
92
  8
TEAM-NET
 10
850.00158
 20
0.0
 30
600.0
 70
    64
  0
VERTEX
  5
93
  8
TEAM-NET
 10
-774.737483
 20
0.0
 30
120.0
 70
    64
  0
VERTEX
  5
94
  8
TEAM-NET
 10
-774.737483
 20
54.090232
 30
120.0
 70
    64
  0
VERTEX
  5
95
  8
TEAM-NET
 10
-774.737483
 20
108.180464
 30
120.0
 70
    64
  0
VERTEX
  5
96
  8
TEAM-NET
 10
-774.226717
 20
162.251438
 30
120.0
 70
    64
  0
VERTEX
  5
97
  8
TEAM-NET
 10
-751.091188
 20
210.008389
 30
120.0
 70
    64
  0
VERTEX
  5
98
  8
TEAM-NET
 10
-703.160213
 20
232.781197
 30
120.0
 70
    64
  0
VERTEX
  5
99
  8
TEAM-NET
 10
-649.08562
 20
233.225822
 30
120.0
 70
    64
  0
VERTEX
  5
9A
  8
TEAM-NET
 10
-594.995388
 20
233.225822
 30
120.0
 70
    64
  0
VERTEX
  5
9B
  8
TEAM-NET
 10
-540.905156
 20
233.225822
 30
120.0
 70
    64
  0
VERTEX
  5
9C
  8
TEAM-NET
 10
-486.814924
 20
233.225822
 30
120.0
 70
    64
  0
VERTEX
  5
9D
  8
TEAM-NET
 10
-432.724692
 20
233.225822
 30
120.0
 70
    64
  0
VERTEX
  5
9E
  8
TEAM-NET
 10
-378.634461
 20
233.225822
 30
120.0
 70
    64
  0
VERTEX
  5
9F
  8
TEAM-NET
 10
-324.544229
 20
233.225822
 30
120.0
 70
    64
  0
VERTEX
  5
A0
  8
TEAM-NET
 10
-270.453997
 20
233.225822
 30
120.0
 70
    64
  0
VERTEX
  5
A1
  8
TEAM-NET
 10
-216.363765
 20
233.225822
 30
120.0
 70
    64
  0
VERTEX
  5
A2
  8
TEAM-NET
 10
-162.273533
 20
233.225822
 30
120.0
 70
    64
  0
VERTEX
  5
A3
  8
TEAM-NET
 10
-108.183301
 20
233.225822
 30
120.0
 70
    64
  0
VERTEX
  5
A4
  8
TEAM-NET
 10
-54.093069
 20
233.225822
 30
120.0
 70
    64
  0
VERTEX
  5
A5
  8
TEAM-NET
 10
-0.002838
 20
233.225822
 30
120.0
 70
    64
  0
VERTEX
  5
A6
  8
TEAM-NET
 10
54.087394
 20
233.225822
 30
120.0
 70
    64
  0
VERTEX
  5
A7
  8
TEAM-NET
 10
108.177626
 20
233.225822
 30
120.0
 70
    64
  0
VERTEX
  5
A8
  8
TEAM-NET
 10
162.267858
 20
233.225822
 30
120.0
 70
    64
  0
VERTEX
  5
A9
  8
TEAM-NET
 10
216.35809
 20
233.225822
 30
120.0
 70
    64
  0
VERTEX
  5
AA
  8
TEAM-NET
 10
270.448322
 20
233.225822
 30
120.0
 70
    64
  0
VERTEX
  5
AB
  8
TEAM-NET
 10
324.538554
 20
233.225822
 30
120.0
 70
    64
  0
VERTEX
  5
AC
  8
TEAM-NET
 10
378.628786
 20
233.225822
 30
120.0
 70
    64
  0
VERTEX
  5
AD
  8
TEAM-NET
 10
432.719017
 20
233.225822
 30
120.0
 70
    64
  0
VERTEX
  5
AE
  8
TEAM-NET
 10
486.809249
 20
233.225822
 30
120.0
 70
    64
  0
VERTEX
  5
AF
  8
TEAM-NET
 10
540.899481
 20
233.225822
 30
120.0
 70
    64
  0
VERTEX
  5
B0
  8
TEAM-NET
 10
594.989713
 20
233.225822
 30
120.0
 70
    64
  0
VERTEX
  5
B1
  8
TEAM-NET
 10
649.079945
 20
233.225822
 30
120.0
 70
    64
  0
VERTEX
  5
B2
  8
TEAM-NET
 10
703.154538
 20
232.781197
 30
120.0
 70
    64
  0
VERTEX
  5
B3
  8
TEAM-NET
 10
751.085513
 20
210.008389
 30
120.0
 70
    64
  0
VERTEX
  5
B4
  8
TEAM-NET
 10
774.221042
 20
162.251438
 30
120.0
 70
    64
  0
VERTEX
  5
B5
  8
TEAM-NET
 10
774.731808
 20
108.180464
 30
120.0
 70
    64
  0
VERTEX
  5
B6
  8
TEAM-NET
 10
774.731808
 20
54.090232
 30
120.0
 70
    64
  0
VERTEX
  5
B7
  8
TEAM-NET
 10
774.731808
 20
0.0
 30
120.0
 70
    64
  0
SEQEND
  5
B8
  8
TEAM-NET
  0
CIRCLE
  5
B9
  8
TEAM-INSP
 10
0.0
 20
0.0
 30
0.0
 40
10.0
  0
POLYLINE
  5
BB
  8
TEAM-NET
 66
     1
 10
0.0
 20
0.0
 30
0.0
 70
    16
 71
     2
 72
    37
  0
VERTEX
  5
BC
  8
TEAM-NET
 10
-774.737483
 20
0.0
 30
120.0
 70
    64
  0
VERTEX
  5
BD
  8
TEAM-NET
 10
-774.737483
 20
-54.090232
 30
120.0
 70
    64
  0
VERTEX
  5
BE
  8
TEAM-NET
 10
-774.737483
 20
-108.180464
 30
120.0
 70
    64
  0
VERTEX
  5
BF
  8
TEAM-NET
 10
-774.226717
 20
-162.251438
 30
120.0
 70
    64
  0
VERTEX
  5
C0
  8
TEAM-NET
 10
-751.091188
 20
-210.008389
 30
120.0
 70
    64
  0
VERTEX
  5
C1
  8
TEAM-NET
 10
-703.160213
 20
-232.781197
 30
120.0
 70
    64
  0
VERTEX
  5
C2
  8
TEAM-NET
 10
-649.08562
 20
-233.225822
 30
120.0
 70
    64
  0
VERTEX
  5
C3
  8
TEAM-NET
 10
-594.995388
 20
-233.225822
 30
120.0
 70
    64
  0
VERTEX
  5
C4
  8
TEAM-NET
 10
-540.905156
 20
-233.225822
 30
120.0
 70
    64
  0
VERTEX
  5
C5
  8
TEAM-NET
 10
-486.814924
 20
-233.225822
 30
120.0
 70
    64
  0
VERTEX
  5
C6
  8
TEAM-NET
 10
-432.724692
 20
-233.225822
 30
120.0
 70
    64
  0
VERTEX
  5
C7
  8
TEAM-NET
 10
-378.634461
 20
-233.225822
 30
120.0
 70
    64
  0
VERTEX
  5
C8
  8
TEAM-NET
 10
-324.544229
 20
-233.225822
 30
120.0
 70
    64
  0
VERTEX
  5
C9
  8
TEAM-NET
 10
-270.453997
 20
-233.225822
 30
120.0
 70
    64
  0
VERTEX
  5
CA
  8
TEAM-NET
 10
-216.363765
 20
-233.225822
 30
120.0
 70
    64
  0
VERTEX
  5
CB
  8
TEAM-NET
 10
-162.273533
 20
-233.225822
 30
120.0
 70
    64
  0
VERTEX
  5
CC
  8
TEAM-NET
 10
-108.183301
 20
-233.225822
 30
120.0
 70
    64
  0
VERTEX
  5
CD
  8
TEAM-NET
 10
-54.093069
 20
-233.225822
 30
120.0
 70
    64
  0
VERTEX
  5
CE
  8
TEAM-NET
 10
-0.002838
 20
-233.225822
 30
120.0
 70
    64
  0
VERTEX
  5
CF
  8
TEAM-NET
 10
54.087394
 20
-233.225822
 30
120.0
 70
    64
  0
VERTEX
  5
D0
  8
TEAM-NET
 10
108.177626
 20
-233.225822
 30
120.0
 70
    64
  0
VERTEX
  5
D1
  8
TEAM-NET
 10
162.267858
 20
-233.225822
 30
120.0
 70
    64
  0
VERTEX
  5
D2
  8
TEAM-NET
 10
216.35809
 20
-233.225822
 30
120.0
 70
    64
  0
VERTEX
  5
D3
  8
TEAM-NET
 10
270.448322
 20
-233.225822
 30
120.0
 70
    64
  0
VERTEX
  5
D4
  8
TEAM-NET
 10
324.538554
 20
-233.225822
 30
120.0
 70
    64
  0
VERTEX
  5
D5
  8
TEAM-NET
 10
378.628786
 20
-233.225822
 30
120.0
 70
    64
  0
VERTEX
  5
D6
  8
TEAM-NET
 10
432.719017
 20
-233.225822
 30
120.0
 70
    64
  0
VERTEX
  5
D7
  8
TEAM-NET
 10
486.809249
 20
-233.225822
 30
120.0
 70
    64
  0
VERTEX
  5
D8
  8
TEAM-NET
 10
540.899481
 20
-233.225822
 30
120.0
 70
    64
  0
VERTEX
  5
D9
  8
TEAM-NET
 10
594.989713
 20
-233.225822
 30
120.0
 70
    64
  0
VERTEX
  5
DA
  8
TEAM-NET
 10
649.079945
 20
-233.225822
 30
120.0
 70
    64
  0
VERTEX
  5
DB
  8
TEAM-NET
 10
703.154538
 20
-232.781197
 30
120.0
 70
    64
  0
VERTEX
  5
DC
  8
TEAM-NET
 10
751.085513
 20
-210.008389
 30
120.0
 70
    64
  0
VERTEX
  5
DD
  8
TEAM-NET
 10
774.221042
 20
-162.251438
 30
120.0
 70
    64
  0
VERTEX
  5
DE
  8
TEAM-NET
 10
774.731808
 20
-108.180464
 30
120.0
 70
    64
  0
VERTEX
  5
DF
  8
TEAM-NET
 10
774.731808
 20
-54.090232
 30
120.0
 70
    64
  0
VERTEX
  5
E0
  8
TEAM-NET
 10
774.731808
 20
0.0
 30
120.0
 70
    64
  0
VERTEX
  5
E1
  8
TEAM-NET
 10
-774.737483
 20
0.0
 30
120.0
 70
    64
  0
VERTEX
  5
E2
  8
TEAM-NET
 10
-774.737483
 20
54.090232
 30
120.0
 70
    64
  0
VERTEX
  5
E3
  8
TEAM-NET
 10
-774.737483
 20
108.180464
 30
120.0
 70
    64
  0
VERTEX
  5
E4
  8
TEAM-NET
 10
-774.226717
 20
162.251438
 30
120.0
 70
    64
  0
VERTEX
  5
E5
  8
TEAM-NET
 10
-751.091188
 20
210.008389
 30
120.0
 70
    64
  0
VERTEX
  5
E6
  8
TEAM-NET
 10
-703.160213
 20
232.781197
 30
120.0
 70
    64
  0
VERTEX
  5
E7
  8
TEAM-NET
 10
-649.08562
 20
233.225822
 30
120.0
 70
    64
  0
VERTEX
  5
E8
  8
TEAM-NET
 10
-594.995388
 20
233.225822
 30
120.0
 70
    64
  0
VERTEX
  5
E9
  8
TEAM-NET
 10
-540.905156
 20
233.225822
 30
120.0
 70
    64
  0
VERTEX
  5
EA
  8
TEAM-NET
 10
-486.814924
 20
233.225822
 30
120.0
 70
    64
  0
VERTEX
  5
EB
  8
TEAM-NET
 10
-432.724692
 20
233.225822
 30
120.0
 70
    64
  0
VERTEX
  5
EC
  8
TEAM-NET
 10
-378.634461
 20
233.225822
 30
120.0
 70
    64
  0
VERTEX
  5
ED
  8
TEAM-NET
 10
-324.544229
 20
233.225822
 30
120.0
 70
    64
  0
VERTEX
  5
EE
  8
TEAM-NET
 10
-270.453997
 20
233.225822
 30
120.0
 70
    64
  0
VERTEX
  5
EF
  8
TEAM-NET
 10
-216.363765
 20
233.225822
 30
120.0
 70
    64
  0
VERTEX
  5
F0
  8
TEAM-NET
 10
-162.273533
 20
233.225822
 30
120.0
 70
    64
  0
VERTEX
  5
F1
  8
TEAM-NET
 10
-108.183301
 20
233.225822
 30
120.0
 70
    64
  0
VERTEX
  5
F2
  8
TEAM-NET
 10
-54.093069
 20
233.225822
 30
120.0
 70
    64
  0
VERTEX
  5
F3
  8
TEAM-NET
 10
-0.002838
 20
233.225822
 30
120.0
 70
    64
  0
VERTEX
  5
F4
  8
TEAM-NET
 10
54.087394
 20
233.225822
 30
120.0
 70
    64
  0
VERTEX
  5
F5
  8
TEAM-NET
 10
108.177626
 20
233.225822
 30
120.0
 70
    64
  0
VERTEX
  5
F6
  8
TEAM-NET
 10
162.267858
 20
233.225822
 30
120.0
 70
    64
  0
VERTEX
  5
F7
  8
TEAM-NET
 10
216.35809
 20
233.225822
 30
120.0
 70
    64
  0
VERTEX
  5
F8
  8
TEAM-NET
 10
270.448322
 20
233.225822
 30
120.0
 70
    64
  0
VERTEX
  5
F9
  8
TEAM-NET
 10
324.538554
 20
233.225822
 30
120.0
 70
    64
  0
VERTEX
  5
FA
  8
TEAM-NET
 10
378.628786
 20
233.225822
 30
120.0
 70
    64
  0
VERTEX
  5
FB
  8
TEAM-NET
 10
432.719017
 20
233.225822
 30
120.0
 70
    64
  0
VERTEX
  5
FC
  8
TEAM-NET
 10
486.809249
 20
233.225822
 30
120.0
 70
    64
  0
VERTEX
  5
FD
  8
TEAM-NET
 10
540.899481
 20
233.225822
 30
120.0
 70
    64
  0
VERTEX
  5
FE
  8
TEAM-NET
 10
594.989713
 20
233.225822
 30
120.0
 70
    64
  0
VERTEX
  5
FF
  8
TEAM-NET
 10
649.079945
 20
233.225822
 30
120.0
 70
    64
  0
VERTEX
  5
100
  8
TEAM-NET
 10
703.154538
 20
232.781197
 30
120.0
 70
    64
  0
VERTEX
  5
101
  8
TEAM-NET
 10
751.085513
 20
210.008389
 30
120.0
 70
    64
  0
VERTEX
  5
102
  8
TEAM-NET
 10
774.221042
 20
162.251438
 30
120.0
 70
    64
  0
VERTEX
  5
103
  8
TEAM-NET
 10
774.731808
 20
108.180464
 30
120.0
 70
    64
  0
VERTEX
  5
104
  8
TEAM-NET
 10
774.731808
 20
54.090232
 30
120.0
 70
    64
  0
VERTEX
  5
105
  8
TEAM-NET
 10
774.731808
 20
0.0
 30
120.0
 70
    64
  0
SEQEND
  5
106
  8
TEAM-NET
  0
POLYLINE
  5
107
  8
TEAM-BODY
 66
     1
 10
0.0
 20
0.0
 30
120.0
  0
VERTEX
  5
431
  8
TEAM-BODY
 10
774.731808
 20
0.0
 30
120.0
  0
VERTEX
  5
432
  8
TEAM-BODY
 10
774.731808
 20
-153.225822
 30
120.0
 42
-0.414214
  0
VERTEX
  5
433
  8
TEAM-BODY
 10
694.731808
 20
-233.225822
 30
120.0
  0
VERTEX
  5
434
  8
TEAM-BODY
 10
-694.737483
 20
-233.225822
 30
120.0
 42
-0.414214
  0
VERTEX
  5
435
  8
TEAM-BODY
 10
-774.737483
 20
-153.225822
 30
120.0
  0
VERTEX
  5
436
  8
TEAM-BODY
 10
-774.737483
 20
0.0
 30
120.0
  0
SEQEND
  5
437
  8
TEAM-BODY
  0
POLYLINE
  5
109
  8
TEAM-BODY
 66
     1
 10
0.0
 20
0.0
 30
120.0
  0
VERTEX
  5
438
  8
TEAM-BODY
 10
774.731808
 20
0.0
 30
120.0
  0
VERTEX
  5
439
  8
TEAM-BODY
 10
774.731808
 20
153.225822
 30
120.0
 42
0.414214
  0
VERTEX
  5
43A
  8
TEAM-BODY
 10
694.731808
 20
233.225822
 30
120.0
  0
VERTEX
  5
43B
  8
TEAM-BODY
 10
-694.737483
 20
233.225822
 30
120.0
 42
0.414214
  0
VERTEX
  5
43C
  8
TEAM-BODY
 10
-774.737483
 20
153.225822
 30
120.0
  0
VERTEX
  5
43D
  8
TEAM-BODY
 10
-774.737483
 20
0.0
 30
120.0
  0
SEQEND
  5
43E
  8
TEAM-BODY
  0
CIRCLE
  5
10A
  8
TEAM-DET1
 10
670.0
 20
0.0
 30
120.0
 40
52.0
  0
CIRCLE
  5
10C
  8
TEAM-DET3
 10
670.0
 20
0.0
 30
120.0
 40
26.0
  0
TEXT
  5
10E
  8
TEAM-TXT
 10
-927.900595
 20
344.271702
 30
600.0
 40
30.0
  1
team 121070
 41
0.8
 51
15.0
  7
TEAM
  0
POLYLINE
  5
111
  8
TEAM-BODY
 66
     1
 10
0.0
 20
0.0
 30
600.0
 39
-40.0
  0
VERTEX
  5
43F
  8
TEAM-BODY
 10
950.0
 20
0.0
 30
600.0
  0
VERTEX
  5
440
  8
TEAM-BODY
 10
950.0
 20
-390.0
 30
600.0
 42
-0.414214
  0
VERTEX
  5
441
  8
TEAM-BODY
 10
940.0
 20
-400.0
 30
600.0
  0
VERTEX
  5
442
  8
TEAM-BODY
 10
-940.0
 20
-400.0
 30
600.0
 42
-0.414214
  0
VERTEX
  5
443
  8
TEAM-BODY
 10
-950.0
 20
-390.0
 30
600.0
  0
VERTEX
  5
444
  8
TEAM-BODY
 10
-950.0
 20
0.0
 30
600.0
  0
SEQEND
  5
445
  8
TEAM-BODY
  0
POLYLINE
  5
112
  8
TEAM-BODY
 66
     1
 10
0.0
 20
0.0
 30
600.0
 39
-40.0
  0
VERTEX
  5
446
  8
TEAM-BODY
 10
950.0
 20
0.0
 30
600.0
  0
VERTEX
  5
447
  8
TEAM-BODY
 10
950.0
 20
390.0
 30
600.0
 42
0.414214
  0
VERTEX
  5
448
  8
TEAM-BODY
 10
940.0
 20
400.0
 30
600.0
  0
VERTEX
  5
449
  8
TEAM-BODY
 10
-940.0
 20
400.0
 30
600.0
 42
0.414214
  0
VERTEX
  5
44A
  8
TEAM-BODY
 10
-950.0
 20
390.0
 30
600.0
  0
VERTEX
  5
44B
  8
TEAM-BODY
 10
-950.0
 20
0.0
 30
600.0
  0
SEQEND
  5
44C
  8
TEAM-BODY
  0
POLYLINE
  5
113
  8
TEAM-NET
 66
     1
 10
0.0
 20
0.0
 30
0.0
 70
    16
 71
     2
 72
    37
  0
VERTEX
  5
114
  8
TEAM-NET
 10
-849.99842
 20
0.0
 30
600.0
 70
    64
  0
VERTEX
  5
115
  8
TEAM-NET
 10
-849.99842
 20
63.292747
 30
600.0
 70
    64
  0
VERTEX
  5
116
  8
TEAM-NET
 10
-849.99842
 20
126.585494
 30
600.0
 70
    64
  0
VERTEX
  5
117
  8
TEAM-NET
 10
-849.99842
 20
189.878241
 30
600.0
 70
    64
  0
VERTEX
  5
118
  8
TEAM-NET
 10
-849.99842
 20
253.170988
 30
600.0
 70
    64
  0
VERTEX
  5
119
  8
TEAM-NET
 10
-822.80413
 20
299.999536
 30
600.0
 70
    64
  0
VERTEX
  5
11A
  8
TEAM-NET
 10
-759.511383
 20
299.999536
 30
600.0
 70
    64
  0
VERTEX
  5
11B
  8
TEAM-NET
 10
-696.218636
 20
299.999536
 30
600.0
 70
    64
  0
VERTEX
  5
11C
  8
TEAM-NET
 10
-632.925889
 20
299.999536
 30
600.0
 70
    64
  0
VERTEX
  5
11D
  8
TEAM-NET
 10
-569.633142
 20
299.999536
 30
600.0
 70
    64
  0
VERTEX
  5
11E
  8
TEAM-NET
 10
-506.340395
 20
299.999536
 30
600.0
 70
    64
  0
VERTEX
  5
11F
  8
TEAM-NET
 10
-443.047648
 20
299.999536
 30
600.0
 70
    64
  0
VERTEX
  5
120
  8
TEAM-NET
 10
-379.754901
 20
299.999536
 30
600.0
 70
    64
  0
VERTEX
  5
121
  8
TEAM-NET
 10
-316.462154
 20
299.999536
 30
600.0
 70
    64
  0
VERTEX
  5
122
  8
TEAM-NET
 10
-253.169408
 20
299.999536
 30
600.0
 70
    64
  0
VERTEX
  5
123
  8
TEAM-NET
 10
-189.876661
 20
299.999536
 30
600.0
 70
    64
  0
VERTEX
  5
124
  8
TEAM-NET
 10
-126.583914
 20
299.999536
 30
600.0
 70
    64
  0
VERTEX
  5
125
  8
TEAM-NET
 10
-63.291167
 20
299.999536
 30
600.0
 70
    64
  0
VERTEX
  5
126
  8
TEAM-NET
 10
0.00158
 20
299.999536
 30
600.0
 70
    64
  0
VERTEX
  5
127
  8
TEAM-NET
 10
63.294327
 20
299.999536
 30
600.0
 70
    64
  0
VERTEX
  5
128
  8
TEAM-NET
 10
126.587074
 20
299.999536
 30
600.0
 70
    64
  0
VERTEX
  5
129
  8
TEAM-NET
 10
189.879821
 20
299.999536
 30
600.0
 70
    64
  0
VERTEX
  5
12A
  8
TEAM-NET
 10
253.172568
 20
299.999536
 30
600.0
 70
    64
  0
VERTEX
  5
12B
  8
TEAM-NET
 10
316.465314
 20
299.999536
 30
600.0
 70
    64
  0
VERTEX
  5
12C
  8
TEAM-NET
 10
379.758061
 20
299.999536
 30
600.0
 70
    64
  0
VERTEX
  5
12D
  8
TEAM-NET
 10
443.050808
 20
299.999536
 30
600.0
 70
    64
  0
VERTEX
  5
12E
  8
TEAM-NET
 10
506.343555
 20
299.999536
 30
600.0
 70
    64
  0
VERTEX
  5
12F
  8
TEAM-NET
 10
569.636302
 20
299.999536
 30
600.0
 70
    64
  0
VERTEX
  5
130
  8
TEAM-NET
 10
632.929049
 20
299.999536
 30
600.0
 70
    64
  0
VERTEX
  5
131
  8
TEAM-NET
 10
696.221796
 20
299.999536
 30
600.0
 70
    64
  0
VERTEX
  5
132
  8
TEAM-NET
 10
759.514543
 20
299.999536
 30
600.0
 70
    64
  0
VERTEX
  5
133
  8
TEAM-NET
 10
822.80729
 20
299.999536
 30
600.0
 70
    64
  0
VERTEX
  5
134
  8
TEAM-NET
 10
850.00158
 20
253.170988
 30
600.0
 70
    64
  0
VERTEX
  5
135
  8
TEAM-NET
 10
850.00158
 20
189.878241
 30
600.0
 70
    64
  0
VERTEX
  5
136
  8
TEAM-NET
 10
850.00158
 20
126.585494
 30
600.0
 70
    64
  0
VERTEX
  5
137
  8
TEAM-NET
 10
850.00158
 20
63.292747
 30
600.0
 70
    64
  0
VERTEX
  5
138
  8
TEAM-NET
 10
850.00158
 20
0.0
 30
600.0
 70
    64
  0
VERTEX
  5
139
  8
TEAM-NET
 10
-950.0
 20
0.0
 30
600.0
 70
    64
  0
VERTEX
  5
13A
  8
TEAM-NET
 10
-950.0
 20
74.761554
 30
600.0
 70
    64
  0
VERTEX
  5
13B
  8
TEAM-NET
 10
-950.0
 20
149.523107
 30
600.0
 70
    64
  0
VERTEX
  5
13C
  8
TEAM-NET
 10
-950.0
 20
224.284661
 30
600.0
 70
    64
  0
VERTEX
  5
13D
  8
TEAM-NET
 10
-950.0
 20
299.046214
 30
600.0
 70
    64
  0
VERTEX
  5
13E
  8
TEAM-NET
 10
-950.0
 20
373.807768
 30
600.0
 70
    64
  0
VERTEX
  5
13F
  8
TEAM-NET
 10
-897.138642
 20
400.0
 30
600.0
 70
    64
  0
VERTEX
  5
140
  8
TEAM-NET
 10
-822.377089
 20
400.0
 30
600.0
 70
    64
  0
VERTEX
  5
141
  8
TEAM-NET
 10
-747.615535
 20
400.0
 30
600.0
 70
    64
  0
VERTEX
  5
142
  8
TEAM-NET
 10
-672.853982
 20
400.0
 30
600.0
 70
    64
  0
VERTEX
  5
143
  8
TEAM-NET
 10
-598.092428
 20
400.0
 30
600.0
 70
    64
  0
VERTEX
  5
144
  8
TEAM-NET
 10
-523.330875
 20
400.0
 30
600.0
 70
    64
  0
VERTEX
  5
145
  8
TEAM-NET
 10
-448.569321
 20
400.0
 30
600.0
 70
    64
  0
VERTEX
  5
146
  8
TEAM-NET
 10
-373.807768
 20
400.0
 30
600.0
 70
    64
  0
VERTEX
  5
147
  8
TEAM-NET
 10
-299.046214
 20
400.0
 30
600.0
 70
    64
  0
VERTEX
  5
148
  8
TEAM-NET
 10
-224.284661
 20
400.0
 30
600.0
 70
    64
  0
VERTEX
  5
149
  8
TEAM-NET
 10
-149.523107
 20
400.0
 30
600.0
 70
    64
  0
VERTEX
  5
14A
  8
TEAM-NET
 10
-74.761554
 20
400.0
 30
600.0
 70
    64
  0
VERTEX
  5
14B
  8
TEAM-NET
 10
0.0
 20
400.0
 30
600.0
 70
    64
  0
VERTEX
  5
14C
  8
TEAM-NET
 10
74.761554
 20
400.0
 30
600.0
 70
    64
  0
VERTEX
  5
14D
  8
TEAM-NET
 10
149.523107
 20
400.0
 30
600.0
 70
    64
  0
VERTEX
  5
14E
  8
TEAM-NET
 10
224.284661
 20
400.0
 30
600.0
 70
    64
  0
VERTEX
  5
14F
  8
TEAM-NET
 10
299.046214
 20
400.0
 30
600.0
 70
    64
  0
VERTEX
  5
150
  8
TEAM-NET
 10
373.807768
 20
400.0
 30
600.0
 70
    64
  0
VERTEX
  5
151
  8
TEAM-NET
 10
448.569321
 20
400.0
 30
600.0
 70
    64
  0
VERTEX
  5
152
  8
TEAM-NET
 10
523.330875
 20
400.0
 30
600.0
 70
    64
  0
VERTEX
  5
153
  8
TEAM-NET
 10
598.092428
 20
400.0
 30
600.0
 70
    64
  0
VERTEX
  5
154
  8
TEAM-NET
 10
672.853982
 20
400.0
 30
600.0
 70
    64
  0
VERTEX
  5
155
  8
TEAM-NET
 10
747.615535
 20
400.0
 30
600.0
 70
    64
  0
VERTEX
  5
156
  8
TEAM-NET
 10
822.377089
 20
400.0
 30
600.0
 70
    64
  0
VERTEX
  5
157
  8
TEAM-NET
 10
897.138642
 20
400.0
 30
600.0
 70
    64
  0
VERTEX
  5
158
  8
TEAM-NET
 10
950.0
 20
373.807768
 30
600.0
 70
    64
  0
VERTEX
  5
159
  8
TEAM-NET
 10
950.0
 20
299.046214
 30
600.0
 70
    64
  0
VERTEX
  5
15A
  8
TEAM-NET
 10
950.0
 20
224.284661
 30
600.0
 70
    64
  0
VERTEX
  5
15B
  8
TEAM-NET
 10
950.0
 20
149.523107
 30
600.0
 70
    64
  0
VERTEX
  5
15C
  8
TEAM-NET
 10
950.0
 20
74.761554
 30
600.0
 70
    64
  0
VERTEX
  5
15D
  8
TEAM-NET
 10
950.0
 20
0.0
 30
600.0
 70
    64
  0
SEQEND
  5
15E
  8
TEAM-NET
  0
POLYLINE
  5
15F
  8
TEAM-NET
 66
     1
 10
0.0
 20
0.0
 30
0.0
 70
    16
 71
     2
 72
    37
  0
VERTEX
  5
160
  8
TEAM-NET
 10
-849.99842
 20
0.0
 30
600.0
 70
    64
  0
VERTEX
  5
161
  8
TEAM-NET
 10
-849.99842
 20
-63.292747
 30
600.0
 70
    64
  0
VERTEX
  5
162
  8
TEAM-NET
 10
-849.99842
 20
-126.585494
 30
600.0
 70
    64
  0
VERTEX
  5
163
  8
TEAM-NET
 10
-849.99842
 20
-189.878241
 30
600.0
 70
    64
  0
VERTEX
  5
164
  8
TEAM-NET
 10
-849.99842
 20
-253.170988
 30
600.0
 70
    64
  0
VERTEX
  5
165
  8
TEAM-NET
 10
-822.80413
 20
-299.999536
 30
600.0
 70
    64
  0
VERTEX
  5
166
  8
TEAM-NET
 10
-759.511383
 20
-299.999536
 30
600.0
 70
    64
  0
VERTEX
  5
167
  8
TEAM-NET
 10
-696.218636
 20
-299.999536
 30
600.0
 70
    64
  0
VERTEX
  5
168
  8
TEAM-NET
 10
-632.925889
 20
-299.999536
 30
600.0
 70
    64
  0
VERTEX
  5
169
  8
TEAM-NET
 10
-569.633142
 20
-299.999536
 30
600.0
 70
    64
  0
VERTEX
  5
16A
  8
TEAM-NET
 10
-506.340395
 20
-299.999536
 30
600.0
 70
    64
  0
VERTEX
  5
16B
  8
TEAM-NET
 10
-443.047648
 20
-299.999536
 30
600.0
 70
    64
  0
VERTEX
  5
16C
  8
TEAM-NET
 10
-379.754901
 20
-299.999536
 30
600.0
 70
    64
  0
VERTEX
  5
16D
  8
TEAM-NET
 10
-316.462154
 20
-299.999536
 30
600.0
 70
    64
  0
VERTEX
  5
16E
  8
TEAM-NET
 10
-253.169408
 20
-299.999536
 30
600.0
 70
    64
  0
VERTEX
  5
16F
  8
TEAM-NET
 10
-189.876661
 20
-299.999536
 30
600.0
 70
    64
  0
VERTEX
  5
170
  8
TEAM-NET
 10
-126.583914
 20
-299.999536
 30
600.0
 70
    64
  0
VERTEX
  5
171
  8
TEAM-NET
 10
-63.291167
 20
-299.999536
 30
600.0
 70
    64
  0
VERTEX
  5
172
  8
TEAM-NET
 10
0.00158
 20
-299.999536
 30
600.0
 70
    64
  0
VERTEX
  5
173
  8
TEAM-NET
 10
63.294327
 20
-299.999536
 30
600.0
 70
    64
  0
VERTEX
  5
174
  8
TEAM-NET
 10
126.587074
 20
-299.999536
 30
600.0
 70
    64
  0
VERTEX
  5
175
  8
TEAM-NET
 10
189.879821
 20
-299.999536
 30
600.0
 70
    64
  0
VERTEX
  5
176
  8
TEAM-NET
 10
253.172568
 20
-299.999536
 30
600.0
 70
    64
  0
VERTEX
  5
177
  8
TEAM-NET
 10
316.465314
 20
-299.999536
 30
600.0
 70
    64
  0
VERTEX
  5
178
  8
TEAM-NET
 10
379.758061
 20
-299.999536
 30
600.0
 70
    64
  0
VERTEX
  5
179
  8
TEAM-NET
 10
443.050808
 20
-299.999536
 30
600.0
 70
    64
  0
VERTEX
  5
17A
  8
TEAM-NET
 10
506.343555
 20
-299.999536
 30
600.0
 70
    64
  0
VERTEX
  5
17B
  8
TEAM-NET
 10
569.636302
 20
-299.999536
 30
600.0
 70
    64
  0
VERTEX
  5
17C
  8
TEAM-NET
 10
632.929049
 20
-299.999536
 30
600.0
 70
    64
  0
VERTEX
  5
17D
  8
TEAM-NET
 10
696.221796
 20
-299.999536
 30
600.0
 70
    64
  0
VERTEX
  5
17E
  8
TEAM-NET
 10
759.514543
 20
-299.999536
 30
600.0
 70
    64
  0
VERTEX
  5
17F
  8
TEAM-NET
 10
822.80729
 20
-299.999536
 30
600.0
 70
    64
  0
VERTEX
  5
180
  8
TEAM-NET
 10
850.00158
 20
-253.170988
 30
600.0
 70
    64
  0
VERTEX
  5
181
  8
TEAM-NET
 10
850.00158
 20
-189.878241
 30
600.0
 70
    64
  0
VERTEX
  5
182
  8
TEAM-NET
 10
850.00158
 20
-126.585494
 30
600.0
 70
    64
  0
VERTEX
  5
183
  8
TEAM-NET
 10
850.00158
 20
-63.292747
 30
600.0
 70
    64
  0
VERTEX
  5
184
  8
TEAM-NET
 10
850.00158
 20
0.0
 30
600.0
 70
    64
  0
VERTEX
  5
185
  8
TEAM-NET
 10
-950.0
 20
0.0
 30
600.0
 70
    64
  0
VERTEX
  5
186
  8
TEAM-NET
 10
-950.0
 20
-74.761554
 30
600.0
 70
    64
  0
VERTEX
  5
187
  8
TEAM-NET
 10
-950.0
 20
-149.523107
 30
600.0
 70
    64
  0
VERTEX
  5
188
  8
TEAM-NET
 10
-950.0
 20
-224.284661
 30
600.0
 70
    64
  0
VERTEX
  5
189
  8
TEAM-NET
 10
-950.0
 20
-299.046214
 30
600.0
 70
    64
  0
VERTEX
  5
18A
  8
TEAM-NET
 10
-950.0
 20
-373.807768
 30
600.0
 70
    64
  0
VERTEX
  5
18B
  8
TEAM-NET
 10
-897.138642
 20
-400.0
 30
600.0
 70
    64
  0
VERTEX
  5
18C
  8
TEAM-NET
 10
-822.377089
 20
-400.0
 30
600.0
 70
    64
  0
VERTEX
  5
18D
  8
TEAM-NET
 10
-747.615535
 20
-400.0
 30
600.0
 70
    64
  0
VERTEX
  5
18E
  8
TEAM-NET
 10
-672.853982
 20
-400.0
 30
600.0
 70
    64
  0
VERTEX
  5
18F
  8
TEAM-NET
 10
-598.092428
 20
-400.0
 30
600.0
 70
    64
  0
VERTEX
  5
190
  8
TEAM-NET
 10
-523.330875
 20
-400.0
 30
600.0
 70
    64
  0
VERTEX
  5
191
  8
TEAM-NET
 10
-448.569321
 20
-400.0
 30
600.0
 70
    64
  0
VERTEX
  5
192
  8
TEAM-NET
 10
-373.807768
 20
-400.0
 30
600.0
 70
    64
  0
VERTEX
  5
193
  8
TEAM-NET
 10
-299.046214
 20
-400.0
 30
600.0
 70
    64
  0
VERTEX
  5
194
  8
TEAM-NET
 10
-224.284661
 20
-400.0
 30
600.0
 70
    64
  0
VERTEX
  5
195
  8
TEAM-NET
 10
-149.523107
 20
-400.0
 30
600.0
 70
    64
  0
VERTEX
  5
196
  8
TEAM-NET
 10
-74.761554
 20
-400.0
 30
600.0
 70
    64
  0
VERTEX
  5
197
  8
TEAM-NET
 10
0.0
 20
-400.0
 30
600.0
 70
    64
  0
VERTEX
  5
198
  8
TEAM-NET
 10
74.761554
 20
-400.0
 30
600.0
 70
    64
  0
VERTEX
  5
199
  8
TEAM-NET
 10
149.523107
 20
-400.0
 30
600.0
 70
    64
  0
VERTEX
  5
19A
  8
TEAM-NET
 10
224.284661
 20
-400.0
 30
600.0
 70
    64
  0
VERTEX
  5
19B
  8
TEAM-NET
 10
299.046214
 20
-400.0
 30
600.0
 70
    64
  0
VERTEX
  5
19C
  8
TEAM-NET
 10
373.807768
 20
-400.0
 30
600.0
 70
    64
  0
VERTEX
  5
19D
  8
TEAM-NET
 10
448.569321
 20
-400.0
 30
600.0
 70
    64
  0
VERTEX
  5
19E
  8
TEAM-NET
 10
523.330875
 20
-400.0
 30
600.0
 70
    64
  0
VERTEX
  5
19F
  8
TEAM-NET
 10
598.092428
 20
-400.0
 30
600.0
 70
    64
  0
VERTEX
  5
1A0
  8
TEAM-NET
 10
672.853982
 20
-400.0
 30
600.0
 70
    64
  0
VERTEX
  5
1A1
  8
TEAM-NET
 10
747.615535
 20
-400.0
 30
600.0
 70
    64
  0
VERTEX
  5
1A2
  8
TEAM-NET
 10
822.377089
 20
-400.0
 30
600.0
 70
    64
  0
VERTEX
  5
1A3
  8
TEAM-NET
 10
897.138642
 20
-400.0
 30
600.0
 70
    64
  0
VERTEX
  5
1A4
  8
TEAM-NET
 10
950.0
 20
-373.807768
 30
600.0
 70
    64
  0
VERTEX
  5
1A5
  8
TEAM-NET
 10
950.0
 20
-299.046214
 30
600.0
 70
    64
  0
VERTEX
  5
1A6
  8
TEAM-NET
 10
950.0
 20
-224.284661
 30
600.0
 70
    64
  0
VERTEX
  5
1A7
  8
TEAM-NET
 10
950.0
 20
-149.523107
 30
600.0
 70
    64
  0
VERTEX
  5
1A8
  8
TEAM-NET
 10
950.0
 20
-74.761554
 30
600.0
 70
    64
  0
VERTEX
  5
1A9
  8
TEAM-NET
 10
950.0
 20
0.0
 30
600.0
 70
    64
  0
SEQEND
  5
1AA
  8
TEAM-NET
  0
POLYLINE
  5
1AB
  8
TEAM-DET1
 66
     1
 10
0.0
 20
0.0
 30
560.0
 70
     1
  0
VERTEX
  5
44D
  8
TEAM-DET1
 10
831.118468
 20
23.966352
 30
560.0
  0
VERTEX
  5
44E
  8
TEAM-DET1
 10
830.21897
 20
23.646248
 30
560.0
  0
VERTEX
  5
44F
  8
TEAM-DET1
 10
829.34162
 20
22.693821
 30
560.0
  0
VERTEX
  5
450
  8
TEAM-DET1
 10
828.508022
 20
21.132521
 30
560.0
  0
VERTEX
  5
451
  8
TEAM-DET1
 10
827.738702
 20
19.000793
 30
560.0
  0
VERTEX
  5
452
  8
TEAM-DET1
 10
827.052604
 20
16.351128
 30
560.0
  0
VERTEX
  5
453
  8
TEAM-DET1
 10
826.46662
 20
13.248768
 30
560.0
  0
VERTEX
  5
454
  8
TEAM-DET1
 10
825.99518
 20
9.770105
 30
560.0
  0
VERTEX
  5
455
  8
TEAM-DET1
 10
825.649893
 20
6.000793
 30
560.0
  0
VERTEX
  5
456
  8
TEAM-DET1
 10
825.43926
 20
2.033648
 30
560.0
  0
VERTEX
  5
457
  8
TEAM-DET1
 10
825.368468
 20
-2.033648
 30
560.0
  0
VERTEX
  5
458
  8
TEAM-DET1
 10
825.43926
 20
-6.100944
 30
560.0
  0
VERTEX
  5
459
  8
TEAM-DET1
 10
825.649893
 20
-10.06809
 30
560.0
  0
VERTEX
  5
45A
  8
TEAM-DET1
 10
825.99518
 20
-13.837401
 30
560.0
  0
VERTEX
  5
45B
  8
TEAM-DET1
 10
826.46662
 20
-17.316065
 30
560.0
  0
VERTEX
  5
45C
  8
TEAM-DET1
 10
827.052604
 20
-20.418425
 30
560.0
  0
VERTEX
  5
45D
  8
TEAM-DET1
 10
827.738702
 20
-23.06809
 30
560.0
  0
VERTEX
  5
45E
  8
TEAM-DET1
 10
828.508022
 20
-25.199818
 30
560.0
  0
VERTEX
  5
45F
  8
TEAM-DET1
 10
829.34162
 20
-26.761118
 30
560.0
  0
VERTEX
  5
460
  8
TEAM-DET1
 10
830.21897
 20
-27.713545
 30
560.0
  0
VERTEX
  5
461
  8
TEAM-DET1
 10
831.118468
 20
-28.033648
 30
560.0
  0
VERTEX
  5
462
  8
TEAM-DET1
 10
832.017966
 20
-27.713545
 30
560.0
  0
VERTEX
  5
463
  8
TEAM-DET1
 10
832.895315
 20
-26.761118
 30
560.0
  0
VERTEX
  5
464
  8
TEAM-DET1
 10
833.728913
 20
-25.199818
 30
560.0
  0
VERTEX
  5
465
  8
TEAM-DET1
 10
834.498233
 20
-23.06809
 30
560.0
  0
VERTEX
  5
466
  8
TEAM-DET1
 10
835.184332
 20
-20.418425
 30
560.0
  0
VERTEX
  5
467
  8
TEAM-DET1
 10
835.770315
 20
-17.316065
 30
560.0
  0
VERTEX
  5
468
  8
TEAM-DET1
 10
836.241755
 20
-13.837401
 30
560.0
  0
VERTEX
  5
469
  8
TEAM-DET1
 10
836.587043
 20
-10.06809
 30
560.0
  0
VERTEX
  5
46A
  8
TEAM-DET1
 10
836.797676
 20
-6.100944
 30
560.0
  0
VERTEX
  5
46B
  8
TEAM-DET1
 10
836.868468
 20
-2.033648
 30
560.0
  0
VERTEX
  5
46C
  8
TEAM-DET1
 10
836.797676
 20
2.033648
 30
560.0
  0
VERTEX
  5
46D
  8
TEAM-DET1
 10
836.587043
 20
6.000793
 30
560.0
  0
VERTEX
  5
46E
  8
TEAM-DET1
 10
836.241755
 20
9.770105
 30
560.0
  0
VERTEX
  5
46F
  8
TEAM-DET1
 10
835.770315
 20
13.248768
 30
560.0
  0
VERTEX
  5
470
  8
TEAM-DET1
 10
835.184332
 20
16.351128
 30
560.0
  0
VERTEX
  5
471
  8
TEAM-DET1
 10
834.498233
 20
19.000793
 30
560.0
  0
VERTEX
  5
472
  8
TEAM-DET1
 10
833.728913
 20
21.132521
 30
560.0
  0
VERTEX
  5
473
  8
TEAM-DET1
 10
832.895315
 20
22.693821
 30
560.0
  0
VERTEX
  5
474
  8
TEAM-DET1
 10
832.017966
 20
23.646248
 30
560.0
  0
SEQEND
  5
475
  8
TEAM-DET1
  0
POLYLINE
  5
1AC
  8
TEAM-DET1
 66
     1
 10
0.0
 20
0.0
 30
600.0
  0
VERTEX
  5
476
  8
TEAM-DET1
 10
850.00158
 20
0.0
 30
600.0
  0
VERTEX
  5
477
  8
TEAM-DET1
 10
850.00158
 20
-274.999536
 30
600.0
 42
-0.414214
  0
VERTEX
  5
478
  8
TEAM-DET1
 10
825.00158
 20
-299.999536
 30
600.0
  0
VERTEX
  5
479
  8
TEAM-DET1
 10
-824.99842
 20
-299.999536
 30
600.0
 42
-0.414214
  0
VERTEX
  5
47A
  8
TEAM-DET1
 10
-849.99842
 20
-274.999536
 30
600.0
  0
VERTEX
  5
47B
  8
TEAM-DET1
 10
-849.99842
 20
0.0
 30
600.0
  0
SEQEND
  5
47C
  8
TEAM-DET1
  0
POLYLINE
  5
1AD
  8
TEAM-DET1
 66
     1
 10
0.0
 20
0.0
 30
600.0
  0
VERTEX
  5
47D
  8
TEAM-DET1
 10
850.00158
 20
0.0
 30
600.0
  0
VERTEX
  5
47E
  8
TEAM-DET1
 10
850.00158
 20
274.999536
 30
600.0
 42
0.414214
  0
VERTEX
  5
47F
  8
TEAM-DET1
 10
825.00158
 20
299.999536
 30
600.0
  0
VERTEX
  5
480
  8
TEAM-DET1
 10
-824.99842
 20
299.999536
 30
600.0
 42
0.414214
  0
VERTEX
  5
481
  8
TEAM-DET1
 10
-849.99842
 20
274.999536
 30
600.0
  0
VERTEX
  5
482
  8
TEAM-DET1
 10
-849.99842
 20
0.0
 30
600.0
  0
SEQEND
  5
483
  8
TEAM-DET1
  0
ENDSEC
  0
EOF
