  0
SECTION
  2
HEADER
  9
$ACADVER
  1
AC1009
  9
$INSBASE
 10
0.0
 20
0.0
 30
0.0
  9
$EXTMIN
 10
-850.03444
 20
-906.548629
 30
-0.010822
  9
$EXTMAX
 10
1089.098221
 20
500.069232
 30
600.018921
  9
$LIMMIN
 10
-850.03444
 20
-906.548629
  9
$LIMMAX
 10
1089.098221
 20
500.069232
  9
$ORTHOMODE
 70
     1
  9
$REGENMODE
 70
     1
  9
$FILLMODE
 70
     1
  9
$QTEXTMODE
 70
     0
  9
$MIRRTEXT
 70
     0
  9
$DRAGMODE
 70
     2
  9
$LTSCALE
 40
25.0
  9
$OSMODE
 70
     0
  9
$ATTMODE
 70
     1
  9
$TEXTSIZE
 40
200.0
  9
$TRACEWID
 40
1.0
  9
$TEXTSTYLE
  7
STANDARD
  9
$CLAYER
  8
TEAM-MAS
  9
$CELTYPE
  6
BYLAYER
  9
$CECOLOR
 62
   256
  9
$DIMSCALE
 40
0.0
  9
$DIMASZ
 40
20.0
  9
$DIMEXO
 40
10.0
  9
$DIMDLI
 40
1.0
  9
$DIMRND
 40
0.0
  9
$DIMDLE
 40
0.0
  9
$DIMEXE
 40
1.0
  9
$DIMTP
 40
0.0
  9
$DIMTM
 40
0.0
  9
$DIMTXT
 40
35.0
  9
$DIMCEN
 40
1.0
  9
$DIMTSZ
 40
0.0
  9
$DIMTOL
 70
     0
  9
$DIMLIM
 70
     0
  9
$DIMTIH
 70
     0
  9
$DIMTOH
 70
     0
  9
$DIMSE1
 70
     0
  9
$DIMSE2
 70
     0
  9
$DIMTAD
 70
     0
  9
$DIMZIN
 70
     0
  9
$DIMBLK
  1

  9
$DIMASO
 70
     1
  9
$DIMSHO
 70
     0
  9
$DIMPOST
  1

  9
$DIMAPOST
  1

  9
$DIMALT
 70
     0
  9
$DIMALTD
 70
     2
  9
$DIMALTF
 40
25.4
  9
$DIMLFAC
 40
1.0
  9
$DIMTOFL
 70
     0
  9
$DIMTVP
 40
0.0
  9
$DIMTIX
 70
     0
  9
$DIMSOXD
 70
     0
  9
$DIMSAH
 70
     0
  9
$DIMBLK1
  1

  9
$DIMBLK2
  1

  9
$DIMSTYLE
  2
TEAM
  9
$DIMCLRD
 70
     9
  9
$DIMCLRE
 70
     9
  9
$DIMCLRT
 70
    11
  9
$DIMTFAC
 40
1.0
  9
$DIMGAP
 40
15.0
  9
$LUNITS
 70
     2
  9
$LUPREC
 70
     1
  9
$SKETCHINC
 40
1.0
  9
$FILLETRAD
 40
50.0
  9
$AUNITS
 70
     0
  9
$AUPREC
 70
     0
  9
$MENU
  1
ROPLANS
  9
$ELEVATION
 40
0.0
  9
$PELEVATION
 40
0.0
  9
$THICKNESS
 40
0.0
  9
$LIMCHECK
 70
     0
  9
$BLIPMODE
 70
     1
  9
$CHAMFERA
 40
0.0
  9
$CHAMFERB
 40
0.0
  9
$SKPOLY
 70
     0
  9
$TDCREATE
 40
2450392.957851
  9
$TDUPDATE
 40
2455493.900056
  9
$TDINDWG
 40
2.014927
  9
$TDUSRTIMER
 40
2.014927
  9
$USRTIMER
 70
     1
  9
$ANGBASE
 50
0.0
  9
$ANGDIR
 70
     0
  9
$PDMODE
 70
     0
  9
$PDSIZE
 40
0.0
  9
$PLINEWID
 40
0.0
  9
$COORDS
 70
     2
  9
$SPLFRAME
 70
     0
  9
$SPLINETYPE
 70
     6
  9
$SPLINESEGS
 70
     8
  9
$ATTDIA
 70
     0
  9
$ATTREQ
 70
     0
  9
$HANDLING
 70
     1
  9
$HANDSEED
  5
70B
  9
$SURFTAB1
 70
    24
  9
$SURFTAB2
 70
    24
  9
$SURFTYPE
 70
     6
  9
$SURFU
 70
     6
  9
$SURFV
 70
     6
  9
$UCSNAME
  2

  9
$UCSORG
 10
0.0
 20
0.0
 30
0.0
  9
$UCSXDIR
 10
1.0
 20
0.0
 30
0.0
  9
$UCSYDIR
 10
0.0
 20
1.0
 30
0.0
  9
$PUCSNAME
  2

  9
$PUCSORG
 10
0.0
 20
0.0
 30
0.0
  9
$PUCSXDIR
 10
1.0
 20
0.0
 30
0.0
  9
$PUCSYDIR
 10
0.0
 20
1.0
 30
0.0
  9
$USERI1
 70
     0
  9
$USERI2
 70
     0
  9
$USERI3
 70
     0
  9
$USERI4
 70
     0
  9
$USERI5
 70
     0
  9
$USERR1
 40
0.0
  9
$USERR2
 40
0.0
  9
$USERR3
 40
0.0
  9
$USERR4
 40
0.0
  9
$USERR5
 40
0.0
  9
$WORLDVIEW
 70
     1
  9
$SHADEDGE
 70
     0
  9
$SHADEDIF
 70
    70
  9
$TILEMODE
 70
     1
  9
$MAXACTVP
 70
    16
  9
$PLIMCHECK
 70
     0
  9
$PEXTMIN
 10
-0.805942
 20
0.005011
 30
0.0
  9
$PEXTMAX
 10
20.250094
 20
11.356329
 30
0.0
  9
$PLIMMIN
 10
0.0
 20
0.0
  9
$PLIMMAX
 10
12.0
 20
9.0
  9
$UNITMODE
 70
     0
  9
$VISRETAIN
 70
     0
  9
$PLINEGEN
 70
     0
  9
$PSLTSCALE
 70
     0
  0
ENDSEC
  0
SECTION
  2
TABLES
  0
TABLE
  2
VPORT
 70
     2
  0
VPORT
  2
*ACTIVE
 70
     0
 10
0.0
 20
0.0
 11
1.0
 21
1.0
 12
119.531891
 22
-203.239699
 13
0.0
 23
0.0
 14
1.0
 24
1.0
 15
50.0
 25
50.0
 16
0.0
 26
0.0
 36
1.0
 17
0.0
 27
0.0
 37
0.0
 40
1415.256251
 41
1.865779
 42
50.0
 43
0.0
 44
0.0
 50
0.0
 51
0.0
 71
     0
 72
   100
 73
     1
 74
     1
 75
     0
 76
     0
 77
     0
 78
     0
  0
ENDTAB
  0
TABLE
  2
LTYPE
 70
     2
  0
LTYPE
  2
CONTINUOUS
 70
     0
  3
Solid Line
 72
    65
 73
     0
 40
0.0
  0
LTYPE
  2
31
 70
     0
  3

 72
    65
 73
     4
 40
2.1
 49
1.5
 49
-0.3
 49
0.0
 49
-0.3
  0
ENDTAB
  0
TABLE
  2
LAYER
 70
     9
  0
LAYER
  2
0
 70
     0
 62
     7
  6
CONTINUOUS
  0
LAYER
  2
TEAM-BODY
 70
     0
 62
     2
  6
CONTINUOUS
  0
LAYER
  2
TEAM-AXE
 70
     0
 62
    10
  6
31
  0
LAYER
  2
TEAM-MAS
 70
     0
 62
     9
  6
CONTINUOUS
  0
LAYER
  2
TEAM-TXT
 70
     0
 62
    11
  6
CONTINUOUS
  0
LAYER
  2
TEAM-DET1
 70
     0
 62
     4
  6
CONTINUOUS
  0
LAYER
  2
TEAM-KAN
 70
     0
 62
     6
  6
CONTINUOUS
  0
LAYER
  2
TEAM-NET
 70
     0
 62
    15
  6
CONTINUOUS
  0
LAYER
  2
TEAM-INSP
 70
     0
 62
     5
  6
CONTINUOUS
  0
ENDTAB
  0
TABLE
  2
STYLE
 70
     2
  0
STYLE
  2
STANDARD
 70
     0
 40
0.0
 41
1.0
 50
0.0
 71
     0
 42
200.0
  3
txt
  4

  0
STYLE
  2
TEAM
 70
     0
 40
0.0
 41
0.8
 50
15.0
 71
     0
 42
7.0
  3
ROMANS.shx
  4

  0
ENDTAB
  0
TABLE
  2
VIEW
 70
     0
  0
ENDTAB
  0
TABLE
  2
UCS
 70
     0
  0
ENDTAB
  0
TABLE
  2
APPID
 70
     1
  0
APPID
  2
ACAD
 70
     0
  0
ENDTAB
  0
TABLE
  2
DIMSTYLE
 70
     1
  0
DIMSTYLE
  2
TEAM
 70
     0
  3

  4

  5

  6

  7

 40
0.0
 41
20.0
 42
10.0
 43
1.0
 44
1.0
 45
0.0
 46
0.0
 47
0.0
 48
0.0
140
35.0
141
1.0
142
0.0
143
25.4
144
1.0
145
0.0
146
1.0
147
15.0
 71
     0
 72
     0
 73
     0
 74
     0
 75
     0
 76
     0
 77
     0
 78
     0
170
     0
171
     2
172
     0
173
     0
174
     0
175
     0
176
     9
177
     9
178
    11
  0
ENDTAB
  0
ENDSEC
  0
SECTION
  2
BLOCKS
  0
BLOCK
  8
0
  2
$MODEL_SPACE
 70
     0
 10
0.0
 20
0.0
 30
0.0
  3
$MODEL_SPACE
  1

  0
ENDBLK
  5
65F
  8
0
  0
BLOCK
 67
     1
  8
0
  2
$PAPER_SPACE
 70
     0
 10
0.0
 20
0.0
 30
0.0
  3
$PAPER_SPACE
  1

  0
ENDBLK
  5
65D
 67
     1
  8
0
  0
ENDSEC
  0
SECTION
  2
ENTITIES
  0
POLYLINE
  5
20
  8
TEAM-NET
 66
     1
 10
0.0
 20
0.0
 30
0.0
 70
    16
 71
     2
 72
    37
  0
VERTEX
  5
21
  8
TEAM-NET
 10
-584.051678
 20
-304.934891
 30
120.0
 70
    64
  0
VERTEX
  5
22
  8
TEAM-NET
 10
-550.007095
 20
-332.985015
 30
120.0
 70
    64
  0
VERTEX
  5
23
  8
TEAM-NET
 10
-512.80531
 20
-356.594546
 30
120.0
 70
    64
  0
VERTEX
  5
24
  8
TEAM-NET
 10
-473.45062
 20
-376.53811
 30
120.0
 70
    64
  0
VERTEX
  5
25
  8
TEAM-NET
 10
-433.119909
 20
-394.419794
 30
120.0
 70
    64
  0
VERTEX
  5
26
  8
TEAM-NET
 10
-391.316518
 20
-408.464669
 30
120.0
 70
    64
  0
VERTEX
  5
27
  8
TEAM-NET
 10
-348.188493
 20
-417.670943
 30
120.0
 70
    64
  0
VERTEX
  5
28
  8
TEAM-NET
 10
-304.299196
 20
-422.00181
 30
120.0
 70
    64
  0
VERTEX
  5
29
  8
TEAM-NET
 10
-260.195745
 20
-421.765185
 30
120.0
 70
    64
  0
VERTEX
  5
2A
  8
TEAM-NET
 10
-216.349194
 20
-417.005938
 30
120.0
 70
    64
  0
VERTEX
  5
2B
  8
TEAM-NET
 10
-173.013241
 20
-408.726459
 30
120.0
 70
    64
  0
VERTEX
  5
2C
  8
TEAM-NET
 10
-130.053966
 20
-398.670661
 30
120.0
 70
    64
  0
VERTEX
  5
2D
  8
TEAM-NET
 10
-87.524547
 20
-386.926899
 30
120.0
 70
    64
  0
VERTEX
  5
2E
  8
TEAM-NET
 10
-45.361841
 20
-373.924192
 30
120.0
 70
    64
  0
VERTEX
  5
2F
  8
TEAM-NET
 10
-3.566207
 20
-359.785975
 30
120.0
 70
    64
  0
VERTEX
  5
30
  8
TEAM-NET
 10
37.842261
 20
-344.55023
 30
120.0
 70
    64
  0
VERTEX
  5
31
  8
TEAM-NET
 10
78.985651
 20
-328.610586
 30
120.0
 70
    64
  0
VERTEX
  5
32
  8
TEAM-NET
 10
119.900998
 20
-312.094374
 30
120.0
 70
    64
  0
VERTEX
  5
33
  8
TEAM-NET
 10
160.568418
 20
-294.977407
 30
120.0
 70
    64
  0
VERTEX
  5
34
  8
TEAM-NET
 10
200.561561
 20
-276.348206
 30
120.0
 70
    64
  0
VERTEX
  5
35
  8
TEAM-NET
 10
239.483045
 20
-255.582799
 30
120.0
 70
    64
  0
VERTEX
  5
36
  8
TEAM-NET
 10
276.584712
 20
-231.725377
 30
120.0
 70
    64
  0
VERTEX
  5
37
  8
TEAM-NET
 10
311.524841
 20
-204.801536
 30
120.0
 70
    64
  0
VERTEX
  5
38
  8
TEAM-NET
 10
344.046819
 20
-175.001772
 30
120.0
 70
    64
  0
VERTEX
  5
39
  8
TEAM-NET
 10
374.237614
 20
-142.834294
 30
120.0
 70
    64
  0
VERTEX
  5
3A
  8
TEAM-NET
 10
402.334507
 20
-108.822547
 30
120.0
 70
    64
  0
VERTEX
  5
3B
  8
TEAM-NET
 10
428.202051
 20
-73.086679
 30
120.0
 70
    64
  0
VERTEX
  5
3C
  8
TEAM-NET
 10
451.618489
 20
-35.699298
 30
120.0
 70
    64
  0
VERTEX
  5
3D
  8
TEAM-NET
 10
472.540882
 20
3.141163
 30
120.0
 70
    64
  0
VERTEX
  5
3E
  8
TEAM-NET
 10
492.475327
 20
42.504675
 30
120.0
 70
    64
  0
VERTEX
  5
3F
  8
TEAM-NET
 10
512.034554
 20
82.055969
 30
120.0
 70
    64
  0
VERTEX
  5
40
  8
TEAM-NET
 10
530.954041
 20
121.915598
 30
120.0
 70
    64
  0
VERTEX
  5
41
  8
TEAM-NET
 10
548.346896
 20
162.45404
 30
120.0
 70
    64
  0
VERTEX
  5
42
  8
TEAM-NET
 10
558.373671
 20
205.328037
 30
120.0
 70
    64
  0
VERTEX
  5
43
  8
TEAM-NET
 10
558.60195
 20
249.358296
 30
120.0
 70
    64
  0
VERTEX
  5
44
  8
TEAM-NET
 10
544.241882
 20
290.841701
 30
120.0
 70
    64
  0
VERTEX
  5
45
  8
TEAM-NET
 10
516.847842
 20
325.162348
 30
120.0
 70
    64
  0
VERTEX
  5
46
  8
TEAM-NET
 10
-585.293429
 20
-344.510478
 30
600.0
 70
    64
  0
VERTEX
  5
47
  8
TEAM-NET
 10
-547.207549
 20
-375.826825
 30
600.0
 70
    64
  0
VERTEX
  5
48
  8
TEAM-NET
 10
-505.642643
 20
-402.261692
 30
600.0
 70
    64
  0
VERTEX
  5
49
  8
TEAM-NET
 10
-461.651856
 20
-424.553689
 30
600.0
 70
    64
  0
VERTEX
  5
4A
  8
TEAM-NET
 10
-416.495996
 20
-444.370109
 30
600.0
 70
    64
  0
VERTEX
  5
4B
  8
TEAM-NET
 10
-369.656051
 20
-459.734305
 30
600.0
 70
    64
  0
VERTEX
  5
4C
  8
TEAM-NET
 10
-321.385452
 20
-469.733716
 30
600.0
 70
    64
  0
VERTEX
  5
4D
  8
TEAM-NET
 10
-272.30232
 20
-474.336074
 30
600.0
 70
    64
  0
VERTEX
  5
4E
  8
TEAM-NET
 10
-223.005051
 20
-473.839444
 30
600.0
 70
    64
  0
VERTEX
  5
4F
  8
TEAM-NET
 10
-174.019447
 20
-468.282653
 30
600.0
 70
    64
  0
VERTEX
  5
50
  8
TEAM-NET
 10
-125.610344
 20
-458.861699
 30
600.0
 70
    64
  0
VERTEX
  5
51
  8
TEAM-NET
 10
-77.656611
 20
-447.343271
 30
600.0
 70
    64
  0
VERTEX
  5
52
  8
TEAM-NET
 10
-30.212433
 20
-433.874213
 30
600.0
 70
    64
  0
VERTEX
  5
53
  8
TEAM-NET
 10
16.798309
 20
-418.960191
 30
600.0
 70
    64
  0
VERTEX
  5
54
  8
TEAM-NET
 10
63.351384
 20
-402.673724
 30
600.0
 70
    64
  0
VERTEX
  5
55
  8
TEAM-NET
 10
109.479216
 20
-385.215971
 30
600.0
 70
    64
  0
VERTEX
  5
56
  8
TEAM-NET
 10
155.324841
 20
-367.029644
 30
600.0
 70
    64
  0
VERTEX
  5
57
  8
TEAM-NET
 10
200.883808
 20
-348.136673
 30
600.0
 70
    64
  0
VERTEX
  5
58
  8
TEAM-NET
 10
245.831281
 20
-327.843593
 30
600.0
 70
    64
  0
VERTEX
  5
59
  8
TEAM-NET
 10
289.617741
 20
-305.159845
 30
600.0
 70
    64
  0
VERTEX
  5
5A
  8
TEAM-NET
 10
331.451164
 20
-279.062836
 30
600.0
 70
    64
  0
VERTEX
  5
5B
  8
TEAM-NET
 10
370.867009
 20
-249.440609
 30
600.0
 70
    64
  0
VERTEX
  5
5C
  8
TEAM-NET
 10
407.564754
 20
-216.51101
 30
600.0
 70
    64
  0
VERTEX
  5
5D
  8
TEAM-NET
 10
441.535113
 20
-180.766011
 30
600.0
 70
    64
  0
VERTEX
  5
5E
  8
TEAM-NET
 10
473.065756
 20
-142.850985
 30
600.0
 70
    64
  0
VERTEX
  5
5F
  8
TEAM-NET
 10
502.003961
 20
-102.922964
 30
600.0
 70
    64
  0
VERTEX
  5
60
  8
TEAM-NET
 10
528.095281
 20
-61.079659
 30
600.0
 70
    64
  0
VERTEX
  5
61
  8
TEAM-NET
 10
551.343038
 20
-17.588035
 30
600.0
 70
    64
  0
VERTEX
  5
62
  8
TEAM-NET
 10
573.557715
 20
26.447155
 30
600.0
 70
    64
  0
VERTEX
  5
63
  8
TEAM-NET
 10
595.306612
 20
70.714236
 30
600.0
 70
    64
  0
VERTEX
  5
64
  8
TEAM-NET
 10
615.949697
 20
115.504912
 30
600.0
 70
    64
  0
VERTEX
  5
65
  8
TEAM-NET
 10
635.388078
 20
160.834139
 30
600.0
 70
    64
  0
VERTEX
  5
66
  8
TEAM-NET
 10
654.452809
 20
206.321895
 30
600.0
 70
    64
  0
VERTEX
  5
67
  8
TEAM-NET
 10
672.789592
 20
252.106563
 30
600.0
 70
    64
  0
VERTEX
  5
68
  8
TEAM-NET
 10
688.494301
 20
298.83845
 30
600.0
 70
    64
  0
VERTEX
  5
69
  8
TEAM-NET
 10
681.114806
 20
346.08478
 30
600.0
 70
    64
  0
VERTEX
  5
6A
  8
TEAM-NET
 10
646.325971
 20
380.18749
 30
600.0
 70
    64
  0
SEQEND
  5
6C
  8
TEAM-NET
  0
POLYLINE
  5
6D
  8
TEAM-NET
 66
     1
 10
0.0
 20
0.0
 30
0.0
 70
    16
 71
     2
 72
    37
  0
VERTEX
  5
6E
  8
TEAM-NET
 10
-587.104422
 20
-302.417344
 30
120.0
 70
    64
  0
VERTEX
  5
6F
  8
TEAM-NET
 10
-621.250549
 20
-269.700988
 30
120.0
 70
    64
  0
VERTEX
  5
70
  8
TEAM-NET
 10
-650.395731
 20
-232.323287
 30
120.0
 70
    64
  0
VERTEX
  5
71
  8
TEAM-NET
 10
-671.7277
 20
-190.06239
 30
120.0
 70
    64
  0
VERTEX
  5
72
  8
TEAM-NET
 10
-688.211248
 20
-145.609276
 30
120.0
 70
    64
  0
VERTEX
  5
73
  8
TEAM-NET
 10
-697.331888
 20
-99.13336
 30
120.0
 70
    64
  0
VERTEX
  5
74
  8
TEAM-NET
 10
-701.147334
 20
-51.873774
 30
120.0
 70
    64
  0
VERTEX
  5
75
  8
TEAM-NET
 10
-698.697532
 20
-4.593761
 30
120.0
 70
    64
  0
VERTEX
  5
76
  8
TEAM-NET
 10
-686.462388
 20
41.141181
 30
120.0
 70
    64
  0
VERTEX
  5
77
  8
TEAM-NET
 10
-665.272429
 20
83.484357
 30
120.0
 70
    64
  0
VERTEX
  5
78
  8
TEAM-NET
 10
-636.779144
 20
121.325645
 30
120.0
 70
    64
  0
VERTEX
  5
79
  8
TEAM-NET
 10
-605.974585
 20
157.311525
 30
120.0
 70
    64
  0
VERTEX
  5
7A
  8
TEAM-NET
 10
-573.23444
 20
191.591027
 30
120.0
 70
    64
  0
VERTEX
  5
7B
  8
TEAM-NET
 10
-536.859365
 20
221.986015
 30
120.0
 70
    64
  0
VERTEX
  5
7C
  8
TEAM-NET
 10
-497.305827
 20
248.110737
 30
120.0
 70
    64
  0
VERTEX
  5
7D
  8
TEAM-NET
 10
-455.599509
 20
270.677857
 30
120.0
 70
    64
  0
VERTEX
  5
7E
  8
TEAM-NET
 10
-413.359718
 20
292.176079
 30
120.0
 70
    64
  0
VERTEX
  5
7F
  8
TEAM-NET
 10
-370.399275
 20
312.19762
 30
120.0
 70
    64
  0
VERTEX
  5
80
  8
TEAM-NET
 10
-325.352724
 20
326.954116
 30
120.0
 70
    64
  0
VERTEX
  5
81
  8
TEAM-NET
 10
-278.924487
 20
336.512806
 30
120.0
 70
    64
  0
VERTEX
  5
82
  8
TEAM-NET
 10
-231.89841
 20
342.665544
 30
120.0
 70
    64
  0
VERTEX
  5
83
  8
TEAM-NET
 10
-184.789603
 20
348.150886
 30
120.0
 70
    64
  0
VERTEX
  5
84
  8
TEAM-NET
 10
-137.61009
 20
352.990533
 30
120.0
 70
    64
  0
VERTEX
  5
85
  8
TEAM-NET
 10
-90.36872
 20
357.183577
 30
120.0
 70
    64
  0
VERTEX
  5
86
  8
TEAM-NET
 10
-43.074355
 20
360.729231
 30
120.0
 70
    64
  0
VERTEX
  5
87
  8
TEAM-NET
 10
4.264134
 20
363.626829
 30
120.0
 70
    64
  0
VERTEX
  5
88
  8
TEAM-NET
 10
51.6359
 20
365.919758
 30
120.0
 70
    64
  0
VERTEX
  5
89
  8
TEAM-NET
 10
99.028846
 20
367.723363
 30
120.0
 70
    64
  0
VERTEX
  5
8A
  8
TEAM-NET
 10
146.43772
 20
369.043584
 30
120.0
 70
    64
  0
VERTEX
  5
8B
  8
TEAM-NET
 10
193.857591
 20
369.880285
 30
120.0
 70
    64
  0
VERTEX
  5
8C
  8
TEAM-NET
 10
241.28353
 20
370.233378
 30
120.0
 70
    64
  0
VERTEX
  5
8D
  8
TEAM-NET
 10
288.710603
 20
370.102826
 30
120.0
 70
    64
  0
VERTEX
  5
8E
  8
TEAM-NET
 10
336.133878
 20
369.488643
 30
120.0
 70
    64
  0
VERTEX
  5
8F
  8
TEAM-NET
 10
383.548425
 20
368.390893
 30
120.0
 70
    64
  0
VERTEX
  5
90
  8
TEAM-NET
 10
430.59428
 20
363.082216
 30
120.0
 70
    64
  0
VERTEX
  5
91
  8
TEAM-NET
 10
475.627701
 20
348.459177
 30
120.0
 70
    64
  0
VERTEX
  5
92
  8
TEAM-NET
 10
516.847842
 20
325.162348
 30
120.0
 70
    64
  0
VERTEX
  5
93
  8
TEAM-NET
 10
-585.293429
 20
-344.510478
 30
600.0
 70
    64
  0
VERTEX
  5
94
  8
TEAM-NET
 10
-624.122772
 20
-307.981697
 30
600.0
 70
    64
  0
VERTEX
  5
95
  8
TEAM-NET
 10
-657.327592
 20
-266.137486
 30
600.0
 70
    64
  0
VERTEX
  5
96
  8
TEAM-NET
 10
-682.589568
 20
-219.161199
 30
600.0
 70
    64
  0
VERTEX
  5
97
  8
TEAM-NET
 10
-701.808547
 20
-169.302973
 30
600.0
 70
    64
  0
VERTEX
  5
98
  8
TEAM-NET
 10
-713.606751
 20
-117.254658
 30
600.0
 70
    64
  0
VERTEX
  5
99
  8
TEAM-NET
 10
-718.680657
 20
-64.064142
 30
600.0
 70
    64
  0
VERTEX
  5
9A
  8
TEAM-NET
 10
-717.594727
 20
-10.695123
 30
600.0
 70
    64
  0
VERTEX
  5
9B
  8
TEAM-NET
 10
-706.40176
 20
41.483151
 30
600.0
 70
    64
  0
VERTEX
  5
9C
  8
TEAM-NET
 10
-685.565557
 20
90.61821
 30
600.0
 70
    64
  0
VERTEX
  5
9D
  8
TEAM-NET
 10
-656.291193
 20
135.264499
 30
600.0
 70
    64
  0
VERTEX
  5
9E
  8
TEAM-NET
 10
-621.557753
 20
175.828605
 30
600.0
 70
    64
  0
VERTEX
  5
9F
  8
TEAM-NET
 10
-585.897675
 20
215.604311
 30
600.0
 70
    64
  0
VERTEX
  5
A0
  8
TEAM-NET
 10
-545.974585
 20
251.099309
 30
600.0
 70
    64
  0
VERTEX
  5
A1
  8
TEAM-NET
 10
-502.299076
 20
281.85964
 30
600.0
 70
    64
  0
VERTEX
  5
A2
  8
TEAM-NET
 10
-455.735734
 20
308.076861
 30
600.0
 70
    64
  0
VERTEX
  5
A3
  8
TEAM-NET
 10
-408.076574
 20
332.218047
 30
600.0
 70
    64
  0
VERTEX
  5
A4
  8
TEAM-NET
 10
-359.840845
 20
355.162568
 30
600.0
 70
    64
  0
VERTEX
  5
A5
  8
TEAM-NET
 10
-309.196987
 20
372.158672
 30
600.0
 70
    64
  0
VERTEX
  5
A6
  8
TEAM-NET
 10
-256.944792
 20
383.267082
 30
600.0
 70
    64
  0
VERTEX
  5
A7
  8
TEAM-NET
 10
-203.954447
 20
390.244932
 30
600.0
 70
    64
  0
VERTEX
  5
A8
  8
TEAM-NET
 10
-150.856475
 20
396.355984
 30
600.0
 70
    64
  0
VERTEX
  5
A9
  8
TEAM-NET
 10
-97.671672
 20
401.658466
 30
600.0
 70
    64
  0
VERTEX
  5
AA
  8
TEAM-NET
 10
-44.412351
 20
406.151149
 30
600.0
 70
    64
  0
VERTEX
  5
AB
  8
TEAM-NET
 10
8.909161
 20
409.832994
 30
600.0
 70
    64
  0
VERTEX
  5
AC
  8
TEAM-NET
 10
62.280098
 20
412.711902
 30
600.0
 70
    64
  0
VERTEX
  5
AD
  8
TEAM-NET
 10
115.682659
 20
414.932353
 30
600.0
 70
    64
  0
VERTEX
  5
AE
  8
TEAM-NET
 10
169.107014
 20
416.545477
 30
600.0
 70
    64
  0
VERTEX
  5
AF
  8
TEAM-NET
 10
222.546257
 20
417.551066
 30
600.0
 70
    64
  0
VERTEX
  5
B0
  8
TEAM-NET
 10
275.993479
 20
417.94899
 30
600.0
 70
    64
  0
VERTEX
  5
B1
  8
TEAM-NET
 10
329.441771
 20
417.739197
 30
600.0
 70
    64
  0
VERTEX
  5
B2
  8
TEAM-NET
 10
382.884222
 20
416.921714
 30
600.0
 70
    64
  0
VERTEX
  5
B3
  8
TEAM-NET
 10
436.312786
 20
415.463341
 30
600.0
 70
    64
  0
VERTEX
  5
B4
  8
TEAM-NET
 10
489.634119
 20
411.870605
 30
600.0
 70
    64
  0
VERTEX
  5
B5
  8
TEAM-NET
 10
542.676759
 20
405.347512
 30
600.0
 70
    64
  0
VERTEX
  5
B6
  8
TEAM-NET
 10
595.279785
 20
395.913851
 30
600.0
 70
    64
  0
VERTEX
  5
B7
  8
TEAM-NET
 10
646.325971
 20
380.18749
 30
600.0
 70
    64
  0
SEQEND
  5
B8
  8
TEAM-NET
  0
CIRCLE
  5
B9
  8
TEAM-INSP
 10
0.0
 20
0.0
 30
0.0
 40
10.822819
  0
POLYLINE
  5
BB
  8
TEAM-BODY
 66
     1
 10
0.0
 20
0.0
 30
120.0
  0
VERTEX
  5
665
  8
TEAM-BODY
 10
516.847842
 20
325.162348
 30
120.0
 42
0.140522
  0
VERTEX
  5
666
  8
TEAM-BODY
 10
393.69837
 20
368.093023
 30
120.0
 42
0.020251
  0
VERTEX
  5
667
  8
TEAM-BODY
 10
17.144394
 20
364.302679
 30
120.0
 42
0.021141
  0
VERTEX
  5
668
  8
TEAM-BODY
 10
-274.30045
 20
337.167744
 30
120.0
 42
0.058101
  0
VERTEX
  5
669
  8
TEAM-BODY
 10
-368.043158
 20
313.113021
 30
120.0
 42
0.043273
  0
VERTEX
  5
66A
  8
TEAM-BODY
 10
-427.218818
 20
284.253883
 30
120.0
 42
0.025335
  0
VERTEX
  5
66B
  8
TEAM-BODY
 10
-498.483232
 20
247.425959
 30
120.0
 42
0.10092
  0
VERTEX
  5
66C
  8
TEAM-BODY
 10
-624.028438
 20
134.61466
 30
120.0
 42
0.068739
  0
VERTEX
  5
66D
  8
TEAM-BODY
 10
-670.372209
 20
75.005845
 30
120.0
 42
0.068226
  0
VERTEX
  5
66E
  8
TEAM-BODY
 10
-694.43263
 20
16.027671
 30
120.0
 42
0.069617
  0
VERTEX
  5
66F
  8
TEAM-BODY
 10
-701.356022
 20
-45.477689
 30
120.0
 42
0.03089
  0
VERTEX
  5
670
  8
TEAM-BODY
 10
-695.219358
 20
-114.500026
 30
120.0
 42
0.046169
  0
VERTEX
  5
671
  8
TEAM-BODY
 10
-685.284826
 20
-154.625458
 30
120.0
 42
0.02374
  0
VERTEX
  5
672
  8
TEAM-BODY
 10
-663.188539
 20
-209.556475
 30
120.0
 42
0.042643
  0
VERTEX
  5
673
  8
TEAM-BODY
 10
-649.819398
 20
-233.170844
 30
120.0
 42
0.021914
  0
VERTEX
  5
674
  8
TEAM-BODY
 10
-631.373023
 20
-257.729852
 30
120.0
 42
0.017692
  0
VERTEX
  5
675
  8
TEAM-BODY
 10
-604.945204
 20
-287.655444
 30
120.0
 42
0.027624
  0
VERTEX
  5
676
  8
TEAM-BODY
 10
-601.728861
 20
-290.692723
 30
120.0
 42
0.012877
  0
VERTEX
  5
677
  8
TEAM-BODY
 10
-587.104422
 20
-302.417344
 30
120.0
 42
0.012877
  0
SEQEND
  5
678
  8
TEAM-BODY
  0
POLYLINE
  5
BD
  8
TEAM-BODY
 66
     1
 10
0.0
 20
0.0
 30
120.0
  0
VERTEX
  5
679
  8
TEAM-BODY
 10
516.847842
 20
325.162348
 30
120.0
 42
-0.168555
  0
VERTEX
  5
67A
  8
TEAM-BODY
 10
558.4659
 20
250.587431
 30
120.0
 42
-0.138009
  0
VERTEX
  5
67B
  8
TEAM-BODY
 10
541.412642
 20
145.517229
 30
120.0
 42
-0.011196
  0
VERTEX
  5
67C
  8
TEAM-BODY
 10
517.169476
 20
92.598655
 30
120.0
 42
-0.006006
  0
VERTEX
  5
67D
  8
TEAM-BODY
 10
467.28536
 20
-7.084124
 30
120.0
 42
-0.038839
  0
VERTEX
  5
67E
  8
TEAM-BODY
 10
413.895864
 20
-93.45729
 30
120.0
 42
-0.037696
  0
VERTEX
  5
67F
  8
TEAM-BODY
 10
345.674303
 20
-173.370441
 30
120.0
 42
-0.038373
  0
VERTEX
  5
680
  8
TEAM-BODY
 10
285.598876
 20
-225.226204
 30
120.0
 42
-0.038334
  0
VERTEX
  5
681
  8
TEAM-BODY
 10
218.226254
 20
-267.348672
 30
120.0
 42
-0.020043
  0
VERTEX
  5
682
  8
TEAM-BODY
 10
152.552949
 20
-298.430504
 30
120.0
 42
-0.010973
  0
VERTEX
  5
683
  8
TEAM-BODY
 10
24.583961
 20
-349.545684
 30
120.0
 42
-0.020597
  0
VERTEX
  5
684
  8
TEAM-BODY
 10
-103.07321
 20
-391.409027
 30
120.0
 42
-0.024989
  0
VERTEX
  5
685
  8
TEAM-BODY
 10
-209.463032
 20
-415.840677
 30
120.0
 42
-0.070495
  0
VERTEX
  5
686
  8
TEAM-BODY
 10
-329.875055
 20
-420.057299
 30
120.0
 42
-0.073816
  0
VERTEX
  5
687
  8
TEAM-BODY
 10
-440.090525
 20
-391.548305
 30
120.0
 42
-0.013034
  0
VERTEX
  5
688
  8
TEAM-BODY
 10
-478.972073
 20
-373.878611
 30
120.0
 42
-0.012061
  0
VERTEX
  5
689
  8
TEAM-BODY
 10
-520.33538
 20
-352.515788
 30
120.0
 42
-0.034329
  0
VERTEX
  5
68A
  8
TEAM-BODY
 10
-545.15366
 20
-336.626009
 30
120.0
 42
-0.022772
  0
VERTEX
  5
68B
  8
TEAM-BODY
 10
-584.051678
 20
-304.934891
 30
120.0
 42
-0.022772
  0
SEQEND
  5
68C
  8
TEAM-BODY
  0
CIRCLE
  5
BE
  8
TEAM-DET1
 10
340.691388
 20
56.724353
 30
120.0
 40
51.835608
  0
POLYLINE
  5
C0
  8
TEAM-NET
 66
     1
 10
0.0
 20
0.0
 30
0.0
 70
    16
 71
     2
 72
    37
  0
VERTEX
  5
C1
  8
TEAM-NET
 10
516.847842
 20
325.162348
 30
120.0
 70
    64
  0
VERTEX
  5
C2
  8
TEAM-NET
 10
544.241882
 20
290.841701
 30
120.0
 70
    64
  0
VERTEX
  5
C3
  8
TEAM-NET
 10
558.60195
 20
249.358296
 30
120.0
 70
    64
  0
VERTEX
  5
C4
  8
TEAM-NET
 10
558.373671
 20
205.328037
 30
120.0
 70
    64
  0
VERTEX
  5
C5
  8
TEAM-NET
 10
548.346896
 20
162.45404
 30
120.0
 70
    64
  0
VERTEX
  5
C6
  8
TEAM-NET
 10
530.954041
 20
121.915598
 30
120.0
 70
    64
  0
VERTEX
  5
C7
  8
TEAM-NET
 10
512.034554
 20
82.055969
 30
120.0
 70
    64
  0
VERTEX
  5
C8
  8
TEAM-NET
 10
492.475327
 20
42.504675
 30
120.0
 70
    64
  0
VERTEX
  5
C9
  8
TEAM-NET
 10
472.540882
 20
3.141163
 30
120.0
 70
    64
  0
VERTEX
  5
CA
  8
TEAM-NET
 10
451.618489
 20
-35.699298
 30
120.0
 70
    64
  0
VERTEX
  5
CB
  8
TEAM-NET
 10
428.202051
 20
-73.086679
 30
120.0
 70
    64
  0
VERTEX
  5
CC
  8
TEAM-NET
 10
402.334507
 20
-108.822547
 30
120.0
 70
    64
  0
VERTEX
  5
CD
  8
TEAM-NET
 10
374.237614
 20
-142.834294
 30
120.0
 70
    64
  0
VERTEX
  5
CE
  8
TEAM-NET
 10
344.046819
 20
-175.001772
 30
120.0
 70
    64
  0
VERTEX
  5
CF
  8
TEAM-NET
 10
311.524841
 20
-204.801536
 30
120.0
 70
    64
  0
VERTEX
  5
D0
  8
TEAM-NET
 10
276.584712
 20
-231.725377
 30
120.0
 70
    64
  0
VERTEX
  5
D1
  8
TEAM-NET
 10
239.483045
 20
-255.582799
 30
120.0
 70
    64
  0
VERTEX
  5
D2
  8
TEAM-NET
 10
200.561561
 20
-276.348206
 30
120.0
 70
    64
  0
VERTEX
  5
D3
  8
TEAM-NET
 10
160.568418
 20
-294.977407
 30
120.0
 70
    64
  0
VERTEX
  5
D4
  8
TEAM-NET
 10
119.900998
 20
-312.094374
 30
120.0
 70
    64
  0
VERTEX
  5
D5
  8
TEAM-NET
 10
78.985651
 20
-328.610586
 30
120.0
 70
    64
  0
VERTEX
  5
D6
  8
TEAM-NET
 10
37.842261
 20
-344.55023
 30
120.0
 70
    64
  0
VERTEX
  5
D7
  8
TEAM-NET
 10
-3.566207
 20
-359.785975
 30
120.0
 70
    64
  0
VERTEX
  5
D8
  8
TEAM-NET
 10
-45.361841
 20
-373.924192
 30
120.0
 70
    64
  0
VERTEX
  5
D9
  8
TEAM-NET
 10
-87.524547
 20
-386.926899
 30
120.0
 70
    64
  0
VERTEX
  5
DA
  8
TEAM-NET
 10
-130.053966
 20
-398.670661
 30
120.0
 70
    64
  0
VERTEX
  5
DB
  8
TEAM-NET
 10
-173.013241
 20
-408.726459
 30
120.0
 70
    64
  0
VERTEX
  5
DC
  8
TEAM-NET
 10
-216.349194
 20
-417.005938
 30
120.0
 70
    64
  0
VERTEX
  5
DD
  8
TEAM-NET
 10
-260.195745
 20
-421.765185
 30
120.0
 70
    64
  0
VERTEX
  5
DE
  8
TEAM-NET
 10
-304.299196
 20
-422.00181
 30
120.0
 70
    64
  0
VERTEX
  5
DF
  8
TEAM-NET
 10
-348.188493
 20
-417.670943
 30
120.0
 70
    64
  0
VERTEX
  5
E0
  8
TEAM-NET
 10
-391.316518
 20
-408.464669
 30
120.0
 70
    64
  0
VERTEX
  5
E1
  8
TEAM-NET
 10
-433.119909
 20
-394.419794
 30
120.0
 70
    64
  0
VERTEX
  5
E2
  8
TEAM-NET
 10
-473.45062
 20
-376.53811
 30
120.0
 70
    64
  0
VERTEX
  5
E3
  8
TEAM-NET
 10
-512.80531
 20
-356.594546
 30
120.0
 70
    64
  0
VERTEX
  5
E4
  8
TEAM-NET
 10
-550.007095
 20
-332.985015
 30
120.0
 70
    64
  0
VERTEX
  5
E5
  8
TEAM-NET
 10
-584.051678
 20
-304.934891
 30
120.0
 70
    64
  0
VERTEX
  5
E6
  8
TEAM-NET
 10
516.847842
 20
325.162348
 30
120.0
 70
    64
  0
VERTEX
  5
E7
  8
TEAM-NET
 10
475.627701
 20
348.459177
 30
120.0
 70
    64
  0
VERTEX
  5
E8
  8
TEAM-NET
 10
430.59428
 20
363.082216
 30
120.0
 70
    64
  0
VERTEX
  5
E9
  8
TEAM-NET
 10
383.548425
 20
368.390893
 30
120.0
 70
    64
  0
VERTEX
  5
EA
  8
TEAM-NET
 10
336.133878
 20
369.488643
 30
120.0
 70
    64
  0
VERTEX
  5
EB
  8
TEAM-NET
 10
288.710603
 20
370.102826
 30
120.0
 70
    64
  0
VERTEX
  5
EC
  8
TEAM-NET
 10
241.28353
 20
370.233378
 30
120.0
 70
    64
  0
VERTEX
  5
ED
  8
TEAM-NET
 10
193.857591
 20
369.880285
 30
120.0
 70
    64
  0
VERTEX
  5
EE
  8
TEAM-NET
 10
146.43772
 20
369.043584
 30
120.0
 70
    64
  0
VERTEX
  5
EF
  8
TEAM-NET
 10
99.028846
 20
367.723363
 30
120.0
 70
    64
  0
VERTEX
  5
F0
  8
TEAM-NET
 10
51.6359
 20
365.919758
 30
120.0
 70
    64
  0
VERTEX
  5
F1
  8
TEAM-NET
 10
4.264134
 20
363.626829
 30
120.0
 70
    64
  0
VERTEX
  5
F2
  8
TEAM-NET
 10
-43.074355
 20
360.729231
 30
120.0
 70
    64
  0
VERTEX
  5
F3
  8
TEAM-NET
 10
-90.36872
 20
357.183577
 30
120.0
 70
    64
  0
VERTEX
  5
F4
  8
TEAM-NET
 10
-137.61009
 20
352.990533
 30
120.0
 70
    64
  0
VERTEX
  5
F5
  8
TEAM-NET
 10
-184.789603
 20
348.150886
 30
120.0
 70
    64
  0
VERTEX
  5
F6
  8
TEAM-NET
 10
-231.89841
 20
342.665544
 30
120.0
 70
    64
  0
VERTEX
  5
F7
  8
TEAM-NET
 10
-278.924487
 20
336.512806
 30
120.0
 70
    64
  0
VERTEX
  5
F8
  8
TEAM-NET
 10
-325.352724
 20
326.954116
 30
120.0
 70
    64
  0
VERTEX
  5
F9
  8
TEAM-NET
 10
-370.399275
 20
312.19762
 30
120.0
 70
    64
  0
VERTEX
  5
FA
  8
TEAM-NET
 10
-413.359718
 20
292.176079
 30
120.0
 70
    64
  0
VERTEX
  5
FB
  8
TEAM-NET
 10
-455.599509
 20
270.677857
 30
120.0
 70
    64
  0
VERTEX
  5
FC
  8
TEAM-NET
 10
-497.305827
 20
248.110737
 30
120.0
 70
    64
  0
VERTEX
  5
FD
  8
TEAM-NET
 10
-536.859365
 20
221.986015
 30
120.0
 70
    64
  0
VERTEX
  5
FE
  8
TEAM-NET
 10
-573.23444
 20
191.591027
 30
120.0
 70
    64
  0
VERTEX
  5
FF
  8
TEAM-NET
 10
-605.974585
 20
157.311525
 30
120.0
 70
    64
  0
VERTEX
  5
100
  8
TEAM-NET
 10
-636.779144
 20
121.325645
 30
120.0
 70
    64
  0
VERTEX
  5
101
  8
TEAM-NET
 10
-665.272429
 20
83.484357
 30
120.0
 70
    64
  0
VERTEX
  5
102
  8
TEAM-NET
 10
-686.462388
 20
41.141181
 30
120.0
 70
    64
  0
VERTEX
  5
103
  8
TEAM-NET
 10
-698.697532
 20
-4.593761
 30
120.0
 70
    64
  0
VERTEX
  5
104
  8
TEAM-NET
 10
-701.147334
 20
-51.873774
 30
120.0
 70
    64
  0
VERTEX
  5
105
  8
TEAM-NET
 10
-697.331888
 20
-99.13336
 30
120.0
 70
    64
  0
VERTEX
  5
106
  8
TEAM-NET
 10
-688.211248
 20
-145.609276
 30
120.0
 70
    64
  0
VERTEX
  5
107
  8
TEAM-NET
 10
-671.7277
 20
-190.06239
 30
120.0
 70
    64
  0
VERTEX
  5
108
  8
TEAM-NET
 10
-650.395731
 20
-232.323287
 30
120.0
 70
    64
  0
VERTEX
  5
109
  8
TEAM-NET
 10
-621.250549
 20
-269.700988
 30
120.0
 70
    64
  0
VERTEX
  5
10A
  8
TEAM-NET
 10
-587.104422
 20
-302.417344
 30
120.0
 70
    64
  0
SEQEND
  5
10B
  8
TEAM-NET
  0
LINE
  5
10C
  8
TEAM-AXE
 10
377.344698
 20
93.377663
 30
120.0
 11
304.038078
 21
20.071043
 31
120.0
  0
CIRCLE
  5
10F
  8
TEAM-KAN
 10
340.691388
 20
56.724353
 30
120.0
 40
25.917804
  0
LINE
  5
111
  8
TEAM-AXE
 10
304.038078
 20
93.377663
 30
120.0
 11
377.344698
 21
20.071043
 31
120.0
  0
ARC
  5
112
  8
TEAM-BODY
 39
-35.0
 10
-403.18305
 20
685.368075
 30
600.0
 40
1266.765469
 50
249.348652
 51
351.585588
  0
POLYLINE
  5
113
  8
TEAM-BODY
 66
     1
 10
0.0
 20
0.0
 30
600.0
 39
-35.0
  0
VERTEX
  5
68D
  8
TEAM-BODY
 10
849.946392
 20
499.999914
 30
600.0
  0
VERTEX
  5
68E
  8
TEAM-BODY
 10
-849.946392
 20
499.999914
 30
600.0
  0
VERTEX
  5
68F
  8
TEAM-BODY
 10
-849.946392
 20
-499.999914
 30
600.0
  0
SEQEND
  5
690
  8
TEAM-BODY
  0
POLYLINE
  5
114
  8
TEAM-KAN
 66
     1
 10
0.0
 20
0.0
 30
560.0
  0
VERTEX
  5
691
  8
TEAM-KAN
 10
474.592065
 20
-66.267586
 30
560.0
  0
VERTEX
  5
692
  8
TEAM-KAN
 10
474.144476
 20
-69.891907
 30
560.0
  0
VERTEX
  5
693
  8
TEAM-KAN
 10
474.500125
 20
-72.6179
 30
560.0
  0
VERTEX
  5
694
  8
TEAM-KAN
 10
475.648115
 20
-74.362046
 30
560.0
  0
VERTEX
  5
695
  8
TEAM-KAN
 10
477.553273
 20
-75.070909
 30
560.0
  0
VERTEX
  5
696
  8
TEAM-KAN
 10
480.157231
 20
-74.722769
 30
560.0
  0
VERTEX
  5
697
  8
TEAM-KAN
 10
483.380208
 20
-73.328295
 30
560.0
  0
VERTEX
  5
698
  8
TEAM-KAN
 10
487.12346
 20
-70.930208
 30
560.0
  0
VERTEX
  5
699
  8
TEAM-KAN
 10
491.2723
 20
-67.601983
 30
560.0
  0
VERTEX
  5
69A
  8
TEAM-KAN
 10
495.699617
 20
-63.445588
 30
560.0
  0
VERTEX
  5
69B
  8
TEAM-KAN
 10
500.269766
 20
-58.588366
 30
560.0
  0
VERTEX
  5
69C
  8
TEAM-KAN
 10
504.84273
 20
-53.179134
 30
560.0
  0
VERTEX
  5
69D
  8
TEAM-KAN
 10
509.278401
 20
-47.383617
 30
560.0
  0
VERTEX
  5
69E
  8
TEAM-KAN
 10
513.440881
 20
-41.379378
 30
560.0
  0
VERTEX
  5
69F
  8
TEAM-KAN
 10
517.202638
 20
-35.350376
 30
560.0
  0
VERTEX
  5
6A0
  8
TEAM-KAN
 10
520.448421
 20
-29.481326
 30
560.0
  0
VERTEX
  5
6A1
  8
TEAM-KAN
 10
523.078786
 20
-23.952042
 30
560.0
  0
VERTEX
  5
6A2
  8
TEAM-KAN
 10
525.013146
 20
-18.931931
 30
560.0
  0
VERTEX
  5
6A3
  8
TEAM-KAN
 10
526.192233
 20
-14.574799
 30
560.0
  0
VERTEX
  5
6A4
  8
TEAM-KAN
 10
526.579923
 20
-11.014139
 30
560.0
  0
VERTEX
  5
6A5
  8
TEAM-KAN
 10
526.16434
 20
-8.359041
 30
560.0
  0
VERTEX
  5
6A6
  8
TEAM-KAN
 10
524.958215
 20
-6.690852
 30
560.0
  0
SEQEND
  5
6A7
  8
TEAM-KAN
  0
LINE
  5
115
  8
TEAM-KAN
 10
480.128378
 20
-39.859692
 30
560.0
 11
474.592065
 21
-66.267586
 31
560.0
  0
POLYLINE
  5
116
  8
TEAM-KAN
 66
     1
 10
0.0
 20
0.0
 30
560.0
  0
VERTEX
  5
6A8
  8
TEAM-KAN
 10
524.958215
 20
-6.690852
 30
560.0
  0
VERTEX
  5
6A9
  8
TEAM-KAN
 10
524.433532
 20
-6.385044
 30
560.0
  0
VERTEX
  5
6AA
  8
TEAM-KAN
 10
523.838961
 20
-6.178488
 30
560.0
  0
VERTEX
  5
6AB
  8
TEAM-KAN
 10
523.176228
 20
-6.071785
 30
560.0
  0
VERTEX
  5
6AC
  8
TEAM-KAN
 10
522.447256
 20
-6.065244
 30
560.0
  0
VERTEX
  5
6AD
  8
TEAM-KAN
 10
521.654162
 20
-6.158886
 30
560.0
  0
VERTEX
  5
6AE
  8
TEAM-KAN
 10
520.79925
 20
-6.352435
 30
560.0
  0
VERTEX
  5
6AF
  8
TEAM-KAN
 10
519.885001
 20
-6.645334
 30
560.0
  0
VERTEX
  5
6B0
  8
TEAM-KAN
 10
518.914068
 20
-7.036729
 30
560.0
  0
VERTEX
  5
6B1
  8
TEAM-KAN
 10
517.889273
 20
-7.525486
 30
560.0
  0
VERTEX
  5
6B2
  8
TEAM-KAN
 10
516.813589
 20
-8.110184
 30
560.0
  0
SEQEND
  5
6B3
  8
TEAM-KAN
  0
POLYLINE
  5
117
  8
TEAM-KAN
 66
     1
 10
0.0
 20
0.0
 30
560.0
  0
VERTEX
  5
6B4
  8
TEAM-KAN
 10
493.418774
 20
-21.553036
 30
560.0
  0
VERTEX
  5
6B5
  8
TEAM-KAN
 10
491.491642
 20
-22.776433
 30
560.0
  0
VERTEX
  5
6B6
  8
TEAM-KAN
 10
489.653991
 20
-24.179344
 30
560.0
  0
VERTEX
  5
6B7
  8
TEAM-KAN
 10
487.92436
 20
-25.747615
 30
560.0
  0
VERTEX
  5
6B8
  8
TEAM-KAN
 10
486.320196
 20
-27.465427
 30
560.0
  0
VERTEX
  5
6B9
  8
TEAM-KAN
 10
484.857684
 20
-29.315451
 30
560.0
  0
VERTEX
  5
6BA
  8
TEAM-KAN
 10
483.551575
 20
-31.279022
 30
560.0
  0
VERTEX
  5
6BB
  8
TEAM-KAN
 10
482.415049
 20
-33.336333
 30
560.0
  0
VERTEX
  5
6BC
  8
TEAM-KAN
 10
481.459569
 20
-35.466628
 30
560.0
  0
VERTEX
  5
6BD
  8
TEAM-KAN
 10
480.694773
 20
-37.648418
 30
560.0
  0
VERTEX
  5
6BE
  8
TEAM-KAN
 10
480.128378
 20
-39.859692
 30
560.0
  0
SEQEND
  5
6BF
  8
TEAM-KAN
  0
LINE
  5
118
  8
TEAM-KAN
 10
493.418774
 20
-21.553036
 30
560.0
 11
516.813589
 21
-8.110184
 31
560.0
  0
POLYLINE
  5
119
  8
TEAM-KAN
 66
     1
 10
0.0
 20
0.0
 30
560.0
  0
VERTEX
  5
6C0
  8
TEAM-KAN
 10
478.126281
 20
-76.165606
 30
560.0
  0
VERTEX
  5
6C1
  8
TEAM-KAN
 10
479.849246
 20
-76.779487
 30
560.0
  0
VERTEX
  5
6C2
  8
TEAM-KAN
 10
482.135437
 20
-76.54401
 30
560.0
  0
VERTEX
  5
6C3
  8
TEAM-KAN
 10
484.92856
 20
-75.46497
 30
560.0
  0
VERTEX
  5
6C4
  8
TEAM-KAN
 10
488.159838
 20
-73.568939
 30
560.0
  0
VERTEX
  5
6C5
  8
TEAM-KAN
 10
491.749708
 20
-70.902602
 30
560.0
  0
VERTEX
  5
6C6
  8
TEAM-KAN
 10
495.609773
 20
-67.531614
 30
560.0
  0
VERTEX
  5
6C7
  8
TEAM-KAN
 10
499.644987
 20
-63.538979
 30
560.0
  0
VERTEX
  5
6C8
  8
TEAM-KAN
 10
503.755989
 20
-59.02301
 30
560.0
  0
VERTEX
  5
6C9
  8
TEAM-KAN
 10
507.841554
 20
-54.094905
 30
560.0
  0
VERTEX
  5
6CA
  8
TEAM-KAN
 10
511.801081
 20
-48.876009
 30
560.0
  0
VERTEX
  5
6CB
  8
TEAM-KAN
 10
515.537072
 20
-43.49483
 30
560.0
  0
VERTEX
  5
6CC
  8
TEAM-KAN
 10
518.957535
 20
-38.083869
 30
560.0
  0
VERTEX
  5
6CD
  8
TEAM-KAN
 10
521.978248
 20
-32.776365
 30
560.0
  0
VERTEX
  5
6CE
  8
TEAM-KAN
 10
524.524831
 20
-27.703002
 30
560.0
  0
VERTEX
  5
6CF
  8
TEAM-KAN
 10
526.534577
 20
-22.988706
 30
560.0
  0
VERTEX
  5
6D0
  8
TEAM-KAN
 10
527.958001
 20
-18.749558
 30
560.0
  0
VERTEX
  5
6D1
  8
TEAM-KAN
 10
528.760053
 20
-15.08994
 30
560.0
  0
VERTEX
  5
6D2
  8
TEAM-KAN
 10
528.920984
 20
-12.099963
 30
560.0
  0
VERTEX
  5
6D3
  8
TEAM-KAN
 10
528.43683
 20
-9.853251
 30
560.0
  0
VERTEX
  5
6D4
  8
TEAM-KAN
 10
527.319515
 20
-8.405125
 30
560.0
  0
SEQEND
  5
6D5
  8
TEAM-KAN
  0
LINE
  5
11A
  8
TEAM-KAN
 10
524.958215
 20
-6.690852
 30
560.0
 11
527.319515
 21
-8.405125
 31
560.0
  0
LINE
  5
11B
  8
TEAM-KAN
 10
475.764981
 20
-74.451333
 30
560.0
 11
478.126281
 21
-76.165606
 31
560.0
  0
POLYLINE
  5
11C
  8
TEAM-KAN
 66
     1
 10
0.0
 20
0.0
 30
560.0
  0
VERTEX
  5
6D6
  8
TEAM-KAN
 10
483.189372
 20
-77.832435
 30
560.0
  0
VERTEX
  5
6D7
  8
TEAM-KAN
 10
485.021671
 20
-78.176621
 30
560.0
  0
VERTEX
  5
6D8
  8
TEAM-KAN
 10
487.401235
 20
-77.673286
 30
560.0
  0
VERTEX
  5
6D9
  8
TEAM-KAN
 10
490.267295
 20
-76.335287
 30
560.0
  0
VERTEX
  5
6DA
  8
TEAM-KAN
 10
493.546652
 20
-74.196794
 30
560.0
  0
VERTEX
  5
6DB
  8
TEAM-KAN
 10
497.155554
 20
-71.312423
 30
560.0
  0
VERTEX
  5
6DC
  8
TEAM-KAN
 10
501.001835
 20
-67.755837
 30
560.0
  0
VERTEX
  5
6DD
  8
TEAM-KAN
 10
504.987265
 20
-63.617869
 30
560.0
  0
VERTEX
  5
6DE
  8
TEAM-KAN
 10
509.010058
 20
-59.004198
 30
560.0
  0
VERTEX
  5
6DF
  8
TEAM-KAN
 10
512.967476
 20
-54.032653
 30
560.0
  0
VERTEX
  5
6E0
  8
TEAM-KAN
 10
516.758451
 20
-48.830202
 30
560.0
  0
VERTEX
  5
6E1
  8
TEAM-KAN
 10
520.286164
 20
-43.529712
 30
560.0
  0
VERTEX
  5
6E2
  8
TEAM-KAN
 10
523.460522
 20
-38.266551
 30
560.0
  0
VERTEX
  5
6E3
  8
TEAM-KAN
 10
526.200453
 20
-33.175137
 30
560.0
  0
VERTEX
  5
6E4
  8
TEAM-KAN
 10
528.435984
 20
-28.385499
 30
560.0
  0
VERTEX
  5
6E5
  8
TEAM-KAN
 10
530.11002
 20
-24.019958
 30
560.0
  0
VERTEX
  5
6E6
  8
TEAM-KAN
 10
531.179808
 20
-20.190009
 30
560.0
  0
VERTEX
  5
6E7
  8
TEAM-KAN
 10
531.618028
 20
-16.993464
 30
560.0
  0
VERTEX
  5
6E8
  8
TEAM-KAN
 10
531.413486
 20
-14.511959
 30
560.0
  0
VERTEX
  5
6E9
  8
TEAM-KAN
 10
530.571408
 20
-12.80887
 30
560.0
  0
SEQEND
  5
6EA
  8
TEAM-KAN
  0
LINE
  5
11D
  8
TEAM-KAN
 10
481.026636
 20
-76.75682
 30
560.0
 11
483.189372
 21
-77.832435
 31
560.0
  0
LINE
  5
11E
  8
TEAM-KAN
 10
528.726522
 20
-10.736138
 30
560.0
 11
530.571408
 21
-12.80887
 31
560.0
  0
POLYLINE
  5
11F
  8
TEAM-DET1
 66
     1
 10
0.0
 20
0.0
 30
600.0
 70
     2
  0
VERTEX
  5
120
  8
TEAM-DET1
 10
646.325971
 20
380.18749
 30
600.0
 42
0.005622
  0
VERTEX
  5
121
  8
TEAM-DET1
 10
608.023891
 20
392.756541
 30
600.0
 42
0.024242
 70
     1
  0
VERTEX
  5
122
  8
TEAM-DET1
 10
598.97812
 20
395.137397
 30
600.0
 42
0.044644
  0
VERTEX
  5
123
  8
TEAM-DET1
 10
427.291227
 20
415.779966
 30
600.0
 42
0.020251
 70
     1
  0
VERTEX
  5
124
  8
TEAM-DET1
 10
46.688987
 20
411.948873
 30
600.0
 42
0.021141
  0
VERTEX
  5
125
  8
TEAM-DET1
 10
-248.963992
 20
384.422141
 30
600.0
 42
0.058101
 70
     1
  0
VERTEX
  5
126
  8
TEAM-DET1
 10
-353.924325
 20
357.488934
 30
600.0
 42
0.041591
  0
VERTEX
  5
127
  8
TEAM-DET1
 10
-418.376732
 20
326.323856
 30
600.0
 42
0.024525
 70
     1
  0
VERTEX
  5
128
  8
TEAM-DET1
 10
-491.655225
 20
288.295846
 30
600.0
 42
0.098845
  0
VERTEX
  5
129
  8
TEAM-DET1
 10
-629.759499
 20
165.264302
 30
600.0
 42
0.065599
 70
     1
  0
VERTEX
  5
12A
  8
TEAM-DET1
 10
-681.602203
 20
97.715409
 30
600.0
 42
0.068226
  0
VERTEX
  5
12B
  8
TEAM-DET1
 10
-710.792992
 20
26.161409
 30
600.0
 42
0.069617
 70
     1
  0
VERTEX
  5
12C
  8
TEAM-DET1
 10
-719.26633
 20
-49.113224
 30
600.0
 42
0.03089
  0
VERTEX
  5
12D
  8
TEAM-DET1
 10
-712.583079
 20
-124.283327
 30
600.0
 42
0.046169
 70
     1
  0
VERTEX
  5
12E
  8
TEAM-DET1
 10
-700.434124
 20
-173.352779
 30
600.0
 42
0.02374
  0
VERTEX
  5
12F
  8
TEAM-DET1
 10
-676.566911
 20
-232.686292
 30
600.0
 42
0.042643
 70
     1
  0
VERTEX
  5
130
  8
TEAM-DET1
 10
-659.00367
 20
-263.708842
 30
600.0
 42
0.021914
  0
VERTEX
  5
131
  8
TEAM-DET1
 10
-637.926433
 20
-291.770509
 30
600.0
 42
0.017692
 70
     1
  0
VERTEX
  5
132
  8
TEAM-DET1
 10
-609.157063
 20
-324.347561
 30
600.0
 42
0.027624
  0
VERTEX
  5
133
  8
TEAM-DET1
 10
-601.926974
 20
-331.175128
 30
600.0
 42
0.012877
 70
     1
  0
VERTEX
  5
134
  8
TEAM-DET1
 10
-585.293429
 20
-344.510478
 30
600.0
  0
SEQEND
  5
135
  8
TEAM-DET1
  0
POLYLINE
  5
136
  8
TEAM-DET1
 66
     1
 10
0.0
 20
0.0
 30
600.0
 70
     2
  0
VERTEX
  5
137
  8
TEAM-DET1
 10
646.325971
 20
380.18749
 30
600.0
 42
-0.040176
  0
VERTEX
  5
138
  8
TEAM-DET1
 10
660.670564
 20
370.57681
 30
600.0
 42
-0.054185
 70
     1
  0
VERTEX
  5
139
  8
TEAM-DET1
 10
669.79407
 20
361.571649
 30
600.0
 42
-0.032967
  0
VERTEX
  5
13A
  8
TEAM-DET1
 10
683.756013
 20
341.921294
 30
600.0
 42
-0.072419
 70
     1
  0
VERTEX
  5
13B
  8
TEAM-DET1
 10
688.120607
 20
331.803346
 30
600.0
 42
-0.065762
  0
VERTEX
  5
13C
  8
TEAM-DET1
 10
690.444101
 20
314.213833
 30
600.0
 42
-0.068993
 70
     1
  0
VERTEX
  5
13D
  8
TEAM-DET1
 10
688.120607
 20
297.455478
 30
600.0
 42
-0.011584
  0
VERTEX
  5
13E
  8
TEAM-DET1
 10
681.924275
 20
277.332126
 30
600.0
 42
-0.010887
 70
     1
  0
VERTEX
  5
13F
  8
TEAM-DET1
 10
674.375847
 20
256.237885
 30
600.0
 42
-0.006768
  0
VERTEX
  5
140
  8
TEAM-DET1
 10
655.653346
 20
209.219946
 30
600.0
 42
-0.003677
 70
     1
  0
VERTEX
  5
141
  8
TEAM-DET1
 10
619.395953
 20
123.425477
 30
600.0
 42
-0.011196
  0
VERTEX
  5
142
  8
TEAM-DET1
 10
594.220294
 20
68.471434
 30
600.0
 42
-0.006006
 70
     1
  0
VERTEX
  5
143
  8
TEAM-DET1
 10
543.798635
 20
-32.285511
 30
600.0
 42
-0.038839
  0
VERTEX
  5
144
  8
TEAM-DET1
 10
486.331097
 20
-125.256105
 30
600.0
 42
-0.037696
 70
     1
  0
VERTEX
  5
145
  8
TEAM-DET1
 10
413.221423
 20
-210.895078
 30
600.0
 42
-0.038373
  0
VERTEX
  5
146
  8
TEAM-DET1
 10
347.344859
 20
-267.758252
 30
600.0
 42
-0.038334
 70
     1
  0
VERTEX
  5
147
  8
TEAM-DET1
 10
273.480942
 20
-313.939184
 30
600.0
 42
-0.020043
  0
VERTEX
  5
148
  8
TEAM-DET1
 10
204.185825
 20
-346.735146
 30
600.0
 42
-0.010973
 70
     1
  0
VERTEX
  5
149
  8
TEAM-DET1
 10
74.179077
 20
-398.664277
 30
600.0
 42
-0.020597
  0
VERTEX
  5
14A
  8
TEAM-DET1
 10
-57.39079
 20
-441.810733
 30
600.0
 42
-0.024989
 70
     1
  0
VERTEX
  5
14B
  8
TEAM-DET1
 10
-168.648527
 20
-467.360264
 30
600.0
 42
-0.070495
  0
VERTEX
  5
14C
  8
TEAM-DET1
 10
-303.081328
 20
-472.067869
 30
600.0
 42
-0.073816
 70
     1
  0
VERTEX
  5
14D
  8
TEAM-DET1
 10
-427.512063
 20
-439.881869
 30
600.0
 42
-0.013034
  0
VERTEX
  5
14E
  8
TEAM-DET1
 10
-468.766361
 20
-421.13388
 30
600.0
 42
-0.012061
 70
     1
  0
VERTEX
  5
14F
  8
TEAM-DET1
 10
-512.272649
 20
-398.664277
 30
600.0
 42
-0.034329
  0
VERTEX
  5
150
  8
TEAM-DET1
 10
-542.866298
 20
-379.076847
 30
600.0
 42
-0.022772
 70
     1
  0
VERTEX
  5
151
  8
TEAM-DET1
 10
-585.293429
 20
-344.510478
 30
600.0
  0
SEQEND
  5
152
  8
TEAM-DET1
  0
POLYLINE
  5
153
  8
TEAM-NET
 66
     1
 10
0.0
 20
0.0
 30
0.0
 70
    16
 71
     2
 72
    37
  0
VERTEX
  5
154
  8
TEAM-NET
 10
-585.293429
 20
-344.510478
 30
600.0
 70
    64
  0
VERTEX
  5
155
  8
TEAM-NET
 10
-547.207549
 20
-375.826825
 30
600.0
 70
    64
  0
VERTEX
  5
156
  8
TEAM-NET
 10
-505.642643
 20
-402.261692
 30
600.0
 70
    64
  0
VERTEX
  5
157
  8
TEAM-NET
 10
-461.651856
 20
-424.553689
 30
600.0
 70
    64
  0
VERTEX
  5
158
  8
TEAM-NET
 10
-416.495996
 20
-444.370109
 30
600.0
 70
    64
  0
VERTEX
  5
159
  8
TEAM-NET
 10
-369.656051
 20
-459.734305
 30
600.0
 70
    64
  0
VERTEX
  5
15A
  8
TEAM-NET
 10
-321.385452
 20
-469.733716
 30
600.0
 70
    64
  0
VERTEX
  5
15B
  8
TEAM-NET
 10
-272.30232
 20
-474.336074
 30
600.0
 70
    64
  0
VERTEX
  5
15C
  8
TEAM-NET
 10
-223.005051
 20
-473.839444
 30
600.0
 70
    64
  0
VERTEX
  5
15D
  8
TEAM-NET
 10
-174.019447
 20
-468.282653
 30
600.0
 70
    64
  0
VERTEX
  5
15E
  8
TEAM-NET
 10
-125.610344
 20
-458.861699
 30
600.0
 70
    64
  0
VERTEX
  5
15F
  8
TEAM-NET
 10
-77.656611
 20
-447.343271
 30
600.0
 70
    64
  0
VERTEX
  5
160
  8
TEAM-NET
 10
-30.212433
 20
-433.874213
 30
600.0
 70
    64
  0
VERTEX
  5
161
  8
TEAM-NET
 10
16.798309
 20
-418.960191
 30
600.0
 70
    64
  0
VERTEX
  5
162
  8
TEAM-NET
 10
63.351384
 20
-402.673724
 30
600.0
 70
    64
  0
VERTEX
  5
163
  8
TEAM-NET
 10
109.479216
 20
-385.215971
 30
600.0
 70
    64
  0
VERTEX
  5
164
  8
TEAM-NET
 10
155.324841
 20
-367.029644
 30
600.0
 70
    64
  0
VERTEX
  5
165
  8
TEAM-NET
 10
200.883808
 20
-348.136673
 30
600.0
 70
    64
  0
VERTEX
  5
166
  8
TEAM-NET
 10
245.831281
 20
-327.843593
 30
600.0
 70
    64
  0
VERTEX
  5
167
  8
TEAM-NET
 10
289.617741
 20
-305.159845
 30
600.0
 70
    64
  0
VERTEX
  5
168
  8
TEAM-NET
 10
331.451164
 20
-279.062836
 30
600.0
 70
    64
  0
VERTEX
  5
169
  8
TEAM-NET
 10
370.867009
 20
-249.440609
 30
600.0
 70
    64
  0
VERTEX
  5
16A
  8
TEAM-NET
 10
407.564754
 20
-216.51101
 30
600.0
 70
    64
  0
VERTEX
  5
16B
  8
TEAM-NET
 10
441.535113
 20
-180.766011
 30
600.0
 70
    64
  0
VERTEX
  5
16C
  8
TEAM-NET
 10
473.065756
 20
-142.850985
 30
600.0
 70
    64
  0
VERTEX
  5
16D
  8
TEAM-NET
 10
502.003961
 20
-102.922964
 30
600.0
 70
    64
  0
VERTEX
  5
16E
  8
TEAM-NET
 10
528.095281
 20
-61.079659
 30
600.0
 70
    64
  0
VERTEX
  5
16F
  8
TEAM-NET
 10
551.343038
 20
-17.588035
 30
600.0
 70
    64
  0
VERTEX
  5
170
  8
TEAM-NET
 10
573.557715
 20
26.447155
 30
600.0
 70
    64
  0
VERTEX
  5
171
  8
TEAM-NET
 10
595.306612
 20
70.714236
 30
600.0
 70
    64
  0
VERTEX
  5
172
  8
TEAM-NET
 10
615.949697
 20
115.504912
 30
600.0
 70
    64
  0
VERTEX
  5
173
  8
TEAM-NET
 10
635.388078
 20
160.834139
 30
600.0
 70
    64
  0
VERTEX
  5
174
  8
TEAM-NET
 10
654.452809
 20
206.321895
 30
600.0
 70
    64
  0
VERTEX
  5
175
  8
TEAM-NET
 10
672.789592
 20
252.106563
 30
600.0
 70
    64
  0
VERTEX
  5
176
  8
TEAM-NET
 10
688.494301
 20
298.83845
 30
600.0
 70
    64
  0
VERTEX
  5
177
  8
TEAM-NET
 10
681.114806
 20
346.08478
 30
600.0
 70
    64
  0
VERTEX
  5
178
  8
TEAM-NET
 10
646.325971
 20
380.18749
 30
600.0
 70
    64
  0
VERTEX
  5
179
  8
TEAM-NET
 10
-849.946392
 20
-499.999914
 30
600.0
 70
    64
  0
VERTEX
  5
17A
  8
TEAM-NET
 10
-790.667971
 20
-520.679266
 30
600.0
 70
    64
  0
VERTEX
  5
17B
  8
TEAM-NET
 10
-730.437781
 20
-538.396238
 30
600.0
 70
    64
  0
VERTEX
  5
17C
  8
TEAM-NET
 10
-669.403765
 20
-553.107312
 30
600.0
 70
    64
  0
VERTEX
  5
17D
  8
TEAM-NET
 10
-607.715838
 20
-564.776353
 30
600.0
 70
    64
  0
VERTEX
  5
17E
  8
TEAM-NET
 10
-545.525523
 20
-573.3747
 30
600.0
 70
    64
  0
VERTEX
  5
17F
  8
TEAM-NET
 10
-482.985576
 20
-578.881232
 30
600.0
 70
    64
  0
VERTEX
  5
180
  8
TEAM-NET
 10
-420.249613
 20
-581.282424
 30
600.0
 70
    64
  0
VERTEX
  5
181
  8
TEAM-NET
 10
-357.471729
 20
-580.572377
 30
600.0
 70
    64
  0
VERTEX
  5
182
  8
TEAM-NET
 10
-294.806125
 20
-576.752837
 30
600.0
 70
    64
  0
VERTEX
  5
183
  8
TEAM-NET
 10
-232.406724
 20
-569.833184
 30
600.0
 70
    64
  0
VERTEX
  5
184
  8
TEAM-NET
 10
-170.426796
 20
-559.830415
 30
600.0
 70
    64
  0
VERTEX
  5
185
  8
TEAM-NET
 10
-109.018581
 20
-546.7691
 30
600.0
 70
    64
  0
VERTEX
  5
186
  8
TEAM-NET
 10
-48.332914
 20
-530.681321
 30
600.0
 70
    64
  0
VERTEX
  5
187
  8
TEAM-NET
 10
11.481145
 20
-511.606594
 30
600.0
 70
    64
  0
VERTEX
  5
188
  8
TEAM-NET
 10
70.276676
 20
-489.591772
 30
600.0
 70
    64
  0
VERTEX
  5
189
  8
TEAM-NET
 10
127.909261
 20
-464.690928
 30
600.0
 70
    64
  0
VERTEX
  5
18A
  8
TEAM-NET
 10
184.237338
 20
-436.965227
 30
600.0
 70
    64
  0
VERTEX
  5
18B
  8
TEAM-NET
 10
239.122552
 20
-406.48277
 30
600.0
 70
    64
  0
VERTEX
  5
18C
  8
TEAM-NET
 10
292.430088
 20
-373.31843
 30
600.0
 70
    64
  0
VERTEX
  5
18D
  8
TEAM-NET
 10
344.029009
 20
-337.553668
 30
600.0
 70
    64
  0
VERTEX
  5
18E
  8
TEAM-NET
 10
393.792574
 20
-299.276332
 30
600.0
 70
    64
  0
VERTEX
  5
18F
  8
TEAM-NET
 10
441.59855
 20
-258.580442
 30
600.0
 70
    64
  0
VERTEX
  5
190
  8
TEAM-NET
 10
487.329512
 20
-215.565957
 30
600.0
 70
    64
  0
VERTEX
  5
191
  8
TEAM-NET
 10
530.873134
 20
-170.338533
 30
600.0
 70
    64
  0
VERTEX
  5
192
  8
TEAM-NET
 10
572.122459
 20
-123.009261
 30
600.0
 70
    64
  0
VERTEX
  5
193
  8
TEAM-NET
 10
610.976169
 20
-73.694395
 30
600.0
 70
    64
  0
VERTEX
  5
194
  8
TEAM-NET
 10
647.338828
 20
-22.515064
 30
600.0
 70
    64
  0
VERTEX
  5
195
  8
TEAM-NET
 10
681.121119
 20
30.40302
 30
600.0
 70
    64
  0
VERTEX
  5
196
  8
TEAM-NET
 10
712.240064
 20
84.929877
 30
600.0
 70
    64
  0
VERTEX
  5
197
  8
TEAM-NET
 10
740.619227
 20
140.931573
 30
600.0
 70
    64
  0
VERTEX
  5
198
  8
TEAM-NET
 10
766.1889
 20
198.270553
 30
600.0
 70
    64
  0
VERTEX
  5
199
  8
TEAM-NET
 10
788.886278
 20
256.805977
 30
600.0
 70
    64
  0
VERTEX
  5
19A
  8
TEAM-NET
 10
808.655609
 20
316.394067
 30
600.0
 70
    64
  0
VERTEX
  5
19B
  8
TEAM-NET
 10
825.448334
 20
376.888456
 30
600.0
 70
    64
  0
VERTEX
  5
19C
  8
TEAM-NET
 10
839.223207
 20
438.140556
 30
600.0
 70
    64
  0
VERTEX
  5
19D
  8
TEAM-NET
 10
849.946392
 20
499.999914
 30
600.0
 70
    64
  0
SEQEND
  5
19E
  8
TEAM-NET
  0
POLYLINE
  5
19F
  8
TEAM-NET
 66
     1
 10
0.0
 20
0.0
 30
0.0
 70
    16
 71
     2
 72
    37
  0
VERTEX
  5
1A0
  8
TEAM-NET
 10
-585.293429
 20
-344.510478
 30
600.0
 70
    64
  0
VERTEX
  5
1A1
  8
TEAM-NET
 10
-624.122772
 20
-307.981697
 30
600.0
 70
    64
  0
VERTEX
  5
1A2
  8
TEAM-NET
 10
-657.327592
 20
-266.137486
 30
600.0
 70
    64
  0
VERTEX
  5
1A3
  8
TEAM-NET
 10
-682.589568
 20
-219.161199
 30
600.0
 70
    64
  0
VERTEX
  5
1A4
  8
TEAM-NET
 10
-701.808547
 20
-169.302973
 30
600.0
 70
    64
  0
VERTEX
  5
1A5
  8
TEAM-NET
 10
-713.606751
 20
-117.254658
 30
600.0
 70
    64
  0
VERTEX
  5
1A6
  8
TEAM-NET
 10
-718.680657
 20
-64.064142
 30
600.0
 70
    64
  0
VERTEX
  5
1A7
  8
TEAM-NET
 10
-717.594727
 20
-10.695123
 30
600.0
 70
    64
  0
VERTEX
  5
1A8
  8
TEAM-NET
 10
-706.40176
 20
41.483151
 30
600.0
 70
    64
  0
VERTEX
  5
1A9
  8
TEAM-NET
 10
-685.565557
 20
90.61821
 30
600.0
 70
    64
  0
VERTEX
  5
1AA
  8
TEAM-NET
 10
-656.291193
 20
135.264499
 30
600.0
 70
    64
  0
VERTEX
  5
1AB
  8
TEAM-NET
 10
-621.557753
 20
175.828605
 30
600.0
 70
    64
  0
VERTEX
  5
1AC
  8
TEAM-NET
 10
-585.897675
 20
215.604311
 30
600.0
 70
    64
  0
VERTEX
  5
1AD
  8
TEAM-NET
 10
-545.974585
 20
251.099309
 30
600.0
 70
    64
  0
VERTEX
  5
1AE
  8
TEAM-NET
 10
-502.299076
 20
281.85964
 30
600.0
 70
    64
  0
VERTEX
  5
1AF
  8
TEAM-NET
 10
-455.735734
 20
308.076861
 30
600.0
 70
    64
  0
VERTEX
  5
1B0
  8
TEAM-NET
 10
-408.076574
 20
332.218047
 30
600.0
 70
    64
  0
VERTEX
  5
1B1
  8
TEAM-NET
 10
-359.840845
 20
355.162568
 30
600.0
 70
    64
  0
VERTEX
  5
1B2
  8
TEAM-NET
 10
-309.196987
 20
372.158672
 30
600.0
 70
    64
  0
VERTEX
  5
1B3
  8
TEAM-NET
 10
-256.944792
 20
383.267082
 30
600.0
 70
    64
  0
VERTEX
  5
1B4
  8
TEAM-NET
 10
-203.954447
 20
390.244932
 30
600.0
 70
    64
  0
VERTEX
  5
1B5
  8
TEAM-NET
 10
-150.856475
 20
396.355984
 30
600.0
 70
    64
  0
VERTEX
  5
1B6
  8
TEAM-NET
 10
-97.671672
 20
401.658466
 30
600.0
 70
    64
  0
VERTEX
  5
1B7
  8
TEAM-NET
 10
-44.412351
 20
406.151149
 30
600.0
 70
    64
  0
VERTEX
  5
1B8
  8
TEAM-NET
 10
8.909161
 20
409.832994
 30
600.0
 70
    64
  0
VERTEX
  5
1B9
  8
TEAM-NET
 10
62.280098
 20
412.711902
 30
600.0
 70
    64
  0
VERTEX
  5
1BA
  8
TEAM-NET
 10
115.682659
 20
414.932353
 30
600.0
 70
    64
  0
VERTEX
  5
1BB
  8
TEAM-NET
 10
169.107014
 20
416.545477
 30
600.0
 70
    64
  0
VERTEX
  5
1BC
  8
TEAM-NET
 10
222.546257
 20
417.551066
 30
600.0
 70
    64
  0
VERTEX
  5
1BD
  8
TEAM-NET
 10
275.993479
 20
417.94899
 30
600.0
 70
    64
  0
VERTEX
  5
1BE
  8
TEAM-NET
 10
329.441771
 20
417.739197
 30
600.0
 70
    64
  0
VERTEX
  5
1BF
  8
TEAM-NET
 10
382.884222
 20
416.921714
 30
600.0
 70
    64
  0
VERTEX
  5
1C0
  8
TEAM-NET
 10
436.312786
 20
415.463341
 30
600.0
 70
    64
  0
VERTEX
  5
1C1
  8
TEAM-NET
 10
489.634119
 20
411.870605
 30
600.0
 70
    64
  0
VERTEX
  5
1C2
  8
TEAM-NET
 10
542.676759
 20
405.347512
 30
600.0
 70
    64
  0
VERTEX
  5
1C3
  8
TEAM-NET
 10
595.279785
 20
395.913851
 30
600.0
 70
    64
  0
VERTEX
  5
1C4
  8
TEAM-NET
 10
646.325971
 20
380.18749
 30
600.0
 70
    64
  0
VERTEX
  5
1C5
  8
TEAM-NET
 10
-849.946392
 20
-499.999914
 30
600.0
 70
    64
  0
VERTEX
  5
1C6
  8
TEAM-NET
 10
-849.946392
 20
-425.002897
 30
600.0
 70
    64
  0
VERTEX
  5
1C7
  8
TEAM-NET
 10
-849.946392
 20
-350.00588
 30
600.0
 70
    64
  0
VERTEX
  5
1C8
  8
TEAM-NET
 10
-849.946392
 20
-275.008863
 30
600.0
 70
    64
  0
VERTEX
  5
1C9
  8
TEAM-NET
 10
-849.946392
 20
-200.011846
 30
600.0
 70
    64
  0
VERTEX
  5
1CA
  8
TEAM-NET
 10
-849.946392
 20
-125.014829
 30
600.0
 70
    64
  0
VERTEX
  5
1CB
  8
TEAM-NET
 10
-849.946392
 20
-50.017812
 30
600.0
 70
    64
  0
VERTEX
  5
1CC
  8
TEAM-NET
 10
-849.946392
 20
24.979205
 30
600.0
 70
    64
  0
VERTEX
  5
1CD
  8
TEAM-NET
 10
-849.946392
 20
99.976222
 30
600.0
 70
    64
  0
VERTEX
  5
1CE
  8
TEAM-NET
 10
-849.946392
 20
174.973239
 30
600.0
 70
    64
  0
VERTEX
  5
1CF
  8
TEAM-NET
 10
-849.946392
 20
249.970256
 30
600.0
 70
    64
  0
VERTEX
  5
1D0
  8
TEAM-NET
 10
-849.946392
 20
324.967273
 30
600.0
 70
    64
  0
VERTEX
  5
1D1
  8
TEAM-NET
 10
-849.946392
 20
399.96429
 30
600.0
 70
    64
  0
VERTEX
  5
1D2
  8
TEAM-NET
 10
-849.946392
 20
474.961307
 30
600.0
 70
    64
  0
VERTEX
  5
1D3
  8
TEAM-NET
 10
-799.987982
 20
499.999914
 30
600.0
 70
    64
  0
VERTEX
  5
1D4
  8
TEAM-NET
 10
-724.990965
 20
499.999914
 30
600.0
 70
    64
  0
VERTEX
  5
1D5
  8
TEAM-NET
 10
-649.993948
 20
499.999914
 30
600.0
 70
    64
  0
VERTEX
  5
1D6
  8
TEAM-NET
 10
-574.996931
 20
499.999914
 30
600.0
 70
    64
  0
VERTEX
  5
1D7
  8
TEAM-NET
 10
-499.999914
 20
499.999914
 30
600.0
 70
    64
  0
VERTEX
  5
1D8
  8
TEAM-NET
 10
-425.002897
 20
499.999914
 30
600.0
 70
    64
  0
VERTEX
  5
1D9
  8
TEAM-NET
 10
-350.00588
 20
499.999914
 30
600.0
 70
    64
  0
VERTEX
  5
1DA
  8
TEAM-NET
 10
-275.008863
 20
499.999914
 30
600.0
 70
    64
  0
VERTEX
  5
1DB
  8
TEAM-NET
 10
-200.011846
 20
499.999914
 30
600.0
 70
    64
  0
VERTEX
  5
1DC
  8
TEAM-NET
 10
-125.014829
 20
499.999914
 30
600.0
 70
    64
  0
VERTEX
  5
1DD
  8
TEAM-NET
 10
-50.017812
 20
499.999914
 30
600.0
 70
    64
  0
VERTEX
  5
1DE
  8
TEAM-NET
 10
24.979205
 20
499.999914
 30
600.0
 70
    64
  0
VERTEX
  5
1DF
  8
TEAM-NET
 10
99.976222
 20
499.999914
 30
600.0
 70
    64
  0
VERTEX
  5
1E0
  8
TEAM-NET
 10
174.973239
 20
499.999914
 30
600.0
 70
    64
  0
VERTEX
  5
1E1
  8
TEAM-NET
 10
249.970256
 20
499.999914
 30
600.0
 70
    64
  0
VERTEX
  5
1E2
  8
TEAM-NET
 10
324.967273
 20
499.999914
 30
600.0
 70
    64
  0
VERTEX
  5
1E3
  8
TEAM-NET
 10
399.96429
 20
499.999914
 30
600.0
 70
    64
  0
VERTEX
  5
1E4
  8
TEAM-NET
 10
474.961307
 20
499.999914
 30
600.0
 70
    64
  0
VERTEX
  5
1E5
  8
TEAM-NET
 10
549.958324
 20
499.999914
 30
600.0
 70
    64
  0
VERTEX
  5
1E6
  8
TEAM-NET
 10
624.955341
 20
499.999914
 30
600.0
 70
    64
  0
VERTEX
  5
1E7
  8
TEAM-NET
 10
699.952358
 20
499.999914
 30
600.0
 70
    64
  0
VERTEX
  5
1E8
  8
TEAM-NET
 10
774.949375
 20
499.999914
 30
600.0
 70
    64
  0
VERTEX
  5
1E9
  8
TEAM-NET
 10
849.946392
 20
499.999914
 30
600.0
 70
    64
  0
SEQEND
  5
1EA
  8
TEAM-NET
  0
POLYLINE
  5
1EB
  8
TEAM-DET1
 66
     1
 10
0.0
 20
0.0
 30
600.0
  0
VERTEX
  5
6EB
  8
TEAM-DET1
 10
317.00668
 20
482.934768
 30
600.0
 42
0.00434
  0
VERTEX
  5
6EC
  8
TEAM-DET1
 10
-29.144431
 20
459.595068
 30
600.0
 42
0.021141
  0
VERTEX
  5
6ED
  8
TEAM-DET1
 10
-329.005545
 20
431.676537
 30
600.0
 42
0.058101
  0
VERTEX
  5
6EE
  8
TEAM-DET1
 10
-445.183504
 20
401.864846
 30
600.0
 42
0.040221
  0
VERTEX
  5
6EF
  8
TEAM-DET1
 10
-514.841303
 20
368.417629
 30
600.0
 42
0.023826
  0
VERTEX
  5
6F0
  8
TEAM-DET1
 10
-590.20373
 20
329.1666
 30
600.0
 42
0.09721
  0
VERTEX
  5
6F1
  8
TEAM-DET1
 10
-740.899839
 20
195.828749
 30
600.0
 42
0.063241
  0
VERTEX
  5
6F2
  8
TEAM-DET1
 10
-798.210208
 20
120.424973
 30
600.0
 42
0.068226
  0
VERTEX
  5
6F3
  8
TEAM-DET1
 10
-832.531364
 20
36.295146
 30
600.0
 42
0.069617
  0
VERTEX
  5
6F4
  8
TEAM-DET1
 10
-842.55465
 20
-52.74876
 30
600.0
 42
0.03089
  0
VERTEX
  5
6F5
  8
TEAM-DET1
 10
-835.324811
 20
-134.066628
 30
600.0
 42
0.046169
  0
VERTEX
  5
6F6
  8
TEAM-DET1
 10
-820.961434
 20
-192.080101
 30
600.0
 42
0.02374
  0
VERTEX
  5
6F7
  8
TEAM-DET1
 10
-795.323293
 20
-255.816109
 30
600.0
 42
0.042643
  0
VERTEX
  5
6F8
  8
TEAM-DET1
 10
-773.565953
 20
-294.246841
 30
600.0
 42
0.021914
  0
VERTEX
  5
6F9
  8
TEAM-DET1
 10
-749.857854
 20
-325.811166
 30
600.0
 42
0.017692
  0
VERTEX
  5
6FA
  8
TEAM-DET1
 10
-718.746932
 20
-361.039679
 30
600.0
 42
0.027624
  0
VERTEX
  5
6FB
  8
TEAM-DET1
 10
-707.503098
 20
-371.657533
 30
600.0
 42
0.012877
  0
VERTEX
  5
6FC
  8
TEAM-DET1
 10
-688.860447
 20
-386.603612
 30
600.0
 42
0.012877
  0
SEQEND
  5
6FD
  8
TEAM-DET1
  0
TEXT
  5
1EC
  8
TEAM-TXT
 10
-301.516627
 20
217.309951
 30
600.0
 40
32.468458
  1
team 121137
 41
0.8
 51
15.0
  7
TEAM
  0
POLYLINE
  5
1EF
  8
TEAM-DET1
 66
     1
 10
0.0
 20
0.0
 30
600.0
  0
VERTEX
  5
6FE
  8
TEAM-DET1
 10
199.666032
 20
-372.532399
 30
600.0
 42
-0.013445
  0
VERTEX
  5
6FF
  8
TEAM-DET1
 10
150.44069
 20
-395.039788
 30
600.0
 42
-0.010973
  0
VERTEX
  5
700
  8
TEAM-DET1
 10
18.396181
 20
-447.78287
 30
600.0
 42
-0.020597
  0
VERTEX
  5
701
  8
TEAM-DET1
 10
-117.086381
 20
-492.212438
 30
600.0
 42
-0.024989
  0
VERTEX
  5
702
  8
TEAM-DET1
 10
-233.212032
 20
-518.879851
 30
600.0
 42
-0.070495
  0
VERTEX
  5
703
  8
TEAM-DET1
 10
-381.665613
 20
-524.078439
 30
600.0
 42
-0.073816
  0
VERTEX
  5
704
  8
TEAM-DET1
 10
-520.311611
 20
-488.215434
 30
600.0
 42
-0.013034
  0
VERTEX
  5
705
  8
TEAM-DET1
 10
-563.938661
 20
-468.38915
 30
600.0
 42
-0.012061
  0
VERTEX
  5
706
  8
TEAM-DET1
 10
-609.587929
 20
-444.812766
 30
600.0
 42
-0.034329
  0
VERTEX
  5
707
  8
TEAM-DET1
 10
-645.956948
 20
-421.527684
 30
600.0
 42
-0.022772
  0
VERTEX
  5
708
  8
TEAM-DET1
 10
-691.913191
 20
-384.086066
 30
600.0
 42
-0.022772
  0
SEQEND
  5
709
  8
TEAM-DET1
  0
ENDSEC
  0
EOF
