  0
SECTION
  2
HEADER
  9
$ACADVER
  1
AC1009
  9
$INSBASE
 10
0.0
 20
0.0
 30
0.0
  9
$EXTMIN
 10
-996.272455
 20
-734.003151
 30
-0.010822
  9
$EXTMAX
 10
996.18233
 20
734.032806
 30
600.018921
  9
$LIMMIN
 10
-996.272455
 20
-734.003151
  9
$LIMMAX
 10
996.18233
 20
734.032806
  9
$ORTHOMODE
 70
     1
  9
$REGENMODE
 70
     1
  9
$FILLMODE
 70
     1
  9
$QTEXTMODE
 70
     0
  9
$MIRRTEXT
 70
     0
  9
$DRAGMODE
 70
     2
  9
$LTSCALE
 40
25.0
  9
$OSMODE
 70
     0
  9
$ATTMODE
 70
     1
  9
$TEXTSIZE
 40
200.0
  9
$TRACEWID
 40
1.0
  9
$TEXTSTYLE
  7
STANDARD
  9
$CLAYER
  8
TEAM-MAS
  9
$CELTYPE
  6
BYLAYER
  9
$CECOLOR
 62
   256
  9
$DIMSCALE
 40
0.0
  9
$DIMASZ
 40
20.0
  9
$DIMEXO
 40
10.0
  9
$DIMDLI
 40
1.0
  9
$DIMRND
 40
0.0
  9
$DIMDLE
 40
0.0
  9
$DIMEXE
 40
1.0
  9
$DIMTP
 40
0.0
  9
$DIMTM
 40
0.0
  9
$DIMTXT
 40
35.0
  9
$DIMCEN
 40
1.0
  9
$DIMTSZ
 40
0.0
  9
$DIMTOL
 70
     0
  9
$DIMLIM
 70
     0
  9
$DIMTIH
 70
     0
  9
$DIMTOH
 70
     0
  9
$DIMSE1
 70
     0
  9
$DIMSE2
 70
     0
  9
$DIMTAD
 70
     0
  9
$DIMZIN
 70
     0
  9
$DIMBLK
  1

  9
$DIMASO
 70
     1
  9
$DIMSHO
 70
     0
  9
$DIMPOST
  1

  9
$DIMAPOST
  1

  9
$DIMALT
 70
     0
  9
$DIMALTD
 70
     2
  9
$DIMALTF
 40
25.4
  9
$DIMLFAC
 40
1.0
  9
$DIMTOFL
 70
     0
  9
$DIMTVP
 40
0.0
  9
$DIMTIX
 70
     0
  9
$DIMSOXD
 70
     0
  9
$DIMSAH
 70
     0
  9
$DIMBLK1
  1

  9
$DIMBLK2
  1

  9
$DIMSTYLE
  2
TEAM
  9
$DIMCLRD
 70
     9
  9
$DIMCLRE
 70
     9
  9
$DIMCLRT
 70
    11
  9
$DIMTFAC
 40
1.0
  9
$DIMGAP
 40
15.0
  9
$LUNITS
 70
     2
  9
$LUPREC
 70
     1
  9
$SKETCHINC
 40
1.0
  9
$FILLETRAD
 40
50.0
  9
$AUNITS
 70
     0
  9
$AUPREC
 70
     0
  9
$MENU
  1
ROPLANS
  9
$ELEVATION
 40
0.0
  9
$PELEVATION
 40
0.0
  9
$THICKNESS
 40
0.0
  9
$LIMCHECK
 70
     0
  9
$BLIPMODE
 70
     1
  9
$CHAMFERA
 40
0.0
  9
$CHAMFERB
 40
0.0
  9
$SKPOLY
 70
     0
  9
$TDCREATE
 40
2450392.957851
  9
$TDUPDATE
 40
2455493.900056
  9
$TDINDWG
 40
2.014927
  9
$TDUSRTIMER
 40
2.014927
  9
$USRTIMER
 70
     1
  9
$ANGBASE
 50
0.0
  9
$ANGDIR
 70
     0
  9
$PDMODE
 70
     0
  9
$PDSIZE
 40
0.0
  9
$PLINEWID
 40
0.0
  9
$COORDS
 70
     2
  9
$SPLFRAME
 70
     0
  9
$SPLINETYPE
 70
     6
  9
$SPLINESEGS
 70
     8
  9
$ATTDIA
 70
     0
  9
$ATTREQ
 70
     0
  9
$HANDLING
 70
     1
  9
$HANDSEED
  5
60A
  9
$SURFTAB1
 70
    24
  9
$SURFTAB2
 70
    24
  9
$SURFTYPE
 70
     6
  9
$SURFU
 70
     6
  9
$SURFV
 70
     6
  9
$UCSNAME
  2

  9
$UCSORG
 10
0.0
 20
0.0
 30
0.0
  9
$UCSXDIR
 10
1.0
 20
0.0
 30
0.0
  9
$UCSYDIR
 10
0.0
 20
1.0
 30
0.0
  9
$PUCSNAME
  2

  9
$PUCSORG
 10
0.0
 20
0.0
 30
0.0
  9
$PUCSXDIR
 10
1.0
 20
0.0
 30
0.0
  9
$PUCSYDIR
 10
0.0
 20
1.0
 30
0.0
  9
$USERI1
 70
     0
  9
$USERI2
 70
     0
  9
$USERI3
 70
     0
  9
$USERI4
 70
     0
  9
$USERI5
 70
     0
  9
$USERR1
 40
0.0
  9
$USERR2
 40
0.0
  9
$USERR3
 40
0.0
  9
$USERR4
 40
0.0
  9
$USERR5
 40
0.0
  9
$WORLDVIEW
 70
     1
  9
$SHADEDGE
 70
     0
  9
$SHADEDIF
 70
    70
  9
$TILEMODE
 70
     1
  9
$MAXACTVP
 70
    16
  9
$PLIMCHECK
 70
     0
  9
$PEXTMIN
 10
-0.805942
 20
0.005011
 30
0.0
  9
$PEXTMAX
 10
20.250094
 20
11.356329
 30
0.0
  9
$PLIMMIN
 10
0.0
 20
0.0
  9
$PLIMMAX
 10
12.0
 20
9.0
  9
$UNITMODE
 70
     0
  9
$VISRETAIN
 70
     0
  9
$PLINEGEN
 70
     0
  9
$PSLTSCALE
 70
     0
  0
ENDSEC
  0
SECTION
  2
TABLES
  0
TABLE
  2
VPORT
 70
     2
  0
VPORT
  2
*ACTIVE
 70
     0
 10
0.0
 20
0.0
 11
1.0
 21
1.0
 12
-0.045062
 22
0.014828
 13
0.0
 23
0.0
 14
1.0
 24
1.0
 15
50.0
 25
50.0
 16
0.0
 26
0.0
 36
1.0
 17
0.0
 27
0.0
 37
0.0
 40
1477.051531
 41
1.865779
 42
50.0
 43
0.0
 44
0.0
 50
0.0
 51
0.0
 71
     0
 72
   100
 73
     1
 74
     1
 75
     0
 76
     0
 77
     0
 78
     0
  0
ENDTAB
  0
TABLE
  2
LTYPE
 70
     1
  0
LTYPE
  2
CONTINUOUS
 70
     0
  3
Solid Line
 72
    65
 73
     0
 40
0.0
  0
ENDTAB
  0
TABLE
  2
LAYER
 70
     8
  0
LAYER
  2
0
 70
     0
 62
     7
  6
CONTINUOUS
  0
LAYER
  2
TEAM-BODY
 70
     0
 62
     2
  6
CONTINUOUS
  0
LAYER
  2
TEAM-MAS
 70
     0
 62
     9
  6
CONTINUOUS
  0
LAYER
  2
TEAM-TXT
 70
     0
 62
    11
  6
CONTINUOUS
  0
LAYER
  2
TEAM-DET1
 70
     0
 62
     4
  6
CONTINUOUS
  0
LAYER
  2
TEAM-KAN
 70
     0
 62
     6
  6
CONTINUOUS
  0
LAYER
  2
TEAM-NET
 70
     0
 62
    15
  6
CONTINUOUS
  0
LAYER
  2
TEAM-INSP
 70
     0
 62
     5
  6
CONTINUOUS
  0
ENDTAB
  0
TABLE
  2
STYLE
 70
     2
  0
STYLE
  2
STANDARD
 70
     0
 40
0.0
 41
1.0
 50
0.0
 71
     0
 42
200.0
  3
txt
  4

  0
STYLE
  2
TEAM
 70
     0
 40
0.0
 41
0.8
 50
15.0
 71
     0
 42
7.0
  3
ROMANS.shx
  4

  0
ENDTAB
  0
TABLE
  2
VIEW
 70
     0
  0
ENDTAB
  0
TABLE
  2
UCS
 70
     0
  0
ENDTAB
  0
TABLE
  2
APPID
 70
     1
  0
APPID
  2
ACAD
 70
     0
  0
ENDTAB
  0
TABLE
  2
DIMSTYLE
 70
     1
  0
DIMSTYLE
  2
TEAM
 70
     0
  3

  4

  5

  6

  7

 40
0.0
 41
20.0
 42
10.0
 43
1.0
 44
1.0
 45
0.0
 46
0.0
 47
0.0
 48
0.0
140
35.0
141
1.0
142
0.0
143
25.4
144
1.0
145
0.0
146
1.0
147
15.0
 71
     0
 72
     0
 73
     0
 74
     0
 75
     0
 76
     0
 77
     0
 78
     0
170
     0
171
     2
172
     0
173
     0
174
     0
175
     0
176
     9
177
     9
178
    11
  0
ENDTAB
  0
ENDSEC
  0
SECTION
  2
BLOCKS
  0
BLOCK
  8
0
  2
$MODEL_SPACE
 70
     0
 10
0.0
 20
0.0
 30
0.0
  3
$MODEL_SPACE
  1

  0
ENDBLK
  5
590
  8
0
  0
BLOCK
 67
     1
  8
0
  2
$PAPER_SPACE
 70
     0
 10
0.0
 20
0.0
 30
0.0
  3
$PAPER_SPACE
  1

  0
ENDBLK
  5
58E
 67
     1
  8
0
  0
ENDSEC
  0
SECTION
  2
ENTITIES
  0
POLYLINE
  5
20
  8
TEAM-NET
 66
     1
 10
0.0
 20
0.0
 30
0.0
 70
    16
 71
     2
 72
    37
  0
VERTEX
  5
21
  8
TEAM-NET
 10
543.218154
 20
-261.438673
 30
120.0
 70
    64
  0
VERTEX
  5
22
  8
TEAM-NET
 10
538.069865
 20
-216.400792
 30
120.0
 70
    64
  0
VERTEX
  5
23
  8
TEAM-NET
 10
529.194064
 20
-171.947044
 30
120.0
 70
    64
  0
VERTEX
  5
24
  8
TEAM-NET
 10
516.65224
 20
-128.385384
 30
120.0
 70
    64
  0
VERTEX
  5
25
  8
TEAM-NET
 10
500.531277
 20
-86.017589
 30
120.0
 70
    64
  0
VERTEX
  5
26
  8
TEAM-NET
 10
480.942853
 20
-45.137163
 30
120.0
 70
    64
  0
VERTEX
  5
27
  8
TEAM-NET
 10
458.022668
 20
-6.027309
 30
120.0
 70
    64
  0
VERTEX
  5
28
  8
TEAM-NET
 10
431.929505
 20
31.041039
 30
120.0
 70
    64
  0
VERTEX
  5
29
  8
TEAM-NET
 10
402.844123
 20
65.811085
 30
120.0
 70
    64
  0
VERTEX
  5
2A
  8
TEAM-NET
 10
370.968015
 20
98.04196
 30
120.0
 70
    64
  0
VERTEX
  5
2B
  8
TEAM-NET
 10
336.522003
 20
127.510381
 30
120.0
 70
    64
  0
VERTEX
  5
2C
  8
TEAM-NET
 10
299.744716
 20
154.012205
 30
120.0
 70
    64
  0
VERTEX
  5
2D
  8
TEAM-NET
 10
260.890928
 20
177.363838
 30
120.0
 70
    64
  0
VERTEX
  5
2E
  8
TEAM-NET
 10
220.229803
 20
197.403511
 30
120.0
 70
    64
  0
VERTEX
  5
2F
  8
TEAM-NET
 10
178.043023
 20
213.992397
 30
120.0
 70
    64
  0
VERTEX
  5
30
  8
TEAM-NET
 10
134.62284
 20
227.015577
 30
120.0
 70
    64
  0
VERTEX
  5
31
  8
TEAM-NET
 10
90.270048
 20
236.38283
 30
120.0
 70
    64
  0
VERTEX
  5
32
  8
TEAM-NET
 10
45.291905
 20
242.029266
 30
120.0
 70
    64
  0
VERTEX
  5
33
  8
TEAM-NET
 10
0.0
 20
243.915767
 30
120.0
 70
    64
  0
VERTEX
  5
34
  8
TEAM-NET
 10
-45.291905
 20
242.029266
 30
120.0
 70
    64
  0
VERTEX
  5
35
  8
TEAM-NET
 10
-90.270048
 20
236.38283
 30
120.0
 70
    64
  0
VERTEX
  5
36
  8
TEAM-NET
 10
-134.62284
 20
227.015577
 30
120.0
 70
    64
  0
VERTEX
  5
37
  8
TEAM-NET
 10
-178.043023
 20
213.992397
 30
120.0
 70
    64
  0
VERTEX
  5
38
  8
TEAM-NET
 10
-220.229803
 20
197.403511
 30
120.0
 70
    64
  0
VERTEX
  5
39
  8
TEAM-NET
 10
-260.890928
 20
177.363838
 30
120.0
 70
    64
  0
VERTEX
  5
3A
  8
TEAM-NET
 10
-299.744716
 20
154.012205
 30
120.0
 70
    64
  0
VERTEX
  5
3B
  8
TEAM-NET
 10
-336.522003
 20
127.510381
 30
120.0
 70
    64
  0
VERTEX
  5
3C
  8
TEAM-NET
 10
-370.968015
 20
98.04196
 30
120.0
 70
    64
  0
VERTEX
  5
3D
  8
TEAM-NET
 10
-402.844123
 20
65.811085
 30
120.0
 70
    64
  0
VERTEX
  5
3E
  8
TEAM-NET
 10
-431.929505
 20
31.041039
 30
120.0
 70
    64
  0
VERTEX
  5
3F
  8
TEAM-NET
 10
-458.022668
 20
-6.027309
 30
120.0
 70
    64
  0
VERTEX
  5
40
  8
TEAM-NET
 10
-480.942853
 20
-45.137163
 30
120.0
 70
    64
  0
VERTEX
  5
41
  8
TEAM-NET
 10
-500.531277
 20
-86.017589
 30
120.0
 70
    64
  0
VERTEX
  5
42
  8
TEAM-NET
 10
-516.65224
 20
-128.385384
 30
120.0
 70
    64
  0
VERTEX
  5
43
  8
TEAM-NET
 10
-529.194064
 20
-171.947044
 30
120.0
 70
    64
  0
VERTEX
  5
44
  8
TEAM-NET
 10
-538.069865
 20
-216.400792
 30
120.0
 70
    64
  0
VERTEX
  5
45
  8
TEAM-NET
 10
-543.218154
 20
-261.438673
 30
120.0
 70
    64
  0
VERTEX
  5
46
  8
TEAM-NET
 10
613.214307
 20
-260.704807
 30
600.0
 70
    64
  0
VERTEX
  5
47
  8
TEAM-NET
 10
610.355258
 20
-207.639611
 30
600.0
 70
    64
  0
VERTEX
  5
48
  8
TEAM-NET
 10
602.912798
 20
-155.021183
 30
600.0
 70
    64
  0
VERTEX
  5
49
  8
TEAM-NET
 10
590.942816
 20
-103.244657
 30
600.0
 70
    64
  0
VERTEX
  5
4A
  8
TEAM-NET
 10
574.535198
 20
-52.698843
 30
600.0
 70
    64
  0
VERTEX
  5
4B
  8
TEAM-NET
 10
553.813158
 20
-3.763312
 30
600.0
 70
    64
  0
VERTEX
  5
4C
  8
TEAM-NET
 10
528.932304
 20
43.194459
 30
600.0
 70
    64
  0
VERTEX
  5
4D
  8
TEAM-NET
 10
500.079479
 20
87.821846
 30
600.0
 70
    64
  0
VERTEX
  5
4E
  8
TEAM-NET
 10
467.471348
 20
129.783722
 30
600.0
 70
    64
  0
VERTEX
  5
4F
  8
TEAM-NET
 10
431.352782
 20
168.764978
 30
600.0
 70
    64
  0
VERTEX
  5
50
  8
TEAM-NET
 10
391.995008
 20
204.472887
 30
600.0
 70
    64
  0
VERTEX
  5
51
  8
TEAM-NET
 10
349.693582
 20
236.639306
 30
600.0
 70
    64
  0
VERTEX
  5
52
  8
TEAM-NET
 10
304.766161
 20
265.022681
 30
600.0
 70
    64
  0
VERTEX
  5
53
  8
TEAM-NET
 10
257.550124
 20
289.409871
 30
600.0
 70
    64
  0
VERTEX
  5
54
  8
TEAM-NET
 10
208.400036
 20
309.617743
 30
600.0
 70
    64
  0
VERTEX
  5
55
  8
TEAM-NET
 10
157.684987
 20
325.494546
 30
600.0
 70
    64
  0
VERTEX
  5
56
  8
TEAM-NET
 10
105.785815
 20
336.921056
 30
600.0
 70
    64
  0
VERTEX
  5
57
  8
TEAM-NET
 10
53.092253
 20
343.811466
 30
600.0
 70
    64
  0
VERTEX
  5
58
  8
TEAM-NET
 10
0.0
 20
346.114033
 30
600.0
 70
    64
  0
VERTEX
  5
59
  8
TEAM-NET
 10
-53.092253
 20
343.811466
 30
600.0
 70
    64
  0
VERTEX
  5
5A
  8
TEAM-NET
 10
-105.785815
 20
336.921056
 30
600.0
 70
    64
  0
VERTEX
  5
5B
  8
TEAM-NET
 10
-157.684987
 20
325.494546
 30
600.0
 70
    64
  0
VERTEX
  5
5C
  8
TEAM-NET
 10
-208.400036
 20
309.617743
 30
600.0
 70
    64
  0
VERTEX
  5
5D
  8
TEAM-NET
 10
-257.550124
 20
289.409871
 30
600.0
 70
    64
  0
VERTEX
  5
5E
  8
TEAM-NET
 10
-304.766161
 20
265.022681
 30
600.0
 70
    64
  0
VERTEX
  5
5F
  8
TEAM-NET
 10
-349.693582
 20
236.639306
 30
600.0
 70
    64
  0
VERTEX
  5
60
  8
TEAM-NET
 10
-391.995008
 20
204.472887
 30
600.0
 70
    64
  0
VERTEX
  5
61
  8
TEAM-NET
 10
-431.352782
 20
168.764978
 30
600.0
 70
    64
  0
VERTEX
  5
62
  8
TEAM-NET
 10
-467.471348
 20
129.783722
 30
600.0
 70
    64
  0
VERTEX
  5
63
  8
TEAM-NET
 10
-500.079479
 20
87.821846
 30
600.0
 70
    64
  0
VERTEX
  5
64
  8
TEAM-NET
 10
-528.932304
 20
43.194459
 30
600.0
 70
    64
  0
VERTEX
  5
65
  8
TEAM-NET
 10
-553.813158
 20
-3.763312
 30
600.0
 70
    64
  0
VERTEX
  5
66
  8
TEAM-NET
 10
-574.535198
 20
-52.698843
 30
600.0
 70
    64
  0
VERTEX
  5
67
  8
TEAM-NET
 10
-590.942816
 20
-103.244657
 30
600.0
 70
    64
  0
VERTEX
  5
68
  8
TEAM-NET
 10
-602.912798
 20
-155.021183
 30
600.0
 70
    64
  0
VERTEX
  5
69
  8
TEAM-NET
 10
-610.355258
 20
-207.639611
 30
600.0
 70
    64
  0
VERTEX
  5
6A
  8
TEAM-NET
 10
-613.214307
 20
-260.704807
 30
600.0
 70
    64
  0
SEQEND
  5
6C
  8
TEAM-NET
  0
POLYLINE
  5
6D
  8
TEAM-NET
 66
     1
 10
0.0
 20
0.0
 30
0.0
 70
    16
 71
     2
 72
    37
  0
VERTEX
  5
6E
  8
TEAM-NET
 10
-543.226087
 20
-260.627998
 30
120.0
 70
    64
  0
VERTEX
  5
6F
  8
TEAM-NET
 10
-539.341169
 20
-298.843158
 30
120.0
 70
    64
  0
VERTEX
  5
70
  8
TEAM-NET
 10
-530.067892
 20
-336.119121
 30
120.0
 70
    64
  0
VERTEX
  5
71
  8
TEAM-NET
 10
-515.594275
 20
-371.700093
 30
120.0
 70
    64
  0
VERTEX
  5
72
  8
TEAM-NET
 10
-496.213782
 20
-404.864646
 30
120.0
 70
    64
  0
VERTEX
  5
73
  8
TEAM-NET
 10
-472.319363
 20
-434.940347
 30
120.0
 70
    64
  0
VERTEX
  5
74
  8
TEAM-NET
 10
-444.395493
 20
-461.317394
 30
120.0
 70
    64
  0
VERTEX
  5
75
  8
TEAM-NET
 10
-411.675317
 20
-480.949052
 30
120.0
 70
    64
  0
VERTEX
  5
76
  8
TEAM-NET
 10
-375.903587
 20
-495.028002
 30
120.0
 70
    64
  0
VERTEX
  5
77
  8
TEAM-NET
 10
-339.651515
 20
-507.819437
 30
120.0
 70
    64
  0
VERTEX
  5
78
  8
TEAM-NET
 10
-302.965426
 20
-519.307012
 30
120.0
 70
    64
  0
VERTEX
  5
79
  8
TEAM-NET
 10
-265.892198
 20
-529.476047
 30
120.0
 70
    64
  0
VERTEX
  5
7A
  8
TEAM-NET
 10
-228.479205
 20
-538.313549
 30
120.0
 70
    64
  0
VERTEX
  5
7B
  8
TEAM-NET
 10
-190.774254
 20
-545.808225
 30
120.0
 70
    64
  0
VERTEX
  5
7C
  8
TEAM-NET
 10
-152.825525
 20
-551.950497
 30
120.0
 70
    64
  0
VERTEX
  5
7D
  8
TEAM-NET
 10
-114.681512
 20
-556.732517
 30
120.0
 70
    64
  0
VERTEX
  5
7E
  8
TEAM-NET
 10
-76.390954
 20
-560.148174
 30
120.0
 70
    64
  0
VERTEX
  5
7F
  8
TEAM-NET
 10
-38.002782
 20
-562.193104
 30
120.0
 70
    64
  0
VERTEX
  5
80
  8
TEAM-NET
 10
0.433952
 20
-562.864694
 30
120.0
 70
    64
  0
VERTEX
  5
81
  8
TEAM-NET
 10
38.87013
 20
-562.162084
 30
120.0
 70
    64
  0
VERTEX
  5
82
  8
TEAM-NET
 10
77.25664
 20
-560.086174
 30
120.0
 70
    64
  0
VERTEX
  5
83
  8
TEAM-NET
 10
115.544428
 20
-556.639616
 30
120.0
 70
    64
  0
VERTEX
  5
84
  8
TEAM-NET
 10
153.68457
 20
-551.826814
 30
120.0
 70
    64
  0
VERTEX
  5
85
  8
TEAM-NET
 10
191.62833
 20
-545.653918
 30
120.0
 70
    64
  0
VERTEX
  5
86
  8
TEAM-NET
 10
229.32722
 20
-538.128815
 30
120.0
 70
    64
  0
VERTEX
  5
87
  8
TEAM-NET
 10
266.733069
 20
-529.261122
 30
120.0
 70
    64
  0
VERTEX
  5
88
  8
TEAM-NET
 10
303.798078
 20
-519.06217
 30
120.0
 70
    64
  0
VERTEX
  5
89
  8
TEAM-NET
 10
340.474884
 20
-507.544992
 30
120.0
 70
    64
  0
VERTEX
  5
8A
  8
TEAM-NET
 10
376.716621
 20
-494.724305
 30
120.0
 70
    64
  0
VERTEX
  5
8B
  8
TEAM-NET
 10
412.476977
 20
-480.61649
 30
120.0
 70
    64
  0
VERTEX
  5
8C
  8
TEAM-NET
 10
445.538262
 20
-461.429056
 30
120.0
 70
    64
  0
VERTEX
  5
8D
  8
TEAM-NET
 10
474.028642
 20
-435.6721
 30
120.0
 70
    64
  0
VERTEX
  5
8E
  8
TEAM-NET
 10
498.27072
 20
-405.882099
 30
120.0
 70
    64
  0
VERTEX
  5
8F
  8
TEAM-NET
 10
517.700591
 20
-372.752011
 30
120.0
 70
    64
  0
VERTEX
  5
90
  8
TEAM-NET
 10
531.866286
 20
-337.052493
 30
120.0
 70
    64
  0
VERTEX
  5
91
  8
TEAM-NET
 10
540.438291
 20
-299.613966
 30
120.0
 70
    64
  0
VERTEX
  5
92
  8
TEAM-NET
 10
543.217208
 20
-261.307307
 30
120.0
 70
    64
  0
VERTEX
  5
93
  8
TEAM-NET
 10
-613.194474
 20
-262.731493
 30
600.0
 70
    64
  0
VERTEX
  5
94
  8
TEAM-NET
 10
-608.902455
 20
-307.303358
 30
600.0
 70
    64
  0
VERTEX
  5
95
  8
TEAM-NET
 10
-598.786249
 20
-350.923708
 30
600.0
 70
    64
  0
VERTEX
  5
96
  8
TEAM-NET
 10
-583.021567
 20
-392.834893
 30
600.0
 70
    64
  0
VERTEX
  5
97
  8
TEAM-NET
 10
-561.882229
 20
-432.308947
 30
600.0
 70
    64
  0
VERTEX
  5
98
  8
TEAM-NET
 10
-535.735409
 20
-468.660239
 30
600.0
 70
    64
  0
VERTEX
  5
99
  8
TEAM-NET
 10
-505.035257
 20
-501.257375
 30
600.0
 70
    64
  0
VERTEX
  5
9A
  8
TEAM-NET
 10
-470.31501
 20
-529.534167
 30
600.0
 70
    64
  0
VERTEX
  5
9B
  8
TEAM-NET
 10
-431.18681
 20
-551.224857
 30
600.0
 70
    64
  0
VERTEX
  5
9C
  8
TEAM-NET
 10
-390.517178
 20
-570.029432
 30
600.0
 70
    64
  0
VERTEX
  5
9D
  8
TEAM-NET
 10
-349.029765
 20
-586.953545
 30
600.0
 70
    64
  0
VERTEX
  5
9E
  8
TEAM-NET
 10
-306.811465
 20
-601.961749
 30
600.0
 70
    64
  0
VERTEX
  5
9F
  8
TEAM-NET
 10
-263.950703
 20
-615.022611
 30
600.0
 70
    64
  0
VERTEX
  5
A0
  8
TEAM-NET
 10
-220.537249
 20
-626.108775
 30
600.0
 70
    64
  0
VERTEX
  5
A1
  8
TEAM-NET
 10
-176.66203
 20
-635.197021
 30
600.0
 70
    64
  0
VERTEX
  5
A2
  8
TEAM-NET
 10
-132.416942
 20
-642.268314
 30
600.0
 70
    64
  0
VERTEX
  5
A3
  8
TEAM-NET
 10
-87.894653
 20
-647.307844
 30
600.0
 70
    64
  0
VERTEX
  5
A4
  8
TEAM-NET
 10
-43.188415
 20
-650.305056
 30
600.0
 70
    64
  0
VERTEX
  5
A5
  8
TEAM-NET
 10
1.608138
 20
-651.253673
 30
600.0
 70
    64
  0
VERTEX
  5
A6
  8
TEAM-NET
 10
46.401181
 20
-650.151706
 30
600.0
 70
    64
  0
VERTEX
  5
A7
  8
TEAM-NET
 10
91.096897
 20
-647.001465
 30
600.0
 70
    64
  0
VERTEX
  5
A8
  8
TEAM-NET
 10
135.601672
 20
-641.809548
 30
600.0
 70
    64
  0
VERTEX
  5
A9
  8
TEAM-NET
 10
179.822294
 20
-634.586828
 30
600.0
 70
    64
  0
VERTEX
  5
AA
  8
TEAM-NET
 10
223.666143
 20
-625.348434
 30
600.0
 70
    64
  0
VERTEX
  5
AB
  8
TEAM-NET
 10
267.04139
 20
-614.113715
 30
600.0
 70
    64
  0
VERTEX
  5
AC
  8
TEAM-NET
 10
309.857189
 20
-600.906201
 30
600.0
 70
    64
  0
VERTEX
  5
AD
  8
TEAM-NET
 10
352.023863
 20
-585.753555
 30
600.0
 70
    64
  0
VERTEX
  5
AE
  8
TEAM-NET
 10
393.453095
 20
-568.687514
 30
600.0
 70
    64
  0
VERTEX
  5
AF
  8
TEAM-NET
 10
434.058114
 20
-549.743822
 30
600.0
 70
    64
  0
VERTEX
  5
B0
  8
TEAM-NET
 10
473.120291
 20
-527.899029
 30
600.0
 70
    64
  0
VERTEX
  5
B1
  8
TEAM-NET
 10
508.224974
 20
-500.10693
 30
600.0
 70
    64
  0
VERTEX
  5
B2
  8
TEAM-NET
 10
539.132638
 20
-467.711626
 30
600.0
 70
    64
  0
VERTEX
  5
B3
  8
TEAM-NET
 10
565.245025
 20
-431.340171
 30
600.0
 70
    64
  0
VERTEX
  5
B4
  8
TEAM-NET
 10
586.056694
 20
-391.696585
 30
600.0
 70
    64
  0
VERTEX
  5
B5
  8
TEAM-NET
 10
601.164807
 20
-349.548223
 30
600.0
 70
    64
  0
VERTEX
  5
B6
  8
TEAM-NET
 10
610.276925
 20
-305.710925
 30
600.0
 70
    64
  0
VERTEX
  5
B7
  8
TEAM-NET
 10
613.216671
 20
-261.033219
 30
600.0
 70
    64
  0
SEQEND
  5
B8
  8
TEAM-NET
  0
CIRCLE
  5
B9
  8
TEAM-INSP
 10
0.0
 20
0.0
 30
0.0
 40
10.0
  0
CIRCLE
  5
BB
  8
TEAM-DET1
 10
0.0
 20
-421.657895
 30
120.0
 40
47.894737
  0
CIRCLE
  5
BD
  8
TEAM-KAN
 10
0.0
 20
-421.657895
 30
120.0
 40
23.947368
  0
POLYLINE
  5
BF
  8
TEAM-BODY
 66
     1
 10
0.0
 20
0.0
 30
120.0
  0
VERTEX
  5
596
  8
TEAM-BODY
 10
-543.226087
 20
-260.627998
 30
120.0
 42
0.238533
  0
VERTEX
  5
597
  8
TEAM-BODY
 10
-426.818987
 20
-474.537881
 30
120.0
 42
0.207026
  0
VERTEX
  5
598
  8
TEAM-BODY
 10
427.135636
 20
-474.400901
 30
120.0
 42
0.256788
  0
VERTEX
  5
599
  8
TEAM-BODY
 10
543.217208
 20
-261.307307
 30
120.0
 42
0.256788
  0
SEQEND
  5
59A
  8
TEAM-BODY
  0
ARC
  5
C1
  8
TEAM-BODY
 10
0.0
 20
-300.720857
 30
120.0
 40
544.636624
 50
4.136078
 51
175.863922
  0
POLYLINE
  5
C2
  8
TEAM-NET
 66
     1
 10
0.0
 20
0.0
 30
0.0
 70
    16
 71
     2
 72
    37
  0
VERTEX
  5
C3
  8
TEAM-NET
 10
543.217208
 20
-261.307307
 30
120.0
 70
    64
  0
VERTEX
  5
C4
  8
TEAM-NET
 10
540.438291
 20
-299.613966
 30
120.0
 70
    64
  0
VERTEX
  5
C5
  8
TEAM-NET
 10
531.866286
 20
-337.052493
 30
120.0
 70
    64
  0
VERTEX
  5
C6
  8
TEAM-NET
 10
517.700591
 20
-372.752011
 30
120.0
 70
    64
  0
VERTEX
  5
C7
  8
TEAM-NET
 10
498.27072
 20
-405.882099
 30
120.0
 70
    64
  0
VERTEX
  5
C8
  8
TEAM-NET
 10
474.028642
 20
-435.6721
 30
120.0
 70
    64
  0
VERTEX
  5
C9
  8
TEAM-NET
 10
445.538262
 20
-461.429056
 30
120.0
 70
    64
  0
VERTEX
  5
CA
  8
TEAM-NET
 10
412.476977
 20
-480.61649
 30
120.0
 70
    64
  0
VERTEX
  5
CB
  8
TEAM-NET
 10
376.716621
 20
-494.724305
 30
120.0
 70
    64
  0
VERTEX
  5
CC
  8
TEAM-NET
 10
340.474884
 20
-507.544992
 30
120.0
 70
    64
  0
VERTEX
  5
CD
  8
TEAM-NET
 10
303.798078
 20
-519.06217
 30
120.0
 70
    64
  0
VERTEX
  5
CE
  8
TEAM-NET
 10
266.733069
 20
-529.261122
 30
120.0
 70
    64
  0
VERTEX
  5
CF
  8
TEAM-NET
 10
229.32722
 20
-538.128815
 30
120.0
 70
    64
  0
VERTEX
  5
D0
  8
TEAM-NET
 10
191.62833
 20
-545.653918
 30
120.0
 70
    64
  0
VERTEX
  5
D1
  8
TEAM-NET
 10
153.68457
 20
-551.826814
 30
120.0
 70
    64
  0
VERTEX
  5
D2
  8
TEAM-NET
 10
115.544428
 20
-556.639616
 30
120.0
 70
    64
  0
VERTEX
  5
D3
  8
TEAM-NET
 10
77.25664
 20
-560.086174
 30
120.0
 70
    64
  0
VERTEX
  5
D4
  8
TEAM-NET
 10
38.87013
 20
-562.162084
 30
120.0
 70
    64
  0
VERTEX
  5
D5
  8
TEAM-NET
 10
0.433952
 20
-562.864694
 30
120.0
 70
    64
  0
VERTEX
  5
D6
  8
TEAM-NET
 10
-38.002782
 20
-562.193104
 30
120.0
 70
    64
  0
VERTEX
  5
D7
  8
TEAM-NET
 10
-76.390954
 20
-560.148174
 30
120.0
 70
    64
  0
VERTEX
  5
D8
  8
TEAM-NET
 10
-114.681512
 20
-556.732517
 30
120.0
 70
    64
  0
VERTEX
  5
D9
  8
TEAM-NET
 10
-152.825525
 20
-551.950497
 30
120.0
 70
    64
  0
VERTEX
  5
DA
  8
TEAM-NET
 10
-190.774254
 20
-545.808225
 30
120.0
 70
    64
  0
VERTEX
  5
DB
  8
TEAM-NET
 10
-228.479205
 20
-538.313549
 30
120.0
 70
    64
  0
VERTEX
  5
DC
  8
TEAM-NET
 10
-265.892198
 20
-529.476047
 30
120.0
 70
    64
  0
VERTEX
  5
DD
  8
TEAM-NET
 10
-302.965426
 20
-519.307012
 30
120.0
 70
    64
  0
VERTEX
  5
DE
  8
TEAM-NET
 10
-339.651515
 20
-507.819437
 30
120.0
 70
    64
  0
VERTEX
  5
DF
  8
TEAM-NET
 10
-375.903587
 20
-495.028002
 30
120.0
 70
    64
  0
VERTEX
  5
E0
  8
TEAM-NET
 10
-411.675317
 20
-480.949052
 30
120.0
 70
    64
  0
VERTEX
  5
E1
  8
TEAM-NET
 10
-444.395493
 20
-461.317394
 30
120.0
 70
    64
  0
VERTEX
  5
E2
  8
TEAM-NET
 10
-472.319363
 20
-434.940347
 30
120.0
 70
    64
  0
VERTEX
  5
E3
  8
TEAM-NET
 10
-496.213782
 20
-404.864646
 30
120.0
 70
    64
  0
VERTEX
  5
E4
  8
TEAM-NET
 10
-515.594275
 20
-371.700093
 30
120.0
 70
    64
  0
VERTEX
  5
E5
  8
TEAM-NET
 10
-530.067892
 20
-336.119121
 30
120.0
 70
    64
  0
VERTEX
  5
E6
  8
TEAM-NET
 10
-539.341169
 20
-298.843158
 30
120.0
 70
    64
  0
VERTEX
  5
E7
  8
TEAM-NET
 10
-543.226087
 20
-260.627998
 30
120.0
 70
    64
  0
VERTEX
  5
E8
  8
TEAM-NET
 10
543.218154
 20
-261.438673
 30
120.0
 70
    64
  0
VERTEX
  5
E9
  8
TEAM-NET
 10
538.069865
 20
-216.400792
 30
120.0
 70
    64
  0
VERTEX
  5
EA
  8
TEAM-NET
 10
529.194064
 20
-171.947044
 30
120.0
 70
    64
  0
VERTEX
  5
EB
  8
TEAM-NET
 10
516.65224
 20
-128.385384
 30
120.0
 70
    64
  0
VERTEX
  5
EC
  8
TEAM-NET
 10
500.531277
 20
-86.017589
 30
120.0
 70
    64
  0
VERTEX
  5
ED
  8
TEAM-NET
 10
480.942853
 20
-45.137163
 30
120.0
 70
    64
  0
VERTEX
  5
EE
  8
TEAM-NET
 10
458.022668
 20
-6.027309
 30
120.0
 70
    64
  0
VERTEX
  5
EF
  8
TEAM-NET
 10
431.929505
 20
31.041039
 30
120.0
 70
    64
  0
VERTEX
  5
F0
  8
TEAM-NET
 10
402.844123
 20
65.811085
 30
120.0
 70
    64
  0
VERTEX
  5
F1
  8
TEAM-NET
 10
370.968015
 20
98.04196
 30
120.0
 70
    64
  0
VERTEX
  5
F2
  8
TEAM-NET
 10
336.522003
 20
127.510381
 30
120.0
 70
    64
  0
VERTEX
  5
F3
  8
TEAM-NET
 10
299.744716
 20
154.012205
 30
120.0
 70
    64
  0
VERTEX
  5
F4
  8
TEAM-NET
 10
260.890928
 20
177.363838
 30
120.0
 70
    64
  0
VERTEX
  5
F5
  8
TEAM-NET
 10
220.229803
 20
197.403511
 30
120.0
 70
    64
  0
VERTEX
  5
F6
  8
TEAM-NET
 10
178.043023
 20
213.992397
 30
120.0
 70
    64
  0
VERTEX
  5
F7
  8
TEAM-NET
 10
134.62284
 20
227.015577
 30
120.0
 70
    64
  0
VERTEX
  5
F8
  8
TEAM-NET
 10
90.270048
 20
236.38283
 30
120.0
 70
    64
  0
VERTEX
  5
F9
  8
TEAM-NET
 10
45.291905
 20
242.029266
 30
120.0
 70
    64
  0
VERTEX
  5
FA
  8
TEAM-NET
 10
0.0
 20
243.915767
 30
120.0
 70
    64
  0
VERTEX
  5
FB
  8
TEAM-NET
 10
-45.291905
 20
242.029266
 30
120.0
 70
    64
  0
VERTEX
  5
FC
  8
TEAM-NET
 10
-90.270048
 20
236.38283
 30
120.0
 70
    64
  0
VERTEX
  5
FD
  8
TEAM-NET
 10
-134.62284
 20
227.015577
 30
120.0
 70
    64
  0
VERTEX
  5
FE
  8
TEAM-NET
 10
-178.043023
 20
213.992397
 30
120.0
 70
    64
  0
VERTEX
  5
FF
  8
TEAM-NET
 10
-220.229803
 20
197.403511
 30
120.0
 70
    64
  0
VERTEX
  5
100
  8
TEAM-NET
 10
-260.890928
 20
177.363838
 30
120.0
 70
    64
  0
VERTEX
  5
101
  8
TEAM-NET
 10
-299.744716
 20
154.012205
 30
120.0
 70
    64
  0
VERTEX
  5
102
  8
TEAM-NET
 10
-336.522003
 20
127.510381
 30
120.0
 70
    64
  0
VERTEX
  5
103
  8
TEAM-NET
 10
-370.968015
 20
98.04196
 30
120.0
 70
    64
  0
VERTEX
  5
104
  8
TEAM-NET
 10
-402.844123
 20
65.811085
 30
120.0
 70
    64
  0
VERTEX
  5
105
  8
TEAM-NET
 10
-431.929505
 20
31.041039
 30
120.0
 70
    64
  0
VERTEX
  5
106
  8
TEAM-NET
 10
-458.022668
 20
-6.027309
 30
120.0
 70
    64
  0
VERTEX
  5
107
  8
TEAM-NET
 10
-480.942853
 20
-45.137163
 30
120.0
 70
    64
  0
VERTEX
  5
108
  8
TEAM-NET
 10
-500.531277
 20
-86.017589
 30
120.0
 70
    64
  0
VERTEX
  5
109
  8
TEAM-NET
 10
-516.65224
 20
-128.385384
 30
120.0
 70
    64
  0
VERTEX
  5
10A
  8
TEAM-NET
 10
-529.194064
 20
-171.947044
 30
120.0
 70
    64
  0
VERTEX
  5
10B
  8
TEAM-NET
 10
-538.069865
 20
-216.400792
 30
120.0
 70
    64
  0
VERTEX
  5
10C
  8
TEAM-NET
 10
-543.218154
 20
-261.438673
 30
120.0
 70
    64
  0
SEQEND
  5
10D
  8
TEAM-NET
  0
POLYLINE
  5
10E
  8
TEAM-NET
 66
     1
 10
0.0
 20
0.0
 30
0.0
 70
    16
 71
     2
 72
    37
  0
VERTEX
  5
10F
  8
TEAM-NET
 10
830.642308
 20
-261.228997
 30
600.0
 70
    64
  0
VERTEX
  5
110
  8
TEAM-NET
 10
800.140889
 20
-197.310936
 30
600.0
 70
    64
  0
VERTEX
  5
111
  8
TEAM-NET
 10
753.073778
 20
-142.52794
 30
600.0
 70
    64
  0
VERTEX
  5
112
  8
TEAM-NET
 10
706.006667
 20
-87.744944
 30
600.0
 70
    64
  0
VERTEX
  5
113
  8
TEAM-NET
 10
658.939556
 20
-32.961947
 30
600.0
 70
    64
  0
VERTEX
  5
114
  8
TEAM-NET
 10
611.872445
 20
21.821049
 30
600.0
 70
    64
  0
VERTEX
  5
115
  8
TEAM-NET
 10
564.805333
 20
76.604045
 30
600.0
 70
    64
  0
VERTEX
  5
116
  8
TEAM-NET
 10
517.738222
 20
131.387041
 30
600.0
 70
    64
  0
VERTEX
  5
117
  8
TEAM-NET
 10
470.671111
 20
186.170038
 30
600.0
 70
    64
  0
VERTEX
  5
118
  8
TEAM-NET
 10
423.604
 20
240.953034
 30
600.0
 70
    64
  0
VERTEX
  5
119
  8
TEAM-NET
 10
376.536889
 20
295.73603
 30
600.0
 70
    64
  0
VERTEX
  5
11A
  8
TEAM-NET
 10
329.469778
 20
350.519026
 30
600.0
 70
    64
  0
VERTEX
  5
11B
  8
TEAM-NET
 10
282.402667
 20
405.302023
 30
600.0
 70
    64
  0
VERTEX
  5
11C
  8
TEAM-NET
 10
235.335556
 20
460.085019
 30
600.0
 70
    64
  0
VERTEX
  5
11D
  8
TEAM-NET
 10
188.268444
 20
514.868015
 30
600.0
 70
    64
  0
VERTEX
  5
11E
  8
TEAM-NET
 10
141.201333
 20
569.651012
 30
600.0
 70
    64
  0
VERTEX
  5
11F
  8
TEAM-NET
 10
94.134222
 20
624.434008
 30
600.0
 70
    64
  0
VERTEX
  5
120
  8
TEAM-NET
 10
47.067111
 20
679.217004
 30
600.0
 70
    64
  0
VERTEX
  5
121
  8
TEAM-NET
 10
0.0
 20
734.0
 30
600.0
 70
    64
  0
VERTEX
  5
122
  8
TEAM-NET
 10
-47.067111
 20
679.217004
 30
600.0
 70
    64
  0
VERTEX
  5
123
  8
TEAM-NET
 10
-94.134222
 20
624.434008
 30
600.0
 70
    64
  0
VERTEX
  5
124
  8
TEAM-NET
 10
-141.201333
 20
569.651012
 30
600.0
 70
    64
  0
VERTEX
  5
125
  8
TEAM-NET
 10
-188.268444
 20
514.868015
 30
600.0
 70
    64
  0
VERTEX
  5
126
  8
TEAM-NET
 10
-235.335556
 20
460.085019
 30
600.0
 70
    64
  0
VERTEX
  5
127
  8
TEAM-NET
 10
-282.402667
 20
405.302023
 30
600.0
 70
    64
  0
VERTEX
  5
128
  8
TEAM-NET
 10
-329.469778
 20
350.519026
 30
600.0
 70
    64
  0
VERTEX
  5
129
  8
TEAM-NET
 10
-376.536889
 20
295.73603
 30
600.0
 70
    64
  0
VERTEX
  5
12A
  8
TEAM-NET
 10
-423.604
 20
240.953034
 30
600.0
 70
    64
  0
VERTEX
  5
12B
  8
TEAM-NET
 10
-470.671111
 20
186.170038
 30
600.0
 70
    64
  0
VERTEX
  5
12C
  8
TEAM-NET
 10
-517.738222
 20
131.387041
 30
600.0
 70
    64
  0
VERTEX
  5
12D
  8
TEAM-NET
 10
-564.805333
 20
76.604045
 30
600.0
 70
    64
  0
VERTEX
  5
12E
  8
TEAM-NET
 10
-611.872445
 20
21.821049
 30
600.0
 70
    64
  0
VERTEX
  5
12F
  8
TEAM-NET
 10
-658.939556
 20
-32.961947
 30
600.0
 70
    64
  0
VERTEX
  5
130
  8
TEAM-NET
 10
-706.006667
 20
-87.744944
 30
600.0
 70
    64
  0
VERTEX
  5
131
  8
TEAM-NET
 10
-753.073778
 20
-142.52794
 30
600.0
 70
    64
  0
VERTEX
  5
132
  8
TEAM-NET
 10
-800.140889
 20
-197.310936
 30
600.0
 70
    64
  0
VERTEX
  5
133
  8
TEAM-NET
 10
-830.642308
 20
-261.228997
 30
600.0
 70
    64
  0
VERTEX
  5
134
  8
TEAM-NET
 10
996.175619
 20
-261.228997
 30
600.0
 70
    64
  0
VERTEX
  5
135
  8
TEAM-NET
 10
940.832529
 20
-205.938497
 30
600.0
 70
    64
  0
VERTEX
  5
136
  8
TEAM-NET
 10
885.489439
 20
-150.647997
 30
600.0
 70
    64
  0
VERTEX
  5
137
  8
TEAM-NET
 10
830.146349
 20
-95.357497
 30
600.0
 70
    64
  0
VERTEX
  5
138
  8
TEAM-NET
 10
774.803259
 20
-40.066997
 30
600.0
 70
    64
  0
VERTEX
  5
139
  8
TEAM-NET
 10
719.460169
 20
15.223502
 30
600.0
 70
    64
  0
VERTEX
  5
13A
  8
TEAM-NET
 10
664.117079
 20
70.514002
 30
600.0
 70
    64
  0
VERTEX
  5
13B
  8
TEAM-NET
 10
608.773989
 20
125.804502
 30
600.0
 70
    64
  0
VERTEX
  5
13C
  8
TEAM-NET
 10
553.4309
 20
181.095002
 30
600.0
 70
    64
  0
VERTEX
  5
13D
  8
TEAM-NET
 10
498.08781
 20
236.385502
 30
600.0
 70
    64
  0
VERTEX
  5
13E
  8
TEAM-NET
 10
442.74472
 20
291.676002
 30
600.0
 70
    64
  0
VERTEX
  5
13F
  8
TEAM-NET
 10
387.40163
 20
346.966502
 30
600.0
 70
    64
  0
VERTEX
  5
140
  8
TEAM-NET
 10
332.05854
 20
402.257001
 30
600.0
 70
    64
  0
VERTEX
  5
141
  8
TEAM-NET
 10
276.71545
 20
457.547501
 30
600.0
 70
    64
  0
VERTEX
  5
142
  8
TEAM-NET
 10
221.37236
 20
512.838001
 30
600.0
 70
    64
  0
VERTEX
  5
143
  8
TEAM-NET
 10
166.02927
 20
568.128501
 30
600.0
 70
    64
  0
VERTEX
  5
144
  8
TEAM-NET
 10
110.68618
 20
623.419001
 30
600.0
 70
    64
  0
VERTEX
  5
145
  8
TEAM-NET
 10
55.34309
 20
678.709501
 30
600.0
 70
    64
  0
VERTEX
  5
146
  8
TEAM-NET
 10
0.0
 20
734.0
 30
600.0
 70
    64
  0
VERTEX
  5
147
  8
TEAM-NET
 10
-55.34309
 20
678.709501
 30
600.0
 70
    64
  0
VERTEX
  5
148
  8
TEAM-NET
 10
-110.68618
 20
623.419001
 30
600.0
 70
    64
  0
VERTEX
  5
149
  8
TEAM-NET
 10
-166.02927
 20
568.128501
 30
600.0
 70
    64
  0
VERTEX
  5
14A
  8
TEAM-NET
 10
-221.37236
 20
512.838001
 30
600.0
 70
    64
  0
VERTEX
  5
14B
  8
TEAM-NET
 10
-276.71545
 20
457.547501
 30
600.0
 70
    64
  0
VERTEX
  5
14C
  8
TEAM-NET
 10
-332.05854
 20
402.257001
 30
600.0
 70
    64
  0
VERTEX
  5
14D
  8
TEAM-NET
 10
-387.40163
 20
346.966502
 30
600.0
 70
    64
  0
VERTEX
  5
14E
  8
TEAM-NET
 10
-442.74472
 20
291.676002
 30
600.0
 70
    64
  0
VERTEX
  5
14F
  8
TEAM-NET
 10
-498.08781
 20
236.385502
 30
600.0
 70
    64
  0
VERTEX
  5
150
  8
TEAM-NET
 10
-553.4309
 20
181.095002
 30
600.0
 70
    64
  0
VERTEX
  5
151
  8
TEAM-NET
 10
-608.773989
 20
125.804502
 30
600.0
 70
    64
  0
VERTEX
  5
152
  8
TEAM-NET
 10
-664.117079
 20
70.514002
 30
600.0
 70
    64
  0
VERTEX
  5
153
  8
TEAM-NET
 10
-719.460169
 20
15.223502
 30
600.0
 70
    64
  0
VERTEX
  5
154
  8
TEAM-NET
 10
-774.803259
 20
-40.066997
 30
600.0
 70
    64
  0
VERTEX
  5
155
  8
TEAM-NET
 10
-830.146349
 20
-95.357497
 30
600.0
 70
    64
  0
VERTEX
  5
156
  8
TEAM-NET
 10
-885.489439
 20
-150.647997
 30
600.0
 70
    64
  0
VERTEX
  5
157
  8
TEAM-NET
 10
-940.832529
 20
-205.938497
 30
600.0
 70
    64
  0
VERTEX
  5
158
  8
TEAM-NET
 10
-996.175619
 20
-261.228997
 30
600.0
 70
    64
  0
SEQEND
  5
159
  8
TEAM-NET
  0
POLYLINE
  5
15A
  8
TEAM-NET
 66
     1
 10
0.0
 20
0.0
 30
0.0
 70
    16
 71
     2
 72
    37
  0
VERTEX
  5
15B
  8
TEAM-NET
 10
830.642308
 20
-261.228997
 30
600.0
 70
    64
  0
VERTEX
  5
15C
  8
TEAM-NET
 10
820.167975
 20
-315.740961
 30
600.0
 70
    64
  0
VERTEX
  5
15D
  8
TEAM-NET
 10
786.950299
 20
-361.014917
 30
600.0
 70
    64
  0
VERTEX
  5
15E
  8
TEAM-NET
 10
750.152157
 20
-403.546021
 30
600.0
 70
    64
  0
VERTEX
  5
15F
  8
TEAM-NET
 10
711.058475
 20
-443.977224
 30
600.0
 70
    64
  0
VERTEX
  5
160
  8
TEAM-NET
 10
669.788886
 20
-482.184802
 30
600.0
 70
    64
  0
VERTEX
  5
161
  8
TEAM-NET
 10
626.469677
 20
-518.051837
 30
600.0
 70
    64
  0
VERTEX
  5
162
  8
TEAM-NET
 10
581.233409
 20
-551.468573
 30
600.0
 70
    64
  0
VERTEX
  5
163
  8
TEAM-NET
 10
534.21851
 20
-582.332749
 30
600.0
 70
    64
  0
VERTEX
  5
164
  8
TEAM-NET
 10
485.568851
 20
-610.54992
 30
600.0
 70
    64
  0
VERTEX
  5
165
  8
TEAM-NET
 10
435.433303
 20
-636.033737
 30
600.0
 70
    64
  0
VERTEX
  5
166
  8
TEAM-NET
 10
383.965287
 20
-658.706219
 30
600.0
 70
    64
  0
VERTEX
  5
167
  8
TEAM-NET
 10
331.3223
 20
-678.497984
 30
600.0
 70
    64
  0
VERTEX
  5
168
  8
TEAM-NET
 10
277.665434
 20
-695.348468
 30
600.0
 70
    64
  0
VERTEX
  5
169
  8
TEAM-NET
 10
223.158884
 20
-709.206107
 30
600.0
 70
    64
  0
VERTEX
  5
16A
  8
TEAM-NET
 10
167.969447
 20
-720.028496
 30
600.0
 70
    64
  0
VERTEX
  5
16B
  8
TEAM-NET
 10
112.266006
 20
-727.782516
 30
600.0
 70
    64
  0
VERTEX
  5
16C
  8
TEAM-NET
 10
56.219021
 20
-732.444439
 30
600.0
 70
    64
  0
VERTEX
  5
16D
  8
TEAM-NET
 10
0.0
 20
-734.0
 30
600.0
 70
    64
  0
VERTEX
  5
16E
  8
TEAM-NET
 10
-56.219021
 20
-732.444439
 30
600.0
 70
    64
  0
VERTEX
  5
16F
  8
TEAM-NET
 10
-112.266006
 20
-727.782516
 30
600.0
 70
    64
  0
VERTEX
  5
170
  8
TEAM-NET
 10
-167.969447
 20
-720.028496
 30
600.0
 70
    64
  0
VERTEX
  5
171
  8
TEAM-NET
 10
-223.158884
 20
-709.206107
 30
600.0
 70
    64
  0
VERTEX
  5
172
  8
TEAM-NET
 10
-277.665434
 20
-695.348468
 30
600.0
 70
    64
  0
VERTEX
  5
173
  8
TEAM-NET
 10
-331.3223
 20
-678.497984
 30
600.0
 70
    64
  0
VERTEX
  5
174
  8
TEAM-NET
 10
-383.965287
 20
-658.706219
 30
600.0
 70
    64
  0
VERTEX
  5
175
  8
TEAM-NET
 10
-435.433303
 20
-636.033737
 30
600.0
 70
    64
  0
VERTEX
  5
176
  8
TEAM-NET
 10
-485.568851
 20
-610.54992
 30
600.0
 70
    64
  0
VERTEX
  5
177
  8
TEAM-NET
 10
-534.21851
 20
-582.332749
 30
600.0
 70
    64
  0
VERTEX
  5
178
  8
TEAM-NET
 10
-581.233409
 20
-551.468573
 30
600.0
 70
    64
  0
VERTEX
  5
179
  8
TEAM-NET
 10
-626.469677
 20
-518.051837
 30
600.0
 70
    64
  0
VERTEX
  5
17A
  8
TEAM-NET
 10
-669.788886
 20
-482.184802
 30
600.0
 70
    64
  0
VERTEX
  5
17B
  8
TEAM-NET
 10
-711.058475
 20
-443.977224
 30
600.0
 70
    64
  0
VERTEX
  5
17C
  8
TEAM-NET
 10
-750.152157
 20
-403.546021
 30
600.0
 70
    64
  0
VERTEX
  5
17D
  8
TEAM-NET
 10
-786.950299
 20
-361.014917
 30
600.0
 70
    64
  0
VERTEX
  5
17E
  8
TEAM-NET
 10
-820.167975
 20
-315.740961
 30
600.0
 70
    64
  0
VERTEX
  5
17F
  8
TEAM-NET
 10
-830.642308
 20
-261.228997
 30
600.0
 70
    64
  0
VERTEX
  5
180
  8
TEAM-NET
 10
996.175619
 20
-261.228997
 30
600.0
 70
    64
  0
VERTEX
  5
181
  8
TEAM-NET
 10
954.95035
 20
-309.270057
 30
600.0
 70
    64
  0
VERTEX
  5
182
  8
TEAM-NET
 10
911.410715
 20
-355.224017
 30
600.0
 70
    64
  0
VERTEX
  5
183
  8
TEAM-NET
 10
865.662233
 20
-398.979504
 30
600.0
 70
    64
  0
VERTEX
  5
184
  8
TEAM-NET
 10
817.815779
 20
-440.430477
 30
600.0
 70
    64
  0
VERTEX
  5
185
  8
TEAM-NET
 10
767.987311
 20
-479.476475
 30
600.0
 70
    64
  0
VERTEX
  5
186
  8
TEAM-NET
 10
716.29759
 20
-516.02287
 30
600.0
 70
    64
  0
VERTEX
  5
187
  8
TEAM-NET
 10
662.871888
 20
-549.98109
 30
600.0
 70
    64
  0
VERTEX
  5
188
  8
TEAM-NET
 10
607.839685
 20
-581.268834
 30
600.0
 70
    64
  0
VERTEX
  5
189
  8
TEAM-NET
 10
551.334355
 20
-609.810277
 30
600.0
 70
    64
  0
VERTEX
  5
18A
  8
TEAM-NET
 10
493.492841
 20
-635.536246
 30
600.0
 70
    64
  0
VERTEX
  5
18B
  8
TEAM-NET
 10
434.455324
 20
-658.384393
 30
600.0
 70
    64
  0
VERTEX
  5
18C
  8
TEAM-NET
 10
374.364884
 20
-678.299346
 30
600.0
 70
    64
  0
VERTEX
  5
18D
  8
TEAM-NET
 10
313.367154
 20
-695.232838
 30
600.0
 70
    64
  0
VERTEX
  5
18E
  8
TEAM-NET
 10
251.609964
 20
-709.143831
 30
600.0
 70
    64
  0
VERTEX
  5
18F
  8
TEAM-NET
 10
189.242985
 20
-719.998611
 30
600.0
 70
    64
  0
VERTEX
  5
190
  8
TEAM-NET
 10
126.417367
 20
-727.770871
 30
600.0
 70
    64
  0
VERTEX
  5
191
  8
TEAM-NET
 10
63.285371
 20
-732.441774
 30
600.0
 70
    64
  0
VERTEX
  5
192
  8
TEAM-NET
 10
0.0
 20
-734.0
 30
600.0
 70
    64
  0
VERTEX
  5
193
  8
TEAM-NET
 10
-63.285371
 20
-732.441774
 30
600.0
 70
    64
  0
VERTEX
  5
194
  8
TEAM-NET
 10
-126.417367
 20
-727.770871
 30
600.0
 70
    64
  0
VERTEX
  5
195
  8
TEAM-NET
 10
-189.242985
 20
-719.998611
 30
600.0
 70
    64
  0
VERTEX
  5
196
  8
TEAM-NET
 10
-251.609964
 20
-709.143831
 30
600.0
 70
    64
  0
VERTEX
  5
197
  8
TEAM-NET
 10
-313.367154
 20
-695.232838
 30
600.0
 70
    64
  0
VERTEX
  5
198
  8
TEAM-NET
 10
-374.364884
 20
-678.299346
 30
600.0
 70
    64
  0
VERTEX
  5
199
  8
TEAM-NET
 10
-434.455324
 20
-658.384393
 30
600.0
 70
    64
  0
VERTEX
  5
19A
  8
TEAM-NET
 10
-493.492841
 20
-635.536246
 30
600.0
 70
    64
  0
VERTEX
  5
19B
  8
TEAM-NET
 10
-551.334355
 20
-609.810277
 30
600.0
 70
    64
  0
VERTEX
  5
19C
  8
TEAM-NET
 10
-607.839685
 20
-581.268834
 30
600.0
 70
    64
  0
VERTEX
  5
19D
  8
TEAM-NET
 10
-662.871888
 20
-549.98109
 30
600.0
 70
    64
  0
VERTEX
  5
19E
  8
TEAM-NET
 10
-716.29759
 20
-516.02287
 30
600.0
 70
    64
  0
VERTEX
  5
19F
  8
TEAM-NET
 10
-767.987311
 20
-479.476475
 30
600.0
 70
    64
  0
VERTEX
  5
1A0
  8
TEAM-NET
 10
-817.815779
 20
-440.430477
 30
600.0
 70
    64
  0
VERTEX
  5
1A1
  8
TEAM-NET
 10
-865.662233
 20
-398.979504
 30
600.0
 70
    64
  0
VERTEX
  5
1A2
  8
TEAM-NET
 10
-911.410715
 20
-355.224017
 30
600.0
 70
    64
  0
VERTEX
  5
1A3
  8
TEAM-NET
 10
-954.95035
 20
-309.270057
 30
600.0
 70
    64
  0
VERTEX
  5
1A4
  8
TEAM-NET
 10
-996.175619
 20
-261.228997
 30
600.0
 70
    64
  0
SEQEND
  5
1A5
  8
TEAM-NET
  0
ARC
  5
1A6
  8
TEAM-BODY
 39
-35.0
 10
0.0
 20
551.906154
 30
600.0
 40
1285.906154
 50
219.223277
 51
320.776723
  0
POLYLINE
  5
1A7
  8
TEAM-BODY
 66
     1
 10
0.0
 20
0.0
 30
600.0
 39
-35.0
  0
VERTEX
  5
59B
  8
TEAM-BODY
 10
-996.175619
 20
-261.228997
 30
600.0
  0
VERTEX
  5
59C
  8
TEAM-BODY
 10
0.0
 20
734.0
 30
600.0
  0
VERTEX
  5
59D
  8
TEAM-BODY
 10
996.175619
 20
-261.228997
 30
600.0
  0
SEQEND
  5
59E
  8
TEAM-BODY
  0
POLYLINE
  5
1A8
  8
TEAM-KAN
 66
     1
 10
0.0
 20
0.0
 30
560.0
  0
VERTEX
  5
59F
  8
TEAM-KAN
 10
38.684211
 20
-622.769944
 30
560.0
  0
VERTEX
  5
5A0
  8
TEAM-KAN
 10
38.628054
 20
-622.211633
 30
560.0
  0
VERTEX
  5
5A1
  8
TEAM-KAN
 10
38.459748
 20
-621.654944
 30
560.0
  0
VERTEX
  5
5A2
  8
TEAM-KAN
 10
38.179782
 20
-621.101492
 30
560.0
  0
VERTEX
  5
5A3
  8
TEAM-KAN
 10
37.788968
 20
-620.552883
 30
560.0
  0
VERTEX
  5
5A4
  8
TEAM-KAN
 10
37.288439
 20
-620.010712
 30
560.0
  0
VERTEX
  5
5A5
  8
TEAM-KAN
 10
36.679652
 20
-619.476551
 30
560.0
  0
VERTEX
  5
5A6
  8
TEAM-KAN
 10
35.964371
 20
-618.951953
 30
560.0
  0
VERTEX
  5
5A7
  8
TEAM-KAN
 10
35.144674
 20
-618.438439
 30
560.0
  0
VERTEX
  5
5A8
  8
TEAM-KAN
 10
34.222941
 20
-617.937501
 30
560.0
  0
VERTEX
  5
5A9
  8
TEAM-KAN
 10
33.201848
 20
-617.450593
 30
560.0
  0
SEQEND
  5
5AA
  8
TEAM-KAN
  0
POLYLINE
  5
1A9
  8
TEAM-KAN
 66
     1
 10
0.0
 20
0.0
 30
560.0
  0
VERTEX
  5
5AB
  8
TEAM-KAN
 10
-33.201848
 20
-617.450593
 30
560.0
  0
VERTEX
  5
5AC
  8
TEAM-KAN
 10
-36.154745
 20
-619.083303
 30
560.0
  0
VERTEX
  5
5AD
  8
TEAM-KAN
 10
-37.999936
 20
-620.828965
 30
560.0
  0
VERTEX
  5
5AE
  8
TEAM-KAN
 10
-38.680888
 20
-622.634095
 30
560.0
  0
VERTEX
  5
5AF
  8
TEAM-KAN
 10
-38.17674
 20
-624.443386
 30
560.0
  0
VERTEX
  5
5B0
  8
TEAM-KAN
 10
-36.502937
 20
-626.201406
 30
560.0
  0
VERTEX
  5
5B1
  8
TEAM-KAN
 10
-33.710761
 20
-627.854294
 30
560.0
  0
VERTEX
  5
5B2
  8
TEAM-KAN
 10
-29.885758
 20
-629.351408
 30
560.0
  0
VERTEX
  5
5B3
  8
TEAM-KAN
 10
-25.145118
 20
-630.646881
 30
560.0
  0
VERTEX
  5
5B4
  8
TEAM-KAN
 10
-19.634085
 20
-631.70102
 30
560.0
  0
VERTEX
  5
5B5
  8
TEAM-KAN
 10
-13.521506
 20
-632.481529
 30
560.0
  0
VERTEX
  5
5B6
  8
TEAM-KAN
 10
-6.994655
 20
-632.964497
 30
560.0
  0
VERTEX
  5
5B7
  8
TEAM-KAN
 10
-0.253503
 20
-633.135124
 30
560.0
  0
VERTEX
  5
5B8
  8
TEAM-KAN
 10
6.495416
 20
-632.988185
 30
560.0
  0
VERTEX
  5
5B9
  8
TEAM-KAN
 10
13.045329
 20
-632.52818
 30
560.0
  0
VERTEX
  5
5BA
  8
TEAM-KAN
 10
19.19556
 20
-631.769203
 30
560.0
  0
VERTEX
  5
5BB
  8
TEAM-KAN
 10
24.75768
 20
-630.734507
 30
560.0
  0
VERTEX
  5
5BC
  8
TEAM-KAN
 10
29.561277
 20
-629.455795
 30
560.0
  0
VERTEX
  5
5BD
  8
TEAM-KAN
 10
33.459178
 20
-627.972241
 30
560.0
  0
VERTEX
  5
5BE
  8
TEAM-KAN
 10
36.331961
 20
-626.329301
 30
560.0
  0
VERTEX
  5
5BF
  8
TEAM-KAN
 10
38.091609
 20
-624.57731
 30
560.0
  0
VERTEX
  5
5C0
  8
TEAM-KAN
 10
38.684211
 20
-622.769944
 30
560.0
  0
SEQEND
  5
5C1
  8
TEAM-KAN
  0
POLYLINE
  5
1AA
  8
TEAM-KAN
 66
     1
 10
0.0
 20
0.0
 30
560.0
  0
VERTEX
  5
5C2
  8
TEAM-KAN
 10
10.451203
 20
-607.25524
 30
560.0
  0
VERTEX
  5
5C3
  8
TEAM-KAN
 10
8.490362
 20
-606.4784
 30
560.0
  0
VERTEX
  5
5C4
  8
TEAM-KAN
 10
6.443869
 20
-605.865911
 30
560.0
  0
VERTEX
  5
5C5
  8
TEAM-KAN
 10
4.332371
 20
-605.423951
 30
560.0
  0
VERTEX
  5
5C6
  8
TEAM-KAN
 10
2.177168
 20
-605.156978
 30
560.0
  0
VERTEX
  5
5C7
  8
TEAM-KAN
 10
0.0
 20
-605.067688
 30
560.0
  0
VERTEX
  5
5C8
  8
TEAM-KAN
 10
-2.177168
 20
-605.156978
 30
560.0
  0
VERTEX
  5
5C9
  8
TEAM-KAN
 10
-4.332371
 20
-605.423951
 30
560.0
  0
VERTEX
  5
5CA
  8
TEAM-KAN
 10
-6.443869
 20
-605.865911
 30
560.0
  0
VERTEX
  5
5CB
  8
TEAM-KAN
 10
-8.490362
 20
-606.4784
 30
560.0
  0
VERTEX
  5
5CC
  8
TEAM-KAN
 10
-10.451203
 20
-607.25524
 30
560.0
  0
SEQEND
  5
5CD
  8
TEAM-KAN
  0
LINE
  5
1AB
  8
TEAM-KAN
 10
-10.451203
 20
-607.25524
 30
560.0
 11
-33.201848
 21
-617.450593
 31
560.0
  0
POLYLINE
  5
1AC
  8
TEAM-KAN
 66
     1
 10
0.0
 20
0.0
 30
560.0
  0
VERTEX
  5
5CE
  8
TEAM-KAN
 10
-38.684211
 20
-625.466058
 30
560.0
  0
VERTEX
  5
5CF
  8
TEAM-KAN
 10
-38.207943
 20
-627.087564
 30
560.0
  0
VERTEX
  5
5D0
  8
TEAM-KAN
 10
-36.790871
 20
-628.669144
 30
560.0
  0
VERTEX
  5
5D1
  8
TEAM-KAN
 10
-34.467884
 20
-630.171852
 30
560.0
  0
VERTEX
  5
5D2
  8
TEAM-KAN
 10
-31.296184
 20
-631.558689
 30
560.0
  0
VERTEX
  5
5D3
  8
TEAM-KAN
 10
-27.353868
 20
-632.795505
 30
560.0
  0
VERTEX
  5
5D4
  8
TEAM-KAN
 10
-22.738009
 20
-633.851845
 30
560.0
  0
VERTEX
  5
5D5
  8
TEAM-KAN
 10
-17.562264
 20
-634.7017
 30
560.0
  0
VERTEX
  5
5D6
  8
TEAM-KAN
 10
-11.954079
 20
-635.324142
 30
560.0
  0
VERTEX
  5
5D7
  8
TEAM-KAN
 10
-6.051544
 20
-635.703846
 30
560.0
  0
VERTEX
  5
5D8
  8
TEAM-KAN
 10
0.0
 20
-635.831461
 30
560.0
  0
VERTEX
  5
5D9
  8
TEAM-KAN
 10
6.051544
 20
-635.703846
 30
560.0
  0
VERTEX
  5
5DA
  8
TEAM-KAN
 10
11.954079
 20
-635.324142
 30
560.0
  0
VERTEX
  5
5DB
  8
TEAM-KAN
 10
17.562264
 20
-634.7017
 30
560.0
  0
VERTEX
  5
5DC
  8
TEAM-KAN
 10
22.738009
 20
-633.851845
 30
560.0
  0
VERTEX
  5
5DD
  8
TEAM-KAN
 10
27.353868
 20
-632.795505
 30
560.0
  0
VERTEX
  5
5DE
  8
TEAM-KAN
 10
31.296184
 20
-631.558689
 30
560.0
  0
VERTEX
  5
5DF
  8
TEAM-KAN
 10
34.467884
 20
-630.171852
 30
560.0
  0
VERTEX
  5
5E0
  8
TEAM-KAN
 10
36.790871
 20
-628.669144
 30
560.0
  0
VERTEX
  5
5E1
  8
TEAM-KAN
 10
38.207943
 20
-627.087564
 30
560.0
  0
VERTEX
  5
5E2
  8
TEAM-KAN
 10
38.684211
 20
-625.466058
 30
560.0
  0
SEQEND
  5
5E3
  8
TEAM-KAN
  0
LINE
  5
1AD
  8
TEAM-KAN
 10
38.684211
 20
-622.769944
 30
560.0
 11
38.684211
 21
-625.466058
 31
560.0
  0
LINE
  5
1AE
  8
TEAM-KAN
 10
-38.684211
 20
-622.769944
 30
560.0
 11
-38.684211
 21
-625.466058
 31
560.0
  0
POLYLINE
  5
1AF
  8
TEAM-KAN
 66
     1
 10
0.0
 20
0.0
 30
560.0
  0
VERTEX
  5
5E4
  8
TEAM-KAN
 10
-37.182133
 20
-630.15657
 30
560.0
  0
VERTEX
  5
5E5
  8
TEAM-KAN
 10
-36.444864
 20
-631.713427
 30
560.0
  0
VERTEX
  5
5E6
  8
TEAM-KAN
 10
-34.776826
 20
-633.219423
 30
560.0
  0
VERTEX
  5
5E7
  8
TEAM-KAN
 10
-32.220621
 20
-634.636097
 30
560.0
  0
VERTEX
  5
5E8
  8
TEAM-KAN
 10
-28.841533
 20
-635.927268
 30
560.0
  0
VERTEX
  5
5E9
  8
TEAM-KAN
 10
-24.725859
 20
-637.05996
 30
560.0
  0
VERTEX
  5
5EA
  8
TEAM-KAN
 10
-19.978709
 20
-638.005247
 30
560.0
  0
VERTEX
  5
5EB
  8
TEAM-KAN
 10
-14.721322
 20
-638.738986
 30
560.0
  0
VERTEX
  5
5EC
  8
TEAM-KAN
 10
-9.087966
 20
-639.242438
 30
560.0
  0
VERTEX
  5
5ED
  8
TEAM-KAN
 10
-3.222513
 20
-639.502746
 30
560.0
  0
VERTEX
  5
5EE
  8
TEAM-KAN
 10
2.725241
 20
-639.51326
 30
560.0
  0
VERTEX
  5
5EF
  8
TEAM-KAN
 10
8.603394
 20
-639.273714
 30
560.0
  0
VERTEX
  5
5F0
  8
TEAM-KAN
 10
14.261826
 20
-638.790225
 30
560.0
  0
VERTEX
  5
5F1
  8
TEAM-KAN
 10
19.556022
 20
-638.07514
 30
560.0
  0
VERTEX
  5
5F2
  8
TEAM-KAN
 10
24.350777
 20
-637.146722
 30
560.0
  0
VERTEX
  5
5F3
  8
TEAM-KAN
 10
28.523637
 20
-636.028682
 30
560.0
  0
VERTEX
  5
5F4
  8
TEAM-KAN
 10
31.968029
 20
-634.749574
 30
560.0
  0
VERTEX
  5
5F5
  8
TEAM-KAN
 10
34.595988
 20
-633.342066
 30
560.0
  0
VERTEX
  5
5F6
  8
TEAM-KAN
 10
36.340398
 20
-631.842102
 30
560.0
  0
VERTEX
  5
5F7
  8
TEAM-KAN
 10
37.156708
 20
-630.287993
 30
560.0
  0
SEQEND
  5
5F8
  8
TEAM-KAN
  0
LINE
  5
1B0
  8
TEAM-KAN
 10
-37.551877
 20
-627.955603
 30
560.0
 11
-37.182133
 21
-630.15657
 31
560.0
  0
LINE
  5
1B1
  8
TEAM-KAN
 10
37.705054
 20
-627.783424
 30
560.0
 11
37.156708
 21
-630.287993
 31
560.0
  0
LINE
  5
1B2
  8
TEAM-KAN
 10
10.451203
 20
-607.25524
 30
560.0
 11
33.201848
 21
-617.450593
 31
560.0
  0
ARC
  5
1B3
  8
TEAM-BODY
 10
0.0
 20
719.857865
 30
600.0
 40
10.0
 50
45.0
 51
135.0
  0
ARC
  5
1B4
  8
TEAM-DET1
 10
0.0
 20
-267.133976
 30
600.0
 40
613.248009
 50
0.600688
 51
179.399312
  0
POLYLINE
  5
1B5
  8
TEAM-DET1
 66
     1
 10
0.0
 20
0.0
 30
600.0
  0
VERTEX
  5
5F9
  8
TEAM-DET1
 10
-613.194474
 20
-262.731493
 30
600.0
 42
0.244113
  0
VERTEX
  5
5FA
  8
TEAM-DET1
 10
-460.641519
 20
-536.156056
 30
600.0
 42
0.249709
  0
VERTEX
  5
5FB
  8
TEAM-DET1
 10
459.872845
 20
-536.493358
 30
600.0
 42
0.261676
  0
VERTEX
  5
5FC
  8
TEAM-DET1
 10
613.216671
 20
-261.033219
 30
600.0
 42
0.261676
  0
SEQEND
  5
5FD
  8
TEAM-DET1
  0
POLYLINE
  5
1B6
  8
TEAM-DET1
 66
     1
 10
0.0
 20
0.0
 30
600.0
  0
VERTEX
  5
5FE
  8
TEAM-DET1
 10
-830.642308
 20
-261.228997
 30
600.0
 42
-0.155839
  0
VERTEX
  5
5FF
  8
TEAM-DET1
 10
-806.909938
 20
-205.189661
 30
600.0
  0
VERTEX
  5
600
  8
TEAM-DET1
 10
0.0
 20
734.0
 30
600.0
  0
VERTEX
  5
601
  8
TEAM-DET1
 10
806.909938
 20
-205.189661
 30
600.0
 42
-0.155839
  0
VERTEX
  5
602
  8
TEAM-DET1
 10
830.642308
 20
-261.228997
 30
600.0
  0
SEQEND
  5
603
  8
TEAM-DET1
  0
POLYLINE
  5
1B7
  8
TEAM-DET1
 66
     1
 10
0.0
 20
0.0
 30
600.0
  0
VERTEX
  5
604
  8
TEAM-DET1
 10
-830.642308
 20
-261.228997
 30
600.0
 42
0.186891
  0
VERTEX
  5
605
  8
TEAM-DET1
 10
-810.811075
 20
-330.686912
 30
600.0
 42
0.497419
  0
VERTEX
  5
606
  8
TEAM-DET1
 10
810.811075
 20
-330.686912
 30
600.0
 42
0.186891
  0
VERTEX
  5
607
  8
TEAM-DET1
 10
830.642308
 20
-261.228997
 30
600.0
  0
SEQEND
  5
608
  8
TEAM-DET1
  0
TEXT
  5
1B8
  8
TEAM-TXT
 10
-480.376299
 20
-175.790155
 30
600.0
 40
30.0
  1
team 121143
 41
0.8
 51
15.0
  7
TEAM
  0
POLYLINE
  5
1BB
  8
TEAM-NET
 66
     1
 10
0.0
 20
0.0
 30
0.0
 70
    16
 71
     2
 72
    37
  0
VERTEX
  5
1BC
  8
TEAM-NET
 10
613.214307
 20
-260.704807
 30
600.0
 70
    64
  0
VERTEX
  5
1BD
  8
TEAM-NET
 10
610.355258
 20
-207.639611
 30
600.0
 70
    64
  0
VERTEX
  5
1BE
  8
TEAM-NET
 10
602.912798
 20
-155.021183
 30
600.0
 70
    64
  0
VERTEX
  5
1BF
  8
TEAM-NET
 10
590.942816
 20
-103.244657
 30
600.0
 70
    64
  0
VERTEX
  5
1C0
  8
TEAM-NET
 10
574.535198
 20
-52.698843
 30
600.0
 70
    64
  0
VERTEX
  5
1C1
  8
TEAM-NET
 10
553.813158
 20
-3.763312
 30
600.0
 70
    64
  0
VERTEX
  5
1C2
  8
TEAM-NET
 10
528.932304
 20
43.194459
 30
600.0
 70
    64
  0
VERTEX
  5
1C3
  8
TEAM-NET
 10
500.079479
 20
87.821846
 30
600.0
 70
    64
  0
VERTEX
  5
1C4
  8
TEAM-NET
 10
467.471348
 20
129.783722
 30
600.0
 70
    64
  0
VERTEX
  5
1C5
  8
TEAM-NET
 10
431.352782
 20
168.764978
 30
600.0
 70
    64
  0
VERTEX
  5
1C6
  8
TEAM-NET
 10
391.995008
 20
204.472887
 30
600.0
 70
    64
  0
VERTEX
  5
1C7
  8
TEAM-NET
 10
349.693582
 20
236.639306
 30
600.0
 70
    64
  0
VERTEX
  5
1C8
  8
TEAM-NET
 10
304.766161
 20
265.022681
 30
600.0
 70
    64
  0
VERTEX
  5
1C9
  8
TEAM-NET
 10
257.550124
 20
289.409871
 30
600.0
 70
    64
  0
VERTEX
  5
1CA
  8
TEAM-NET
 10
208.400036
 20
309.617743
 30
600.0
 70
    64
  0
VERTEX
  5
1CB
  8
TEAM-NET
 10
157.684987
 20
325.494546
 30
600.0
 70
    64
  0
VERTEX
  5
1CC
  8
TEAM-NET
 10
105.785815
 20
336.921056
 30
600.0
 70
    64
  0
VERTEX
  5
1CD
  8
TEAM-NET
 10
53.092253
 20
343.811466
 30
600.0
 70
    64
  0
VERTEX
  5
1CE
  8
TEAM-NET
 10
0.0
 20
346.114033
 30
600.0
 70
    64
  0
VERTEX
  5
1CF
  8
TEAM-NET
 10
-53.092253
 20
343.811466
 30
600.0
 70
    64
  0
VERTEX
  5
1D0
  8
TEAM-NET
 10
-105.785815
 20
336.921056
 30
600.0
 70
    64
  0
VERTEX
  5
1D1
  8
TEAM-NET
 10
-157.684987
 20
325.494546
 30
600.0
 70
    64
  0
VERTEX
  5
1D2
  8
TEAM-NET
 10
-208.400036
 20
309.617743
 30
600.0
 70
    64
  0
VERTEX
  5
1D3
  8
TEAM-NET
 10
-257.550124
 20
289.409871
 30
600.0
 70
    64
  0
VERTEX
  5
1D4
  8
TEAM-NET
 10
-304.766161
 20
265.022681
 30
600.0
 70
    64
  0
VERTEX
  5
1D5
  8
TEAM-NET
 10
-349.693582
 20
236.639306
 30
600.0
 70
    64
  0
VERTEX
  5
1D6
  8
TEAM-NET
 10
-391.995008
 20
204.472887
 30
600.0
 70
    64
  0
VERTEX
  5
1D7
  8
TEAM-NET
 10
-431.352782
 20
168.764978
 30
600.0
 70
    64
  0
VERTEX
  5
1D8
  8
TEAM-NET
 10
-467.471348
 20
129.783722
 30
600.0
 70
    64
  0
VERTEX
  5
1D9
  8
TEAM-NET
 10
-500.079479
 20
87.821846
 30
600.0
 70
    64
  0
VERTEX
  5
1DA
  8
TEAM-NET
 10
-528.932304
 20
43.194459
 30
600.0
 70
    64
  0
VERTEX
  5
1DB
  8
TEAM-NET
 10
-553.813158
 20
-3.763312
 30
600.0
 70
    64
  0
VERTEX
  5
1DC
  8
TEAM-NET
 10
-574.535198
 20
-52.698843
 30
600.0
 70
    64
  0
VERTEX
  5
1DD
  8
TEAM-NET
 10
-590.942816
 20
-103.244657
 30
600.0
 70
    64
  0
VERTEX
  5
1DE
  8
TEAM-NET
 10
-602.912798
 20
-155.021183
 30
600.0
 70
    64
  0
VERTEX
  5
1DF
  8
TEAM-NET
 10
-610.355258
 20
-207.639611
 30
600.0
 70
    64
  0
VERTEX
  5
1E0
  8
TEAM-NET
 10
-613.214307
 20
-260.704807
 30
600.0
 70
    64
  0
VERTEX
  5
1E1
  8
TEAM-NET
 10
830.642308
 20
-261.228997
 30
600.0
 70
    64
  0
VERTEX
  5
1E2
  8
TEAM-NET
 10
800.140889
 20
-197.310936
 30
600.0
 70
    64
  0
VERTEX
  5
1E3
  8
TEAM-NET
 10
753.073778
 20
-142.52794
 30
600.0
 70
    64
  0
VERTEX
  5
1E4
  8
TEAM-NET
 10
706.006667
 20
-87.744944
 30
600.0
 70
    64
  0
VERTEX
  5
1E5
  8
TEAM-NET
 10
658.939556
 20
-32.961947
 30
600.0
 70
    64
  0
VERTEX
  5
1E6
  8
TEAM-NET
 10
611.872445
 20
21.821049
 30
600.0
 70
    64
  0
VERTEX
  5
1E7
  8
TEAM-NET
 10
564.805333
 20
76.604045
 30
600.0
 70
    64
  0
VERTEX
  5
1E8
  8
TEAM-NET
 10
517.738222
 20
131.387041
 30
600.0
 70
    64
  0
VERTEX
  5
1E9
  8
TEAM-NET
 10
470.671111
 20
186.170038
 30
600.0
 70
    64
  0
VERTEX
  5
1EA
  8
TEAM-NET
 10
423.604
 20
240.953034
 30
600.0
 70
    64
  0
VERTEX
  5
1EB
  8
TEAM-NET
 10
376.536889
 20
295.73603
 30
600.0
 70
    64
  0
VERTEX
  5
1EC
  8
TEAM-NET
 10
329.469778
 20
350.519026
 30
600.0
 70
    64
  0
VERTEX
  5
1ED
  8
TEAM-NET
 10
282.402667
 20
405.302023
 30
600.0
 70
    64
  0
VERTEX
  5
1EE
  8
TEAM-NET
 10
235.335556
 20
460.085019
 30
600.0
 70
    64
  0
VERTEX
  5
1EF
  8
TEAM-NET
 10
188.268444
 20
514.868015
 30
600.0
 70
    64
  0
VERTEX
  5
1F0
  8
TEAM-NET
 10
141.201333
 20
569.651012
 30
600.0
 70
    64
  0
VERTEX
  5
1F1
  8
TEAM-NET
 10
94.134222
 20
624.434008
 30
600.0
 70
    64
  0
VERTEX
  5
1F2
  8
TEAM-NET
 10
47.067111
 20
679.217004
 30
600.0
 70
    64
  0
VERTEX
  5
1F3
  8
TEAM-NET
 10
0.0
 20
734.0
 30
600.0
 70
    64
  0
VERTEX
  5
1F4
  8
TEAM-NET
 10
-47.067111
 20
679.217004
 30
600.0
 70
    64
  0
VERTEX
  5
1F5
  8
TEAM-NET
 10
-94.134222
 20
624.434008
 30
600.0
 70
    64
  0
VERTEX
  5
1F6
  8
TEAM-NET
 10
-141.201333
 20
569.651012
 30
600.0
 70
    64
  0
VERTEX
  5
1F7
  8
TEAM-NET
 10
-188.268444
 20
514.868015
 30
600.0
 70
    64
  0
VERTEX
  5
1F8
  8
TEAM-NET
 10
-235.335556
 20
460.085019
 30
600.0
 70
    64
  0
VERTEX
  5
1F9
  8
TEAM-NET
 10
-282.402667
 20
405.302023
 30
600.0
 70
    64
  0
VERTEX
  5
1FA
  8
TEAM-NET
 10
-329.469778
 20
350.519026
 30
600.0
 70
    64
  0
VERTEX
  5
1FB
  8
TEAM-NET
 10
-376.536889
 20
295.73603
 30
600.0
 70
    64
  0
VERTEX
  5
1FC
  8
TEAM-NET
 10
-423.604
 20
240.953034
 30
600.0
 70
    64
  0
VERTEX
  5
1FD
  8
TEAM-NET
 10
-470.671111
 20
186.170038
 30
600.0
 70
    64
  0
VERTEX
  5
1FE
  8
TEAM-NET
 10
-517.738222
 20
131.387041
 30
600.0
 70
    64
  0
VERTEX
  5
1FF
  8
TEAM-NET
 10
-564.805333
 20
76.604045
 30
600.0
 70
    64
  0
VERTEX
  5
200
  8
TEAM-NET
 10
-611.872445
 20
21.821049
 30
600.0
 70
    64
  0
VERTEX
  5
201
  8
TEAM-NET
 10
-658.939556
 20
-32.961947
 30
600.0
 70
    64
  0
VERTEX
  5
202
  8
TEAM-NET
 10
-706.006667
 20
-87.744944
 30
600.0
 70
    64
  0
VERTEX
  5
203
  8
TEAM-NET
 10
-753.073778
 20
-142.52794
 30
600.0
 70
    64
  0
VERTEX
  5
204
  8
TEAM-NET
 10
-800.140889
 20
-197.310936
 30
600.0
 70
    64
  0
VERTEX
  5
205
  8
TEAM-NET
 10
-830.642308
 20
-261.228997
 30
600.0
 70
    64
  0
SEQEND
  5
206
  8
TEAM-NET
  0
POLYLINE
  5
207
  8
TEAM-NET
 66
     1
 10
0.0
 20
0.0
 30
0.0
 70
    16
 71
     2
 72
    37
  0
VERTEX
  5
208
  8
TEAM-NET
 10
613.216671
 20
-261.033219
 30
600.0
 70
    64
  0
VERTEX
  5
209
  8
TEAM-NET
 10
610.276925
 20
-305.710925
 30
600.0
 70
    64
  0
VERTEX
  5
20A
  8
TEAM-NET
 10
601.164807
 20
-349.548223
 30
600.0
 70
    64
  0
VERTEX
  5
20B
  8
TEAM-NET
 10
586.056694
 20
-391.696585
 30
600.0
 70
    64
  0
VERTEX
  5
20C
  8
TEAM-NET
 10
565.245025
 20
-431.340171
 30
600.0
 70
    64
  0
VERTEX
  5
20D
  8
TEAM-NET
 10
539.132638
 20
-467.711626
 30
600.0
 70
    64
  0
VERTEX
  5
20E
  8
TEAM-NET
 10
508.224974
 20
-500.10693
 30
600.0
 70
    64
  0
VERTEX
  5
20F
  8
TEAM-NET
 10
473.120291
 20
-527.899029
 30
600.0
 70
    64
  0
VERTEX
  5
210
  8
TEAM-NET
 10
434.058114
 20
-549.743822
 30
600.0
 70
    64
  0
VERTEX
  5
211
  8
TEAM-NET
 10
393.453095
 20
-568.687514
 30
600.0
 70
    64
  0
VERTEX
  5
212
  8
TEAM-NET
 10
352.023863
 20
-585.753555
 30
600.0
 70
    64
  0
VERTEX
  5
213
  8
TEAM-NET
 10
309.857189
 20
-600.906201
 30
600.0
 70
    64
  0
VERTEX
  5
214
  8
TEAM-NET
 10
267.04139
 20
-614.113715
 30
600.0
 70
    64
  0
VERTEX
  5
215
  8
TEAM-NET
 10
223.666143
 20
-625.348434
 30
600.0
 70
    64
  0
VERTEX
  5
216
  8
TEAM-NET
 10
179.822294
 20
-634.586828
 30
600.0
 70
    64
  0
VERTEX
  5
217
  8
TEAM-NET
 10
135.601672
 20
-641.809548
 30
600.0
 70
    64
  0
VERTEX
  5
218
  8
TEAM-NET
 10
91.096897
 20
-647.001465
 30
600.0
 70
    64
  0
VERTEX
  5
219
  8
TEAM-NET
 10
46.401181
 20
-650.151706
 30
600.0
 70
    64
  0
VERTEX
  5
21A
  8
TEAM-NET
 10
1.608138
 20
-651.253673
 30
600.0
 70
    64
  0
VERTEX
  5
21B
  8
TEAM-NET
 10
-43.188415
 20
-650.305056
 30
600.0
 70
    64
  0
VERTEX
  5
21C
  8
TEAM-NET
 10
-87.894653
 20
-647.307844
 30
600.0
 70
    64
  0
VERTEX
  5
21D
  8
TEAM-NET
 10
-132.416942
 20
-642.268314
 30
600.0
 70
    64
  0
VERTEX
  5
21E
  8
TEAM-NET
 10
-176.66203
 20
-635.197021
 30
600.0
 70
    64
  0
VERTEX
  5
21F
  8
TEAM-NET
 10
-220.537249
 20
-626.108775
 30
600.0
 70
    64
  0
VERTEX
  5
220
  8
TEAM-NET
 10
-263.950703
 20
-615.022611
 30
600.0
 70
    64
  0
VERTEX
  5
221
  8
TEAM-NET
 10
-306.811465
 20
-601.961749
 30
600.0
 70
    64
  0
VERTEX
  5
222
  8
TEAM-NET
 10
-349.029765
 20
-586.953545
 30
600.0
 70
    64
  0
VERTEX
  5
223
  8
TEAM-NET
 10
-390.517178
 20
-570.029432
 30
600.0
 70
    64
  0
VERTEX
  5
224
  8
TEAM-NET
 10
-431.18681
 20
-551.224857
 30
600.0
 70
    64
  0
VERTEX
  5
225
  8
TEAM-NET
 10
-470.31501
 20
-529.534167
 30
600.0
 70
    64
  0
VERTEX
  5
226
  8
TEAM-NET
 10
-505.035257
 20
-501.257375
 30
600.0
 70
    64
  0
VERTEX
  5
227
  8
TEAM-NET
 10
-535.735409
 20
-468.660239
 30
600.0
 70
    64
  0
VERTEX
  5
228
  8
TEAM-NET
 10
-561.882229
 20
-432.308947
 30
600.0
 70
    64
  0
VERTEX
  5
229
  8
TEAM-NET
 10
-583.021567
 20
-392.834893
 30
600.0
 70
    64
  0
VERTEX
  5
22A
  8
TEAM-NET
 10
-598.786249
 20
-350.923708
 30
600.0
 70
    64
  0
VERTEX
  5
22B
  8
TEAM-NET
 10
-608.902455
 20
-307.303358
 30
600.0
 70
    64
  0
VERTEX
  5
22C
  8
TEAM-NET
 10
-613.194474
 20
-262.731493
 30
600.0
 70
    64
  0
VERTEX
  5
22D
  8
TEAM-NET
 10
830.642308
 20
-261.228997
 30
600.0
 70
    64
  0
VERTEX
  5
22E
  8
TEAM-NET
 10
820.167975
 20
-315.740961
 30
600.0
 70
    64
  0
VERTEX
  5
22F
  8
TEAM-NET
 10
786.950299
 20
-361.014917
 30
600.0
 70
    64
  0
VERTEX
  5
230
  8
TEAM-NET
 10
750.152157
 20
-403.546021
 30
600.0
 70
    64
  0
VERTEX
  5
231
  8
TEAM-NET
 10
711.058475
 20
-443.977224
 30
600.0
 70
    64
  0
VERTEX
  5
232
  8
TEAM-NET
 10
669.788886
 20
-482.184802
 30
600.0
 70
    64
  0
VERTEX
  5
233
  8
TEAM-NET
 10
626.469677
 20
-518.051837
 30
600.0
 70
    64
  0
VERTEX
  5
234
  8
TEAM-NET
 10
581.233409
 20
-551.468573
 30
600.0
 70
    64
  0
VERTEX
  5
235
  8
TEAM-NET
 10
534.21851
 20
-582.332749
 30
600.0
 70
    64
  0
VERTEX
  5
236
  8
TEAM-NET
 10
485.568851
 20
-610.54992
 30
600.0
 70
    64
  0
VERTEX
  5
237
  8
TEAM-NET
 10
435.433303
 20
-636.033737
 30
600.0
 70
    64
  0
VERTEX
  5
238
  8
TEAM-NET
 10
383.965287
 20
-658.706219
 30
600.0
 70
    64
  0
VERTEX
  5
239
  8
TEAM-NET
 10
331.3223
 20
-678.497984
 30
600.0
 70
    64
  0
VERTEX
  5
23A
  8
TEAM-NET
 10
277.665434
 20
-695.348468
 30
600.0
 70
    64
  0
VERTEX
  5
23B
  8
TEAM-NET
 10
223.158884
 20
-709.206107
 30
600.0
 70
    64
  0
VERTEX
  5
23C
  8
TEAM-NET
 10
167.969447
 20
-720.028496
 30
600.0
 70
    64
  0
VERTEX
  5
23D
  8
TEAM-NET
 10
112.266006
 20
-727.782516
 30
600.0
 70
    64
  0
VERTEX
  5
23E
  8
TEAM-NET
 10
56.219021
 20
-732.444439
 30
600.0
 70
    64
  0
VERTEX
  5
23F
  8
TEAM-NET
 10
0.0
 20
-734.0
 30
600.0
 70
    64
  0
VERTEX
  5
240
  8
TEAM-NET
 10
-56.219021
 20
-732.444439
 30
600.0
 70
    64
  0
VERTEX
  5
241
  8
TEAM-NET
 10
-112.266006
 20
-727.782516
 30
600.0
 70
    64
  0
VERTEX
  5
242
  8
TEAM-NET
 10
-167.969447
 20
-720.028496
 30
600.0
 70
    64
  0
VERTEX
  5
243
  8
TEAM-NET
 10
-223.158884
 20
-709.206107
 30
600.0
 70
    64
  0
VERTEX
  5
244
  8
TEAM-NET
 10
-277.665434
 20
-695.348468
 30
600.0
 70
    64
  0
VERTEX
  5
245
  8
TEAM-NET
 10
-331.3223
 20
-678.497984
 30
600.0
 70
    64
  0
VERTEX
  5
246
  8
TEAM-NET
 10
-383.965287
 20
-658.706219
 30
600.0
 70
    64
  0
VERTEX
  5
247
  8
TEAM-NET
 10
-435.433303
 20
-636.033737
 30
600.0
 70
    64
  0
VERTEX
  5
248
  8
TEAM-NET
 10
-485.568851
 20
-610.54992
 30
600.0
 70
    64
  0
VERTEX
  5
249
  8
TEAM-NET
 10
-534.21851
 20
-582.332749
 30
600.0
 70
    64
  0
VERTEX
  5
24A
  8
TEAM-NET
 10
-581.233409
 20
-551.468573
 30
600.0
 70
    64
  0
VERTEX
  5
24B
  8
TEAM-NET
 10
-626.469677
 20
-518.051837
 30
600.0
 70
    64
  0
VERTEX
  5
24C
  8
TEAM-NET
 10
-669.788886
 20
-482.184802
 30
600.0
 70
    64
  0
VERTEX
  5
24D
  8
TEAM-NET
 10
-711.058475
 20
-443.977224
 30
600.0
 70
    64
  0
VERTEX
  5
24E
  8
TEAM-NET
 10
-750.152157
 20
-403.546021
 30
600.0
 70
    64
  0
VERTEX
  5
24F
  8
TEAM-NET
 10
-786.950299
 20
-361.014917
 30
600.0
 70
    64
  0
VERTEX
  5
250
  8
TEAM-NET
 10
-820.167975
 20
-315.740961
 30
600.0
 70
    64
  0
VERTEX
  5
251
  8
TEAM-NET
 10
-830.642308
 20
-261.228997
 30
600.0
 70
    64
  0
SEQEND
  5
252
  8
TEAM-NET
  0
ENDSEC
  0
EOF
