  0
SECTION
  2
HEADER
  9
$ACADVER
  1
AC1009
  9
$INSBASE
 10
0.0
 20
0.0
 30
0.0
  9
$EXTMIN
 10
-777.654591
 20
-525.069127
 30
-0.010822
  9
$EXTMAX
 10
799.501525
 20
525.051391
 30
600.018921
  9
$LIMMIN
 10
-777.654591
 20
-525.069127
  9
$LIMMAX
 10
799.501525
 20
525.051391
  9
$ORTHOMODE
 70
     1
  9
$REGENMODE
 70
     1
  9
$FILLMODE
 70
     1
  9
$QTEXTMODE
 70
     0
  9
$MIRRTEXT
 70
     0
  9
$DRAGMODE
 70
     2
  9
$LTSCALE
 40
25.0
  9
$OSMODE
 70
     0
  9
$ATTMODE
 70
     1
  9
$TEXTSIZE
 40
200.0
  9
$TRACEWID
 40
1.0
  9
$TEXTSTYLE
  7
STANDARD
  9
$CLAYER
  8
TEAM-MAS
  9
$CELTYPE
  6
BYLAYER
  9
$CECOLOR
 62
   256
  9
$DIMSCALE
 40
0.0
  9
$DIMASZ
 40
20.0
  9
$DIMEXO
 40
10.0
  9
$DIMDLI
 40
1.0
  9
$DIMRND
 40
0.0
  9
$DIMDLE
 40
0.0
  9
$DIMEXE
 40
1.0
  9
$DIMTP
 40
0.0
  9
$DIMTM
 40
0.0
  9
$DIMTXT
 40
35.0
  9
$DIMCEN
 40
1.0
  9
$DIMTSZ
 40
0.0
  9
$DIMTOL
 70
     0
  9
$DIMLIM
 70
     0
  9
$DIMTIH
 70
     0
  9
$DIMTOH
 70
     0
  9
$DIMSE1
 70
     0
  9
$DIMSE2
 70
     0
  9
$DIMTAD
 70
     0
  9
$DIMZIN
 70
     0
  9
$DIMBLK
  1

  9
$DIMASO
 70
     1
  9
$DIMSHO
 70
     0
  9
$DIMPOST
  1

  9
$DIMAPOST
  1

  9
$DIMALT
 70
     0
  9
$DIMALTD
 70
     2
  9
$DIMALTF
 40
25.4
  9
$DIMLFAC
 40
1.0
  9
$DIMTOFL
 70
     0
  9
$DIMTVP
 40
0.0
  9
$DIMTIX
 70
     0
  9
$DIMSOXD
 70
     0
  9
$DIMSAH
 70
     0
  9
$DIMBLK1
  1

  9
$DIMBLK2
  1

  9
$DIMSTYLE
  2
TEAM
  9
$DIMCLRD
 70
     9
  9
$DIMCLRE
 70
     9
  9
$DIMCLRT
 70
    11
  9
$DIMTFAC
 40
1.0
  9
$DIMGAP
 40
15.0
  9
$LUNITS
 70
     2
  9
$LUPREC
 70
     1
  9
$SKETCHINC
 40
1.0
  9
$FILLETRAD
 40
50.0
  9
$AUNITS
 70
     0
  9
$AUPREC
 70
     0
  9
$MENU
  1
ROPLANS
  9
$ELEVATION
 40
0.0
  9
$PELEVATION
 40
0.0
  9
$THICKNESS
 40
0.0
  9
$LIMCHECK
 70
     0
  9
$BLIPMODE
 70
     1
  9
$CHAMFERA
 40
0.0
  9
$CHAMFERB
 40
0.0
  9
$SKPOLY
 70
     0
  9
$TDCREATE
 40
2450392.957851
  9
$TDUPDATE
 40
2455493.900056
  9
$TDINDWG
 40
2.014927
  9
$TDUSRTIMER
 40
2.014927
  9
$USRTIMER
 70
     1
  9
$ANGBASE
 50
0.0
  9
$ANGDIR
 70
     0
  9
$PDMODE
 70
     0
  9
$PDSIZE
 40
0.0
  9
$PLINEWID
 40
0.0
  9
$COORDS
 70
     2
  9
$SPLFRAME
 70
     0
  9
$SPLINETYPE
 70
     6
  9
$SPLINESEGS
 70
     8
  9
$ATTDIA
 70
     0
  9
$ATTREQ
 70
     0
  9
$HANDLING
 70
     1
  9
$HANDSEED
  5
644
  9
$SURFTAB1
 70
    24
  9
$SURFTAB2
 70
    24
  9
$SURFTYPE
 70
     6
  9
$SURFU
 70
     6
  9
$SURFV
 70
     6
  9
$UCSNAME
  2

  9
$UCSORG
 10
0.0
 20
0.0
 30
0.0
  9
$UCSXDIR
 10
1.0
 20
0.0
 30
0.0
  9
$UCSYDIR
 10
0.0
 20
1.0
 30
0.0
  9
$PUCSNAME
  2

  9
$PUCSORG
 10
0.0
 20
0.0
 30
0.0
  9
$PUCSXDIR
 10
1.0
 20
0.0
 30
0.0
  9
$PUCSYDIR
 10
0.0
 20
1.0
 30
0.0
  9
$USERI1
 70
     0
  9
$USERI2
 70
     0
  9
$USERI3
 70
     0
  9
$USERI4
 70
     0
  9
$USERI5
 70
     0
  9
$USERR1
 40
0.0
  9
$USERR2
 40
0.0
  9
$USERR3
 40
0.0
  9
$USERR4
 40
0.0
  9
$USERR5
 40
0.0
  9
$WORLDVIEW
 70
     1
  9
$SHADEDGE
 70
     0
  9
$SHADEDIF
 70
    70
  9
$TILEMODE
 70
     1
  9
$MAXACTVP
 70
    16
  9
$PLIMCHECK
 70
     0
  9
$PEXTMIN
 10
-0.805942
 20
0.005011
 30
0.0
  9
$PEXTMAX
 10
20.250094
 20
11.356329
 30
0.0
  9
$PLIMMIN
 10
0.0
 20
0.0
  9
$PLIMMAX
 10
12.0
 20
9.0
  9
$UNITMODE
 70
     0
  9
$VISRETAIN
 70
     0
  9
$PLINEGEN
 70
     0
  9
$PSLTSCALE
 70
     0
  0
ENDSEC
  0
SECTION
  2
TABLES
  0
TABLE
  2
VPORT
 70
     2
  0
VPORT
  2
*ACTIVE
 70
     0
 10
0.0
 20
0.0
 11
1.0
 21
1.0
 12
10.923467
 22
-0.008868
 13
0.0
 23
0.0
 14
1.0
 24
1.0
 15
50.0
 25
50.0
 16
0.0
 26
0.0
 36
1.0
 17
0.0
 27
0.0
 37
0.0
 40
1056.569569
 41
1.865779
 42
50.0
 43
0.0
 44
0.0
 50
0.0
 51
0.0
 71
     0
 72
   100
 73
     1
 74
     1
 75
     0
 76
     0
 77
     0
 78
     0
  0
ENDTAB
  0
TABLE
  2
LTYPE
 70
     1
  0
LTYPE
  2
CONTINUOUS
 70
     0
  3
Solid Line
 72
    65
 73
     0
 40
0.0
  0
ENDTAB
  0
TABLE
  2
LAYER
 70
     8
  0
LAYER
  2
0
 70
     0
 62
     7
  6
CONTINUOUS
  0
LAYER
  2
TEAM-BODY
 70
     0
 62
     2
  6
CONTINUOUS
  0
LAYER
  2
TEAM-MAS
 70
     0
 62
     9
  6
CONTINUOUS
  0
LAYER
  2
TEAM-TXT
 70
     0
 62
    11
  6
CONTINUOUS
  0
LAYER
  2
TEAM-DET1
 70
     0
 62
     4
  6
CONTINUOUS
  0
LAYER
  2
TEAM-KAN
 70
     0
 62
     6
  6
CONTINUOUS
  0
LAYER
  2
TEAM-NET
 70
     0
 62
    15
  6
CONTINUOUS
  0
LAYER
  2
TEAM-INSP
 70
     0
 62
     5
  6
CONTINUOUS
  0
ENDTAB
  0
TABLE
  2
STYLE
 70
     2
  0
STYLE
  2
STANDARD
 70
     0
 40
0.0
 41
1.0
 50
0.0
 71
     0
 42
200.0
  3
txt
  4

  0
STYLE
  2
TEAM
 70
     0
 40
0.0
 41
0.8
 50
15.0
 71
     0
 42
7.0
  3
ROMANS.shx
  4

  0
ENDTAB
  0
TABLE
  2
VIEW
 70
     0
  0
ENDTAB
  0
TABLE
  2
UCS
 70
     0
  0
ENDTAB
  0
TABLE
  2
APPID
 70
     1
  0
APPID
  2
ACAD
 70
     0
  0
ENDTAB
  0
TABLE
  2
DIMSTYLE
 70
     1
  0
DIMSTYLE
  2
TEAM
 70
     0
  3

  4

  5

  6

  7

 40
0.0
 41
20.0
 42
10.0
 43
1.0
 44
1.0
 45
0.0
 46
0.0
 47
0.0
 48
0.0
140
35.0
141
1.0
142
0.0
143
25.4
144
1.0
145
0.0
146
1.0
147
15.0
 71
     0
 72
     0
 73
     0
 74
     0
 75
     0
 76
     0
 77
     0
 78
     0
170
     0
171
     2
172
     0
173
     0
174
     0
175
     0
176
     9
177
     9
178
    11
  0
ENDTAB
  0
ENDSEC
  0
SECTION
  2
BLOCKS
  0
BLOCK
  8
0
  2
$MODEL_SPACE
 70
     0
 10
0.0
 20
0.0
 30
0.0
  3
$MODEL_SPACE
  1

  0
ENDBLK
  5
5CA
  8
0
  0
BLOCK
 67
     1
  8
0
  2
$PAPER_SPACE
 70
     0
 10
0.0
 20
0.0
 30
0.0
  3
$PAPER_SPACE
  1

  0
ENDBLK
  5
5C8
 67
     1
  8
0
  0
ENDSEC
  0
SECTION
  2
ENTITIES
  0
POLYLINE
  5
20
  8
TEAM-NET
 66
     1
 10
0.0
 20
0.0
 30
0.0
 70
    16
 71
     2
 72
    37
  0
VERTEX
  5
21
  8
TEAM-NET
 10
615.632931
 20
-274.56395
 30
600.0
 70
    64
  0
VERTEX
  5
22
  8
TEAM-NET
 10
580.158829
 20
-307.833622
 30
600.0
 70
    64
  0
VERTEX
  5
23
  8
TEAM-NET
 10
540.964082
 20
-336.626932
 30
600.0
 70
    64
  0
VERTEX
  5
24
  8
TEAM-NET
 10
498.610126
 20
-360.531437
 30
600.0
 70
    64
  0
VERTEX
  5
25
  8
TEAM-NET
 10
453.703653
 20
-379.204723
 30
600.0
 70
    64
  0
VERTEX
  5
26
  8
TEAM-NET
 10
406.887916
 20
-392.379307
 30
600.0
 70
    64
  0
VERTEX
  5
27
  8
TEAM-NET
 10
358.778434
 20
-399.031028
 30
600.0
 70
    64
  0
VERTEX
  5
28
  8
TEAM-NET
 10
310.118
 20
-399.375682
 30
600.0
 70
    64
  0
VERTEX
  5
29
  8
TEAM-NET
 10
261.467022
 20
-398.356331
 30
600.0
 70
    64
  0
VERTEX
  5
2A
  8
TEAM-NET
 10
213.058322
 20
-393.803658
 30
600.0
 70
    64
  0
VERTEX
  5
2B
  8
TEAM-NET
 10
165.010993
 20
-386.108479
 30
600.0
 70
    64
  0
VERTEX
  5
2C
  8
TEAM-NET
 10
117.330356
 20
-376.396714
 30
600.0
 70
    64
  0
VERTEX
  5
2D
  8
TEAM-NET
 10
70.101009
 20
-364.685592
 30
600.0
 70
    64
  0
VERTEX
  5
2E
  8
TEAM-NET
 10
23.406751
 20
-350.995894
 30
600.0
 70
    64
  0
VERTEX
  5
2F
  8
TEAM-NET
 10
-22.66957
 20
-335.351909
 30
600.0
 70
    64
  0
VERTEX
  5
30
  8
TEAM-NET
 10
-68.0462
 20
-317.781394
 30
600.0
 70
    64
  0
VERTEX
  5
31
  8
TEAM-NET
 10
-112.642629
 20
-298.315523
 30
600.0
 70
    64
  0
VERTEX
  5
32
  8
TEAM-NET
 10
-156.379729
 20
-276.988835
 30
600.0
 70
    64
  0
VERTEX
  5
33
  8
TEAM-NET
 10
-199.179899
 20
-253.839169
 30
600.0
 70
    64
  0
VERTEX
  5
34
  8
TEAM-NET
 10
-240.967199
 20
-228.9076
 30
600.0
 70
    64
  0
VERTEX
  5
35
  8
TEAM-NET
 10
-281.667487
 20
-202.238364
 30
600.0
 70
    64
  0
VERTEX
  5
36
  8
TEAM-NET
 10
-321.208547
 20
-173.878778
 30
600.0
 70
    64
  0
VERTEX
  5
37
  8
TEAM-NET
 10
-359.520224
 20
-143.879161
 30
600.0
 70
    64
  0
VERTEX
  5
38
  8
TEAM-NET
 10
-396.534542
 20
-112.292742
 30
600.0
 70
    64
  0
VERTEX
  5
39
  8
TEAM-NET
 10
-432.185825
 20
-79.175563
 30
600.0
 70
    64
  0
VERTEX
  5
3A
  8
TEAM-NET
 10
-466.41082
 20
-44.586383
 30
600.0
 70
    64
  0
VERTEX
  5
3B
  8
TEAM-NET
 10
-499.1488
 20
-8.586575
 30
600.0
 70
    64
  0
VERTEX
  5
3C
  8
TEAM-NET
 10
-530.34168
 20
28.759989
 30
600.0
 70
    64
  0
VERTEX
  5
3D
  8
TEAM-NET
 10
-559.934114
 20
67.387045
 30
600.0
 70
    64
  0
VERTEX
  5
3E
  8
TEAM-NET
 10
-587.873597
 20
107.226057
 30
600.0
 70
    64
  0
VERTEX
  5
3F
  8
TEAM-NET
 10
-614.110556
 20
148.20634
 30
600.0
 70
    64
  0
VERTEX
  5
40
  8
TEAM-NET
 10
-638.598439
 20
190.255182
 30
600.0
 70
    64
  0
VERTEX
  5
41
  8
TEAM-NET
 10
-658.491967
 20
234.473986
 30
600.0
 70
    64
  0
VERTEX
  5
42
  8
TEAM-NET
 10
-665.232502
 20
282.525025
 30
600.0
 70
    64
  0
VERTEX
  5
43
  8
TEAM-NET
 10
-659.176508
 20
330.667128
 30
600.0
 70
    64
  0
VERTEX
  5
44
  8
TEAM-NET
 10
-640.745222
 20
375.5517
 30
600.0
 70
    64
  0
VERTEX
  5
45
  8
TEAM-NET
 10
-611.220656
 20
414.056728
 30
600.0
 70
    64
  0
VERTEX
  5
46
  8
TEAM-NET
 10
336.804964
 20
-229.07904
 30
150.0
 70
    64
  0
VERTEX
  5
47
  8
TEAM-NET
 10
303.456995
 20
-243.703085
 30
150.0
 70
    64
  0
VERTEX
  5
48
  8
TEAM-NET
 10
268.198385
 20
-252.801443
 30
150.0
 70
    64
  0
VERTEX
  5
49
  8
TEAM-NET
 10
231.938121
 20
-256.139553
 30
150.0
 70
    64
  0
VERTEX
  5
4A
  8
TEAM-NET
 10
195.611014
 20
-253.631355
 30
150.0
 70
    64
  0
VERTEX
  5
4B
  8
TEAM-NET
 10
159.491333
 20
-248.861101
 30
150.0
 70
    64
  0
VERTEX
  5
4C
  8
TEAM-NET
 10
123.380998
 20
-243.887809
 30
150.0
 70
    64
  0
VERTEX
  5
4D
  8
TEAM-NET
 10
87.452504
 20
-237.736942
 30
150.0
 70
    64
  0
VERTEX
  5
4E
  8
TEAM-NET
 10
51.74424
 20
-230.415072
 30
150.0
 70
    64
  0
VERTEX
  5
4F
  8
TEAM-NET
 10
16.294362
 20
-221.930023
 30
150.0
 70
    64
  0
VERTEX
  5
50
  8
TEAM-NET
 10
-18.85925
 20
-212.290861
 30
150.0
 70
    64
  0
VERTEX
  5
51
  8
TEAM-NET
 10
-53.679033
 20
-201.507887
 30
150.0
 70
    64
  0
VERTEX
  5
52
  8
TEAM-NET
 10
-88.127783
 20
-189.592621
 30
150.0
 70
    64
  0
VERTEX
  5
53
  8
TEAM-NET
 10
-122.168688
 20
-176.557796
 30
150.0
 70
    64
  0
VERTEX
  5
54
  8
TEAM-NET
 10
-155.765375
 20
-162.417341
 30
150.0
 70
    64
  0
VERTEX
  5
55
  8
TEAM-NET
 10
-188.881945
 20
-147.186364
 30
150.0
 70
    64
  0
VERTEX
  5
56
  8
TEAM-NET
 10
-221.483012
 20
-130.88114
 30
150.0
 70
    64
  0
VERTEX
  5
57
  8
TEAM-NET
 10
-253.533741
 20
-113.519093
 30
150.0
 70
    64
  0
VERTEX
  5
58
  8
TEAM-NET
 10
-284.999883
 20
-95.118773
 30
150.0
 70
    64
  0
VERTEX
  5
59
  8
TEAM-NET
 10
-315.847817
 20
-75.699843
 30
150.0
 70
    64
  0
VERTEX
  5
5A
  8
TEAM-NET
 10
-346.044581
 20
-55.283052
 30
150.0
 70
    64
  0
VERTEX
  5
5B
  8
TEAM-NET
 10
-375.557907
 20
-33.890217
 30
150.0
 70
    64
  0
VERTEX
  5
5C
  8
TEAM-NET
 10
-404.356262
 20
-11.544195
 30
150.0
 70
    64
  0
VERTEX
  5
5D
  8
TEAM-NET
 10
-432.408871
 20
11.731135
 30
150.0
 70
    64
  0
VERTEX
  5
5E
  8
TEAM-NET
 10
-459.68576
 20
35.910903
 30
150.0
 70
    64
  0
VERTEX
  5
5F
  8
TEAM-NET
 10
-486.157784
 20
60.969272
 30
150.0
 70
    64
  0
VERTEX
  5
60
  8
TEAM-NET
 10
-511.796655
 20
86.879467
 30
150.0
 70
    64
  0
VERTEX
  5
61
  8
TEAM-NET
 10
-536.574977
 20
113.613801
 30
150.0
 70
    64
  0
VERTEX
  5
62
  8
TEAM-NET
 10
-560.466275
 20
141.143708
 30
150.0
 70
    64
  0
VERTEX
  5
63
  8
TEAM-NET
 10
-583.445019
 20
169.439771
 30
150.0
 70
    64
  0
VERTEX
  5
64
  8
TEAM-NET
 10
-605.486657
 20
198.471755
 30
150.0
 70
    64
  0
VERTEX
  5
65
  8
TEAM-NET
 10
-624.064216
 20
229.669613
 30
150.0
 70
    64
  0
VERTEX
  5
66
  8
TEAM-NET
 10
-633.538786
 20
264.768336
 30
150.0
 70
    64
  0
VERTEX
  5
67
  8
TEAM-NET
 10
-633.895305
 20
301.121613
 30
150.0
 70
    64
  0
VERTEX
  5
68
  8
TEAM-NET
 10
-625.110921
 20
336.399403
 30
150.0
 70
    64
  0
VERTEX
  5
69
  8
TEAM-NET
 10
-607.748664
 20
368.340597
 30
150.0
 70
    64
  0
VERTEX
  5
6A
  8
TEAM-NET
 10
-582.921357
 20
394.897944
 30
150.0
 70
    64
  0
SEQEND
  5
6C
  8
TEAM-NET
  0
POLYLINE
  5
6D
  8
TEAM-NET
 66
     1
 10
0.0
 20
0.0
 30
0.0
 70
    16
 71
     2
 72
    37
  0
VERTEX
  5
6E
  8
TEAM-NET
 10
336.804964
 20
-229.07904
 30
150.0
 70
    64
  0
VERTEX
  5
6F
  8
TEAM-NET
 10
370.957657
 20
-206.506439
 30
150.0
 70
    64
  0
VERTEX
  5
70
  8
TEAM-NET
 10
400.495874
 20
-178.161732
 30
150.0
 70
    64
  0
VERTEX
  5
71
  8
TEAM-NET
 10
424.457105
 20
-144.968537
 30
150.0
 70
    64
  0
VERTEX
  5
72
  8
TEAM-NET
 10
442.060565
 20
-108.008466
 30
150.0
 70
    64
  0
VERTEX
  5
73
  8
TEAM-NET
 10
452.732642
 20
-68.485871
 30
150.0
 70
    64
  0
VERTEX
  5
74
  8
TEAM-NET
 10
456.125583
 20
-27.688608
 30
150.0
 70
    64
  0
VERTEX
  5
75
  8
TEAM-NET
 10
452.128828
 20
13.053933
 30
150.0
 70
    64
  0
VERTEX
  5
76
  8
TEAM-NET
 10
440.872611
 20
52.414146
 30
150.0
 70
    64
  0
VERTEX
  5
77
  8
TEAM-NET
 10
422.723721
 20
89.109466
 30
150.0
 70
    64
  0
VERTEX
  5
78
  8
TEAM-NET
 10
398.273544
 20
121.944166
 30
150.0
 70
    64
  0
VERTEX
  5
79
  8
TEAM-NET
 10
368.914762
 20
150.51327
 30
150.0
 70
    64
  0
VERTEX
  5
7A
  8
TEAM-NET
 10
336.466823
 20
175.545728
 30
150.0
 70
    64
  0
VERTEX
  5
7B
  8
TEAM-NET
 10
303.639955
 20
200.096432
 30
150.0
 70
    64
  0
VERTEX
  5
7C
  8
TEAM-NET
 10
270.004265
 20
223.526769
 30
150.0
 70
    64
  0
VERTEX
  5
7D
  8
TEAM-NET
 10
235.597974
 20
245.810115
 30
150.0
 70
    64
  0
VERTEX
  5
7E
  8
TEAM-NET
 10
200.460179
 20
266.921148
 30
150.0
 70
    64
  0
VERTEX
  5
7F
  8
TEAM-NET
 10
164.630809
 20
286.83588
 30
150.0
 70
    64
  0
VERTEX
  5
80
  8
TEAM-NET
 10
128.150577
 20
305.531681
 30
150.0
 70
    64
  0
VERTEX
  5
81
  8
TEAM-NET
 10
91.060935
 20
322.987307
 30
150.0
 70
    64
  0
VERTEX
  5
82
  8
TEAM-NET
 10
53.404032
 20
339.182922
 30
150.0
 70
    64
  0
VERTEX
  5
83
  8
TEAM-NET
 10
15.222656
 20
354.100122
 30
150.0
 70
    64
  0
VERTEX
  5
84
  8
TEAM-NET
 10
-23.439806
 20
367.721958
 30
150.0
 70
    64
  0
VERTEX
  5
85
  8
TEAM-NET
 10
-62.53942
 20
380.03295
 30
150.0
 70
    64
  0
VERTEX
  5
86
  8
TEAM-NET
 10
-102.031757
 20
391.019108
 30
150.0
 70
    64
  0
VERTEX
  5
87
  8
TEAM-NET
 10
-141.87194
 20
400.667949
 30
150.0
 70
    64
  0
VERTEX
  5
88
  8
TEAM-NET
 10
-182.014698
 20
408.968509
 30
150.0
 70
    64
  0
VERTEX
  5
89
  8
TEAM-NET
 10
-222.414416
 20
415.911356
 30
150.0
 70
    64
  0
VERTEX
  5
8A
  8
TEAM-NET
 10
-263.025187
 20
421.4886
 30
150.0
 70
    64
  0
VERTEX
  5
8B
  8
TEAM-NET
 10
-303.800863
 20
425.693904
 30
150.0
 70
    64
  0
VERTEX
  5
8C
  8
TEAM-NET
 10
-344.69511
 20
428.522488
 30
150.0
 70
    64
  0
VERTEX
  5
8D
  8
TEAM-NET
 10
-385.661459
 20
429.97114
 30
150.0
 70
    64
  0
VERTEX
  5
8E
  8
TEAM-NET
 10
-426.653359
 20
430.038212
 30
150.0
 70
    64
  0
VERTEX
  5
8F
  8
TEAM-NET
 10
-467.624229
 20
428.723629
 30
150.0
 70
    64
  0
VERTEX
  5
90
  8
TEAM-NET
 10
-508.527513
 20
426.028884
 30
150.0
 70
    64
  0
VERTEX
  5
91
  8
TEAM-NET
 10
-548.078642
 20
416.231087
 30
150.0
 70
    64
  0
VERTEX
  5
92
  8
TEAM-NET
 10
-582.921357
 20
394.897944
 30
150.0
 70
    64
  0
VERTEX
  5
93
  8
TEAM-NET
 10
615.632931
 20
-274.56395
 30
600.0
 70
    64
  0
VERTEX
  5
94
  8
TEAM-NET
 10
648.56917
 20
-233.969293
 30
600.0
 70
    64
  0
VERTEX
  5
95
  8
TEAM-NET
 10
675.943364
 20
-189.434188
 30
600.0
 70
    64
  0
VERTEX
  5
96
  8
TEAM-NET
 10
697.290079
 20
-141.715849
 30
600.0
 70
    64
  0
VERTEX
  5
97
  8
TEAM-NET
 10
712.246366
 20
-91.625615
 30
600.0
 70
    64
  0
VERTEX
  5
98
  8
TEAM-NET
 10
720.557928
 20
-40.015151
 30
600.0
 70
    64
  0
VERTEX
  5
99
  8
TEAM-NET
 10
722.083446
 20
12.238029
 30
600.0
 70
    64
  0
VERTEX
  5
9A
  8
TEAM-NET
 10
716.796984
 20
64.245484
 30
600.0
 70
    64
  0
VERTEX
  5
9B
  8
TEAM-NET
 10
704.788424
 20
115.12295
 30
600.0
 70
    64
  0
VERTEX
  5
9C
  8
TEAM-NET
 10
686.261944
 20
164.005376
 30
600.0
 70
    64
  0
VERTEX
  5
9D
  8
TEAM-NET
 10
661.532542
 20
210.061633
 30
600.0
 70
    64
  0
VERTEX
  5
9E
  8
TEAM-NET
 10
631.020684
 20
252.508642
 30
600.0
 70
    64
  0
VERTEX
  5
9F
  8
TEAM-NET
 10
595.245152
 20
290.624693
 30
600.0
 70
    64
  0
VERTEX
  5
A0
  8
TEAM-NET
 10
554.814223
 20
323.761712
 30
600.0
 70
    64
  0
VERTEX
  5
A1
  8
TEAM-NET
 10
510.41533
 20
351.356284
 30
600.0
 70
    64
  0
VERTEX
  5
A2
  8
TEAM-NET
 10
462.803372
 20
372.939227
 30
600.0
 70
    64
  0
VERTEX
  5
A3
  8
TEAM-NET
 10
412.826814
 20
388.298493
 30
600.0
 70
    64
  0
VERTEX
  5
A4
  8
TEAM-NET
 10
362.129303
 20
401.193314
 30
600.0
 70
    64
  0
VERTEX
  5
A5
  8
TEAM-NET
 10
311.187208
 20
413.0852
 30
600.0
 70
    64
  0
VERTEX
  5
A6
  8
TEAM-NET
 10
260.020367
 20
423.969519
 30
600.0
 70
    64
  0
VERTEX
  5
A7
  8
TEAM-NET
 10
208.648707
 20
433.842033
 30
600.0
 70
    64
  0
VERTEX
  5
A8
  8
TEAM-NET
 10
157.092233
 20
442.698897
 30
600.0
 70
    64
  0
VERTEX
  5
A9
  8
TEAM-NET
 10
105.371025
 20
450.536662
 30
600.0
 70
    64
  0
VERTEX
  5
AA
  8
TEAM-NET
 10
53.505223
 20
457.352276
 30
600.0
 70
    64
  0
VERTEX
  5
AB
  8
TEAM-NET
 10
1.515026
 20
463.143084
 30
600.0
 70
    64
  0
VERTEX
  5
AC
  8
TEAM-NET
 10
-50.579318
 20
467.906831
 30
600.0
 70
    64
  0
VERTEX
  5
AD
  8
TEAM-NET
 10
-102.757523
 20
471.641662
 30
600.0
 70
    64
  0
VERTEX
  5
AE
  8
TEAM-NET
 10
-154.999268
 20
474.346123
 30
600.0
 70
    64
  0
VERTEX
  5
AF
  8
TEAM-NET
 10
-207.284208
 20
476.01916
 30
600.0
 70
    64
  0
VERTEX
  5
B0
  8
TEAM-NET
 10
-259.591981
 20
476.660121
 30
600.0
 70
    64
  0
VERTEX
  5
B1
  8
TEAM-NET
 10
-311.902218
 20
476.268758
 30
600.0
 70
    64
  0
VERTEX
  5
B2
  8
TEAM-NET
 10
-364.194546
 20
474.845223
 30
600.0
 70
    64
  0
VERTEX
  5
B3
  8
TEAM-NET
 10
-416.4486
 20
472.390069
 30
600.0
 70
    64
  0
VERTEX
  5
B4
  8
TEAM-NET
 10
-468.644032
 20
468.904253
 30
600.0
 70
    64
  0
VERTEX
  5
B5
  8
TEAM-NET
 10
-520.638358
 20
463.548284
 30
600.0
 70
    64
  0
VERTEX
  5
B6
  8
TEAM-NET
 10
-569.471531
 20
445.285321
 30
600.0
 70
    64
  0
VERTEX
  5
B7
  8
TEAM-NET
 10
-611.220656
 20
414.056728
 30
600.0
 70
    64
  0
SEQEND
  5
B8
  8
TEAM-NET
  0
POLYLINE
  5
B9
  8
TEAM-NET
 66
     1
 10
0.0
 20
0.0
 30
0.0
 70
    16
 71
     2
 72
    25
  0
VERTEX
  5
BA
  8
TEAM-NET
 10
520.744925
 20
269.01381
 30
500.0
 70
    64
  0
VERTEX
  5
BB
  8
TEAM-NET
 10
500.782493
 20
284.276305
 30
500.0
 70
    64
  0
VERTEX
  5
BC
  8
TEAM-NET
 10
480.350562
 20
298.904315
 30
500.0
 70
    64
  0
VERTEX
  5
BD
  8
TEAM-NET
 10
459.469293
 20
312.883408
 30
500.0
 70
    64
  0
VERTEX
  5
BE
  8
TEAM-NET
 10
438.159286
 20
326.199791
 30
500.0
 70
    64
  0
VERTEX
  5
BF
  8
TEAM-NET
 10
416.441568
 20
338.840327
 30
500.0
 70
    64
  0
VERTEX
  5
C0
  8
TEAM-NET
 10
394.337564
 20
350.792544
 30
500.0
 70
    64
  0
VERTEX
  5
C1
  8
TEAM-NET
 10
371.869084
 20
362.044648
 30
500.0
 70
    64
  0
VERTEX
  5
C2
  8
TEAM-NET
 10
349.058296
 20
372.58554
 30
500.0
 70
    64
  0
VERTEX
  5
C3
  8
TEAM-NET
 10
325.927705
 20
382.404818
 30
500.0
 70
    64
  0
VERTEX
  5
C4
  8
TEAM-NET
 10
302.500133
 20
391.492795
 30
500.0
 70
    64
  0
VERTEX
  5
C5
  8
TEAM-NET
 10
278.798694
 20
399.840505
 30
500.0
 70
    64
  0
VERTEX
  5
C6
  8
TEAM-NET
 10
254.846773
 20
407.43971
 30
500.0
 70
    64
  0
VERTEX
  5
C7
  8
TEAM-NET
 10
230.668001
 20
414.282915
 30
500.0
 70
    64
  0
VERTEX
  5
C8
  8
TEAM-NET
 10
206.286234
 20
420.363366
 30
500.0
 70
    64
  0
VERTEX
  5
C9
  8
TEAM-NET
 10
181.725528
 20
425.675065
 30
500.0
 70
    64
  0
VERTEX
  5
CA
  8
TEAM-NET
 10
157.010114
 20
430.212771
 30
500.0
 70
    64
  0
VERTEX
  5
CB
  8
TEAM-NET
 10
132.164378
 20
433.972007
 30
500.0
 70
    64
  0
VERTEX
  5
CC
  8
TEAM-NET
 10
107.212833
 20
436.949064
 30
500.0
 70
    64
  0
VERTEX
  5
CD
  8
TEAM-NET
 10
82.180098
 20
439.141005
 30
500.0
 70
    64
  0
VERTEX
  5
CE
  8
TEAM-NET
 10
57.090869
 20
440.545667
 30
500.0
 70
    64
  0
VERTEX
  5
CF
  8
TEAM-NET
 10
31.969902
 20
441.161664
 30
500.0
 70
    64
  0
VERTEX
  5
D0
  8
TEAM-NET
 10
6.841981
 20
440.98839
 30
500.0
 70
    64
  0
VERTEX
  5
D1
  8
TEAM-NET
 10
-18.268103
 20
440.026013
 30
500.0
 70
    64
  0
VERTEX
  5
D2
  8
TEAM-NET
 10
-43.335574
 20
438.275485
 30
500.0
 70
    64
  0
VERTEX
  5
D3
  8
TEAM-NET
 10
463.711032
 20
99.251218
 30
300.0
 70
    64
  0
VERTEX
  5
D4
  8
TEAM-NET
 10
429.230974
 20
127.515652
 30
300.0
 70
    64
  0
VERTEX
  5
D5
  8
TEAM-NET
 10
394.136143
 20
155.0252
 30
300.0
 70
    64
  0
VERTEX
  5
D6
  8
TEAM-NET
 10
358.447375
 20
181.736475
 30
300.0
 70
    64
  0
VERTEX
  5
D7
  8
TEAM-NET
 10
322.066072
 20
207.684904
 30
300.0
 70
    64
  0
VERTEX
  5
D8
  8
TEAM-NET
 10
285.250352
 20
232.652255
 30
300.0
 70
    64
  0
VERTEX
  5
D9
  8
TEAM-NET
 10
247.75722
 20
256.773014
 30
300.0
 70
    64
  0
VERTEX
  5
DA
  8
TEAM-NET
 10
209.693295
 20
279.935076
 30
300.0
 70
    64
  0
VERTEX
  5
DB
  8
TEAM-NET
 10
170.995066
 20
302.127053
 30
300.0
 70
    64
  0
VERTEX
  5
DC
  8
TEAM-NET
 10
131.732156
 20
323.257042
 30
300.0
 70
    64
  0
VERTEX
  5
DD
  8
TEAM-NET
 10
91.89953
 20
343.278822
 30
300.0
 70
    64
  0
VERTEX
  5
DE
  8
TEAM-NET
 10
51.499863
 20
362.131806
 30
300.0
 70
    64
  0
VERTEX
  5
DF
  8
TEAM-NET
 10
10.542492
 20
379.743775
 30
300.0
 70
    64
  0
VERTEX
  5
E0
  8
TEAM-NET
 10
-30.955051
 20
396.042627
 30
300.0
 70
    64
  0
VERTEX
  5
E1
  8
TEAM-NET
 10
-72.976384
 20
410.936134
 30
300.0
 70
    64
  0
VERTEX
  5
E2
  8
TEAM-NET
 10
-115.496108
 20
424.340095
 30
300.0
 70
    64
  0
VERTEX
  5
E3
  8
TEAM-NET
 10
-158.485301
 20
436.14968
 30
300.0
 70
    64
  0
VERTEX
  5
E4
  8
TEAM-NET
 10
-201.907886
 20
446.257974
 30
300.0
 70
    64
  0
VERTEX
  5
E5
  8
TEAM-NET
 10
-245.713561
 20
454.534315
 30
300.0
 70
    64
  0
VERTEX
  5
E6
  8
TEAM-NET
 10
-289.844084
 20
460.858026
 30
300.0
 70
    64
  0
VERTEX
  5
E7
  8
TEAM-NET
 10
-334.223281
 20
465.08233
 30
300.0
 70
    64
  0
VERTEX
  5
E8
  8
TEAM-NET
 10
-378.760512
 20
467.04771
 30
300.0
 70
    64
  0
VERTEX
  5
E9
  8
TEAM-NET
 10
-423.33545
 20
466.519089
 30
300.0
 70
    64
  0
VERTEX
  5
EA
  8
TEAM-NET
 10
-467.819084
 20
463.569665
 30
300.0
 70
    64
  0
VERTEX
  5
EB
  8
TEAM-NET
 10
-512.06663
 20
458.152446
 30
300.0
 70
    64
  0
SEQEND
  5
EC
  8
TEAM-NET
  0
POLYLINE
  5
ED
  8
TEAM-NET
 66
     1
 10
0.0
 20
0.0
 30
0.0
 70
    16
 71
     2
 72
    37
  0
VERTEX
  5
EE
  8
TEAM-NET
 10
775.0
 20
-525.0
 30
600.0
 70
    64
  0
VERTEX
  5
EF
  8
TEAM-NET
 10
717.293427
 20
-524.038114
 30
600.0
 70
    64
  0
VERTEX
  5
F0
  8
TEAM-NET
 10
659.626093
 20
-521.703181
 30
600.0
 70
    64
  0
VERTEX
  5
F1
  8
TEAM-NET
 10
602.030887
 20
-517.993134
 30
600.0
 70
    64
  0
VERTEX
  5
F2
  8
TEAM-NET
 10
544.54121
 20
-512.90321
 30
600.0
 70
    64
  0
VERTEX
  5
F3
  8
TEAM-NET
 10
487.1913
 20
-506.425929
 30
600.0
 70
    64
  0
VERTEX
  5
F4
  8
TEAM-NET
 10
430.01657
 20
-498.551042
 30
600.0
 70
    64
  0
VERTEX
  5
F5
  8
TEAM-NET
 10
373.053976
 20
-489.265479
 30
600.0
 70
    64
  0
VERTEX
  5
F6
  8
TEAM-NET
 10
316.342411
 20
-478.55327
 30
600.0
 70
    64
  0
VERTEX
  5
F7
  8
TEAM-NET
 10
259.923145
 20
-466.39546
 30
600.0
 70
    64
  0
VERTEX
  5
F8
  8
TEAM-NET
 10
203.840307
 20
-452.770009
 30
600.0
 70
    64
  0
VERTEX
  5
F9
  8
TEAM-NET
 10
148.14144
 20
-437.651676
 30
600.0
 70
    64
  0
VERTEX
  5
FA
  8
TEAM-NET
 10
92.878122
 20
-421.011907
 30
600.0
 70
    64
  0
VERTEX
  5
FB
  8
TEAM-NET
 10
38.106684
 20
-402.818714
 30
600.0
 70
    64
  0
VERTEX
  5
FC
  8
TEAM-NET
 10
-16.110964
 20
-383.036566
 30
600.0
 70
    64
  0
VERTEX
  5
FD
  8
TEAM-NET
 10
-69.706378
 20
-361.626295
 30
600.0
 70
    64
  0
VERTEX
  5
FE
  8
TEAM-NET
 10
-122.603467
 20
-338.54504
 30
600.0
 70
    64
  0
VERTEX
  5
FF
  8
TEAM-NET
 10
-174.717198
 20
-313.746254
 30
600.0
 70
    64
  0
VERTEX
  5
100
  8
TEAM-NET
 10
-225.952089
 20
-287.179799
 30
600.0
 70
    64
  0
VERTEX
  5
101
  8
TEAM-NET
 10
-276.200461
 20
-258.792193
 30
600.0
 70
    64
  0
VERTEX
  5
102
  8
TEAM-NET
 10
-325.340412
 20
-228.527061
 30
600.0
 70
    64
  0
VERTEX
  5
103
  8
TEAM-NET
 10
-373.233501
 20
-196.325894
 30
600.0
 70
    64
  0
VERTEX
  5
104
  8
TEAM-NET
 10
-419.722131
 20
-162.129237
 30
600.0
 70
    64
  0
VERTEX
  5
105
  8
TEAM-NET
 10
-464.626654
 20
-125.878478
 30
600.0
 70
    64
  0
VERTEX
  5
106
  8
TEAM-NET
 10
-507.742294
 20
-87.51845
 30
600.0
 70
    64
  0
VERTEX
  5
107
  8
TEAM-NET
 10
-548.836053
 20
-47.001121
 30
600.0
 70
    64
  0
VERTEX
  5
108
  8
TEAM-NET
 10
-587.643929
 20
-4.290669
 30
600.0
 70
    64
  0
VERTEX
  5
109
  8
TEAM-NET
 10
-623.868982
 20
40.629734
 30
600.0
 70
    64
  0
VERTEX
  5
10A
  8
TEAM-NET
 10
-657.181068
 20
87.749198
 30
600.0
 70
    64
  0
VERTEX
  5
10B
  8
TEAM-NET
 10
-687.219387
 20
137.018456
 30
600.0
 70
    64
  0
VERTEX
  5
10C
  8
TEAM-NET
 10
-713.599264
 20
188.337718
 30
600.0
 70
    64
  0
VERTEX
  5
10D
  8
TEAM-NET
 10
-735.924678
 20
241.544247
 30
600.0
 70
    64
  0
VERTEX
  5
10E
  8
TEAM-NET
 10
-753.80757
 20
296.401862
 30
600.0
 70
    64
  0
VERTEX
  5
10F
  8
TEAM-NET
 10
-766.893747
 20
352.595496
 30
600.0
 70
    64
  0
VERTEX
  5
110
  8
TEAM-NET
 10
-774.893127
 20
409.734265
 30
600.0
 70
    64
  0
VERTEX
  5
111
  8
TEAM-NET
 10
-777.609548
 20
467.365551
 30
600.0
 70
    64
  0
VERTEX
  5
112
  8
TEAM-NET
 10
-774.963775
 20
525.0
 30
600.0
 70
    64
  0
VERTEX
  5
113
  8
TEAM-NET
 10
775.0
 20
-525.0
 30
0.0
 70
    64
  0
VERTEX
  5
114
  8
TEAM-NET
 10
717.293427
 20
-524.038114
 30
0.0
 70
    64
  0
VERTEX
  5
115
  8
TEAM-NET
 10
659.626093
 20
-521.703181
 30
0.0
 70
    64
  0
VERTEX
  5
116
  8
TEAM-NET
 10
602.030887
 20
-517.993134
 30
0.0
 70
    64
  0
VERTEX
  5
117
  8
TEAM-NET
 10
544.54121
 20
-512.90321
 30
0.0
 70
    64
  0
VERTEX
  5
118
  8
TEAM-NET
 10
487.1913
 20
-506.425929
 30
0.0
 70
    64
  0
VERTEX
  5
119
  8
TEAM-NET
 10
430.01657
 20
-498.551042
 30
0.0
 70
    64
  0
VERTEX
  5
11A
  8
TEAM-NET
 10
373.053976
 20
-489.265479
 30
0.0
 70
    64
  0
VERTEX
  5
11B
  8
TEAM-NET
 10
316.342411
 20
-478.55327
 30
0.0
 70
    64
  0
VERTEX
  5
11C
  8
TEAM-NET
 10
259.923145
 20
-466.39546
 30
0.0
 70
    64
  0
VERTEX
  5
11D
  8
TEAM-NET
 10
203.840307
 20
-452.770009
 30
0.0
 70
    64
  0
VERTEX
  5
11E
  8
TEAM-NET
 10
148.14144
 20
-437.651676
 30
0.0
 70
    64
  0
VERTEX
  5
11F
  8
TEAM-NET
 10
92.878122
 20
-421.011907
 30
0.0
 70
    64
  0
VERTEX
  5
120
  8
TEAM-NET
 10
38.106684
 20
-402.818714
 30
0.0
 70
    64
  0
VERTEX
  5
121
  8
TEAM-NET
 10
-16.110964
 20
-383.036566
 30
0.0
 70
    64
  0
VERTEX
  5
122
  8
TEAM-NET
 10
-69.706378
 20
-361.626295
 30
0.0
 70
    64
  0
VERTEX
  5
123
  8
TEAM-NET
 10
-122.603467
 20
-338.54504
 30
0.0
 70
    64
  0
VERTEX
  5
124
  8
TEAM-NET
 10
-174.717198
 20
-313.746254
 30
0.0
 70
    64
  0
VERTEX
  5
125
  8
TEAM-NET
 10
-225.952089
 20
-287.179799
 30
0.0
 70
    64
  0
VERTEX
  5
126
  8
TEAM-NET
 10
-276.200461
 20
-258.792193
 30
0.0
 70
    64
  0
VERTEX
  5
127
  8
TEAM-NET
 10
-325.340412
 20
-228.527061
 30
0.0
 70
    64
  0
VERTEX
  5
128
  8
TEAM-NET
 10
-373.233501
 20
-196.325894
 30
0.0
 70
    64
  0
VERTEX
  5
129
  8
TEAM-NET
 10
-419.722131
 20
-162.129237
 30
0.0
 70
    64
  0
VERTEX
  5
12A
  8
TEAM-NET
 10
-464.626654
 20
-125.878478
 30
0.0
 70
    64
  0
VERTEX
  5
12B
  8
TEAM-NET
 10
-507.742294
 20
-87.51845
 30
0.0
 70
    64
  0
VERTEX
  5
12C
  8
TEAM-NET
 10
-548.836053
 20
-47.001121
 30
0.0
 70
    64
  0
VERTEX
  5
12D
  8
TEAM-NET
 10
-587.643929
 20
-4.290669
 30
0.0
 70
    64
  0
VERTEX
  5
12E
  8
TEAM-NET
 10
-623.868982
 20
40.629734
 30
0.0
 70
    64
  0
VERTEX
  5
12F
  8
TEAM-NET
 10
-657.181068
 20
87.749198
 30
0.0
 70
    64
  0
VERTEX
  5
130
  8
TEAM-NET
 10
-687.219387
 20
137.018456
 30
0.0
 70
    64
  0
VERTEX
  5
131
  8
TEAM-NET
 10
-713.599264
 20
188.337718
 30
0.0
 70
    64
  0
VERTEX
  5
132
  8
TEAM-NET
 10
-735.924678
 20
241.544247
 30
0.0
 70
    64
  0
VERTEX
  5
133
  8
TEAM-NET
 10
-753.80757
 20
296.401862
 30
0.0
 70
    64
  0
VERTEX
  5
134
  8
TEAM-NET
 10
-766.893747
 20
352.595496
 30
0.0
 70
    64
  0
VERTEX
  5
135
  8
TEAM-NET
 10
-774.893127
 20
409.734265
 30
0.0
 70
    64
  0
VERTEX
  5
136
  8
TEAM-NET
 10
-777.609548
 20
467.365551
 30
0.0
 70
    64
  0
VERTEX
  5
137
  8
TEAM-NET
 10
-774.963775
 20
525.0
 30
0.0
 70
    64
  0
SEQEND
  5
138
  8
TEAM-NET
  0
POLYLINE
  5
139
  8
TEAM-NET
 66
     1
 10
0.0
 20
0.0
 30
0.0
 70
    16
 71
     2
 72
    37
  0
VERTEX
  5
13A
  8
TEAM-NET
 10
775.0
 20
-525.0
 30
0.0
 70
    64
  0
VERTEX
  5
13B
  8
TEAM-NET
 10
775.0
 20
-452.778784
 30
0.0
 70
    64
  0
VERTEX
  5
13C
  8
TEAM-NET
 10
775.0
 20
-380.557568
 30
0.0
 70
    64
  0
VERTEX
  5
13D
  8
TEAM-NET
 10
775.0
 20
-308.336352
 30
0.0
 70
    64
  0
VERTEX
  5
13E
  8
TEAM-NET
 10
775.0
 20
-236.115136
 30
0.0
 70
    64
  0
VERTEX
  5
13F
  8
TEAM-NET
 10
775.0
 20
-163.89392
 30
0.0
 70
    64
  0
VERTEX
  5
140
  8
TEAM-NET
 10
775.0
 20
-91.672704
 30
0.0
 70
    64
  0
VERTEX
  5
141
  8
TEAM-NET
 10
775.0
 20
-19.451488
 30
0.0
 70
    64
  0
VERTEX
  5
142
  8
TEAM-NET
 10
775.0
 20
52.769728
 30
0.0
 70
    64
  0
VERTEX
  5
143
  8
TEAM-NET
 10
775.0
 20
124.990944
 30
0.0
 70
    64
  0
VERTEX
  5
144
  8
TEAM-NET
 10
775.0
 20
197.21216
 30
0.0
 70
    64
  0
VERTEX
  5
145
  8
TEAM-NET
 10
775.0
 20
269.433376
 30
0.0
 70
    64
  0
VERTEX
  5
146
  8
TEAM-NET
 10
775.0
 20
341.654592
 30
0.0
 70
    64
  0
VERTEX
  5
147
  8
TEAM-NET
 10
775.0
 20
413.875808
 30
0.0
 70
    64
  0
VERTEX
  5
148
  8
TEAM-NET
 10
775.0
 20
486.097024
 30
0.0
 70
    64
  0
VERTEX
  5
149
  8
TEAM-NET
 10
741.68176
 20
525.0
 30
0.0
 70
    64
  0
VERTEX
  5
14A
  8
TEAM-NET
 10
669.460544
 20
525.0
 30
0.0
 70
    64
  0
VERTEX
  5
14B
  8
TEAM-NET
 10
597.239328
 20
525.0
 30
0.0
 70
    64
  0
VERTEX
  5
14C
  8
TEAM-NET
 10
525.018112
 20
525.0
 30
0.0
 70
    64
  0
VERTEX
  5
14D
  8
TEAM-NET
 10
452.796896
 20
525.0
 30
0.0
 70
    64
  0
VERTEX
  5
14E
  8
TEAM-NET
 10
380.57568
 20
525.0
 30
0.0
 70
    64
  0
VERTEX
  5
14F
  8
TEAM-NET
 10
308.354464
 20
525.0
 30
0.0
 70
    64
  0
VERTEX
  5
150
  8
TEAM-NET
 10
236.133248
 20
525.0
 30
0.0
 70
    64
  0
VERTEX
  5
151
  8
TEAM-NET
 10
163.912032
 20
525.0
 30
0.0
 70
    64
  0
VERTEX
  5
152
  8
TEAM-NET
 10
91.690816
 20
525.0
 30
0.0
 70
    64
  0
VERTEX
  5
153
  8
TEAM-NET
 10
19.4696
 20
525.0
 30
0.0
 70
    64
  0
VERTEX
  5
154
  8
TEAM-NET
 10
-52.751616
 20
525.0
 30
0.0
 70
    64
  0
VERTEX
  5
155
  8
TEAM-NET
 10
-124.972832
 20
525.0
 30
0.0
 70
    64
  0
VERTEX
  5
156
  8
TEAM-NET
 10
-197.194047
 20
525.0
 30
0.0
 70
    64
  0
VERTEX
  5
157
  8
TEAM-NET
 10
-269.415263
 20
525.0
 30
0.0
 70
    64
  0
VERTEX
  5
158
  8
TEAM-NET
 10
-341.636479
 20
525.0
 30
0.0
 70
    64
  0
VERTEX
  5
159
  8
TEAM-NET
 10
-413.857695
 20
525.0
 30
0.0
 70
    64
  0
VERTEX
  5
15A
  8
TEAM-NET
 10
-486.078911
 20
525.0
 30
0.0
 70
    64
  0
VERTEX
  5
15B
  8
TEAM-NET
 10
-558.300127
 20
525.0
 30
0.0
 70
    64
  0
VERTEX
  5
15C
  8
TEAM-NET
 10
-630.521343
 20
525.0
 30
0.0
 70
    64
  0
VERTEX
  5
15D
  8
TEAM-NET
 10
-702.742559
 20
525.0
 30
0.0
 70
    64
  0
VERTEX
  5
15E
  8
TEAM-NET
 10
-774.963775
 20
525.0
 30
0.0
 70
    64
  0
VERTEX
  5
15F
  8
TEAM-NET
 10
775.0
 20
-525.0
 30
600.0
 70
    64
  0
VERTEX
  5
160
  8
TEAM-NET
 10
775.0
 20
-452.778784
 30
600.0
 70
    64
  0
VERTEX
  5
161
  8
TEAM-NET
 10
775.0
 20
-380.557568
 30
600.0
 70
    64
  0
VERTEX
  5
162
  8
TEAM-NET
 10
775.0
 20
-308.336352
 30
600.0
 70
    64
  0
VERTEX
  5
163
  8
TEAM-NET
 10
775.0
 20
-236.115136
 30
600.0
 70
    64
  0
VERTEX
  5
164
  8
TEAM-NET
 10
775.0
 20
-163.89392
 30
600.0
 70
    64
  0
VERTEX
  5
165
  8
TEAM-NET
 10
775.0
 20
-91.672704
 30
600.0
 70
    64
  0
VERTEX
  5
166
  8
TEAM-NET
 10
775.0
 20
-19.451488
 30
600.0
 70
    64
  0
VERTEX
  5
167
  8
TEAM-NET
 10
775.0
 20
52.769728
 30
600.0
 70
    64
  0
VERTEX
  5
168
  8
TEAM-NET
 10
775.0
 20
124.990944
 30
600.0
 70
    64
  0
VERTEX
  5
169
  8
TEAM-NET
 10
775.0
 20
197.21216
 30
600.0
 70
    64
  0
VERTEX
  5
16A
  8
TEAM-NET
 10
775.0
 20
269.433376
 30
600.0
 70
    64
  0
VERTEX
  5
16B
  8
TEAM-NET
 10
775.0
 20
341.654592
 30
600.0
 70
    64
  0
VERTEX
  5
16C
  8
TEAM-NET
 10
775.0
 20
413.875808
 30
600.0
 70
    64
  0
VERTEX
  5
16D
  8
TEAM-NET
 10
775.0
 20
486.097024
 30
600.0
 70
    64
  0
VERTEX
  5
16E
  8
TEAM-NET
 10
741.68176
 20
525.0
 30
600.0
 70
    64
  0
VERTEX
  5
16F
  8
TEAM-NET
 10
669.460544
 20
525.0
 30
600.0
 70
    64
  0
VERTEX
  5
170
  8
TEAM-NET
 10
597.239328
 20
525.0
 30
600.0
 70
    64
  0
VERTEX
  5
171
  8
TEAM-NET
 10
525.018112
 20
525.0
 30
600.0
 70
    64
  0
VERTEX
  5
172
  8
TEAM-NET
 10
452.796896
 20
525.0
 30
600.0
 70
    64
  0
VERTEX
  5
173
  8
TEAM-NET
 10
380.57568
 20
525.0
 30
600.0
 70
    64
  0
VERTEX
  5
174
  8
TEAM-NET
 10
308.354464
 20
525.0
 30
600.0
 70
    64
  0
VERTEX
  5
175
  8
TEAM-NET
 10
236.133248
 20
525.0
 30
600.0
 70
    64
  0
VERTEX
  5
176
  8
TEAM-NET
 10
163.912032
 20
525.0
 30
600.0
 70
    64
  0
VERTEX
  5
177
  8
TEAM-NET
 10
91.690816
 20
525.0
 30
600.0
 70
    64
  0
VERTEX
  5
178
  8
TEAM-NET
 10
19.4696
 20
525.0
 30
600.0
 70
    64
  0
VERTEX
  5
179
  8
TEAM-NET
 10
-52.751616
 20
525.0
 30
600.0
 70
    64
  0
VERTEX
  5
17A
  8
TEAM-NET
 10
-124.972832
 20
525.0
 30
600.0
 70
    64
  0
VERTEX
  5
17B
  8
TEAM-NET
 10
-197.194047
 20
525.0
 30
600.0
 70
    64
  0
VERTEX
  5
17C
  8
TEAM-NET
 10
-269.415263
 20
525.0
 30
600.0
 70
    64
  0
VERTEX
  5
17D
  8
TEAM-NET
 10
-341.636479
 20
525.0
 30
600.0
 70
    64
  0
VERTEX
  5
17E
  8
TEAM-NET
 10
-413.857695
 20
525.0
 30
600.0
 70
    64
  0
VERTEX
  5
17F
  8
TEAM-NET
 10
-486.078911
 20
525.0
 30
600.0
 70
    64
  0
VERTEX
  5
180
  8
TEAM-NET
 10
-558.300127
 20
525.0
 30
600.0
 70
    64
  0
VERTEX
  5
181
  8
TEAM-NET
 10
-630.521343
 20
525.0
 30
600.0
 70
    64
  0
VERTEX
  5
182
  8
TEAM-NET
 10
-702.742559
 20
525.0
 30
600.0
 70
    64
  0
VERTEX
  5
183
  8
TEAM-NET
 10
-774.963775
 20
525.0
 30
600.0
 70
    64
  0
SEQEND
  5
184
  8
TEAM-NET
  0
CIRCLE
  5
185
  8
TEAM-INSP
 10
0.0
 20
0.0
 30
0.0
 40
10.0
  0
POLYLINE
  5
187
  8
TEAM-BODY
 66
     1
 10
0.0
 20
0.0
 30
0.0
  0
VERTEX
  5
5D0
  8
TEAM-BODY
 10
-774.963775
 20
525.0
 30
0.0
  0
VERTEX
  5
5D1
  8
TEAM-BODY
 10
775.0
 20
525.0
 30
0.0
  0
VERTEX
  5
5D2
  8
TEAM-BODY
 10
775.0
 20
-525.0
 30
0.0
  0
SEQEND
  5
5D3
  8
TEAM-BODY
  0
POLYLINE
  5
189
  8
TEAM-BODY
 66
     1
 10
0.0
 20
0.0
 30
0.0
 70
   128
210
0.0
220
0.0
230
-1.0
  0
VERTEX
  5
5D4
  8
TEAM-BODY
 10
774.963775
 20
525.0
 30
0.0
  0
VERTEX
  5
5D5
  8
TEAM-BODY
 10
777.609667
 20
467.909059
 30
0.0
  0
VERTEX
  5
5D6
  8
TEAM-BODY
 10
774.988672
 20
410.763675
 30
0.0
  0
VERTEX
  5
5D7
  8
TEAM-BODY
 10
767.109758
 20
353.759375
 30
0.0
  0
VERTEX
  5
5D8
  8
TEAM-BODY
 10
753.999883
 20
297.091201
 30
0.0
  0
VERTEX
  5
5D9
  8
TEAM-BODY
 10
735.703903
 20
240.953047
 30
0.0
  0
VERTEX
  5
5DA
  8
TEAM-BODY
 10
712.284419
 20
185.536994
 30
0.0
  0
VERTEX
  5
5DB
  8
TEAM-BODY
 10
683.821563
 20
131.03265
 30
0.0
  0
VERTEX
  5
5DC
  8
TEAM-BODY
 10
650.412721
 20
77.626506
 30
0.0
  0
VERTEX
  5
5DD
  8
TEAM-BODY
 10
612.172203
 20
25.501293
 30
0.0
  0
VERTEX
  5
5DE
  8
TEAM-BODY
 10
569.230853
 20
-25.164638
 30
0.0
  0
VERTEX
  5
5DF
  8
TEAM-BODY
 10
521.735596
 20
-74.197932
 30
0.0
  0
VERTEX
  5
5E0
  8
TEAM-BODY
 10
469.848941
 20
-121.430817
 30
0.0
  0
VERTEX
  5
5E1
  8
TEAM-BODY
 10
413.74842
 20
-166.701685
 30
0.0
  0
VERTEX
  5
5E2
  8
TEAM-BODY
 10
353.625985
 20
-209.855637
 30
0.0
  0
VERTEX
  5
5E3
  8
TEAM-BODY
 10
289.687348
 20
-250.74502
 30
0.0
  0
VERTEX
  5
5E4
  8
TEAM-BODY
 10
222.15128
 20
-289.229929
 30
0.0
  0
VERTEX
  5
5E5
  8
TEAM-BODY
 10
151.248858
 20
-325.178685
 30
0.0
  0
VERTEX
  5
5E6
  8
TEAM-BODY
 10
77.22268
 20
-358.468287
 30
0.0
  0
VERTEX
  5
5E7
  8
TEAM-BODY
 10
0.32603
 20
-388.984834
 30
0.0
  0
VERTEX
  5
5E8
  8
TEAM-BODY
 10
-79.177985
 20
-416.62391
 30
0.0
  0
VERTEX
  5
5E9
  8
TEAM-BODY
 10
-161.017336
 20
-441.290948
 30
0.0
  0
VERTEX
  5
5EA
  8
TEAM-BODY
 10
-244.912007
 20
-462.901547
 30
0.0
  0
VERTEX
  5
5EB
  8
TEAM-BODY
 10
-330.574947
 20
-481.381765
 30
0.0
  0
VERTEX
  5
5EC
  8
TEAM-BODY
 10
-417.713054
 20
-496.668372
 30
0.0
  0
VERTEX
  5
5ED
  8
TEAM-BODY
 10
-506.028181
 20
-508.709063
 30
0.0
  0
VERTEX
  5
5EE
  8
TEAM-BODY
 10
-595.218151
 20
-517.46264
 30
0.0
  0
VERTEX
  5
5EF
  8
TEAM-BODY
 10
-684.977797
 20
-522.899153
 30
0.0
  0
VERTEX
  5
5F0
  8
TEAM-BODY
 10
-775.0
 20
-525.0
 30
0.0
  0
SEQEND
  5
5F1
  8
TEAM-BODY
  0
CIRCLE
  5
18A
  8
TEAM-BODY
 10
-462.817554
 20
207.084138
 30
150.0
 40
45.0
  0
CIRCLE
  5
18B
  8
TEAM-KAN
 10
-462.817554
 20
207.084138
 30
150.0
 40
26.0
  0
POLYLINE
  5
18D
  8
TEAM-DET1
 66
     1
 10
0.0
 20
0.0
 30
150.0
  0
VERTEX
  5
5F2
  8
TEAM-DET1
 10
-582.921357
 20
394.897944
 30
150.0
 42
-0.123046
  0
VERTEX
  5
5F3
  8
TEAM-DET1
 10
-520.146724
 20
425.010336
 30
150.0
 42
-0.192686
  0
VERTEX
  5
5F4
  8
TEAM-DET1
 10
346.213533
 20
167.917173
 30
150.0
 42
-0.050308
  0
VERTEX
  5
5F5
  8
TEAM-DET1
 10
390.201949
 20
130.498386
 30
150.0
 42
-0.501524
  0
VERTEX
  5
5F6
  8
TEAM-DET1
 10
336.804964
 20
-229.07904
 30
150.0
 42
-0.501524
  0
SEQEND
  5
5F7
  8
TEAM-DET1
  0
POLYLINE
  5
18F
  8
TEAM-DET1
 66
     1
 10
0.0
 20
0.0
 30
150.0
  0
VERTEX
  5
5F8
  8
TEAM-DET1
 10
336.804964
 20
-229.07904
 30
150.0
 42
-0.175727
  0
VERTEX
  5
5F9
  8
TEAM-DET1
 10
183.809616
 20
-251.535852
 30
150.0
 42
-0.216994
  0
VERTEX
  5
5FA
  8
TEAM-DET1
 10
-615.626869
 20
212.518643
 30
150.0
 42
-0.365724
  0
VERTEX
  5
5FB
  8
TEAM-DET1
 10
-582.921357
 20
394.897944
 30
150.0
  0
SEQEND
  5
5FC
  8
TEAM-DET1
  0
POLYLINE
  5
190
  8
TEAM-NET
 66
     1
 10
0.0
 20
0.0
 30
0.0
 70
    16
 71
     2
 72
    37
  0
VERTEX
  5
191
  8
TEAM-NET
 10
336.804964
 20
-229.07904
 30
150.0
 70
    64
  0
VERTEX
  5
192
  8
TEAM-NET
 10
303.456995
 20
-243.703085
 30
150.0
 70
    64
  0
VERTEX
  5
193
  8
TEAM-NET
 10
268.198385
 20
-252.801443
 30
150.0
 70
    64
  0
VERTEX
  5
194
  8
TEAM-NET
 10
231.938121
 20
-256.139553
 30
150.0
 70
    64
  0
VERTEX
  5
195
  8
TEAM-NET
 10
195.611014
 20
-253.631355
 30
150.0
 70
    64
  0
VERTEX
  5
196
  8
TEAM-NET
 10
159.491333
 20
-248.861101
 30
150.0
 70
    64
  0
VERTEX
  5
197
  8
TEAM-NET
 10
123.380998
 20
-243.887809
 30
150.0
 70
    64
  0
VERTEX
  5
198
  8
TEAM-NET
 10
87.452504
 20
-237.736942
 30
150.0
 70
    64
  0
VERTEX
  5
199
  8
TEAM-NET
 10
51.74424
 20
-230.415072
 30
150.0
 70
    64
  0
VERTEX
  5
19A
  8
TEAM-NET
 10
16.294362
 20
-221.930023
 30
150.0
 70
    64
  0
VERTEX
  5
19B
  8
TEAM-NET
 10
-18.85925
 20
-212.290861
 30
150.0
 70
    64
  0
VERTEX
  5
19C
  8
TEAM-NET
 10
-53.679033
 20
-201.507887
 30
150.0
 70
    64
  0
VERTEX
  5
19D
  8
TEAM-NET
 10
-88.127783
 20
-189.592621
 30
150.0
 70
    64
  0
VERTEX
  5
19E
  8
TEAM-NET
 10
-122.168688
 20
-176.557796
 30
150.0
 70
    64
  0
VERTEX
  5
19F
  8
TEAM-NET
 10
-155.765375
 20
-162.417341
 30
150.0
 70
    64
  0
VERTEX
  5
1A0
  8
TEAM-NET
 10
-188.881945
 20
-147.186364
 30
150.0
 70
    64
  0
VERTEX
  5
1A1
  8
TEAM-NET
 10
-221.483012
 20
-130.88114
 30
150.0
 70
    64
  0
VERTEX
  5
1A2
  8
TEAM-NET
 10
-253.533741
 20
-113.519093
 30
150.0
 70
    64
  0
VERTEX
  5
1A3
  8
TEAM-NET
 10
-284.999883
 20
-95.118773
 30
150.0
 70
    64
  0
VERTEX
  5
1A4
  8
TEAM-NET
 10
-315.847817
 20
-75.699843
 30
150.0
 70
    64
  0
VERTEX
  5
1A5
  8
TEAM-NET
 10
-346.044581
 20
-55.283052
 30
150.0
 70
    64
  0
VERTEX
  5
1A6
  8
TEAM-NET
 10
-375.557907
 20
-33.890217
 30
150.0
 70
    64
  0
VERTEX
  5
1A7
  8
TEAM-NET
 10
-404.356262
 20
-11.544195
 30
150.0
 70
    64
  0
VERTEX
  5
1A8
  8
TEAM-NET
 10
-432.408871
 20
11.731135
 30
150.0
 70
    64
  0
VERTEX
  5
1A9
  8
TEAM-NET
 10
-459.68576
 20
35.910903
 30
150.0
 70
    64
  0
VERTEX
  5
1AA
  8
TEAM-NET
 10
-486.157784
 20
60.969272
 30
150.0
 70
    64
  0
VERTEX
  5
1AB
  8
TEAM-NET
 10
-511.796655
 20
86.879467
 30
150.0
 70
    64
  0
VERTEX
  5
1AC
  8
TEAM-NET
 10
-536.574977
 20
113.613801
 30
150.0
 70
    64
  0
VERTEX
  5
1AD
  8
TEAM-NET
 10
-560.466275
 20
141.143708
 30
150.0
 70
    64
  0
VERTEX
  5
1AE
  8
TEAM-NET
 10
-583.445019
 20
169.439771
 30
150.0
 70
    64
  0
VERTEX
  5
1AF
  8
TEAM-NET
 10
-605.486657
 20
198.471755
 30
150.0
 70
    64
  0
VERTEX
  5
1B0
  8
TEAM-NET
 10
-624.064216
 20
229.669613
 30
150.0
 70
    64
  0
VERTEX
  5
1B1
  8
TEAM-NET
 10
-633.538786
 20
264.768336
 30
150.0
 70
    64
  0
VERTEX
  5
1B2
  8
TEAM-NET
 10
-633.895305
 20
301.121613
 30
150.0
 70
    64
  0
VERTEX
  5
1B3
  8
TEAM-NET
 10
-625.110921
 20
336.399403
 30
150.0
 70
    64
  0
VERTEX
  5
1B4
  8
TEAM-NET
 10
-607.748664
 20
368.340597
 30
150.0
 70
    64
  0
VERTEX
  5
1B5
  8
TEAM-NET
 10
-582.921357
 20
394.897944
 30
150.0
 70
    64
  0
VERTEX
  5
1B6
  8
TEAM-NET
 10
336.804964
 20
-229.07904
 30
150.0
 70
    64
  0
VERTEX
  5
1B7
  8
TEAM-NET
 10
370.957657
 20
-206.506439
 30
150.0
 70
    64
  0
VERTEX
  5
1B8
  8
TEAM-NET
 10
400.495874
 20
-178.161732
 30
150.0
 70
    64
  0
VERTEX
  5
1B9
  8
TEAM-NET
 10
424.457105
 20
-144.968537
 30
150.0
 70
    64
  0
VERTEX
  5
1BA
  8
TEAM-NET
 10
442.060565
 20
-108.008466
 30
150.0
 70
    64
  0
VERTEX
  5
1BB
  8
TEAM-NET
 10
452.732642
 20
-68.485871
 30
150.0
 70
    64
  0
VERTEX
  5
1BC
  8
TEAM-NET
 10
456.125583
 20
-27.688608
 30
150.0
 70
    64
  0
VERTEX
  5
1BD
  8
TEAM-NET
 10
452.128828
 20
13.053933
 30
150.0
 70
    64
  0
VERTEX
  5
1BE
  8
TEAM-NET
 10
440.872611
 20
52.414146
 30
150.0
 70
    64
  0
VERTEX
  5
1BF
  8
TEAM-NET
 10
422.723721
 20
89.109466
 30
150.0
 70
    64
  0
VERTEX
  5
1C0
  8
TEAM-NET
 10
398.273544
 20
121.944166
 30
150.0
 70
    64
  0
VERTEX
  5
1C1
  8
TEAM-NET
 10
368.914762
 20
150.51327
 30
150.0
 70
    64
  0
VERTEX
  5
1C2
  8
TEAM-NET
 10
336.466823
 20
175.545728
 30
150.0
 70
    64
  0
VERTEX
  5
1C3
  8
TEAM-NET
 10
303.639955
 20
200.096432
 30
150.0
 70
    64
  0
VERTEX
  5
1C4
  8
TEAM-NET
 10
270.004265
 20
223.526769
 30
150.0
 70
    64
  0
VERTEX
  5
1C5
  8
TEAM-NET
 10
235.597974
 20
245.810115
 30
150.0
 70
    64
  0
VERTEX
  5
1C6
  8
TEAM-NET
 10
200.460179
 20
266.921148
 30
150.0
 70
    64
  0
VERTEX
  5
1C7
  8
TEAM-NET
 10
164.630809
 20
286.83588
 30
150.0
 70
    64
  0
VERTEX
  5
1C8
  8
TEAM-NET
 10
128.150577
 20
305.531681
 30
150.0
 70
    64
  0
VERTEX
  5
1C9
  8
TEAM-NET
 10
91.060935
 20
322.987307
 30
150.0
 70
    64
  0
VERTEX
  5
1CA
  8
TEAM-NET
 10
53.404032
 20
339.182922
 30
150.0
 70
    64
  0
VERTEX
  5
1CB
  8
TEAM-NET
 10
15.222656
 20
354.100122
 30
150.0
 70
    64
  0
VERTEX
  5
1CC
  8
TEAM-NET
 10
-23.439806
 20
367.721958
 30
150.0
 70
    64
  0
VERTEX
  5
1CD
  8
TEAM-NET
 10
-62.53942
 20
380.03295
 30
150.0
 70
    64
  0
VERTEX
  5
1CE
  8
TEAM-NET
 10
-102.031757
 20
391.019108
 30
150.0
 70
    64
  0
VERTEX
  5
1CF
  8
TEAM-NET
 10
-141.87194
 20
400.667949
 30
150.0
 70
    64
  0
VERTEX
  5
1D0
  8
TEAM-NET
 10
-182.014698
 20
408.968509
 30
150.0
 70
    64
  0
VERTEX
  5
1D1
  8
TEAM-NET
 10
-222.414416
 20
415.911356
 30
150.0
 70
    64
  0
VERTEX
  5
1D2
  8
TEAM-NET
 10
-263.025187
 20
421.4886
 30
150.0
 70
    64
  0
VERTEX
  5
1D3
  8
TEAM-NET
 10
-303.800863
 20
425.693904
 30
150.0
 70
    64
  0
VERTEX
  5
1D4
  8
TEAM-NET
 10
-344.69511
 20
428.522488
 30
150.0
 70
    64
  0
VERTEX
  5
1D5
  8
TEAM-NET
 10
-385.661459
 20
429.97114
 30
150.0
 70
    64
  0
VERTEX
  5
1D6
  8
TEAM-NET
 10
-426.653359
 20
430.038212
 30
150.0
 70
    64
  0
VERTEX
  5
1D7
  8
TEAM-NET
 10
-467.624229
 20
428.723629
 30
150.0
 70
    64
  0
VERTEX
  5
1D8
  8
TEAM-NET
 10
-508.527513
 20
426.028884
 30
150.0
 70
    64
  0
VERTEX
  5
1D9
  8
TEAM-NET
 10
-548.078642
 20
416.231087
 30
150.0
 70
    64
  0
VERTEX
  5
1DA
  8
TEAM-NET
 10
-582.921357
 20
394.897944
 30
150.0
 70
    64
  0
SEQEND
  5
1DB
  8
TEAM-NET
  0
POLYLINE
  5
1DC
  8
TEAM-DET1
 66
     1
 10
0.0
 20
0.0
 30
300.0
 70
   128
  0
VERTEX
  5
5FD
  8
TEAM-DET1
 10
-512.06663
 20
458.152446
 30
300.0
  0
VERTEX
  5
5FE
  8
TEAM-DET1
 10
-480.401951
 20
462.309069
 30
300.0
  0
VERTEX
  5
5FF
  8
TEAM-DET1
 10
-446.643813
 20
465.250059
 30
300.0
  0
VERTEX
  5
600
  8
TEAM-DET1
 10
-411.278683
 20
466.914405
 30
300.0
  0
VERTEX
  5
601
  8
TEAM-DET1
 10
-377.014393
 20
467.016299
 30
300.0
  0
VERTEX
  5
602
  8
TEAM-DET1
 10
-342.947861
 20
465.651918
 30
300.0
  0
VERTEX
  5
603
  8
TEAM-DET1
 10
-308.441933
 20
462.894558
 30
300.0
  0
VERTEX
  5
604
  8
TEAM-DET1
 10
-273.501412
 20
458.75821
 30
300.0
  0
VERTEX
  5
605
  8
TEAM-DET1
 10
-238.142859
 20
453.244007
 30
300.0
  0
VERTEX
  5
606
  8
TEAM-DET1
 10
-202.775391
 20
446.440824
 30
300.0
  0
VERTEX
  5
607
  8
TEAM-DET1
 10
-166.623253
 20
438.185146
 30
300.0
  0
VERTEX
  5
608
  8
TEAM-DET1
 10
-130.662739
 20
428.708959
 30
300.0
  0
VERTEX
  5
609
  8
TEAM-DET1
 10
-94.270192
 20
417.859862
 30
300.0
  0
VERTEX
  5
60A
  8
TEAM-DET1
 10
-63.228758
 20
407.625902
 30
300.0
  0
VERTEX
  5
60B
  8
TEAM-DET1
 10
-35.475807
 20
397.723689
 30
300.0
  0
VERTEX
  5
60C
  8
TEAM-DET1
 10
18.782818
 20
376.321909
 30
300.0
  0
VERTEX
  5
60D
  8
TEAM-DET1
 10
74.012141
 20
351.807103
 30
300.0
  0
VERTEX
  5
60E
  8
TEAM-DET1
 10
129.773913
 20
324.274597
 30
300.0
  0
VERTEX
  5
60F
  8
TEAM-DET1
 10
185.870735
 20
293.757649
 30
300.0
  0
VERTEX
  5
610
  8
TEAM-DET1
 10
242.087427
 20
260.307365
 30
300.0
  0
VERTEX
  5
611
  8
TEAM-DET1
 10
298.202006
 20
224.015057
 30
300.0
  0
VERTEX
  5
612
  8
TEAM-DET1
 10
353.990941
 20
184.983958
 30
300.0
  0
VERTEX
  5
613
  8
TEAM-DET1
 10
409.233006
 20
143.344364
 30
300.0
  0
VERTEX
  5
614
  8
TEAM-DET1
 10
463.711032
 20
99.251218
 30
300.0
  0
SEQEND
  5
615
  8
TEAM-DET1
  0
ARC
  5
1DD
  8
TEAM-DET1
 10
24.9217
 20
-358.807287
 30
500.0
 40
800.0
 50
51.7
 51
94.894518
  0
ARC
  5
1DE
  8
TEAM-DET1
 10
-602.568034
 20
133.394836
 30
560.0
 40
19.68836
 50
49.85806
 51
71.192658
  0
ARC
  5
1DF
  8
TEAM-DET1
 10
-640.014577
 20
98.537434
 30
560.0
 40
71.093507
 50
29.804928
 51
38.402731
  0
ARC
  5
1E0
  8
TEAM-DET1
 10
-615.731686
 20
117.785701
 30
560.0
 40
40.107146
 50
38.402731
 51
49.85806
  0
ARC
  5
1E1
  8
TEAM-DET1
 10
-597.504426
 20
148.262842
 30
560.0
 40
3.981746
 50
71.192658
 51
119.804928
  0
ARC
  5
1E2
  8
TEAM-DET1
 10
-597.504426
 20
148.262842
 30
560.0
 40
3.981746
 50
119.804928
 51
168.417198
  0
ARC
  5
1E3
  8
TEAM-DET1
 10
-582.117668
 20
145.109207
 30
560.0
 40
19.68836
 50
168.417198
 51
189.751797
  0
ARC
  5
1E4
  8
TEAM-DET1
 10
-561.993918
 20
148.56775
 30
560.0
 40
40.107146
 50
189.751797
 51
201.207126
  0
ARC
  5
1E5
  8
TEAM-DET1
 10
-533.10599
 20
159.776772
 30
560.0
 40
71.093507
 50
209.804928
 51
218.402731
  0
ARC
  5
1E6
  8
TEAM-DET1
 10
-557.388881
 20
140.528506
 30
560.0
 40
40.107146
 50
218.402731
 51
229.85806
  0
ARC
  5
1E7
  8
TEAM-DET1
 10
-570.552532
 20
124.91937
 30
560.0
 40
19.68836
 50
229.85806
 51
251.192658
  0
ARC
  5
1E8
  8
TEAM-DET1
 10
-575.616141
 20
110.051364
 30
560.0
 40
3.981746
 50
299.804928
 51
348.417198
  0
ARC
  5
1E9
  8
TEAM-DET1
 10
-591.002899
 20
113.204999
 30
560.0
 40
19.68836
 50
348.417198
 51
9.751797
  0
ARC
  5
1EA
  8
TEAM-DET1
 10
-611.126649
 20
109.746457
 30
560.0
 40
40.107146
 50
9.751797
 51
21.207126
  0
ARC
  5
1EB
  8
TEAM-DET1
 10
-575.616141
 20
110.051364
 30
560.0
 40
3.981746
 50
251.192658
 51
299.804928
  0
ARC
  5
1EC
  8
TEAM-DET1
 10
-640.014577
 20
98.537434
 30
560.0
 40
71.093507
 50
21.207126
 51
29.804928
  0
ARC
  5
1ED
  8
TEAM-DET1
 10
-533.10599
 20
159.776772
 30
560.0
 40
71.093507
 50
201.207126
 51
209.804928
  0
TEXT
  5
1EE
  8
TEAM-TXT
 10
509.873045
 20
450.18399
 30
600.0
 40
30.0
  1
team 121392
 41
0.8
 51
15.0
  7
TEAM
  0
POLYLINE
  5
1F1
  8
TEAM-BODY
 66
     1
 10
0.0
 20
0.0
 30
600.0
  0
VERTEX
  5
616
  8
TEAM-BODY
 10
-611.220656
 20
414.056728
 30
600.0
 42
-0.155268
  0
VERTEX
  5
617
  8
TEAM-BODY
 10
-512.06663
 20
465.214382
 30
600.0
 42
-0.090097
  0
VERTEX
  5
618
  8
TEAM-BODY
 10
431.999118
 20
383.143212
 30
600.0
 42
-0.55879
  0
VERTEX
  5
619
  8
TEAM-BODY
 10
615.632931
 20
-274.56395
 30
600.0
  0
SEQEND
  5
61A
  8
TEAM-BODY
  0
POLYLINE
  5
1F2
  8
TEAM-BODY
 66
     1
 10
0.0
 20
0.0
 30
600.0
  0
VERTEX
  5
61B
  8
TEAM-BODY
 10
-774.963775
 20
525.0
 30
600.0
  0
VERTEX
  5
61C
  8
TEAM-BODY
 10
775.0
 20
525.0
 30
600.0
  0
VERTEX
  5
61D
  8
TEAM-BODY
 10
775.0
 20
-525.0
 30
600.0
  0
SEQEND
  5
61E
  8
TEAM-BODY
  0
POLYLINE
  5
1F3
  8
TEAM-BODY
 66
     1
 10
0.0
 20
0.0
 30
-600.0
 70
   128
210
0.0
220
0.0
230
-1.0
  0
VERTEX
  5
61F
  8
TEAM-BODY
 10
774.963775
 20
525.0
 30
-600.0
  0
VERTEX
  5
620
  8
TEAM-BODY
 10
777.609667
 20
467.909059
 30
-600.0
  0
VERTEX
  5
621
  8
TEAM-BODY
 10
774.988672
 20
410.763675
 30
-600.0
  0
VERTEX
  5
622
  8
TEAM-BODY
 10
767.109758
 20
353.759375
 30
-600.0
  0
VERTEX
  5
623
  8
TEAM-BODY
 10
753.999883
 20
297.091201
 30
-600.0
  0
VERTEX
  5
624
  8
TEAM-BODY
 10
735.703903
 20
240.953047
 30
-600.0
  0
VERTEX
  5
625
  8
TEAM-BODY
 10
712.284419
 20
185.536994
 30
-600.0
  0
VERTEX
  5
626
  8
TEAM-BODY
 10
683.821563
 20
131.03265
 30
-600.0
  0
VERTEX
  5
627
  8
TEAM-BODY
 10
650.412721
 20
77.626506
 30
-600.0
  0
VERTEX
  5
628
  8
TEAM-BODY
 10
612.172203
 20
25.501293
 30
-600.0
  0
VERTEX
  5
629
  8
TEAM-BODY
 10
569.230853
 20
-25.164638
 30
-600.0
  0
VERTEX
  5
62A
  8
TEAM-BODY
 10
521.735596
 20
-74.197932
 30
-600.0
  0
VERTEX
  5
62B
  8
TEAM-BODY
 10
469.848941
 20
-121.430817
 30
-600.0
  0
VERTEX
  5
62C
  8
TEAM-BODY
 10
413.74842
 20
-166.701685
 30
-600.0
  0
VERTEX
  5
62D
  8
TEAM-BODY
 10
353.625985
 20
-209.855637
 30
-600.0
  0
VERTEX
  5
62E
  8
TEAM-BODY
 10
289.687348
 20
-250.74502
 30
-600.0
  0
VERTEX
  5
62F
  8
TEAM-BODY
 10
222.15128
 20
-289.229929
 30
-600.0
  0
VERTEX
  5
630
  8
TEAM-BODY
 10
151.248858
 20
-325.178685
 30
-600.0
  0
VERTEX
  5
631
  8
TEAM-BODY
 10
77.22268
 20
-358.468287
 30
-600.0
  0
VERTEX
  5
632
  8
TEAM-BODY
 10
0.32603
 20
-388.984834
 30
-600.0
  0
VERTEX
  5
633
  8
TEAM-BODY
 10
-79.177985
 20
-416.62391
 30
-600.0
  0
VERTEX
  5
634
  8
TEAM-BODY
 10
-161.017336
 20
-441.290948
 30
-600.0
  0
VERTEX
  5
635
  8
TEAM-BODY
 10
-244.912007
 20
-462.901547
 30
-600.0
  0
VERTEX
  5
636
  8
TEAM-BODY
 10
-330.574947
 20
-481.381765
 30
-600.0
  0
VERTEX
  5
637
  8
TEAM-BODY
 10
-417.713054
 20
-496.668372
 30
-600.0
  0
VERTEX
  5
638
  8
TEAM-BODY
 10
-506.028181
 20
-508.709063
 30
-600.0
  0
VERTEX
  5
639
  8
TEAM-BODY
 10
-595.218151
 20
-517.46264
 30
-600.0
  0
VERTEX
  5
63A
  8
TEAM-BODY
 10
-684.977797
 20
-522.899153
 30
-600.0
  0
VERTEX
  5
63B
  8
TEAM-BODY
 10
-775.0
 20
-525.0
 30
-600.0
  0
SEQEND
  5
63C
  8
TEAM-BODY
  0
POLYLINE
  5
1F4
  8
TEAM-BODY
 66
     1
 10
0.0
 20
0.0
 30
600.0
  0
VERTEX
  5
63D
  8
TEAM-BODY
 10
615.632931
 20
-274.56395
 30
600.0
 42
-0.175192
  0
VERTEX
  5
63E
  8
TEAM-BODY
 10
368.855513
 20
-398.789112
 30
600.0
 42
-0.018011
  0
VERTEX
  5
63F
  8
TEAM-BODY
 10
243.836824
 20
-397.649913
 30
600.0
 42
-0.249359
  0
VERTEX
  5
640
  8
TEAM-BODY
 10
-651.691983
 20
214.548214
 30
600.0
 42
-0.301826
  0
VERTEX
  5
641
  8
TEAM-BODY
 10
-611.220656
 20
414.056728
 30
600.0
  0
SEQEND
  5
642
  8
TEAM-BODY
  0
POLYLINE
  5
1F5
  8
TEAM-NET
 66
     1
 10
0.0
 20
0.0
 30
0.0
 70
    16
 71
     2
 72
    37
  0
VERTEX
  5
1F6
  8
TEAM-NET
 10
615.632931
 20
-274.56395
 30
600.0
 70
    64
  0
VERTEX
  5
1F7
  8
TEAM-NET
 10
580.158829
 20
-307.833622
 30
600.0
 70
    64
  0
VERTEX
  5
1F8
  8
TEAM-NET
 10
540.964082
 20
-336.626932
 30
600.0
 70
    64
  0
VERTEX
  5
1F9
  8
TEAM-NET
 10
498.610126
 20
-360.531437
 30
600.0
 70
    64
  0
VERTEX
  5
1FA
  8
TEAM-NET
 10
453.703653
 20
-379.204723
 30
600.0
 70
    64
  0
VERTEX
  5
1FB
  8
TEAM-NET
 10
406.887916
 20
-392.379307
 30
600.0
 70
    64
  0
VERTEX
  5
1FC
  8
TEAM-NET
 10
358.778434
 20
-399.031028
 30
600.0
 70
    64
  0
VERTEX
  5
1FD
  8
TEAM-NET
 10
310.118
 20
-399.375682
 30
600.0
 70
    64
  0
VERTEX
  5
1FE
  8
TEAM-NET
 10
261.467022
 20
-398.356331
 30
600.0
 70
    64
  0
VERTEX
  5
1FF
  8
TEAM-NET
 10
213.058322
 20
-393.803658
 30
600.0
 70
    64
  0
VERTEX
  5
200
  8
TEAM-NET
 10
165.010993
 20
-386.108479
 30
600.0
 70
    64
  0
VERTEX
  5
201
  8
TEAM-NET
 10
117.330356
 20
-376.396714
 30
600.0
 70
    64
  0
VERTEX
  5
202
  8
TEAM-NET
 10
70.101009
 20
-364.685592
 30
600.0
 70
    64
  0
VERTEX
  5
203
  8
TEAM-NET
 10
23.406751
 20
-350.995894
 30
600.0
 70
    64
  0
VERTEX
  5
204
  8
TEAM-NET
 10
-22.66957
 20
-335.351909
 30
600.0
 70
    64
  0
VERTEX
  5
205
  8
TEAM-NET
 10
-68.0462
 20
-317.781394
 30
600.0
 70
    64
  0
VERTEX
  5
206
  8
TEAM-NET
 10
-112.642629
 20
-298.315523
 30
600.0
 70
    64
  0
VERTEX
  5
207
  8
TEAM-NET
 10
-156.379729
 20
-276.988835
 30
600.0
 70
    64
  0
VERTEX
  5
208
  8
TEAM-NET
 10
-199.179899
 20
-253.839169
 30
600.0
 70
    64
  0
VERTEX
  5
209
  8
TEAM-NET
 10
-240.967199
 20
-228.9076
 30
600.0
 70
    64
  0
VERTEX
  5
20A
  8
TEAM-NET
 10
-281.667487
 20
-202.238364
 30
600.0
 70
    64
  0
VERTEX
  5
20B
  8
TEAM-NET
 10
-321.208547
 20
-173.878778
 30
600.0
 70
    64
  0
VERTEX
  5
20C
  8
TEAM-NET
 10
-359.520224
 20
-143.879161
 30
600.0
 70
    64
  0
VERTEX
  5
20D
  8
TEAM-NET
 10
-396.534542
 20
-112.292742
 30
600.0
 70
    64
  0
VERTEX
  5
20E
  8
TEAM-NET
 10
-432.185825
 20
-79.175563
 30
600.0
 70
    64
  0
VERTEX
  5
20F
  8
TEAM-NET
 10
-466.41082
 20
-44.586383
 30
600.0
 70
    64
  0
VERTEX
  5
210
  8
TEAM-NET
 10
-499.1488
 20
-8.586575
 30
600.0
 70
    64
  0
VERTEX
  5
211
  8
TEAM-NET
 10
-530.34168
 20
28.759989
 30
600.0
 70
    64
  0
VERTEX
  5
212
  8
TEAM-NET
 10
-559.934114
 20
67.387045
 30
600.0
 70
    64
  0
VERTEX
  5
213
  8
TEAM-NET
 10
-587.873597
 20
107.226057
 30
600.0
 70
    64
  0
VERTEX
  5
214
  8
TEAM-NET
 10
-614.110556
 20
148.20634
 30
600.0
 70
    64
  0
VERTEX
  5
215
  8
TEAM-NET
 10
-638.598439
 20
190.255182
 30
600.0
 70
    64
  0
VERTEX
  5
216
  8
TEAM-NET
 10
-658.491967
 20
234.473986
 30
600.0
 70
    64
  0
VERTEX
  5
217
  8
TEAM-NET
 10
-665.232502
 20
282.525025
 30
600.0
 70
    64
  0
VERTEX
  5
218
  8
TEAM-NET
 10
-659.176508
 20
330.667128
 30
600.0
 70
    64
  0
VERTEX
  5
219
  8
TEAM-NET
 10
-640.745222
 20
375.5517
 30
600.0
 70
    64
  0
VERTEX
  5
21A
  8
TEAM-NET
 10
-611.220656
 20
414.056728
 30
600.0
 70
    64
  0
VERTEX
  5
21B
  8
TEAM-NET
 10
775.0
 20
-525.0
 30
600.0
 70
    64
  0
VERTEX
  5
21C
  8
TEAM-NET
 10
717.293427
 20
-524.038114
 30
600.0
 70
    64
  0
VERTEX
  5
21D
  8
TEAM-NET
 10
659.626093
 20
-521.703181
 30
600.0
 70
    64
  0
VERTEX
  5
21E
  8
TEAM-NET
 10
602.030887
 20
-517.993134
 30
600.0
 70
    64
  0
VERTEX
  5
21F
  8
TEAM-NET
 10
544.54121
 20
-512.90321
 30
600.0
 70
    64
  0
VERTEX
  5
220
  8
TEAM-NET
 10
487.1913
 20
-506.425929
 30
600.0
 70
    64
  0
VERTEX
  5
221
  8
TEAM-NET
 10
430.01657
 20
-498.551042
 30
600.0
 70
    64
  0
VERTEX
  5
222
  8
TEAM-NET
 10
373.053976
 20
-489.265479
 30
600.0
 70
    64
  0
VERTEX
  5
223
  8
TEAM-NET
 10
316.342411
 20
-478.55327
 30
600.0
 70
    64
  0
VERTEX
  5
224
  8
TEAM-NET
 10
259.923145
 20
-466.39546
 30
600.0
 70
    64
  0
VERTEX
  5
225
  8
TEAM-NET
 10
203.840307
 20
-452.770009
 30
600.0
 70
    64
  0
VERTEX
  5
226
  8
TEAM-NET
 10
148.14144
 20
-437.651676
 30
600.0
 70
    64
  0
VERTEX
  5
227
  8
TEAM-NET
 10
92.878122
 20
-421.011907
 30
600.0
 70
    64
  0
VERTEX
  5
228
  8
TEAM-NET
 10
38.106684
 20
-402.818714
 30
600.0
 70
    64
  0
VERTEX
  5
229
  8
TEAM-NET
 10
-16.110964
 20
-383.036566
 30
600.0
 70
    64
  0
VERTEX
  5
22A
  8
TEAM-NET
 10
-69.706378
 20
-361.626295
 30
600.0
 70
    64
  0
VERTEX
  5
22B
  8
TEAM-NET
 10
-122.603467
 20
-338.54504
 30
600.0
 70
    64
  0
VERTEX
  5
22C
  8
TEAM-NET
 10
-174.717198
 20
-313.746254
 30
600.0
 70
    64
  0
VERTEX
  5
22D
  8
TEAM-NET
 10
-225.952089
 20
-287.179799
 30
600.0
 70
    64
  0
VERTEX
  5
22E
  8
TEAM-NET
 10
-276.200461
 20
-258.792193
 30
600.0
 70
    64
  0
VERTEX
  5
22F
  8
TEAM-NET
 10
-325.340412
 20
-228.527061
 30
600.0
 70
    64
  0
VERTEX
  5
230
  8
TEAM-NET
 10
-373.233501
 20
-196.325894
 30
600.0
 70
    64
  0
VERTEX
  5
231
  8
TEAM-NET
 10
-419.722131
 20
-162.129237
 30
600.0
 70
    64
  0
VERTEX
  5
232
  8
TEAM-NET
 10
-464.626654
 20
-125.878478
 30
600.0
 70
    64
  0
VERTEX
  5
233
  8
TEAM-NET
 10
-507.742294
 20
-87.51845
 30
600.0
 70
    64
  0
VERTEX
  5
234
  8
TEAM-NET
 10
-548.836053
 20
-47.001121
 30
600.0
 70
    64
  0
VERTEX
  5
235
  8
TEAM-NET
 10
-587.643929
 20
-4.290669
 30
600.0
 70
    64
  0
VERTEX
  5
236
  8
TEAM-NET
 10
-623.868982
 20
40.629734
 30
600.0
 70
    64
  0
VERTEX
  5
237
  8
TEAM-NET
 10
-657.181068
 20
87.749198
 30
600.0
 70
    64
  0
VERTEX
  5
238
  8
TEAM-NET
 10
-687.219387
 20
137.018456
 30
600.0
 70
    64
  0
VERTEX
  5
239
  8
TEAM-NET
 10
-713.599264
 20
188.337718
 30
600.0
 70
    64
  0
VERTEX
  5
23A
  8
TEAM-NET
 10
-735.924678
 20
241.544247
 30
600.0
 70
    64
  0
VERTEX
  5
23B
  8
TEAM-NET
 10
-753.80757
 20
296.401862
 30
600.0
 70
    64
  0
VERTEX
  5
23C
  8
TEAM-NET
 10
-766.893747
 20
352.595496
 30
600.0
 70
    64
  0
VERTEX
  5
23D
  8
TEAM-NET
 10
-774.893127
 20
409.734265
 30
600.0
 70
    64
  0
VERTEX
  5
23E
  8
TEAM-NET
 10
-777.609548
 20
467.365551
 30
600.0
 70
    64
  0
VERTEX
  5
23F
  8
TEAM-NET
 10
-774.963775
 20
525.0
 30
600.0
 70
    64
  0
SEQEND
  5
240
  8
TEAM-NET
  0
POLYLINE
  5
241
  8
TEAM-NET
 66
     1
 10
0.0
 20
0.0
 30
0.0
 70
    16
 71
     2
 72
    37
  0
VERTEX
  5
242
  8
TEAM-NET
 10
615.632931
 20
-274.56395
 30
600.0
 70
    64
  0
VERTEX
  5
243
  8
TEAM-NET
 10
648.56917
 20
-233.969293
 30
600.0
 70
    64
  0
VERTEX
  5
244
  8
TEAM-NET
 10
675.943364
 20
-189.434188
 30
600.0
 70
    64
  0
VERTEX
  5
245
  8
TEAM-NET
 10
697.290079
 20
-141.715849
 30
600.0
 70
    64
  0
VERTEX
  5
246
  8
TEAM-NET
 10
712.246366
 20
-91.625615
 30
600.0
 70
    64
  0
VERTEX
  5
247
  8
TEAM-NET
 10
720.557928
 20
-40.015151
 30
600.0
 70
    64
  0
VERTEX
  5
248
  8
TEAM-NET
 10
722.083446
 20
12.238029
 30
600.0
 70
    64
  0
VERTEX
  5
249
  8
TEAM-NET
 10
716.796984
 20
64.245484
 30
600.0
 70
    64
  0
VERTEX
  5
24A
  8
TEAM-NET
 10
704.788424
 20
115.12295
 30
600.0
 70
    64
  0
VERTEX
  5
24B
  8
TEAM-NET
 10
686.261944
 20
164.005376
 30
600.0
 70
    64
  0
VERTEX
  5
24C
  8
TEAM-NET
 10
661.532542
 20
210.061633
 30
600.0
 70
    64
  0
VERTEX
  5
24D
  8
TEAM-NET
 10
631.020684
 20
252.508642
 30
600.0
 70
    64
  0
VERTEX
  5
24E
  8
TEAM-NET
 10
595.245152
 20
290.624693
 30
600.0
 70
    64
  0
VERTEX
  5
24F
  8
TEAM-NET
 10
554.814223
 20
323.761712
 30
600.0
 70
    64
  0
VERTEX
  5
250
  8
TEAM-NET
 10
510.41533
 20
351.356284
 30
600.0
 70
    64
  0
VERTEX
  5
251
  8
TEAM-NET
 10
462.803372
 20
372.939227
 30
600.0
 70
    64
  0
VERTEX
  5
252
  8
TEAM-NET
 10
412.826814
 20
388.298493
 30
600.0
 70
    64
  0
VERTEX
  5
253
  8
TEAM-NET
 10
362.129303
 20
401.193314
 30
600.0
 70
    64
  0
VERTEX
  5
254
  8
TEAM-NET
 10
311.187208
 20
413.0852
 30
600.0
 70
    64
  0
VERTEX
  5
255
  8
TEAM-NET
 10
260.020367
 20
423.969519
 30
600.0
 70
    64
  0
VERTEX
  5
256
  8
TEAM-NET
 10
208.648707
 20
433.842033
 30
600.0
 70
    64
  0
VERTEX
  5
257
  8
TEAM-NET
 10
157.092233
 20
442.698897
 30
600.0
 70
    64
  0
VERTEX
  5
258
  8
TEAM-NET
 10
105.371025
 20
450.536662
 30
600.0
 70
    64
  0
VERTEX
  5
259
  8
TEAM-NET
 10
53.505223
 20
457.352276
 30
600.0
 70
    64
  0
VERTEX
  5
25A
  8
TEAM-NET
 10
1.515026
 20
463.143084
 30
600.0
 70
    64
  0
VERTEX
  5
25B
  8
TEAM-NET
 10
-50.579318
 20
467.906831
 30
600.0
 70
    64
  0
VERTEX
  5
25C
  8
TEAM-NET
 10
-102.757523
 20
471.641662
 30
600.0
 70
    64
  0
VERTEX
  5
25D
  8
TEAM-NET
 10
-154.999268
 20
474.346123
 30
600.0
 70
    64
  0
VERTEX
  5
25E
  8
TEAM-NET
 10
-207.284208
 20
476.01916
 30
600.0
 70
    64
  0
VERTEX
  5
25F
  8
TEAM-NET
 10
-259.591981
 20
476.660121
 30
600.0
 70
    64
  0
VERTEX
  5
260
  8
TEAM-NET
 10
-311.902218
 20
476.268758
 30
600.0
 70
    64
  0
VERTEX
  5
261
  8
TEAM-NET
 10
-364.194546
 20
474.845223
 30
600.0
 70
    64
  0
VERTEX
  5
262
  8
TEAM-NET
 10
-416.4486
 20
472.390069
 30
600.0
 70
    64
  0
VERTEX
  5
263
  8
TEAM-NET
 10
-468.644032
 20
468.904253
 30
600.0
 70
    64
  0
VERTEX
  5
264
  8
TEAM-NET
 10
-520.638358
 20
463.548284
 30
600.0
 70
    64
  0
VERTEX
  5
265
  8
TEAM-NET
 10
-569.471531
 20
445.285321
 30
600.0
 70
    64
  0
VERTEX
  5
266
  8
TEAM-NET
 10
-611.220656
 20
414.056728
 30
600.0
 70
    64
  0
VERTEX
  5
267
  8
TEAM-NET
 10
775.0
 20
-525.0
 30
600.0
 70
    64
  0
VERTEX
  5
268
  8
TEAM-NET
 10
775.0
 20
-452.778784
 30
600.0
 70
    64
  0
VERTEX
  5
269
  8
TEAM-NET
 10
775.0
 20
-380.557568
 30
600.0
 70
    64
  0
VERTEX
  5
26A
  8
TEAM-NET
 10
775.0
 20
-308.336352
 30
600.0
 70
    64
  0
VERTEX
  5
26B
  8
TEAM-NET
 10
775.0
 20
-236.115136
 30
600.0
 70
    64
  0
VERTEX
  5
26C
  8
TEAM-NET
 10
775.0
 20
-163.89392
 30
600.0
 70
    64
  0
VERTEX
  5
26D
  8
TEAM-NET
 10
775.0
 20
-91.672704
 30
600.0
 70
    64
  0
VERTEX
  5
26E
  8
TEAM-NET
 10
775.0
 20
-19.451488
 30
600.0
 70
    64
  0
VERTEX
  5
26F
  8
TEAM-NET
 10
775.0
 20
52.769728
 30
600.0
 70
    64
  0
VERTEX
  5
270
  8
TEAM-NET
 10
775.0
 20
124.990944
 30
600.0
 70
    64
  0
VERTEX
  5
271
  8
TEAM-NET
 10
775.0
 20
197.21216
 30
600.0
 70
    64
  0
VERTEX
  5
272
  8
TEAM-NET
 10
775.0
 20
269.433376
 30
600.0
 70
    64
  0
VERTEX
  5
273
  8
TEAM-NET
 10
775.0
 20
341.654592
 30
600.0
 70
    64
  0
VERTEX
  5
274
  8
TEAM-NET
 10
775.0
 20
413.875808
 30
600.0
 70
    64
  0
VERTEX
  5
275
  8
TEAM-NET
 10
775.0
 20
486.097024
 30
600.0
 70
    64
  0
VERTEX
  5
276
  8
TEAM-NET
 10
741.68176
 20
525.0
 30
600.0
 70
    64
  0
VERTEX
  5
277
  8
TEAM-NET
 10
669.460544
 20
525.0
 30
600.0
 70
    64
  0
VERTEX
  5
278
  8
TEAM-NET
 10
597.239328
 20
525.0
 30
600.0
 70
    64
  0
VERTEX
  5
279
  8
TEAM-NET
 10
525.018112
 20
525.0
 30
600.0
 70
    64
  0
VERTEX
  5
27A
  8
TEAM-NET
 10
452.796896
 20
525.0
 30
600.0
 70
    64
  0
VERTEX
  5
27B
  8
TEAM-NET
 10
380.57568
 20
525.0
 30
600.0
 70
    64
  0
VERTEX
  5
27C
  8
TEAM-NET
 10
308.354464
 20
525.0
 30
600.0
 70
    64
  0
VERTEX
  5
27D
  8
TEAM-NET
 10
236.133248
 20
525.0
 30
600.0
 70
    64
  0
VERTEX
  5
27E
  8
TEAM-NET
 10
163.912032
 20
525.0
 30
600.0
 70
    64
  0
VERTEX
  5
27F
  8
TEAM-NET
 10
91.690816
 20
525.0
 30
600.0
 70
    64
  0
VERTEX
  5
280
  8
TEAM-NET
 10
19.4696
 20
525.0
 30
600.0
 70
    64
  0
VERTEX
  5
281
  8
TEAM-NET
 10
-52.751616
 20
525.0
 30
600.0
 70
    64
  0
VERTEX
  5
282
  8
TEAM-NET
 10
-124.972832
 20
525.0
 30
600.0
 70
    64
  0
VERTEX
  5
283
  8
TEAM-NET
 10
-197.194047
 20
525.0
 30
600.0
 70
    64
  0
VERTEX
  5
284
  8
TEAM-NET
 10
-269.415263
 20
525.0
 30
600.0
 70
    64
  0
VERTEX
  5
285
  8
TEAM-NET
 10
-341.636479
 20
525.0
 30
600.0
 70
    64
  0
VERTEX
  5
286
  8
TEAM-NET
 10
-413.857695
 20
525.0
 30
600.0
 70
    64
  0
VERTEX
  5
287
  8
TEAM-NET
 10
-486.078911
 20
525.0
 30
600.0
 70
    64
  0
VERTEX
  5
288
  8
TEAM-NET
 10
-558.300127
 20
525.0
 30
600.0
 70
    64
  0
VERTEX
  5
289
  8
TEAM-NET
 10
-630.521343
 20
525.0
 30
600.0
 70
    64
  0
VERTEX
  5
28A
  8
TEAM-NET
 10
-702.742559
 20
525.0
 30
600.0
 70
    64
  0
VERTEX
  5
28B
  8
TEAM-NET
 10
-774.963775
 20
525.0
 30
600.0
 70
    64
  0
SEQEND
  5
28C
  8
TEAM-NET
  0
ENDSEC
  0
EOF
