  0
SECTION
  2
HEADER
  9
$ACADVER
  1
AC1009
  9
$INSBASE
 10
0.0
 20
0.0
 30
0.0
  9
$EXTMIN
 10
-903.539537
 20
-555.866897
 30
-0.010822
  9
$EXTMAX
 10
876.151213
 20
555.079186
 30
600.018921
  9
$LIMMIN
 10
-903.539537
 20
-555.866897
  9
$LIMMAX
 10
876.151213
 20
555.079186
  9
$ORTHOMODE
 70
     1
  9
$REGENMODE
 70
     1
  9
$FILLMODE
 70
     1
  9
$QTEXTMODE
 70
     0
  9
$MIRRTEXT
 70
     0
  9
$DRAGMODE
 70
     2
  9
$LTSCALE
 40
25.0
  9
$OSMODE
 70
     0
  9
$ATTMODE
 70
     1
  9
$TEXTSIZE
 40
200.0
  9
$TRACEWID
 40
1.0
  9
$TEXTSTYLE
  7
STANDARD
  9
$CLAYER
  8
TEAM-MAS
  9
$CELTYPE
  6
BYLAYER
  9
$CECOLOR
 62
   256
  9
$DIMSCALE
 40
0.0
  9
$DIMASZ
 40
20.0
  9
$DIMEXO
 40
10.0
  9
$DIMDLI
 40
1.0
  9
$DIMRND
 40
0.0
  9
$DIMDLE
 40
0.0
  9
$DIMEXE
 40
1.0
  9
$DIMTP
 40
0.0
  9
$DIMTM
 40
0.0
  9
$DIMTXT
 40
35.0
  9
$DIMCEN
 40
1.0
  9
$DIMTSZ
 40
0.0
  9
$DIMTOL
 70
     0
  9
$DIMLIM
 70
     0
  9
$DIMTIH
 70
     0
  9
$DIMTOH
 70
     0
  9
$DIMSE1
 70
     0
  9
$DIMSE2
 70
     0
  9
$DIMTAD
 70
     0
  9
$DIMZIN
 70
     0
  9
$DIMBLK
  1

  9
$DIMASO
 70
     1
  9
$DIMSHO
 70
     0
  9
$DIMPOST
  1

  9
$DIMAPOST
  1

  9
$DIMALT
 70
     0
  9
$DIMALTD
 70
     2
  9
$DIMALTF
 40
25.4
  9
$DIMLFAC
 40
1.0
  9
$DIMTOFL
 70
     0
  9
$DIMTVP
 40
0.0
  9
$DIMTIX
 70
     0
  9
$DIMSOXD
 70
     0
  9
$DIMSAH
 70
     0
  9
$DIMBLK1
  1

  9
$DIMBLK2
  1

  9
$DIMSTYLE
  2
TEAM
  9
$DIMCLRD
 70
     9
  9
$DIMCLRE
 70
     9
  9
$DIMCLRT
 70
    11
  9
$DIMTFAC
 40
1.0
  9
$DIMGAP
 40
15.0
  9
$LUNITS
 70
     2
  9
$LUPREC
 70
     1
  9
$SKETCHINC
 40
1.0
  9
$FILLETRAD
 40
50.0
  9
$AUNITS
 70
     0
  9
$AUPREC
 70
     0
  9
$MENU
  1
ROPLANS
  9
$ELEVATION
 40
0.0
  9
$PELEVATION
 40
0.0
  9
$THICKNESS
 40
0.0
  9
$LIMCHECK
 70
     0
  9
$BLIPMODE
 70
     1
  9
$CHAMFERA
 40
0.0
  9
$CHAMFERB
 40
0.0
  9
$SKPOLY
 70
     0
  9
$TDCREATE
 40
2450392.957851
  9
$TDUPDATE
 40
2455493.900998
  9
$TDINDWG
 40
2.015369
  9
$TDUSRTIMER
 40
2.015369
  9
$USRTIMER
 70
     1
  9
$ANGBASE
 50
0.0
  9
$ANGDIR
 70
     0
  9
$PDMODE
 70
     0
  9
$PDSIZE
 40
0.0
  9
$PLINEWID
 40
0.0
  9
$COORDS
 70
     2
  9
$SPLFRAME
 70
     0
  9
$SPLINETYPE
 70
     6
  9
$SPLINESEGS
 70
     8
  9
$ATTDIA
 70
     0
  9
$ATTREQ
 70
     0
  9
$HANDLING
 70
     1
  9
$HANDSEED
  5
6CB
  9
$SURFTAB1
 70
    24
  9
$SURFTAB2
 70
    24
  9
$SURFTYPE
 70
     6
  9
$SURFU
 70
     6
  9
$SURFV
 70
     6
  9
$UCSNAME
  2

  9
$UCSORG
 10
0.0
 20
0.0
 30
0.0
  9
$UCSXDIR
 10
1.0
 20
0.0
 30
0.0
  9
$UCSYDIR
 10
0.0
 20
1.0
 30
0.0
  9
$PUCSNAME
  2

  9
$PUCSORG
 10
0.0
 20
0.0
 30
0.0
  9
$PUCSXDIR
 10
1.0
 20
0.0
 30
0.0
  9
$PUCSYDIR
 10
0.0
 20
1.0
 30
0.0
  9
$USERI1
 70
     0
  9
$USERI2
 70
     0
  9
$USERI3
 70
     0
  9
$USERI4
 70
     0
  9
$USERI5
 70
     0
  9
$USERR1
 40
0.0
  9
$USERR2
 40
0.0
  9
$USERR3
 40
0.0
  9
$USERR4
 40
0.0
  9
$USERR5
 40
0.0
  9
$WORLDVIEW
 70
     1
  9
$SHADEDGE
 70
     0
  9
$SHADEDIF
 70
    70
  9
$TILEMODE
 70
     1
  9
$MAXACTVP
 70
    16
  9
$PLIMCHECK
 70
     0
  9
$PEXTMIN
 10
-0.805942
 20
0.005011
 30
0.0
  9
$PEXTMAX
 10
20.250094
 20
11.356329
 30
0.0
  9
$PLIMMIN
 10
0.0
 20
0.0
  9
$PLIMMAX
 10
12.0
 20
9.0
  9
$UNITMODE
 70
     0
  9
$VISRETAIN
 70
     0
  9
$PLINEGEN
 70
     0
  9
$PSLTSCALE
 70
     0
  0
ENDSEC
  0
SECTION
  2
TABLES
  0
TABLE
  2
VPORT
 70
     2
  0
VPORT
  2
*ACTIVE
 70
     0
 10
0.0
 20
0.0
 11
1.0
 21
1.0
 12
-13.694162
 22
-0.393855
 13
0.0
 23
0.0
 14
1.0
 24
1.0
 15
50.0
 25
50.0
 16
0.0
 26
0.0
 36
1.0
 17
0.0
 27
0.0
 37
0.0
 40
1117.768679
 41
1.865779
 42
50.0
 43
0.0
 44
0.0
 50
0.0
 51
0.0
 71
     0
 72
   100
 73
     1
 74
     1
 75
     0
 76
     0
 77
     0
 78
     0
  0
ENDTAB
  0
TABLE
  2
LTYPE
 70
     1
  0
LTYPE
  2
CONTINUOUS
 70
     0
  3
Solid Line
 72
    65
 73
     0
 40
0.0
  0
ENDTAB
  0
TABLE
  2
LAYER
 70
     7
  0
LAYER
  2
0
 70
     0
 62
     7
  6
CONTINUOUS
  0
LAYER
  2
TEAM-BODY
 70
     0
 62
     2
  6
CONTINUOUS
  0
LAYER
  2
TEAM-MAS
 70
     0
 62
     9
  6
CONTINUOUS
  0
LAYER
  2
TEAM-TXT
 70
     0
 62
    11
  6
CONTINUOUS
  0
LAYER
  2
TEAM-DET1
 70
     0
 62
     4
  6
CONTINUOUS
  0
LAYER
  2
TEAM-NET
 70
     0
 62
    15
  6
CONTINUOUS
  0
LAYER
  2
TEAM-INSP
 70
     0
 62
     5
  6
CONTINUOUS
  0
ENDTAB
  0
TABLE
  2
STYLE
 70
     2
  0
STYLE
  2
STANDARD
 70
     0
 40
0.0
 41
1.0
 50
0.0
 71
     0
 42
200.0
  3
txt
  4

  0
STYLE
  2
TEAM
 70
     0
 40
0.0
 41
0.8
 50
15.0
 71
     0
 42
7.0
  3
ROMANS.shx
  4

  0
ENDTAB
  0
TABLE
  2
VIEW
 70
     0
  0
ENDTAB
  0
TABLE
  2
UCS
 70
     0
  0
ENDTAB
  0
TABLE
  2
APPID
 70
     1
  0
APPID
  2
ACAD
 70
     0
  0
ENDTAB
  0
TABLE
  2
DIMSTYLE
 70
     1
  0
DIMSTYLE
  2
TEAM
 70
     0
  3

  4

  5

  6

  7

 40
0.0
 41
20.0
 42
10.0
 43
1.0
 44
1.0
 45
0.0
 46
0.0
 47
0.0
 48
0.0
140
35.0
141
1.0
142
0.0
143
25.4
144
1.0
145
0.0
146
1.0
147
15.0
 71
     0
 72
     0
 73
     0
 74
     0
 75
     0
 76
     0
 77
     0
 78
     0
170
     0
171
     2
172
     0
173
     0
174
     0
175
     0
176
     9
177
     9
178
    11
  0
ENDTAB
  0
ENDSEC
  0
SECTION
  2
BLOCKS
  0
BLOCK
  8
0
  2
$MODEL_SPACE
 70
     0
 10
0.0
 20
0.0
 30
0.0
  3
$MODEL_SPACE
  1

  0
ENDBLK
  5
63B
  8
0
  0
BLOCK
 67
     1
  8
0
  2
$PAPER_SPACE
 70
     0
 10
0.0
 20
0.0
 30
0.0
  3
$PAPER_SPACE
  1

  0
ENDBLK
  5
639
 67
     1
  8
0
  0
ENDSEC
  0
SECTION
  2
ENTITIES
  0
POLYLINE
  5
20
  8
TEAM-NET
 66
     1
 10
0.0
 20
0.0
 30
0.0
 70
    16
 71
     2
 72
    25
  0
VERTEX
  5
21
  8
TEAM-NET
 10
42.87724
 20
473.814538
 30
500.0
 70
    64
  0
VERTEX
  5
22
  8
TEAM-NET
 10
14.598015
 20
472.987511
 30
500.0
 70
    64
  0
VERTEX
  5
23
  8
TEAM-NET
 10
-13.658291
 20
471.580476
 30
500.0
 70
    64
  0
VERTEX
  5
24
  8
TEAM-NET
 10
-41.879782
 20
469.594026
 30
500.0
 70
    64
  0
VERTEX
  5
25
  8
TEAM-NET
 10
-70.054579
 20
467.028996
 30
500.0
 70
    64
  0
VERTEX
  5
26
  8
TEAM-NET
 10
-98.170821
 20
463.886467
 30
500.0
 70
    64
  0
VERTEX
  5
27
  8
TEAM-NET
 10
-126.216672
 20
460.167762
 30
500.0
 70
    64
  0
VERTEX
  5
28
  8
TEAM-NET
 10
-154.180327
 20
455.874445
 30
500.0
 70
    64
  0
VERTEX
  5
29
  8
TEAM-NET
 10
-182.050014
 20
451.008324
 30
500.0
 70
    64
  0
VERTEX
  5
2A
  8
TEAM-NET
 10
-209.814
 20
445.571449
 30
500.0
 70
    64
  0
VERTEX
  5
2B
  8
TEAM-NET
 10
-237.460599
 20
439.566106
 30
500.0
 70
    64
  0
VERTEX
  5
2C
  8
TEAM-NET
 10
-264.978171
 20
432.994825
 30
500.0
 70
    64
  0
VERTEX
  5
2D
  8
TEAM-NET
 10
-292.355135
 20
425.860371
 30
500.0
 70
    64
  0
VERTEX
  5
2E
  8
TEAM-NET
 10
-319.579964
 20
418.165748
 30
500.0
 70
    64
  0
VERTEX
  5
2F
  8
TEAM-NET
 10
-346.641199
 20
409.914195
 30
500.0
 70
    64
  0
VERTEX
  5
30
  8
TEAM-NET
 10
-373.527447
 20
401.109186
 30
500.0
 70
    64
  0
VERTEX
  5
31
  8
TEAM-NET
 10
-400.227392
 20
391.754426
 30
500.0
 70
    64
  0
VERTEX
  5
32
  8
TEAM-NET
 10
-426.729793
 20
381.853855
 30
500.0
 70
    64
  0
VERTEX
  5
33
  8
TEAM-NET
 10
-453.023493
 20
371.41164
 30
500.0
 70
    64
  0
VERTEX
  5
34
  8
TEAM-NET
 10
-479.097425
 20
360.432175
 30
500.0
 70
    64
  0
VERTEX
  5
35
  8
TEAM-NET
 10
-504.940612
 20
348.920085
 30
500.0
 70
    64
  0
VERTEX
  5
36
  8
TEAM-NET
 10
-530.542176
 20
336.880213
 30
500.0
 70
    64
  0
VERTEX
  5
37
  8
TEAM-NET
 10
-555.891338
 20
324.31763
 30
500.0
 70
    64
  0
VERTEX
  5
38
  8
TEAM-NET
 10
-580.977429
 20
311.237623
 30
500.0
 70
    64
  0
VERTEX
  5
39
  8
TEAM-NET
 10
-605.789888
 20
297.645697
 30
500.0
 70
    64
  0
VERTEX
  5
3A
  8
TEAM-NET
 10
577.901093
 20
468.693906
 30
300.0
 70
    64
  0
VERTEX
  5
3B
  8
TEAM-NET
 10
529.970019
 20
483.037583
 30
300.0
 70
    64
  0
VERTEX
  5
3C
  8
TEAM-NET
 10
479.698412
 20
486.818448
 30
300.0
 70
    64
  0
VERTEX
  5
3D
  8
TEAM-NET
 10
429.315386
 20
488.463211
 30
300.0
 70
    64
  0
VERTEX
  5
3E
  8
TEAM-NET
 10
378.92269
 20
487.183053
 30
300.0
 70
    64
  0
VERTEX
  5
3F
  8
TEAM-NET
 10
328.709491
 20
482.751016
 30
300.0
 70
    64
  0
VERTEX
  5
40
  8
TEAM-NET
 10
278.796222
 20
475.678251
 30
300.0
 70
    64
  0
VERTEX
  5
41
  8
TEAM-NET
 10
229.250268
 20
466.37854
 30
300.0
 70
    64
  0
VERTEX
  5
42
  8
TEAM-NET
 10
180.136794
 20
455.00031
 30
300.0
 70
    64
  0
VERTEX
  5
43
  8
TEAM-NET
 10
131.512056
 20
441.691743
 30
300.0
 70
    64
  0
VERTEX
  5
44
  8
TEAM-NET
 10
83.4187
 20
426.574416
 30
300.0
 70
    64
  0
VERTEX
  5
45
  8
TEAM-NET
 10
35.887983
 20
409.767545
 30
300.0
 70
    64
  0
VERTEX
  5
46
  8
TEAM-NET
 10
-11.04793
 20
391.367381
 30
300.0
 70
    64
  0
VERTEX
  5
47
  8
TEAM-NET
 10
-57.373369
 20
371.478092
 30
300.0
 70
    64
  0
VERTEX
  5
48
  8
TEAM-NET
 10
-103.082838
 20
350.174372
 30
300.0
 70
    64
  0
VERTEX
  5
49
  8
TEAM-NET
 10
-148.122373
 20
327.559041
 30
300.0
 70
    64
  0
VERTEX
  5
4A
  8
TEAM-NET
 10
-192.524837
 20
303.684051
 30
300.0
 70
    64
  0
VERTEX
  5
4B
  8
TEAM-NET
 10
-236.267231
 20
278.61803
 30
300.0
 70
    64
  0
VERTEX
  5
4C
  8
TEAM-NET
 10
-279.343184
 20
252.421881
 30
300.0
 70
    64
  0
VERTEX
  5
4D
  8
TEAM-NET
 10
-321.745038
 20
225.155835
 30
300.0
 70
    64
  0
VERTEX
  5
4E
  8
TEAM-NET
 10
-363.476165
 20
196.863549
 30
300.0
 70
    64
  0
VERTEX
  5
4F
  8
TEAM-NET
 10
-404.524481
 20
167.592584
 30
300.0
 70
    64
  0
VERTEX
  5
50
  8
TEAM-NET
 10
-444.889542
 20
137.386677
 30
300.0
 70
    64
  0
VERTEX
  5
51
  8
TEAM-NET
 10
-484.569611
 20
106.285996
 30
300.0
 70
    64
  0
VERTEX
  5
52
  8
TEAM-NET
 10
-523.554755
 20
74.329625
 30
300.0
 70
    64
  0
SEQEND
  5
54
  8
TEAM-NET
  0
POLYLINE
  5
55
  8
TEAM-NET
 66
     1
 10
0.0
 20
0.0
 30
0.0
 70
    16
 71
     2
 72
    37
  0
VERTEX
  5
56
  8
TEAM-NET
 10
-435.258354
 20
-276.237268
 30
150.0
 70
    64
  0
VERTEX
  5
57
  8
TEAM-NET
 10
-461.932635
 20
-241.014375
 30
150.0
 70
    64
  0
VERTEX
  5
58
  8
TEAM-NET
 10
-482.813991
 20
-202.076753
 30
150.0
 70
    64
  0
VERTEX
  5
59
  8
TEAM-NET
 10
-497.395866
 20
-160.36898
 30
150.0
 70
    64
  0
VERTEX
  5
5A
  8
TEAM-NET
 10
-505.324521
 20
-116.902834
 30
150.0
 70
    64
  0
VERTEX
  5
5B
  8
TEAM-NET
 10
-506.407618
 20
-72.73275
 30
150.0
 70
    64
  0
VERTEX
  5
5C
  8
TEAM-NET
 10
-500.618882
 20
-28.930239
 30
150.0
 70
    64
  0
VERTEX
  5
5D
  8
TEAM-NET
 10
-488.098741
 20
13.442104
 30
150.0
 70
    64
  0
VERTEX
  5
5E
  8
TEAM-NET
 10
-469.150917
 20
53.35638
 30
150.0
 70
    64
  0
VERTEX
  5
5F
  8
TEAM-NET
 10
-444.235061
 20
89.844317
 30
150.0
 70
    64
  0
VERTEX
  5
60
  8
TEAM-NET
 10
-413.955601
 20
122.020764
 30
150.0
 70
    64
  0
VERTEX
  5
61
  8
TEAM-NET
 10
-379.047079
 20
149.10516
 30
150.0
 70
    64
  0
VERTEX
  5
62
  8
TEAM-NET
 10
-343.704761
 20
175.687933
 30
150.0
 70
    64
  0
VERTEX
  5
63
  8
TEAM-NET
 10
-307.623154
 20
201.263148
 30
150.0
 70
    64
  0
VERTEX
  5
64
  8
TEAM-NET
 10
-270.771092
 20
225.715133
 30
150.0
 70
    64
  0
VERTEX
  5
65
  8
TEAM-NET
 10
-233.18353
 20
249.020695
 30
150.0
 70
    64
  0
VERTEX
  5
66
  8
TEAM-NET
 10
-194.896119
 20
271.157728
 30
150.0
 70
    64
  0
VERTEX
  5
67
  8
TEAM-NET
 10
-155.945176
 20
292.105235
 30
150.0
 70
    64
  0
VERTEX
  5
68
  8
TEAM-NET
 10
-116.367645
 20
311.843348
 30
150.0
 70
    64
  0
VERTEX
  5
69
  8
TEAM-NET
 10
-76.201066
 20
330.353345
 30
150.0
 70
    64
  0
VERTEX
  5
6A
  8
TEAM-NET
 10
-35.483536
 20
347.617668
 30
150.0
 70
    64
  0
VERTEX
  5
6B
  8
TEAM-NET
 10
5.746322
 20
363.619944
 30
150.0
 70
    64
  0
VERTEX
  5
6C
  8
TEAM-NET
 10
47.449403
 20
378.344992
 30
150.0
 70
    64
  0
VERTEX
  5
6D
  8
TEAM-NET
 10
89.586152
 20
391.778848
 30
150.0
 70
    64
  0
VERTEX
  5
6E
  8
TEAM-NET
 10
132.116601
 20
403.908769
 30
150.0
 70
    64
  0
VERTEX
  5
6F
  8
TEAM-NET
 10
175.00041
 20
414.723249
 30
150.0
 70
    64
  0
VERTEX
  5
70
  8
TEAM-NET
 10
218.196903
 20
424.212031
 30
150.0
 70
    64
  0
VERTEX
  5
71
  8
TEAM-NET
 10
261.66511
 20
432.366114
 30
150.0
 70
    64
  0
VERTEX
  5
72
  8
TEAM-NET
 10
305.363799
 20
439.177765
 30
150.0
 70
    64
  0
VERTEX
  5
73
  8
TEAM-NET
 10
349.251523
 20
444.640524
 30
150.0
 70
    64
  0
VERTEX
  5
74
  8
TEAM-NET
 10
393.286654
 20
448.749207
 30
150.0
 70
    64
  0
VERTEX
  5
75
  8
TEAM-NET
 10
437.427425
 20
451.499918
 30
150.0
 70
    64
  0
VERTEX
  5
76
  8
TEAM-NET
 10
481.631968
 20
452.890049
 30
150.0
 70
    64
  0
VERTEX
  5
77
  8
TEAM-NET
 10
525.858354
 20
452.91828
 30
150.0
 70
    64
  0
VERTEX
  5
78
  8
TEAM-NET
 10
569.869558
 20
449.662651
 30
150.0
 70
    64
  0
VERTEX
  5
79
  8
TEAM-NET
 10
611.523503
 20
435.168899
 30
150.0
 70
    64
  0
VERTEX
  5
7A
  8
TEAM-NET
 10
648.047304
 20
410.447816
 30
150.0
 70
    64
  0
VERTEX
  5
7B
  8
TEAM-NET
 10
-712.2363
 20
-292.547497
 30
600.0
 70
    64
  0
VERTEX
  5
7C
  8
TEAM-NET
 10
-746.800831
 20
-247.135779
 30
600.0
 70
    64
  0
VERTEX
  5
7D
  8
TEAM-NET
 10
-774.893204
 20
-197.459332
 30
600.0
 70
    64
  0
VERTEX
  5
7E
  8
TEAM-NET
 10
-795.995233
 20
-144.434477
 30
600.0
 70
    64
  0
VERTEX
  5
7F
  8
TEAM-NET
 10
-809.717674
 20
-89.039301
 30
600.0
 70
    64
  0
VERTEX
  5
80
  8
TEAM-NET
 10
-815.807404
 20
-32.295614
 30
600.0
 70
    64
  0
VERTEX
  5
81
  8
TEAM-NET
 10
-814.152094
 20
24.749902
 30
600.0
 70
    64
  0
VERTEX
  5
82
  8
TEAM-NET
 10
-804.782278
 20
81.044994
 30
600.0
 70
    64
  0
VERTEX
  5
83
  8
TEAM-NET
 10
-787.870788
 20
135.551254
 30
600.0
 70
    64
  0
VERTEX
  5
84
  8
TEAM-NET
 10
-763.729573
 20
187.26327
 30
600.0
 70
    64
  0
VERTEX
  5
85
  8
TEAM-NET
 10
-732.803935
 20
235.227171
 30
600.0
 70
    64
  0
VERTEX
  5
86
  8
TEAM-NET
 10
-695.664324
 20
278.558224
 30
600.0
 70
    64
  0
VERTEX
  5
87
  8
TEAM-NET
 10
-652.995809
 20
316.457152
 30
600.0
 70
    64
  0
VERTEX
  5
88
  8
TEAM-NET
 10
-605.585448
 20
348.224879
 30
600.0
 70
    64
  0
VERTEX
  5
89
  8
TEAM-NET
 10
-554.307761
 20
373.275423
 30
600.0
 70
    64
  0
VERTEX
  5
8A
  8
TEAM-NET
 10
-500.108609
 20
391.146706
 30
600.0
 70
    64
  0
VERTEX
  5
8B
  8
TEAM-NET
 10
-445.085434
 20
406.442105
 30
600.0
 70
    64
  0
VERTEX
  5
8C
  8
TEAM-NET
 10
-389.708523
 20
420.414654
 30
600.0
 70
    64
  0
VERTEX
  5
8D
  8
TEAM-NET
 10
-334.055659
 20
433.244036
 30
600.0
 70
    64
  0
VERTEX
  5
8E
  8
TEAM-NET
 10
-278.150437
 20
444.924811
 30
600.0
 70
    64
  0
VERTEX
  5
8F
  8
TEAM-NET
 10
-222.01656
 20
455.452028
 30
600.0
 70
    64
  0
VERTEX
  5
90
  8
TEAM-NET
 10
-165.67783
 20
464.821222
 30
600.0
 70
    64
  0
VERTEX
  5
91
  8
TEAM-NET
 10
-109.158132
 20
473.028421
 30
600.0
 70
    64
  0
VERTEX
  5
92
  8
TEAM-NET
 10
-52.481431
 20
480.070146
 30
600.0
 70
    64
  0
VERTEX
  5
93
  8
TEAM-NET
 10
4.328244
 20
485.94341
 30
600.0
 70
    64
  0
VERTEX
  5
94
  8
TEAM-NET
 10
61.246805
 20
490.645724
 30
600.0
 70
    64
  0
VERTEX
  5
95
  8
TEAM-NET
 10
118.25012
 20
494.175094
 30
600.0
 70
    64
  0
VERTEX
  5
96
  8
TEAM-NET
 10
175.31402
 20
496.530024
 30
600.0
 70
    64
  0
VERTEX
  5
97
  8
TEAM-NET
 10
232.41431
 20
497.709514
 30
600.0
 70
    64
  0
VERTEX
  5
98
  8
TEAM-NET
 10
289.526781
 20
497.713065
 30
600.0
 70
    64
  0
VERTEX
  5
99
  8
TEAM-NET
 10
346.627218
 20
496.540676
 30
600.0
 70
    64
  0
VERTEX
  5
9A
  8
TEAM-NET
 10
403.69141
 20
494.192843
 30
600.0
 70
    64
  0
VERTEX
  5
9B
  8
TEAM-NET
 10
460.695164
 20
490.670562
 30
600.0
 70
    64
  0
VERTEX
  5
9C
  8
TEAM-NET
 10
517.614309
 20
485.975326
 30
600.0
 70
    64
  0
VERTEX
  5
9D
  8
TEAM-NET
 10
574.321624
 20
479.37096
 30
600.0
 70
    64
  0
VERTEX
  5
9E
  8
TEAM-NET
 10
627.999079
 20
460.434928
 30
600.0
 70
    64
  0
VERTEX
  5
9F
  8
TEAM-NET
 10
674.168386
 20
427.144725
 30
600.0
 70
    64
  0
SEQEND
  5
A0
  8
TEAM-NET
  0
POLYLINE
  5
A1
  8
TEAM-NET
 66
     1
 10
0.0
 20
0.0
 30
0.0
 70
    16
 71
     2
 72
    37
  0
VERTEX
  5
A2
  8
TEAM-NET
 10
-435.258354
 20
-276.237268
 30
150.0
 70
    64
  0
VERTEX
  5
A3
  8
TEAM-NET
 10
-403.771081
 20
-306.616517
 30
150.0
 70
    64
  0
VERTEX
  5
A4
  8
TEAM-NET
 10
-367.986707
 20
-331.792413
 30
150.0
 70
    64
  0
VERTEX
  5
A5
  8
TEAM-NET
 10
-328.7565
 20
-351.166055
 30
150.0
 70
    64
  0
VERTEX
  5
A6
  8
TEAM-NET
 10
-287.013697
 20
-364.276567
 30
150.0
 70
    64
  0
VERTEX
  5
A7
  8
TEAM-NET
 10
-243.751307
 20
-370.812067
 30
150.0
 70
    64
  0
VERTEX
  5
A8
  8
TEAM-NET
 10
-199.998488
 20
-370.617083
 30
150.0
 70
    64
  0
VERTEX
  5
A9
  8
TEAM-NET
 10
-156.796066
 20
-363.696253
 30
150.0
 70
    64
  0
VERTEX
  5
AA
  8
TEAM-NET
 10
-114.610331
 20
-351.967895
 30
150.0
 70
    64
  0
VERTEX
  5
AB
  8
TEAM-NET
 10
-72.499862
 20
-339.937131
 30
150.0
 70
    64
  0
VERTEX
  5
AC
  8
TEAM-NET
 10
-30.739772
 20
-326.741458
 30
150.0
 70
    64
  0
VERTEX
  5
AD
  8
TEAM-NET
 10
10.637721
 20
-312.391057
 30
150.0
 70
    64
  0
VERTEX
  5
AE
  8
TEAM-NET
 10
51.600693
 20
-296.897
 30
150.0
 70
    64
  0
VERTEX
  5
AF
  8
TEAM-NET
 10
92.117542
 20
-280.27124
 30
150.0
 70
    64
  0
VERTEX
  5
B0
  8
TEAM-NET
 10
132.157008
 20
-262.526604
 30
150.0
 70
    64
  0
VERTEX
  5
B1
  8
TEAM-NET
 10
171.6882
 20
-243.676784
 30
150.0
 70
    64
  0
VERTEX
  5
B2
  8
TEAM-NET
 10
210.68062
 20
-223.73632
 30
150.0
 70
    64
  0
VERTEX
  5
B3
  8
TEAM-NET
 10
249.104185
 20
-202.720598
 30
150.0
 70
    64
  0
VERTEX
  5
B4
  8
TEAM-NET
 10
286.92925
 20
-180.645831
 30
150.0
 70
    64
  0
VERTEX
  5
B5
  8
TEAM-NET
 10
324.126634
 20
-157.529051
 30
150.0
 70
    64
  0
VERTEX
  5
B6
  8
TEAM-NET
 10
360.667638
 20
-133.388091
 30
150.0
 70
    64
  0
VERTEX
  5
B7
  8
TEAM-NET
 10
396.524071
 20
-108.241577
 30
150.0
 70
    64
  0
VERTEX
  5
B8
  8
TEAM-NET
 10
431.668268
 20
-82.108911
 30
150.0
 70
    64
  0
VERTEX
  5
B9
  8
TEAM-NET
 10
466.073117
 20
-55.010252
 30
150.0
 70
    64
  0
VERTEX
  5
BA
  8
TEAM-NET
 10
499.712073
 20
-26.966508
 30
150.0
 70
    64
  0
VERTEX
  5
BB
  8
TEAM-NET
 10
532.559183
 20
2.000684
 30
150.0
 70
    64
  0
VERTEX
  5
BC
  8
TEAM-NET
 10
564.589107
 20
31.868977
 30
150.0
 70
    64
  0
VERTEX
  5
BD
  8
TEAM-NET
 10
595.777131
 20
62.615327
 30
150.0
 70
    64
  0
VERTEX
  5
BE
  8
TEAM-NET
 10
622.504019
 20
97.249182
 30
150.0
 70
    64
  0
VERTEX
  5
BF
  8
TEAM-NET
 10
646.762205
 20
133.707201
 30
150.0
 70
    64
  0
VERTEX
  5
C0
  8
TEAM-NET
 10
668.928696
 20
171.473502
 30
150.0
 70
    64
  0
VERTEX
  5
C1
  8
TEAM-NET
 10
688.931717
 20
210.428886
 30
150.0
 70
    64
  0
VERTEX
  5
C2
  8
TEAM-NET
 10
702.406286
 20
251.974095
 30
150.0
 70
    64
  0
VERTEX
  5
C3
  8
TEAM-NET
 10
704.850959
 20
295.581341
 30
150.0
 70
    64
  0
VERTEX
  5
C4
  8
TEAM-NET
 10
696.104372
 20
338.372293
 30
150.0
 70
    64
  0
VERTEX
  5
C5
  8
TEAM-NET
 10
676.743851
 20
377.522498
 30
150.0
 70
    64
  0
VERTEX
  5
C6
  8
TEAM-NET
 10
648.047304
 20
410.447816
 30
150.0
 70
    64
  0
VERTEX
  5
C7
  8
TEAM-NET
 10
-712.2363
 20
-292.547497
 30
600.0
 70
    64
  0
VERTEX
  5
C8
  8
TEAM-NET
 10
-674.241827
 20
-330.74723
 30
600.0
 70
    64
  0
VERTEX
  5
C9
  8
TEAM-NET
 10
-631.671806
 20
-363.771357
 30
600.0
 70
    64
  0
VERTEX
  5
CA
  8
TEAM-NET
 10
-585.226097
 20
-391.076956
 30
600.0
 70
    64
  0
VERTEX
  5
CB
  8
TEAM-NET
 10
-535.668275
 20
-412.215117
 30
600.0
 70
    64
  0
VERTEX
  5
CC
  8
TEAM-NET
 10
-483.813079
 20
-426.838327
 30
600.0
 70
    64
  0
VERTEX
  5
CD
  8
TEAM-NET
 10
-430.513018
 20
-434.706176
 30
600.0
 70
    64
  0
VERTEX
  5
CE
  8
TEAM-NET
 10
-376.644353
 20
-435.689317
 30
600.0
 70
    64
  0
VERTEX
  5
CF
  8
TEAM-NET
 10
-323.052129
 20
-430.069642
 30
600.0
 70
    64
  0
VERTEX
  5
D0
  8
TEAM-NET
 10
-269.535689
 20
-423.553739
 30
600.0
 70
    64
  0
VERTEX
  5
D1
  8
TEAM-NET
 10
-216.290855
 20
-415.100695
 30
600.0
 70
    64
  0
VERTEX
  5
D2
  8
TEAM-NET
 10
-163.387722
 20
-404.721639
 30
600.0
 70
    64
  0
VERTEX
  5
D3
  8
TEAM-NET
 10
-110.895935
 20
-392.430234
 30
600.0
 70
    64
  0
VERTEX
  5
D4
  8
TEAM-NET
 10
-58.884599
 20
-378.242661
 30
600.0
 70
    64
  0
VERTEX
  5
D5
  8
TEAM-NET
 10
-7.422184
 20
-362.177599
 30
600.0
 70
    64
  0
VERTEX
  5
D6
  8
TEAM-NET
 10
43.423559
 20
-344.256195
 30
600.0
 70
    64
  0
VERTEX
  5
D7
  8
TEAM-NET
 10
93.585694
 20
-324.502044
 30
600.0
 70
    64
  0
VERTEX
  5
D8
  8
TEAM-NET
 10
142.998185
 20
-302.94115
 30
600.0
 70
    64
  0
VERTEX
  5
D9
  8
TEAM-NET
 10
191.59598
 20
-279.601899
 30
600.0
 70
    64
  0
VERTEX
  5
DA
  8
TEAM-NET
 10
239.315102
 20
-254.515016
 30
600.0
 70
    64
  0
VERTEX
  5
DB
  8
TEAM-NET
 10
286.09273
 20
-227.713527
 30
600.0
 70
    64
  0
VERTEX
  5
DC
  8
TEAM-NET
 10
331.867283
 20
-199.232715
 30
600.0
 70
    64
  0
VERTEX
  5
DD
  8
TEAM-NET
 10
376.578499
 20
-169.110076
 30
600.0
 70
    64
  0
VERTEX
  5
DE
  8
TEAM-NET
 10
420.167518
 20
-137.385263
 30
600.0
 70
    64
  0
VERTEX
  5
DF
  8
TEAM-NET
 10
462.576956
 20
-104.100043
 30
600.0
 70
    64
  0
VERTEX
  5
E0
  8
TEAM-NET
 10
503.750982
 20
-69.298234
 30
600.0
 70
    64
  0
VERTEX
  5
E1
  8
TEAM-NET
 10
543.635391
 20
-33.025651
 30
600.0
 70
    64
  0
VERTEX
  5
E2
  8
TEAM-NET
 10
582.177677
 20
4.669952
 30
600.0
 70
    64
  0
VERTEX
  5
E3
  8
TEAM-NET
 10
619.3271
 20
43.738951
 30
600.0
 70
    64
  0
VERTEX
  5
E4
  8
TEAM-NET
 10
651.770645
 20
86.754096
 30
600.0
 70
    64
  0
VERTEX
  5
E5
  8
TEAM-NET
 10
680.930867
 20
132.090465
 30
600.0
 70
    64
  0
VERTEX
  5
E6
  8
TEAM-NET
 10
707.000498
 20
179.27181
 30
600.0
 70
    64
  0
VERTEX
  5
E7
  8
TEAM-NET
 10
727.786899
 20
228.906623
 30
600.0
 70
    64
  0
VERTEX
  5
E8
  8
TEAM-NET
 10
735.298451
 20
282.130691
 30
600.0
 70
    64
  0
VERTEX
  5
E9
  8
TEAM-NET
 10
728.364091
 20
335.433032
 30
600.0
 70
    64
  0
VERTEX
  5
EA
  8
TEAM-NET
 10
707.484692
 20
384.963584
 30
600.0
 70
    64
  0
VERTEX
  5
EB
  8
TEAM-NET
 10
674.168386
 20
427.144725
 30
600.0
 70
    64
  0
SEQEND
  5
EC
  8
TEAM-NET
  0
POLYLINE
  5
ED
  8
TEAM-NET
 66
     1
 10
0.0
 20
0.0
 30
0.0
 70
    16
 71
     2
 72
    37
  0
VERTEX
  5
EE
  8
TEAM-NET
 10
-875.0
 20
-555.0
 30
600.0
 70
    64
  0
VERTEX
  5
EF
  8
TEAM-NET
 10
-811.048366
 20
-555.841719
 30
600.0
 70
    64
  0
VERTEX
  5
F0
  8
TEAM-NET
 10
-747.094469
 20
-555.195359
 30
600.0
 70
    64
  0
VERTEX
  5
F1
  8
TEAM-NET
 10
-683.173182
 20
-553.053982
 30
600.0
 70
    64
  0
VERTEX
  5
F2
  8
TEAM-NET
 10
-619.320082
 20
-549.407782
 30
600.0
 70
    64
  0
VERTEX
  5
F3
  8
TEAM-NET
 10
-555.571792
 20
-544.244015
 30
600.0
 70
    64
  0
VERTEX
  5
F4
  8
TEAM-NET
 10
-491.966348
 20
-537.546922
 30
600.0
 70
    64
  0
VERTEX
  5
F5
  8
TEAM-NET
 10
-428.54359
 20
-529.297632
 30
600.0
 70
    64
  0
VERTEX
  5
F6
  8
TEAM-NET
 10
-365.345597
 20
-519.474044
 30
600.0
 70
    64
  0
VERTEX
  5
F7
  8
TEAM-NET
 10
-302.417168
 20
-508.050706
 30
600.0
 70
    64
  0
VERTEX
  5
F8
  8
TEAM-NET
 10
-239.806363
 20
-494.998661
 30
600.0
 70
    64
  0
VERTEX
  5
F9
  8
TEAM-NET
 10
-177.565115
 20
-480.285299
 30
600.0
 70
    64
  0
VERTEX
  5
FA
  8
TEAM-NET
 10
-115.749936
 20
-463.874188
 30
600.0
 70
    64
  0
VERTEX
  5
FB
  8
TEAM-NET
 10
-54.422722
 20
-445.724914
 30
600.0
 70
    64
  0
VERTEX
  5
FC
  8
TEAM-NET
 10
6.348311
 20
-425.792922
 30
600.0
 70
    64
  0
VERTEX
  5
FD
  8
TEAM-NET
 10
66.487541
 20
-404.029378
 30
600.0
 70
    64
  0
VERTEX
  5
FE
  8
TEAM-NET
 10
125.910675
 20
-380.381083
 30
600.0
 70
    64
  0
VERTEX
  5
FF
  8
TEAM-NET
 10
184.523276
 20
-354.790442
 30
600.0
 70
    64
  0
VERTEX
  5
100
  8
TEAM-NET
 10
242.219043
 20
-327.195557
 30
600.0
 70
    64
  0
VERTEX
  5
101
  8
TEAM-NET
 10
298.877821
 20
-297.530483
 30
600.0
 70
    64
  0
VERTEX
  5
102
  8
TEAM-NET
 10
354.363298
 20
-265.725737
 30
600.0
 70
    64
  0
VERTEX
  5
103
  8
TEAM-NET
 10
408.520374
 20
-231.709162
 30
600.0
 70
    64
  0
VERTEX
  5
104
  8
TEAM-NET
 10
461.172211
 20
-195.407302
 30
600.0
 70
    64
  0
VERTEX
  5
105
  8
TEAM-NET
 10
512.116987
 20
-156.747487
 30
600.0
 70
    64
  0
VERTEX
  5
106
  8
TEAM-NET
 10
561.124489
 20
-115.660868
 30
600.0
 70
    64
  0
VERTEX
  5
107
  8
TEAM-NET
 10
607.932758
 20
-72.08672
 30
600.0
 70
    64
  0
VERTEX
  5
108
  8
TEAM-NET
 10
652.245189
 20
-25.978347
 30
600.0
 70
    64
  0
VERTEX
  5
109
  8
TEAM-NET
 10
693.728739
 20
22.689078
 30
600.0
 70
    64
  0
VERTEX
  5
10A
  8
TEAM-NET
 10
732.014191
 20
73.90853
 30
600.0
 70
    64
  0
VERTEX
  5
10B
  8
TEAM-NET
 10
766.699792
 20
127.629101
 30
600.0
 70
    64
  0
VERTEX
  5
10C
  8
TEAM-NET
 10
797.359789
 20
183.74256
 30
600.0
 70
    64
  0
VERTEX
  5
10D
  8
TEAM-NET
 10
823.559383
 20
242.070044
 30
600.0
 70
    64
  0
VERTEX
  5
10E
  8
TEAM-NET
 10
844.876923
 20
302.351421
 30
600.0
 70
    64
  0
VERTEX
  5
10F
  8
TEAM-NET
 10
860.932658
 20
364.240786
 30
600.0
 70
    64
  0
VERTEX
  5
110
  8
TEAM-NET
 10
871.421064
 20
427.311579
 30
600.0
 70
    64
  0
VERTEX
  5
111
  8
TEAM-NET
 10
876.14132
 20
491.073441
 30
600.0
 70
    64
  0
VERTEX
  5
112
  8
TEAM-NET
 10
875.019286
 20
555.0
 30
600.0
 70
    64
  0
VERTEX
  5
113
  8
TEAM-NET
 10
-875.0
 20
-555.0
 30
0.0
 70
    64
  0
VERTEX
  5
114
  8
TEAM-NET
 10
-811.048366
 20
-555.841719
 30
0.0
 70
    64
  0
VERTEX
  5
115
  8
TEAM-NET
 10
-747.094469
 20
-555.195359
 30
0.0
 70
    64
  0
VERTEX
  5
116
  8
TEAM-NET
 10
-683.173182
 20
-553.053982
 30
0.0
 70
    64
  0
VERTEX
  5
117
  8
TEAM-NET
 10
-619.320082
 20
-549.407782
 30
0.0
 70
    64
  0
VERTEX
  5
118
  8
TEAM-NET
 10
-555.571792
 20
-544.244015
 30
0.0
 70
    64
  0
VERTEX
  5
119
  8
TEAM-NET
 10
-491.966348
 20
-537.546922
 30
0.0
 70
    64
  0
VERTEX
  5
11A
  8
TEAM-NET
 10
-428.54359
 20
-529.297632
 30
0.0
 70
    64
  0
VERTEX
  5
11B
  8
TEAM-NET
 10
-365.345597
 20
-519.474044
 30
0.0
 70
    64
  0
VERTEX
  5
11C
  8
TEAM-NET
 10
-302.417168
 20
-508.050706
 30
0.0
 70
    64
  0
VERTEX
  5
11D
  8
TEAM-NET
 10
-239.806363
 20
-494.998661
 30
0.0
 70
    64
  0
VERTEX
  5
11E
  8
TEAM-NET
 10
-177.565115
 20
-480.285299
 30
0.0
 70
    64
  0
VERTEX
  5
11F
  8
TEAM-NET
 10
-115.749936
 20
-463.874188
 30
0.0
 70
    64
  0
VERTEX
  5
120
  8
TEAM-NET
 10
-54.422722
 20
-445.724914
 30
0.0
 70
    64
  0
VERTEX
  5
121
  8
TEAM-NET
 10
6.348311
 20
-425.792922
 30
0.0
 70
    64
  0
VERTEX
  5
122
  8
TEAM-NET
 10
66.487541
 20
-404.029378
 30
0.0
 70
    64
  0
VERTEX
  5
123
  8
TEAM-NET
 10
125.910675
 20
-380.381083
 30
0.0
 70
    64
  0
VERTEX
  5
124
  8
TEAM-NET
 10
184.523276
 20
-354.790442
 30
0.0
 70
    64
  0
VERTEX
  5
125
  8
TEAM-NET
 10
242.219043
 20
-327.195557
 30
0.0
 70
    64
  0
VERTEX
  5
126
  8
TEAM-NET
 10
298.877821
 20
-297.530483
 30
0.0
 70
    64
  0
VERTEX
  5
127
  8
TEAM-NET
 10
354.363298
 20
-265.725737
 30
0.0
 70
    64
  0
VERTEX
  5
128
  8
TEAM-NET
 10
408.520374
 20
-231.709162
 30
0.0
 70
    64
  0
VERTEX
  5
129
  8
TEAM-NET
 10
461.172211
 20
-195.407302
 30
0.0
 70
    64
  0
VERTEX
  5
12A
  8
TEAM-NET
 10
512.116987
 20
-156.747487
 30
0.0
 70
    64
  0
VERTEX
  5
12B
  8
TEAM-NET
 10
561.124489
 20
-115.660868
 30
0.0
 70
    64
  0
VERTEX
  5
12C
  8
TEAM-NET
 10
607.932758
 20
-72.08672
 30
0.0
 70
    64
  0
VERTEX
  5
12D
  8
TEAM-NET
 10
652.245189
 20
-25.978347
 30
0.0
 70
    64
  0
VERTEX
  5
12E
  8
TEAM-NET
 10
693.728739
 20
22.689078
 30
0.0
 70
    64
  0
VERTEX
  5
12F
  8
TEAM-NET
 10
732.014191
 20
73.90853
 30
0.0
 70
    64
  0
VERTEX
  5
130
  8
TEAM-NET
 10
766.699792
 20
127.629101
 30
0.0
 70
    64
  0
VERTEX
  5
131
  8
TEAM-NET
 10
797.359789
 20
183.74256
 30
0.0
 70
    64
  0
VERTEX
  5
132
  8
TEAM-NET
 10
823.559383
 20
242.070044
 30
0.0
 70
    64
  0
VERTEX
  5
133
  8
TEAM-NET
 10
844.876923
 20
302.351421
 30
0.0
 70
    64
  0
VERTEX
  5
134
  8
TEAM-NET
 10
860.932658
 20
364.240786
 30
0.0
 70
    64
  0
VERTEX
  5
135
  8
TEAM-NET
 10
871.421064
 20
427.311579
 30
0.0
 70
    64
  0
VERTEX
  5
136
  8
TEAM-NET
 10
876.14132
 20
491.073441
 30
0.0
 70
    64
  0
VERTEX
  5
137
  8
TEAM-NET
 10
875.019286
 20
555.0
 30
0.0
 70
    64
  0
SEQEND
  5
138
  8
TEAM-NET
  0
POLYLINE
  5
139
  8
TEAM-NET
 66
     1
 10
0.0
 20
0.0
 30
0.0
 70
    16
 71
     2
 72
    37
  0
VERTEX
  5
13A
  8
TEAM-NET
 10
-875.0
 20
-555.0
 30
600.0
 70
    64
  0
VERTEX
  5
13B
  8
TEAM-NET
 10
-875.0
 20
-475.555556
 30
600.0
 70
    64
  0
VERTEX
  5
13C
  8
TEAM-NET
 10
-875.0
 20
-396.111111
 30
600.0
 70
    64
  0
VERTEX
  5
13D
  8
TEAM-NET
 10
-875.0
 20
-316.666667
 30
600.0
 70
    64
  0
VERTEX
  5
13E
  8
TEAM-NET
 10
-875.0
 20
-237.222222
 30
600.0
 70
    64
  0
VERTEX
  5
13F
  8
TEAM-NET
 10
-875.0
 20
-157.777778
 30
600.0
 70
    64
  0
VERTEX
  5
140
  8
TEAM-NET
 10
-875.0
 20
-78.333333
 30
600.0
 70
    64
  0
VERTEX
  5
141
  8
TEAM-NET
 10
-875.0
 20
1.111111
 30
600.0
 70
    64
  0
VERTEX
  5
142
  8
TEAM-NET
 10
-875.0
 20
80.555556
 30
600.0
 70
    64
  0
VERTEX
  5
143
  8
TEAM-NET
 10
-875.0
 20
160.0
 30
600.0
 70
    64
  0
VERTEX
  5
144
  8
TEAM-NET
 10
-875.0
 20
239.444444
 30
600.0
 70
    64
  0
VERTEX
  5
145
  8
TEAM-NET
 10
-875.0
 20
318.888889
 30
600.0
 70
    64
  0
VERTEX
  5
146
  8
TEAM-NET
 10
-875.0
 20
398.333333
 30
600.0
 70
    64
  0
VERTEX
  5
147
  8
TEAM-NET
 10
-875.0
 20
477.777778
 30
600.0
 70
    64
  0
VERTEX
  5
148
  8
TEAM-NET
 10
-872.777778
 20
555.0
 30
600.0
 70
    64
  0
VERTEX
  5
149
  8
TEAM-NET
 10
-793.333333
 20
555.0
 30
600.0
 70
    64
  0
VERTEX
  5
14A
  8
TEAM-NET
 10
-713.888889
 20
555.0
 30
600.0
 70
    64
  0
VERTEX
  5
14B
  8
TEAM-NET
 10
-634.444444
 20
555.0
 30
600.0
 70
    64
  0
VERTEX
  5
14C
  8
TEAM-NET
 10
-555.0
 20
555.0
 30
600.0
 70
    64
  0
VERTEX
  5
14D
  8
TEAM-NET
 10
-475.555556
 20
555.0
 30
600.0
 70
    64
  0
VERTEX
  5
14E
  8
TEAM-NET
 10
-396.111111
 20
555.0
 30
600.0
 70
    64
  0
VERTEX
  5
14F
  8
TEAM-NET
 10
-316.666667
 20
555.0
 30
600.0
 70
    64
  0
VERTEX
  5
150
  8
TEAM-NET
 10
-237.222222
 20
555.0
 30
600.0
 70
    64
  0
VERTEX
  5
151
  8
TEAM-NET
 10
-157.777778
 20
555.0
 30
600.0
 70
    64
  0
VERTEX
  5
152
  8
TEAM-NET
 10
-78.333333
 20
555.0
 30
600.0
 70
    64
  0
VERTEX
  5
153
  8
TEAM-NET
 10
1.111111
 20
555.0
 30
600.0
 70
    64
  0
VERTEX
  5
154
  8
TEAM-NET
 10
80.555556
 20
555.0
 30
600.0
 70
    64
  0
VERTEX
  5
155
  8
TEAM-NET
 10
160.0
 20
555.0
 30
600.0
 70
    64
  0
VERTEX
  5
156
  8
TEAM-NET
 10
239.444444
 20
555.0
 30
600.0
 70
    64
  0
VERTEX
  5
157
  8
TEAM-NET
 10
318.888889
 20
555.0
 30
600.0
 70
    64
  0
VERTEX
  5
158
  8
TEAM-NET
 10
398.333333
 20
555.0
 30
600.0
 70
    64
  0
VERTEX
  5
159
  8
TEAM-NET
 10
477.777778
 20
555.0
 30
600.0
 70
    64
  0
VERTEX
  5
15A
  8
TEAM-NET
 10
557.222222
 20
555.0
 30
600.0
 70
    64
  0
VERTEX
  5
15B
  8
TEAM-NET
 10
636.666667
 20
555.0
 30
600.0
 70
    64
  0
VERTEX
  5
15C
  8
TEAM-NET
 10
716.111111
 20
555.0
 30
600.0
 70
    64
  0
VERTEX
  5
15D
  8
TEAM-NET
 10
795.555556
 20
555.0
 30
600.0
 70
    64
  0
VERTEX
  5
15E
  8
TEAM-NET
 10
875.0
 20
555.0
 30
600.0
 70
    64
  0
VERTEX
  5
15F
  8
TEAM-NET
 10
-875.0
 20
-555.0
 30
0.0
 70
    64
  0
VERTEX
  5
160
  8
TEAM-NET
 10
-875.0
 20
-475.555556
 30
0.0
 70
    64
  0
VERTEX
  5
161
  8
TEAM-NET
 10
-875.0
 20
-396.111111
 30
0.0
 70
    64
  0
VERTEX
  5
162
  8
TEAM-NET
 10
-875.0
 20
-316.666667
 30
0.0
 70
    64
  0
VERTEX
  5
163
  8
TEAM-NET
 10
-875.0
 20
-237.222222
 30
0.0
 70
    64
  0
VERTEX
  5
164
  8
TEAM-NET
 10
-875.0
 20
-157.777778
 30
0.0
 70
    64
  0
VERTEX
  5
165
  8
TEAM-NET
 10
-875.0
 20
-78.333333
 30
0.0
 70
    64
  0
VERTEX
  5
166
  8
TEAM-NET
 10
-875.0
 20
1.111111
 30
0.0
 70
    64
  0
VERTEX
  5
167
  8
TEAM-NET
 10
-875.0
 20
80.555556
 30
0.0
 70
    64
  0
VERTEX
  5
168
  8
TEAM-NET
 10
-875.0
 20
160.0
 30
0.0
 70
    64
  0
VERTEX
  5
169
  8
TEAM-NET
 10
-875.0
 20
239.444444
 30
0.0
 70
    64
  0
VERTEX
  5
16A
  8
TEAM-NET
 10
-875.0
 20
318.888889
 30
0.0
 70
    64
  0
VERTEX
  5
16B
  8
TEAM-NET
 10
-875.0
 20
398.333333
 30
0.0
 70
    64
  0
VERTEX
  5
16C
  8
TEAM-NET
 10
-875.0
 20
477.777778
 30
0.0
 70
    64
  0
VERTEX
  5
16D
  8
TEAM-NET
 10
-872.777778
 20
555.0
 30
0.0
 70
    64
  0
VERTEX
  5
16E
  8
TEAM-NET
 10
-793.333333
 20
555.0
 30
0.0
 70
    64
  0
VERTEX
  5
16F
  8
TEAM-NET
 10
-713.888889
 20
555.0
 30
0.0
 70
    64
  0
VERTEX
  5
170
  8
TEAM-NET
 10
-634.444444
 20
555.0
 30
0.0
 70
    64
  0
VERTEX
  5
171
  8
TEAM-NET
 10
-555.0
 20
555.0
 30
0.0
 70
    64
  0
VERTEX
  5
172
  8
TEAM-NET
 10
-475.555556
 20
555.0
 30
0.0
 70
    64
  0
VERTEX
  5
173
  8
TEAM-NET
 10
-396.111111
 20
555.0
 30
0.0
 70
    64
  0
VERTEX
  5
174
  8
TEAM-NET
 10
-316.666667
 20
555.0
 30
0.0
 70
    64
  0
VERTEX
  5
175
  8
TEAM-NET
 10
-237.222222
 20
555.0
 30
0.0
 70
    64
  0
VERTEX
  5
176
  8
TEAM-NET
 10
-157.777778
 20
555.0
 30
0.0
 70
    64
  0
VERTEX
  5
177
  8
TEAM-NET
 10
-78.333333
 20
555.0
 30
0.0
 70
    64
  0
VERTEX
  5
178
  8
TEAM-NET
 10
1.111111
 20
555.0
 30
0.0
 70
    64
  0
VERTEX
  5
179
  8
TEAM-NET
 10
80.555556
 20
555.0
 30
0.0
 70
    64
  0
VERTEX
  5
17A
  8
TEAM-NET
 10
160.0
 20
555.0
 30
0.0
 70
    64
  0
VERTEX
  5
17B
  8
TEAM-NET
 10
239.444444
 20
555.0
 30
0.0
 70
    64
  0
VERTEX
  5
17C
  8
TEAM-NET
 10
318.888889
 20
555.0
 30
0.0
 70
    64
  0
VERTEX
  5
17D
  8
TEAM-NET
 10
398.333333
 20
555.0
 30
0.0
 70
    64
  0
VERTEX
  5
17E
  8
TEAM-NET
 10
477.777778
 20
555.0
 30
0.0
 70
    64
  0
VERTEX
  5
17F
  8
TEAM-NET
 10
557.222222
 20
555.0
 30
0.0
 70
    64
  0
VERTEX
  5
180
  8
TEAM-NET
 10
636.666667
 20
555.0
 30
0.0
 70
    64
  0
VERTEX
  5
181
  8
TEAM-NET
 10
716.111111
 20
555.0
 30
0.0
 70
    64
  0
VERTEX
  5
182
  8
TEAM-NET
 10
795.555556
 20
555.0
 30
0.0
 70
    64
  0
VERTEX
  5
183
  8
TEAM-NET
 10
875.0
 20
555.0
 30
0.0
 70
    64
  0
SEQEND
  5
184
  8
TEAM-NET
  0
POLYLINE
  5
185
  8
TEAM-BODY
 66
     1
 10
0.0
 20
0.0
 30
0.0
 70
   128
210
0.0
220
0.0
230
-1.0
  0
VERTEX
  5
641
  8
TEAM-BODY
 10
-875.019286
 20
555.0
 30
0.0
  0
VERTEX
  5
642
  8
TEAM-BODY
 10
-876.147212
 20
491.283793
 30
0.0
  0
VERTEX
  5
643
  8
TEAM-BODY
 10
-871.474797
 20
427.760134
 30
0.0
  0
VERTEX
  5
644
  8
TEAM-BODY
 10
-861.017585
 20
364.640344
 30
0.0
  0
VERTEX
  5
645
  8
TEAM-BODY
 10
-844.810362
 20
302.134403
 30
0.0
  0
VERTEX
  5
646
  8
TEAM-BODY
 10
-822.907047
 20
240.450246
 30
0.0
  0
VERTEX
  5
647
  8
TEAM-BODY
 10
-795.380502
 20
179.793077
 30
0.0
  0
VERTEX
  5
648
  8
TEAM-BODY
 10
-762.3223
 20
120.364682
 30
0.0
  0
VERTEX
  5
649
  8
TEAM-BODY
 10
-723.842416
 20
62.36276
 30
0.0
  0
VERTEX
  5
64A
  8
TEAM-BODY
 10
-680.068857
 20
5.980262
 30
0.0
  0
VERTEX
  5
64B
  8
TEAM-BODY
 10
-631.147245
 20
-48.595244
 30
0.0
  0
VERTEX
  5
64C
  8
TEAM-BODY
 10
-577.240326
 20
-101.182204
 30
0.0
  0
VERTEX
  5
64D
  8
TEAM-BODY
 10
-518.52743
 20
-151.605679
 30
0.0
  0
VERTEX
  5
64E
  8
TEAM-BODY
 10
-455.203875
 20
-199.697926
 30
0.0
  0
VERTEX
  5
64F
  8
TEAM-BODY
 10
-387.480317
 20
-245.298959
 30
0.0
  0
VERTEX
  5
650
  8
TEAM-BODY
 10
-315.582052
 20
-288.257078
 30
0.0
  0
VERTEX
  5
651
  8
TEAM-BODY
 10
-239.748259
 20
-328.429375
 30
0.0
  0
VERTEX
  5
652
  8
TEAM-BODY
 10
-160.231214
 20
-365.682212
 30
0.0
  0
VERTEX
  5
653
  8
TEAM-BODY
 10
-77.295442
 20
-399.891659
 30
0.0
  0
VERTEX
  5
654
  8
TEAM-BODY
 10
8.783156
 20
-430.943914
 30
0.0
  0
VERTEX
  5
655
  8
TEAM-BODY
 10
97.718225
 20
-458.735676
 30
0.0
  0
VERTEX
  5
656
  8
TEAM-BODY
 10
189.213908
 20
-483.17449
 30
0.0
  0
VERTEX
  5
657
  8
TEAM-BODY
 10
282.96583
 20
-504.179058
 30
0.0
  0
VERTEX
  5
658
  8
TEAM-BODY
 10
378.662108
 20
-521.679504
 30
0.0
  0
VERTEX
  5
659
  8
TEAM-BODY
 10
475.984393
 20
-535.617609
 30
0.0
  0
VERTEX
  5
65A
  8
TEAM-BODY
 10
574.608926
 20
-545.947007
 30
0.0
  0
VERTEX
  5
65B
  8
TEAM-BODY
 10
674.207615
 20
-552.633335
 30
0.0
  0
VERTEX
  5
65C
  8
TEAM-BODY
 10
774.44913
 20
-555.654349
 30
0.0
  0
VERTEX
  5
65D
  8
TEAM-BODY
 10
875.0
 20
-555.0
 30
0.0
  0
SEQEND
  5
65E
  8
TEAM-BODY
  0
POLYLINE
  5
187
  8
TEAM-BODY
 66
     1
 10
0.0
 20
0.0
 30
0.0
  0
VERTEX
  5
65F
  8
TEAM-BODY
 10
875.0
 20
555.0
 30
0.0
  0
VERTEX
  5
660
  8
TEAM-BODY
 10
-875.0
 20
555.0
 30
0.0
  0
VERTEX
  5
661
  8
TEAM-BODY
 10
-875.0
 20
-555.0
 30
0.0
  0
SEQEND
  5
662
  8
TEAM-BODY
  0
CIRCLE
  5
188
  8
TEAM-INSP
 10
0.0
 20
0.0
 30
0.0
 40
10.0
  0
POLYLINE
  5
18A
  8
TEAM-DET1
 66
     1
 10
0.0
 20
0.0
 30
150.0
  0
VERTEX
  5
663
  8
TEAM-DET1
 10
648.047304
 20
410.447816
 30
150.0
 42
0.155837
  0
VERTEX
  5
664
  8
TEAM-DET1
 10
553.410563
 20
452.247048
 30
150.0
 42
0.175732
  0
VERTEX
  5
665
  8
TEAM-DET1
 10
-377.911501
 20
149.848351
 30
150.0
 42
0.458559
  0
VERTEX
  5
666
  8
TEAM-DET1
 10
-435.258354
 20
-276.237268
 30
150.0
  0
SEQEND
  5
667
  8
TEAM-DET1
  0
CIRCLE
  5
18C
  8
TEAM-DET1
 10
198.9
 20
-68.0
 30
150.0
 40
26.0
  0
CIRCLE
  5
18D
  8
TEAM-BODY
 10
198.9
 20
-68.0
 30
150.0
 40
45.0
  0
POLYLINE
  5
18E
  8
TEAM-NET
 66
     1
 10
0.0
 20
0.0
 30
0.0
 70
    16
 71
     2
 72
    37
  0
VERTEX
  5
18F
  8
TEAM-NET
 10
-435.258354
 20
-276.237268
 30
150.0
 70
    64
  0
VERTEX
  5
190
  8
TEAM-NET
 10
-403.771081
 20
-306.616517
 30
150.0
 70
    64
  0
VERTEX
  5
191
  8
TEAM-NET
 10
-367.986707
 20
-331.792413
 30
150.0
 70
    64
  0
VERTEX
  5
192
  8
TEAM-NET
 10
-328.7565
 20
-351.166055
 30
150.0
 70
    64
  0
VERTEX
  5
193
  8
TEAM-NET
 10
-287.013697
 20
-364.276567
 30
150.0
 70
    64
  0
VERTEX
  5
194
  8
TEAM-NET
 10
-243.751307
 20
-370.812067
 30
150.0
 70
    64
  0
VERTEX
  5
195
  8
TEAM-NET
 10
-199.998488
 20
-370.617083
 30
150.0
 70
    64
  0
VERTEX
  5
196
  8
TEAM-NET
 10
-156.796066
 20
-363.696253
 30
150.0
 70
    64
  0
VERTEX
  5
197
  8
TEAM-NET
 10
-114.610331
 20
-351.967895
 30
150.0
 70
    64
  0
VERTEX
  5
198
  8
TEAM-NET
 10
-72.499862
 20
-339.937131
 30
150.0
 70
    64
  0
VERTEX
  5
199
  8
TEAM-NET
 10
-30.739772
 20
-326.741458
 30
150.0
 70
    64
  0
VERTEX
  5
19A
  8
TEAM-NET
 10
10.637721
 20
-312.391057
 30
150.0
 70
    64
  0
VERTEX
  5
19B
  8
TEAM-NET
 10
51.600693
 20
-296.897
 30
150.0
 70
    64
  0
VERTEX
  5
19C
  8
TEAM-NET
 10
92.117542
 20
-280.27124
 30
150.0
 70
    64
  0
VERTEX
  5
19D
  8
TEAM-NET
 10
132.157008
 20
-262.526604
 30
150.0
 70
    64
  0
VERTEX
  5
19E
  8
TEAM-NET
 10
171.6882
 20
-243.676784
 30
150.0
 70
    64
  0
VERTEX
  5
19F
  8
TEAM-NET
 10
210.68062
 20
-223.73632
 30
150.0
 70
    64
  0
VERTEX
  5
1A0
  8
TEAM-NET
 10
249.104185
 20
-202.720598
 30
150.0
 70
    64
  0
VERTEX
  5
1A1
  8
TEAM-NET
 10
286.92925
 20
-180.645831
 30
150.0
 70
    64
  0
VERTEX
  5
1A2
  8
TEAM-NET
 10
324.126634
 20
-157.529051
 30
150.0
 70
    64
  0
VERTEX
  5
1A3
  8
TEAM-NET
 10
360.667638
 20
-133.388091
 30
150.0
 70
    64
  0
VERTEX
  5
1A4
  8
TEAM-NET
 10
396.524071
 20
-108.241577
 30
150.0
 70
    64
  0
VERTEX
  5
1A5
  8
TEAM-NET
 10
431.668268
 20
-82.108911
 30
150.0
 70
    64
  0
VERTEX
  5
1A6
  8
TEAM-NET
 10
466.073117
 20
-55.010252
 30
150.0
 70
    64
  0
VERTEX
  5
1A7
  8
TEAM-NET
 10
499.712073
 20
-26.966508
 30
150.0
 70
    64
  0
VERTEX
  5
1A8
  8
TEAM-NET
 10
532.559183
 20
2.000684
 30
150.0
 70
    64
  0
VERTEX
  5
1A9
  8
TEAM-NET
 10
564.589107
 20
31.868977
 30
150.0
 70
    64
  0
VERTEX
  5
1AA
  8
TEAM-NET
 10
595.777131
 20
62.615327
 30
150.0
 70
    64
  0
VERTEX
  5
1AB
  8
TEAM-NET
 10
622.504019
 20
97.249182
 30
150.0
 70
    64
  0
VERTEX
  5
1AC
  8
TEAM-NET
 10
646.762205
 20
133.707201
 30
150.0
 70
    64
  0
VERTEX
  5
1AD
  8
TEAM-NET
 10
668.928696
 20
171.473502
 30
150.0
 70
    64
  0
VERTEX
  5
1AE
  8
TEAM-NET
 10
688.931717
 20
210.428886
 30
150.0
 70
    64
  0
VERTEX
  5
1AF
  8
TEAM-NET
 10
702.406286
 20
251.974095
 30
150.0
 70
    64
  0
VERTEX
  5
1B0
  8
TEAM-NET
 10
704.850959
 20
295.581341
 30
150.0
 70
    64
  0
VERTEX
  5
1B1
  8
TEAM-NET
 10
696.104372
 20
338.372293
 30
150.0
 70
    64
  0
VERTEX
  5
1B2
  8
TEAM-NET
 10
676.743851
 20
377.522498
 30
150.0
 70
    64
  0
VERTEX
  5
1B3
  8
TEAM-NET
 10
648.047304
 20
410.447816
 30
150.0
 70
    64
  0
VERTEX
  5
1B4
  8
TEAM-NET
 10
-435.258354
 20
-276.237268
 30
150.0
 70
    64
  0
VERTEX
  5
1B5
  8
TEAM-NET
 10
-461.932635
 20
-241.014375
 30
150.0
 70
    64
  0
VERTEX
  5
1B6
  8
TEAM-NET
 10
-482.813991
 20
-202.076753
 30
150.0
 70
    64
  0
VERTEX
  5
1B7
  8
TEAM-NET
 10
-497.395866
 20
-160.36898
 30
150.0
 70
    64
  0
VERTEX
  5
1B8
  8
TEAM-NET
 10
-505.324521
 20
-116.902834
 30
150.0
 70
    64
  0
VERTEX
  5
1B9
  8
TEAM-NET
 10
-506.407618
 20
-72.73275
 30
150.0
 70
    64
  0
VERTEX
  5
1BA
  8
TEAM-NET
 10
-500.618882
 20
-28.930239
 30
150.0
 70
    64
  0
VERTEX
  5
1BB
  8
TEAM-NET
 10
-488.098741
 20
13.442104
 30
150.0
 70
    64
  0
VERTEX
  5
1BC
  8
TEAM-NET
 10
-469.150917
 20
53.35638
 30
150.0
 70
    64
  0
VERTEX
  5
1BD
  8
TEAM-NET
 10
-444.235061
 20
89.844317
 30
150.0
 70
    64
  0
VERTEX
  5
1BE
  8
TEAM-NET
 10
-413.955601
 20
122.020764
 30
150.0
 70
    64
  0
VERTEX
  5
1BF
  8
TEAM-NET
 10
-379.047079
 20
149.10516
 30
150.0
 70
    64
  0
VERTEX
  5
1C0
  8
TEAM-NET
 10
-343.704761
 20
175.687933
 30
150.0
 70
    64
  0
VERTEX
  5
1C1
  8
TEAM-NET
 10
-307.623154
 20
201.263148
 30
150.0
 70
    64
  0
VERTEX
  5
1C2
  8
TEAM-NET
 10
-270.771092
 20
225.715133
 30
150.0
 70
    64
  0
VERTEX
  5
1C3
  8
TEAM-NET
 10
-233.18353
 20
249.020695
 30
150.0
 70
    64
  0
VERTEX
  5
1C4
  8
TEAM-NET
 10
-194.896119
 20
271.157728
 30
150.0
 70
    64
  0
VERTEX
  5
1C5
  8
TEAM-NET
 10
-155.945176
 20
292.105235
 30
150.0
 70
    64
  0
VERTEX
  5
1C6
  8
TEAM-NET
 10
-116.367645
 20
311.843348
 30
150.0
 70
    64
  0
VERTEX
  5
1C7
  8
TEAM-NET
 10
-76.201066
 20
330.353345
 30
150.0
 70
    64
  0
VERTEX
  5
1C8
  8
TEAM-NET
 10
-35.483536
 20
347.617668
 30
150.0
 70
    64
  0
VERTEX
  5
1C9
  8
TEAM-NET
 10
5.746322
 20
363.619944
 30
150.0
 70
    64
  0
VERTEX
  5
1CA
  8
TEAM-NET
 10
47.449403
 20
378.344992
 30
150.0
 70
    64
  0
VERTEX
  5
1CB
  8
TEAM-NET
 10
89.586152
 20
391.778848
 30
150.0
 70
    64
  0
VERTEX
  5
1CC
  8
TEAM-NET
 10
132.116601
 20
403.908769
 30
150.0
 70
    64
  0
VERTEX
  5
1CD
  8
TEAM-NET
 10
175.00041
 20
414.723249
 30
150.0
 70
    64
  0
VERTEX
  5
1CE
  8
TEAM-NET
 10
218.196903
 20
424.212031
 30
150.0
 70
    64
  0
VERTEX
  5
1CF
  8
TEAM-NET
 10
261.66511
 20
432.366114
 30
150.0
 70
    64
  0
VERTEX
  5
1D0
  8
TEAM-NET
 10
305.363799
 20
439.177765
 30
150.0
 70
    64
  0
VERTEX
  5
1D1
  8
TEAM-NET
 10
349.251523
 20
444.640524
 30
150.0
 70
    64
  0
VERTEX
  5
1D2
  8
TEAM-NET
 10
393.286654
 20
448.749207
 30
150.0
 70
    64
  0
VERTEX
  5
1D3
  8
TEAM-NET
 10
437.427425
 20
451.499918
 30
150.0
 70
    64
  0
VERTEX
  5
1D4
  8
TEAM-NET
 10
481.631968
 20
452.890049
 30
150.0
 70
    64
  0
VERTEX
  5
1D5
  8
TEAM-NET
 10
525.858354
 20
452.91828
 30
150.0
 70
    64
  0
VERTEX
  5
1D6
  8
TEAM-NET
 10
569.869558
 20
449.662651
 30
150.0
 70
    64
  0
VERTEX
  5
1D7
  8
TEAM-NET
 10
611.523503
 20
435.168899
 30
150.0
 70
    64
  0
VERTEX
  5
1D8
  8
TEAM-NET
 10
648.047304
 20
410.447816
 30
150.0
 70
    64
  0
SEQEND
  5
1D9
  8
TEAM-NET
  0
POLYLINE
  5
1DA
  8
TEAM-DET1
 66
     1
 10
0.0
 20
0.0
 30
150.0
  0
VERTEX
  5
668
  8
TEAM-DET1
 10
-435.258354
 20
-276.237268
 30
150.0
 42
0.301039
  0
VERTEX
  5
669
  8
TEAM-DET1
 10
-132.566547
 20
-356.71588
 30
150.0
 42
0.136608
  0
VERTEX
  5
66A
  8
TEAM-DET1
 10
599.677539
 20
66.582783
 30
150.0
 42
0.054345
  0
VERTEX
  5
66B
  8
TEAM-DET1
 10
688.576283
 20
209.683348
 30
150.0
 42
0.335
  0
VERTEX
  5
66C
  8
TEAM-DET1
 10
648.047304
 20
410.447816
 30
150.0
  0
SEQEND
  5
66D
  8
TEAM-DET1
  0
POLYLINE
  5
1DB
  8
TEAM-DET1
 66
     1
 10
0.0
 20
0.0
 30
300.0
 70
   128
  0
VERTEX
  5
66E
  8
TEAM-DET1
 10
577.901093
 20
468.693906
 30
300.0
  0
VERTEX
  5
66F
  8
TEAM-DET1
 10
560.433803
 20
476.655399
 30
300.0
  0
VERTEX
  5
670
  8
TEAM-DET1
 10
542.619203
 20
481.225495
 30
300.0
  0
VERTEX
  5
671
  8
TEAM-DET1
 10
504.683026
 20
485.067305
 30
300.0
  0
VERTEX
  5
672
  8
TEAM-DET1
 10
464.341369
 20
487.621657
 30
300.0
  0
VERTEX
  5
673
  8
TEAM-DET1
 10
425.586041
 20
488.469942
 30
300.0
  0
VERTEX
  5
674
  8
TEAM-DET1
 10
387.152983
 20
487.61096
 30
300.0
  0
VERTEX
  5
675
  8
TEAM-DET1
 10
348.20437
 20
484.823313
 30
300.0
  0
VERTEX
  5
676
  8
TEAM-DET1
 10
308.758089
 20
480.212862
 30
300.0
  0
VERTEX
  5
677
  8
TEAM-DET1
 10
268.838288
 20
473.987484
 30
300.0
  0
VERTEX
  5
678
  8
TEAM-DET1
 10
228.908416
 20
466.30669
 30
300.0
  0
VERTEX
  5
679
  8
TEAM-DET1
 10
188.092653
 20
456.98603
 30
300.0
  0
VERTEX
  5
67A
  8
TEAM-DET1
 10
147.493232
 20
446.287415
 30
300.0
  0
VERTEX
  5
67B
  8
TEAM-DET1
 10
106.406046
 20
434.038785
 30
300.0
  0
VERTEX
  5
67C
  8
TEAM-DET1
 10
71.360267
 20
422.484644
 30
300.0
  0
VERTEX
  5
67D
  8
TEAM-DET1
 10
40.027186
 20
411.305045
 30
300.0
  0
VERTEX
  5
67E
  8
TEAM-DET1
 10
-21.230801
 20
387.142435
 30
300.0
  0
VERTEX
  5
67F
  8
TEAM-DET1
 10
-83.584707
 20
359.465219
 30
300.0
  0
VERTEX
  5
680
  8
TEAM-DET1
 10
-146.539747
 20
328.38102
 30
300.0
  0
VERTEX
  5
681
  8
TEAM-DET1
 10
-209.87306
 20
293.927386
 30
300.0
  0
VERTEX
  5
682
  8
TEAM-DET1
 10
-273.341705
 20
256.162015
 30
300.0
  0
VERTEX
  5
683
  8
TEAM-DET1
 10
-336.695065
 20
215.188
 30
300.0
  0
VERTEX
  5
684
  8
TEAM-DET1
 10
-399.680772
 20
171.121889
 30
300.0
  0
VERTEX
  5
685
  8
TEAM-DET1
 10
-462.049064
 20
124.110787
 30
300.0
  0
VERTEX
  5
686
  8
TEAM-DET1
 10
-523.554755
 20
74.329625
 30
300.0
  0
SEQEND
  5
687
  8
TEAM-DET1
  0
POLYLINE
  5
1DC
  8
TEAM-DET1
 66
     1
 10
0.0
 20
0.0
 30
500.0
  0
VERTEX
  5
688
  8
TEAM-DET1
 10
42.87724
 20
473.814538
 30
500.0
 42
0.123731
  0
VERTEX
  5
689
  8
TEAM-DET1
 10
-605.789888
 20
297.645697
 30
500.0
  0
SEQEND
  5
68A
  8
TEAM-DET1
  0
POLYLINE
  5
1DD
  8
TEAM-BODY
 66
     1
 10
0.0
 20
0.0
 30
600.0
  0
VERTEX
  5
68B
  8
TEAM-BODY
 10
674.168386
 20
427.144725
 30
600.0
 42
0.166711
  0
VERTEX
  5
68C
  8
TEAM-BODY
 10
556.6063
 20
482.076351
 30
600.0
 42
0.095318
  0
VERTEX
  5
68D
  8
TEAM-BODY
 10
-487.752004
 20
394.843687
 30
600.0
  0
VERTEX
  5
68E
  8
TEAM-BODY
 10
-499.783052
 20
391.229886
 30
600.0
 42
0.559227
  0
VERTEX
  5
68F
  8
TEAM-BODY
 10
-712.2363
 20
-292.547497
 30
600.0
 42
0.559227
  0
SEQEND
  5
690
  8
TEAM-BODY
  0
POLYLINE
  5
1DE
  8
TEAM-NET
 66
     1
 10
0.0
 20
0.0
 30
0.0
 70
    16
 71
     2
 72
    37
  0
VERTEX
  5
1DF
  8
TEAM-NET
 10
-712.2363
 20
-292.547497
 30
600.0
 70
    64
  0
VERTEX
  5
1E0
  8
TEAM-NET
 10
-674.241827
 20
-330.74723
 30
600.0
 70
    64
  0
VERTEX
  5
1E1
  8
TEAM-NET
 10
-631.671806
 20
-363.771357
 30
600.0
 70
    64
  0
VERTEX
  5
1E2
  8
TEAM-NET
 10
-585.226097
 20
-391.076956
 30
600.0
 70
    64
  0
VERTEX
  5
1E3
  8
TEAM-NET
 10
-535.668275
 20
-412.215117
 30
600.0
 70
    64
  0
VERTEX
  5
1E4
  8
TEAM-NET
 10
-483.813079
 20
-426.838327
 30
600.0
 70
    64
  0
VERTEX
  5
1E5
  8
TEAM-NET
 10
-430.513018
 20
-434.706176
 30
600.0
 70
    64
  0
VERTEX
  5
1E6
  8
TEAM-NET
 10
-376.644353
 20
-435.689317
 30
600.0
 70
    64
  0
VERTEX
  5
1E7
  8
TEAM-NET
 10
-323.052129
 20
-430.069642
 30
600.0
 70
    64
  0
VERTEX
  5
1E8
  8
TEAM-NET
 10
-269.535689
 20
-423.553739
 30
600.0
 70
    64
  0
VERTEX
  5
1E9
  8
TEAM-NET
 10
-216.290855
 20
-415.100695
 30
600.0
 70
    64
  0
VERTEX
  5
1EA
  8
TEAM-NET
 10
-163.387722
 20
-404.721639
 30
600.0
 70
    64
  0
VERTEX
  5
1EB
  8
TEAM-NET
 10
-110.895935
 20
-392.430234
 30
600.0
 70
    64
  0
VERTEX
  5
1EC
  8
TEAM-NET
 10
-58.884599
 20
-378.242661
 30
600.0
 70
    64
  0
VERTEX
  5
1ED
  8
TEAM-NET
 10
-7.422184
 20
-362.177599
 30
600.0
 70
    64
  0
VERTEX
  5
1EE
  8
TEAM-NET
 10
43.423559
 20
-344.256195
 30
600.0
 70
    64
  0
VERTEX
  5
1EF
  8
TEAM-NET
 10
93.585694
 20
-324.502044
 30
600.0
 70
    64
  0
VERTEX
  5
1F0
  8
TEAM-NET
 10
142.998185
 20
-302.94115
 30
600.0
 70
    64
  0
VERTEX
  5
1F1
  8
TEAM-NET
 10
191.59598
 20
-279.601899
 30
600.0
 70
    64
  0
VERTEX
  5
1F2
  8
TEAM-NET
 10
239.315102
 20
-254.515016
 30
600.0
 70
    64
  0
VERTEX
  5
1F3
  8
TEAM-NET
 10
286.09273
 20
-227.713527
 30
600.0
 70
    64
  0
VERTEX
  5
1F4
  8
TEAM-NET
 10
331.867283
 20
-199.232715
 30
600.0
 70
    64
  0
VERTEX
  5
1F5
  8
TEAM-NET
 10
376.578499
 20
-169.110076
 30
600.0
 70
    64
  0
VERTEX
  5
1F6
  8
TEAM-NET
 10
420.167518
 20
-137.385263
 30
600.0
 70
    64
  0
VERTEX
  5
1F7
  8
TEAM-NET
 10
462.576956
 20
-104.100043
 30
600.0
 70
    64
  0
VERTEX
  5
1F8
  8
TEAM-NET
 10
503.750982
 20
-69.298234
 30
600.0
 70
    64
  0
VERTEX
  5
1F9
  8
TEAM-NET
 10
543.635391
 20
-33.025651
 30
600.0
 70
    64
  0
VERTEX
  5
1FA
  8
TEAM-NET
 10
582.177677
 20
4.669952
 30
600.0
 70
    64
  0
VERTEX
  5
1FB
  8
TEAM-NET
 10
619.3271
 20
43.738951
 30
600.0
 70
    64
  0
VERTEX
  5
1FC
  8
TEAM-NET
 10
651.770645
 20
86.754096
 30
600.0
 70
    64
  0
VERTEX
  5
1FD
  8
TEAM-NET
 10
680.930867
 20
132.090465
 30
600.0
 70
    64
  0
VERTEX
  5
1FE
  8
TEAM-NET
 10
707.000498
 20
179.27181
 30
600.0
 70
    64
  0
VERTEX
  5
1FF
  8
TEAM-NET
 10
727.786899
 20
228.906623
 30
600.0
 70
    64
  0
VERTEX
  5
200
  8
TEAM-NET
 10
735.298451
 20
282.130691
 30
600.0
 70
    64
  0
VERTEX
  5
201
  8
TEAM-NET
 10
728.364091
 20
335.433032
 30
600.0
 70
    64
  0
VERTEX
  5
202
  8
TEAM-NET
 10
707.484692
 20
384.963584
 30
600.0
 70
    64
  0
VERTEX
  5
203
  8
TEAM-NET
 10
674.168386
 20
427.144725
 30
600.0
 70
    64
  0
VERTEX
  5
204
  8
TEAM-NET
 10
-875.0
 20
-555.0
 30
600.0
 70
    64
  0
VERTEX
  5
205
  8
TEAM-NET
 10
-811.048366
 20
-555.841719
 30
600.0
 70
    64
  0
VERTEX
  5
206
  8
TEAM-NET
 10
-747.094469
 20
-555.195359
 30
600.0
 70
    64
  0
VERTEX
  5
207
  8
TEAM-NET
 10
-683.173182
 20
-553.053982
 30
600.0
 70
    64
  0
VERTEX
  5
208
  8
TEAM-NET
 10
-619.320082
 20
-549.407782
 30
600.0
 70
    64
  0
VERTEX
  5
209
  8
TEAM-NET
 10
-555.571792
 20
-544.244015
 30
600.0
 70
    64
  0
VERTEX
  5
20A
  8
TEAM-NET
 10
-491.966348
 20
-537.546922
 30
600.0
 70
    64
  0
VERTEX
  5
20B
  8
TEAM-NET
 10
-428.54359
 20
-529.297632
 30
600.0
 70
    64
  0
VERTEX
  5
20C
  8
TEAM-NET
 10
-365.345597
 20
-519.474044
 30
600.0
 70
    64
  0
VERTEX
  5
20D
  8
TEAM-NET
 10
-302.417168
 20
-508.050706
 30
600.0
 70
    64
  0
VERTEX
  5
20E
  8
TEAM-NET
 10
-239.806363
 20
-494.998661
 30
600.0
 70
    64
  0
VERTEX
  5
20F
  8
TEAM-NET
 10
-177.565115
 20
-480.285299
 30
600.0
 70
    64
  0
VERTEX
  5
210
  8
TEAM-NET
 10
-115.749936
 20
-463.874188
 30
600.0
 70
    64
  0
VERTEX
  5
211
  8
TEAM-NET
 10
-54.422722
 20
-445.724914
 30
600.0
 70
    64
  0
VERTEX
  5
212
  8
TEAM-NET
 10
6.348311
 20
-425.792922
 30
600.0
 70
    64
  0
VERTEX
  5
213
  8
TEAM-NET
 10
66.487541
 20
-404.029378
 30
600.0
 70
    64
  0
VERTEX
  5
214
  8
TEAM-NET
 10
125.910675
 20
-380.381083
 30
600.0
 70
    64
  0
VERTEX
  5
215
  8
TEAM-NET
 10
184.523276
 20
-354.790442
 30
600.0
 70
    64
  0
VERTEX
  5
216
  8
TEAM-NET
 10
242.219043
 20
-327.195557
 30
600.0
 70
    64
  0
VERTEX
  5
217
  8
TEAM-NET
 10
298.877821
 20
-297.530483
 30
600.0
 70
    64
  0
VERTEX
  5
218
  8
TEAM-NET
 10
354.363298
 20
-265.725737
 30
600.0
 70
    64
  0
VERTEX
  5
219
  8
TEAM-NET
 10
408.520374
 20
-231.709162
 30
600.0
 70
    64
  0
VERTEX
  5
21A
  8
TEAM-NET
 10
461.172211
 20
-195.407302
 30
600.0
 70
    64
  0
VERTEX
  5
21B
  8
TEAM-NET
 10
512.116987
 20
-156.747487
 30
600.0
 70
    64
  0
VERTEX
  5
21C
  8
TEAM-NET
 10
561.124489
 20
-115.660868
 30
600.0
 70
    64
  0
VERTEX
  5
21D
  8
TEAM-NET
 10
607.932758
 20
-72.08672
 30
600.0
 70
    64
  0
VERTEX
  5
21E
  8
TEAM-NET
 10
652.245189
 20
-25.978347
 30
600.0
 70
    64
  0
VERTEX
  5
21F
  8
TEAM-NET
 10
693.728739
 20
22.689078
 30
600.0
 70
    64
  0
VERTEX
  5
220
  8
TEAM-NET
 10
732.014191
 20
73.90853
 30
600.0
 70
    64
  0
VERTEX
  5
221
  8
TEAM-NET
 10
766.699792
 20
127.629101
 30
600.0
 70
    64
  0
VERTEX
  5
222
  8
TEAM-NET
 10
797.359789
 20
183.74256
 30
600.0
 70
    64
  0
VERTEX
  5
223
  8
TEAM-NET
 10
823.559383
 20
242.070044
 30
600.0
 70
    64
  0
VERTEX
  5
224
  8
TEAM-NET
 10
844.876923
 20
302.351421
 30
600.0
 70
    64
  0
VERTEX
  5
225
  8
TEAM-NET
 10
860.932658
 20
364.240786
 30
600.0
 70
    64
  0
VERTEX
  5
226
  8
TEAM-NET
 10
871.421064
 20
427.311579
 30
600.0
 70
    64
  0
VERTEX
  5
227
  8
TEAM-NET
 10
876.14132
 20
491.073441
 30
600.0
 70
    64
  0
VERTEX
  5
228
  8
TEAM-NET
 10
875.019286
 20
555.0
 30
600.0
 70
    64
  0
SEQEND
  5
229
  8
TEAM-NET
  0
POLYLINE
  5
22A
  8
TEAM-NET
 66
     1
 10
0.0
 20
0.0
 30
0.0
 70
    16
 71
     2
 72
    37
  0
VERTEX
  5
22B
  8
TEAM-NET
 10
-712.2363
 20
-292.547497
 30
600.0
 70
    64
  0
VERTEX
  5
22C
  8
TEAM-NET
 10
-746.800831
 20
-247.135779
 30
600.0
 70
    64
  0
VERTEX
  5
22D
  8
TEAM-NET
 10
-774.893204
 20
-197.459332
 30
600.0
 70
    64
  0
VERTEX
  5
22E
  8
TEAM-NET
 10
-795.995233
 20
-144.434477
 30
600.0
 70
    64
  0
VERTEX
  5
22F
  8
TEAM-NET
 10
-809.717674
 20
-89.039301
 30
600.0
 70
    64
  0
VERTEX
  5
230
  8
TEAM-NET
 10
-815.807404
 20
-32.295614
 30
600.0
 70
    64
  0
VERTEX
  5
231
  8
TEAM-NET
 10
-814.152094
 20
24.749902
 30
600.0
 70
    64
  0
VERTEX
  5
232
  8
TEAM-NET
 10
-804.782278
 20
81.044994
 30
600.0
 70
    64
  0
VERTEX
  5
233
  8
TEAM-NET
 10
-787.870788
 20
135.551254
 30
600.0
 70
    64
  0
VERTEX
  5
234
  8
TEAM-NET
 10
-763.729573
 20
187.26327
 30
600.0
 70
    64
  0
VERTEX
  5
235
  8
TEAM-NET
 10
-732.803935
 20
235.227171
 30
600.0
 70
    64
  0
VERTEX
  5
236
  8
TEAM-NET
 10
-695.664324
 20
278.558224
 30
600.0
 70
    64
  0
VERTEX
  5
237
  8
TEAM-NET
 10
-652.995809
 20
316.457152
 30
600.0
 70
    64
  0
VERTEX
  5
238
  8
TEAM-NET
 10
-605.585448
 20
348.224879
 30
600.0
 70
    64
  0
VERTEX
  5
239
  8
TEAM-NET
 10
-554.307761
 20
373.275423
 30
600.0
 70
    64
  0
VERTEX
  5
23A
  8
TEAM-NET
 10
-500.108609
 20
391.146706
 30
600.0
 70
    64
  0
VERTEX
  5
23B
  8
TEAM-NET
 10
-445.085434
 20
406.442105
 30
600.0
 70
    64
  0
VERTEX
  5
23C
  8
TEAM-NET
 10
-389.708523
 20
420.414654
 30
600.0
 70
    64
  0
VERTEX
  5
23D
  8
TEAM-NET
 10
-334.055659
 20
433.244036
 30
600.0
 70
    64
  0
VERTEX
  5
23E
  8
TEAM-NET
 10
-278.150437
 20
444.924811
 30
600.0
 70
    64
  0
VERTEX
  5
23F
  8
TEAM-NET
 10
-222.01656
 20
455.452028
 30
600.0
 70
    64
  0
VERTEX
  5
240
  8
TEAM-NET
 10
-165.67783
 20
464.821222
 30
600.0
 70
    64
  0
VERTEX
  5
241
  8
TEAM-NET
 10
-109.158132
 20
473.028421
 30
600.0
 70
    64
  0
VERTEX
  5
242
  8
TEAM-NET
 10
-52.481431
 20
480.070146
 30
600.0
 70
    64
  0
VERTEX
  5
243
  8
TEAM-NET
 10
4.328244
 20
485.94341
 30
600.0
 70
    64
  0
VERTEX
  5
244
  8
TEAM-NET
 10
61.246805
 20
490.645724
 30
600.0
 70
    64
  0
VERTEX
  5
245
  8
TEAM-NET
 10
118.25012
 20
494.175094
 30
600.0
 70
    64
  0
VERTEX
  5
246
  8
TEAM-NET
 10
175.31402
 20
496.530024
 30
600.0
 70
    64
  0
VERTEX
  5
247
  8
TEAM-NET
 10
232.41431
 20
497.709514
 30
600.0
 70
    64
  0
VERTEX
  5
248
  8
TEAM-NET
 10
289.526781
 20
497.713065
 30
600.0
 70
    64
  0
VERTEX
  5
249
  8
TEAM-NET
 10
346.627218
 20
496.540676
 30
600.0
 70
    64
  0
VERTEX
  5
24A
  8
TEAM-NET
 10
403.69141
 20
494.192843
 30
600.0
 70
    64
  0
VERTEX
  5
24B
  8
TEAM-NET
 10
460.695164
 20
490.670562
 30
600.0
 70
    64
  0
VERTEX
  5
24C
  8
TEAM-NET
 10
517.614309
 20
485.975326
 30
600.0
 70
    64
  0
VERTEX
  5
24D
  8
TEAM-NET
 10
574.321624
 20
479.37096
 30
600.0
 70
    64
  0
VERTEX
  5
24E
  8
TEAM-NET
 10
627.999079
 20
460.434928
 30
600.0
 70
    64
  0
VERTEX
  5
24F
  8
TEAM-NET
 10
674.168386
 20
427.144725
 30
600.0
 70
    64
  0
VERTEX
  5
250
  8
TEAM-NET
 10
-875.0
 20
-555.0
 30
600.0
 70
    64
  0
VERTEX
  5
251
  8
TEAM-NET
 10
-875.0
 20
-475.555556
 30
600.0
 70
    64
  0
VERTEX
  5
252
  8
TEAM-NET
 10
-875.0
 20
-396.111111
 30
600.0
 70
    64
  0
VERTEX
  5
253
  8
TEAM-NET
 10
-875.0
 20
-316.666667
 30
600.0
 70
    64
  0
VERTEX
  5
254
  8
TEAM-NET
 10
-875.0
 20
-237.222222
 30
600.0
 70
    64
  0
VERTEX
  5
255
  8
TEAM-NET
 10
-875.0
 20
-157.777778
 30
600.0
 70
    64
  0
VERTEX
  5
256
  8
TEAM-NET
 10
-875.0
 20
-78.333333
 30
600.0
 70
    64
  0
VERTEX
  5
257
  8
TEAM-NET
 10
-875.0
 20
1.111111
 30
600.0
 70
    64
  0
VERTEX
  5
258
  8
TEAM-NET
 10
-875.0
 20
80.555556
 30
600.0
 70
    64
  0
VERTEX
  5
259
  8
TEAM-NET
 10
-875.0
 20
160.0
 30
600.0
 70
    64
  0
VERTEX
  5
25A
  8
TEAM-NET
 10
-875.0
 20
239.444444
 30
600.0
 70
    64
  0
VERTEX
  5
25B
  8
TEAM-NET
 10
-875.0
 20
318.888889
 30
600.0
 70
    64
  0
VERTEX
  5
25C
  8
TEAM-NET
 10
-875.0
 20
398.333333
 30
600.0
 70
    64
  0
VERTEX
  5
25D
  8
TEAM-NET
 10
-875.0
 20
477.777778
 30
600.0
 70
    64
  0
VERTEX
  5
25E
  8
TEAM-NET
 10
-872.777778
 20
555.0
 30
600.0
 70
    64
  0
VERTEX
  5
25F
  8
TEAM-NET
 10
-793.333333
 20
555.0
 30
600.0
 70
    64
  0
VERTEX
  5
260
  8
TEAM-NET
 10
-713.888889
 20
555.0
 30
600.0
 70
    64
  0
VERTEX
  5
261
  8
TEAM-NET
 10
-634.444444
 20
555.0
 30
600.0
 70
    64
  0
VERTEX
  5
262
  8
TEAM-NET
 10
-555.0
 20
555.0
 30
600.0
 70
    64
  0
VERTEX
  5
263
  8
TEAM-NET
 10
-475.555556
 20
555.0
 30
600.0
 70
    64
  0
VERTEX
  5
264
  8
TEAM-NET
 10
-396.111111
 20
555.0
 30
600.0
 70
    64
  0
VERTEX
  5
265
  8
TEAM-NET
 10
-316.666667
 20
555.0
 30
600.0
 70
    64
  0
VERTEX
  5
266
  8
TEAM-NET
 10
-237.222222
 20
555.0
 30
600.0
 70
    64
  0
VERTEX
  5
267
  8
TEAM-NET
 10
-157.777778
 20
555.0
 30
600.0
 70
    64
  0
VERTEX
  5
268
  8
TEAM-NET
 10
-78.333333
 20
555.0
 30
600.0
 70
    64
  0
VERTEX
  5
269
  8
TEAM-NET
 10
1.111111
 20
555.0
 30
600.0
 70
    64
  0
VERTEX
  5
26A
  8
TEAM-NET
 10
80.555556
 20
555.0
 30
600.0
 70
    64
  0
VERTEX
  5
26B
  8
TEAM-NET
 10
160.0
 20
555.0
 30
600.0
 70
    64
  0
VERTEX
  5
26C
  8
TEAM-NET
 10
239.444444
 20
555.0
 30
600.0
 70
    64
  0
VERTEX
  5
26D
  8
TEAM-NET
 10
318.888889
 20
555.0
 30
600.0
 70
    64
  0
VERTEX
  5
26E
  8
TEAM-NET
 10
398.333333
 20
555.0
 30
600.0
 70
    64
  0
VERTEX
  5
26F
  8
TEAM-NET
 10
477.777778
 20
555.0
 30
600.0
 70
    64
  0
VERTEX
  5
270
  8
TEAM-NET
 10
557.222222
 20
555.0
 30
600.0
 70
    64
  0
VERTEX
  5
271
  8
TEAM-NET
 10
636.666667
 20
555.0
 30
600.0
 70
    64
  0
VERTEX
  5
272
  8
TEAM-NET
 10
716.111111
 20
555.0
 30
600.0
 70
    64
  0
VERTEX
  5
273
  8
TEAM-NET
 10
795.555556
 20
555.0
 30
600.0
 70
    64
  0
VERTEX
  5
274
  8
TEAM-NET
 10
875.0
 20
555.0
 30
600.0
 70
    64
  0
SEQEND
  5
275
  8
TEAM-NET
  0
POLYLINE
  5
276
  8
TEAM-BODY
 66
     1
 10
0.0
 20
0.0
 30
-600.0
 70
   128
210
0.0
220
0.0
230
-1.0
  0
VERTEX
  5
691
  8
TEAM-BODY
 10
-875.019286
 20
555.0
 30
-600.0
  0
VERTEX
  5
692
  8
TEAM-BODY
 10
-876.147212
 20
491.283793
 30
-600.0
  0
VERTEX
  5
693
  8
TEAM-BODY
 10
-871.474797
 20
427.760134
 30
-600.0
  0
VERTEX
  5
694
  8
TEAM-BODY
 10
-861.017585
 20
364.640344
 30
-600.0
  0
VERTEX
  5
695
  8
TEAM-BODY
 10
-844.810362
 20
302.134403
 30
-600.0
  0
VERTEX
  5
696
  8
TEAM-BODY
 10
-822.907047
 20
240.450246
 30
-600.0
  0
VERTEX
  5
697
  8
TEAM-BODY
 10
-795.380502
 20
179.793077
 30
-600.0
  0
VERTEX
  5
698
  8
TEAM-BODY
 10
-762.3223
 20
120.364682
 30
-600.0
  0
VERTEX
  5
699
  8
TEAM-BODY
 10
-723.842416
 20
62.36276
 30
-600.0
  0
VERTEX
  5
69A
  8
TEAM-BODY
 10
-680.068857
 20
5.980262
 30
-600.0
  0
VERTEX
  5
69B
  8
TEAM-BODY
 10
-631.147245
 20
-48.595244
 30
-600.0
  0
VERTEX
  5
69C
  8
TEAM-BODY
 10
-577.240326
 20
-101.182204
 30
-600.0
  0
VERTEX
  5
69D
  8
TEAM-BODY
 10
-518.52743
 20
-151.605679
 30
-600.0
  0
VERTEX
  5
69E
  8
TEAM-BODY
 10
-455.203875
 20
-199.697926
 30
-600.0
  0
VERTEX
  5
69F
  8
TEAM-BODY
 10
-387.480317
 20
-245.298959
 30
-600.0
  0
VERTEX
  5
6A0
  8
TEAM-BODY
 10
-315.582052
 20
-288.257078
 30
-600.0
  0
VERTEX
  5
6A1
  8
TEAM-BODY
 10
-239.748259
 20
-328.429375
 30
-600.0
  0
VERTEX
  5
6A2
  8
TEAM-BODY
 10
-160.231214
 20
-365.682212
 30
-600.0
  0
VERTEX
  5
6A3
  8
TEAM-BODY
 10
-77.295442
 20
-399.891659
 30
-600.0
  0
VERTEX
  5
6A4
  8
TEAM-BODY
 10
8.783156
 20
-430.943914
 30
-600.0
  0
VERTEX
  5
6A5
  8
TEAM-BODY
 10
97.718225
 20
-458.735676
 30
-600.0
  0
VERTEX
  5
6A6
  8
TEAM-BODY
 10
189.213908
 20
-483.17449
 30
-600.0
  0
VERTEX
  5
6A7
  8
TEAM-BODY
 10
282.96583
 20
-504.179058
 30
-600.0
  0
VERTEX
  5
6A8
  8
TEAM-BODY
 10
378.662108
 20
-521.679504
 30
-600.0
  0
VERTEX
  5
6A9
  8
TEAM-BODY
 10
475.984393
 20
-535.617609
 30
-600.0
  0
VERTEX
  5
6AA
  8
TEAM-BODY
 10
574.608926
 20
-545.947007
 30
-600.0
  0
VERTEX
  5
6AB
  8
TEAM-BODY
 10
674.207615
 20
-552.633335
 30
-600.0
  0
VERTEX
  5
6AC
  8
TEAM-BODY
 10
774.44913
 20
-555.654349
 30
-600.0
  0
VERTEX
  5
6AD
  8
TEAM-BODY
 10
875.0
 20
-555.0
 30
-600.0
  0
SEQEND
  5
6AE
  8
TEAM-BODY
  0
POLYLINE
  5
277
  8
TEAM-BODY
 66
     1
 10
0.0
 20
0.0
 30
600.0
  0
VERTEX
  5
6AF
  8
TEAM-BODY
 10
875.0
 20
555.0
 30
600.0
  0
VERTEX
  5
6B0
  8
TEAM-BODY
 10
-875.0
 20
555.0
 30
600.0
  0
VERTEX
  5
6B1
  8
TEAM-BODY
 10
-875.0
 20
-555.0
 30
600.0
  0
SEQEND
  5
6B2
  8
TEAM-BODY
  0
POLYLINE
  5
278
  8
TEAM-DET1
 66
     1
 10
0.0
 20
0.0
 30
560.0
 70
     1
  0
VERTEX
  5
6B3
  8
TEAM-DET1
 10
260.744052
 20
-220.661047
 30
560.0
 42
-0.21535
  0
VERTEX
  5
6B4
  8
TEAM-DET1
 10
260.069904
 20
-217.022256
 30
560.0
 42
-0.09336
  0
VERTEX
  5
6B5
  8
TEAM-DET1
 10
263.479515
 20
-209.532731
 30
560.0
 42
-0.050025
  0
VERTEX
  5
6B6
  8
TEAM-DET1
 10
269.393835
 20
-202.698402
 30
560.0
 42
-0.037533
  0
VERTEX
  5
6B7
  8
TEAM-DET1
 10
278.732019
 20
-195.109184
 30
560.0
 42
-0.037533
  0
VERTEX
  5
6B8
  8
TEAM-DET1
 10
289.099831
 20
-189.001287
 30
560.0
 42
-0.050025
  0
VERTEX
  5
6B9
  8
TEAM-DET1
 10
297.566854
 20
-185.839526
 30
560.0
 42
-0.09336
  0
VERTEX
  5
6BA
  8
TEAM-DET1
 10
305.775102
 20
-185.253785
 30
560.0
 42
-0.21535
  0
VERTEX
  5
6BB
  8
TEAM-DET1
 10
308.950829
 20
-187.153795
 30
560.0
 42
-0.21535
  0
VERTEX
  5
6BC
  8
TEAM-DET1
 10
309.624977
 20
-190.792587
 30
560.0
 42
-0.09336
  0
VERTEX
  5
6BD
  8
TEAM-DET1
 10
306.215366
 20
-198.282112
 30
560.0
 42
-0.050025
  0
VERTEX
  5
6BE
  8
TEAM-DET1
 10
300.301046
 20
-205.11644
 30
560.0
 42
-0.037533
  0
VERTEX
  5
6BF
  8
TEAM-DET1
 10
290.962862
 20
-212.705658
 30
560.0
 42
-0.037533
  0
VERTEX
  5
6C0
  8
TEAM-DET1
 10
280.59505
 20
-218.813555
 30
560.0
 42
-0.050025
  0
VERTEX
  5
6C1
  8
TEAM-DET1
 10
272.128027
 20
-221.975317
 30
560.0
 42
-0.09336
  0
VERTEX
  5
6C2
  8
TEAM-DET1
 10
263.919779
 20
-222.561057
 30
560.0
 42
-0.21535
  0
SEQEND
  5
6C3
  8
TEAM-DET1
  0
TEXT
  5
279
  8
TEAM-TXT
 10
-806.426282
 20
475.19744
 30
600.0
 40
30.0
  1
team 121395
 41
0.8
 51
15.0
  7
TEAM
  0
POLYLINE
  5
27C
  8
TEAM-BODY
 66
     1
 10
0.0
 20
0.0
 30
600.0
  0
VERTEX
  5
6C4
  8
TEAM-BODY
 10
-712.2363
 20
-292.547497
 30
600.0
 42
0.259562
  0
VERTEX
  5
6C5
  8
TEAM-BODY
 10
-327.493921
 20
-430.5221
 30
600.0
 42
0.185244
  0
VERTEX
  5
6C6
  8
TEAM-BODY
 10
623.294879
 20
48.083559
 30
600.0
 42
0.054345
  0
VERTEX
  5
6C7
  8
TEAM-BODY
 10
715.624794
 20
196.707291
 30
600.0
 42
0.323253
  0
VERTEX
  5
6C8
  8
TEAM-BODY
 10
674.168386
 20
427.144725
 30
600.0
  0
SEQEND
  5
6C9
  8
TEAM-BODY
  0
ENDSEC
  0
EOF
