  0
SECTION
  2
HEADER
  9
$ACADVER
  1
AC1009
  9
$INSBASE
 10
0.0
 20
0.0
 30
0.0
  9
$EXTMIN
 10
-896.214319
 20
-546.264745
 30
-0.012893
  9
$EXTMAX
 10
866.089764
 20
516.368488
 30
600.019156
  9
$LIMMIN
 10
-896.214319
 20
-546.264745
  9
$LIMMAX
 10
866.089764
 20
516.368488
  9
$ORTHOMODE
 70
     1
  9
$REGENMODE
 70
     1
  9
$FILLMODE
 70
     1
  9
$QTEXTMODE
 70
     0
  9
$MIRRTEXT
 70
     0
  9
$DRAGMODE
 70
     2
  9
$LTSCALE
 40
25.0
  9
$OSMODE
 70
     0
  9
$ATTMODE
 70
     1
  9
$TEXTSIZE
 40
200.0
  9
$TRACEWID
 40
1.0
  9
$TEXTSTYLE
  7
STANDARD
  9
$CLAYER
  8
TEAM-MAS
  9
$CELTYPE
  6
BYLAYER
  9
$CECOLOR
 62
   256
  9
$DIMSCALE
 40
0.0
  9
$DIMASZ
 40
20.0
  9
$DIMEXO
 40
10.0
  9
$DIMDLI
 40
1.0
  9
$DIMRND
 40
0.0
  9
$DIMDLE
 40
0.0
  9
$DIMEXE
 40
1.0
  9
$DIMTP
 40
0.0
  9
$DIMTM
 40
0.0
  9
$DIMTXT
 40
35.0
  9
$DIMCEN
 40
1.0
  9
$DIMTSZ
 40
0.0
  9
$DIMTOL
 70
     0
  9
$DIMLIM
 70
     0
  9
$DIMTIH
 70
     0
  9
$DIMTOH
 70
     0
  9
$DIMSE1
 70
     0
  9
$DIMSE2
 70
     0
  9
$DIMTAD
 70
     0
  9
$DIMZIN
 70
     0
  9
$DIMBLK
  1

  9
$DIMASO
 70
     1
  9
$DIMSHO
 70
     0
  9
$DIMPOST
  1

  9
$DIMAPOST
  1

  9
$DIMALT
 70
     0
  9
$DIMALTD
 70
     2
  9
$DIMALTF
 40
25.4
  9
$DIMLFAC
 40
1.0
  9
$DIMTOFL
 70
     0
  9
$DIMTVP
 40
0.0
  9
$DIMTIX
 70
     0
  9
$DIMSOXD
 70
     0
  9
$DIMSAH
 70
     0
  9
$DIMBLK1
  1

  9
$DIMBLK2
  1

  9
$DIMSTYLE
  2
TEAM
  9
$DIMCLRD
 70
     9
  9
$DIMCLRE
 70
     9
  9
$DIMCLRT
 70
    11
  9
$DIMTFAC
 40
1.0
  9
$DIMGAP
 40
15.0
  9
$LUNITS
 70
     2
  9
$LUPREC
 70
     1
  9
$SKETCHINC
 40
1.0
  9
$FILLETRAD
 40
50.0
  9
$AUNITS
 70
     0
  9
$AUPREC
 70
     0
  9
$MENU
  1
ROPLANS
  9
$ELEVATION
 40
0.0
  9
$PELEVATION
 40
0.0
  9
$THICKNESS
 40
0.0
  9
$LIMCHECK
 70
     0
  9
$BLIPMODE
 70
     1
  9
$CHAMFERA
 40
0.0
  9
$CHAMFERB
 40
0.0
  9
$SKPOLY
 70
     0
  9
$TDCREATE
 40
2450392.957851
  9
$TDUPDATE
 40
2455493.945579
  9
$TDINDWG
 40
1.992456
  9
$TDUSRTIMER
 40
1.992456
  9
$USRTIMER
 70
     1
  9
$ANGBASE
 50
0.0
  9
$ANGDIR
 70
     0
  9
$PDMODE
 70
     0
  9
$PDSIZE
 40
0.0
  9
$PLINEWID
 40
0.0
  9
$COORDS
 70
     2
  9
$SPLFRAME
 70
     0
  9
$SPLINETYPE
 70
     6
  9
$SPLINESEGS
 70
     8
  9
$ATTDIA
 70
     0
  9
$ATTREQ
 70
     0
  9
$HANDLING
 70
     1
  9
$HANDSEED
  5
1736
  9
$SURFTAB1
 70
    24
  9
$SURFTAB2
 70
    24
  9
$SURFTYPE
 70
     6
  9
$SURFU
 70
     6
  9
$SURFV
 70
     6
  9
$UCSNAME
  2

  9
$UCSORG
 10
0.0
 20
0.0
 30
0.0
  9
$UCSXDIR
 10
1.0
 20
0.0
 30
0.0
  9
$UCSYDIR
 10
0.0
 20
1.0
 30
0.0
  9
$PUCSNAME
  2

  9
$PUCSORG
 10
0.0
 20
0.0
 30
0.0
  9
$PUCSXDIR
 10
1.0
 20
0.0
 30
0.0
  9
$PUCSYDIR
 10
0.0
 20
1.0
 30
0.0
  9
$USERI1
 70
     0
  9
$USERI2
 70
     0
  9
$USERI3
 70
     0
  9
$USERI4
 70
     0
  9
$USERI5
 70
     0
  9
$USERR1
 40
0.0
  9
$USERR2
 40
0.0
  9
$USERR3
 40
0.0
  9
$USERR4
 40
0.0
  9
$USERR5
 40
0.0
  9
$WORLDVIEW
 70
     1
  9
$SHADEDGE
 70
     0
  9
$SHADEDIF
 70
    70
  9
$TILEMODE
 70
     1
  9
$MAXACTVP
 70
    16
  9
$PLIMCHECK
 70
     0
  9
$PEXTMIN
 10
-0.805942
 20
0.005011
 30
0.0
  9
$PEXTMAX
 10
20.250094
 20
11.356329
 30
0.0
  9
$PLIMMIN
 10
0.0
 20
0.0
  9
$PLIMMAX
 10
12.0
 20
9.0
  9
$UNITMODE
 70
     0
  9
$VISRETAIN
 70
     0
  9
$PLINEGEN
 70
     0
  9
$PSLTSCALE
 70
     0
  0
ENDSEC
  0
SECTION
  2
TABLES
  0
TABLE
  2
VPORT
 70
     2
  0
VPORT
  2
*ACTIVE
 70
     0
 10
0.0
 20
0.0
 11
1.0
 21
1.0
 12
-15.062278
 22
-14.948128
 13
0.0
 23
0.0
 14
1.0
 24
1.0
 15
50.0
 25
50.0
 16
0.0
 26
0.0
 36
1.0
 17
0.0
 27
0.0
 37
0.0
 40
1069.159128
 41
1.865779
 42
50.0
 43
0.0
 44
0.0
 50
0.0
 51
0.0
 71
     0
 72
   100
 73
     1
 74
     1
 75
     0
 76
     0
 77
     0
 78
     0
  0
ENDTAB
  0
TABLE
  2
LTYPE
 70
     2
  0
LTYPE
  2
CONTINUOUS
 70
     0
  3
Solid Line
 72
    65
 73
     0
 40
0.0
  0
LTYPE
  2
31
 70
     0
  3

 72
    65
 73
     4
 40
2.1
 49
1.5
 49
-0.3
 49
0.0
 49
-0.3
  0
ENDTAB
  0
TABLE
  2
LAYER
 70
     9
  0
LAYER
  2
0
 70
     0
 62
     7
  6
CONTINUOUS
  0
LAYER
  2
TEAM-NET1
 70
     0
 62
    12
  6
CONTINUOUS
  0
LAYER
  2
TEAM-BODY
 70
     0
 62
     2
  6
CONTINUOUS
  0
LAYER
  2
TEAM-AXE
 70
     0
 62
    10
  6
31
  0
LAYER
  2
TEAM-MAS
 70
     0
 62
     9
  6
CONTINUOUS
  0
LAYER
  2
TEAM-TXT
 70
     0
 62
    11
  6
CONTINUOUS
  0
LAYER
  2
TEAM-DET1
 70
     0
 62
     4
  6
CONTINUOUS
  0
LAYER
  2
TEAM-KAN
 70
     0
 62
     6
  6
CONTINUOUS
  0
LAYER
  2
TEAM-INSP
 70
     0
 62
     5
  6
CONTINUOUS
  0
ENDTAB
  0
TABLE
  2
STYLE
 70
     2
  0
STYLE
  2
STANDARD
 70
     0
 40
0.0
 41
1.0
 50
0.0
 71
     0
 42
200.0
  3
txt
  4

  0
STYLE
  2
TEAM
 70
     0
 40
0.0
 41
0.8
 50
15.0
 71
     0
 42
7.0
  3
ROMANS.shx
  4

  0
ENDTAB
  0
TABLE
  2
VIEW
 70
     0
  0
ENDTAB
  0
TABLE
  2
UCS
 70
     0
  0
ENDTAB
  0
TABLE
  2
APPID
 70
     1
  0
APPID
  2
ACAD
 70
     0
  0
ENDTAB
  0
TABLE
  2
DIMSTYLE
 70
     1
  0
DIMSTYLE
  2
TEAM
 70
     0
  3

  4

  5

  6

  7

 40
0.0
 41
20.0
 42
10.0
 43
1.0
 44
1.0
 45
0.0
 46
0.0
 47
0.0
 48
0.0
140
35.0
141
1.0
142
0.0
143
25.4
144
1.0
145
0.0
146
1.0
147
15.0
 71
     0
 72
     0
 73
     0
 74
     0
 75
     0
 76
     0
 77
     0
 78
     0
170
     0
171
     2
172
     0
173
     0
174
     0
175
     0
176
     9
177
     9
178
    11
  0
ENDTAB
  0
ENDSEC
  0
SECTION
  2
BLOCKS
  0
BLOCK
  8
0
  2
$MODEL_SPACE
 70
     0
 10
0.0
 20
0.0
 30
0.0
  3
$MODEL_SPACE
  1

  0
ENDBLK
  5
148C
  8
0
  0
BLOCK
 67
     1
  8
0
  2
$PAPER_SPACE
 70
     0
 10
0.0
 20
0.0
 30
0.0
  3
$PAPER_SPACE
  1

  0
ENDBLK
  5
148A
 67
     1
  8
0
  0
ENDSEC
  0
SECTION
  2
ENTITIES
  0
LINE
  5
20
  8
TEAM-NET1
 10
-233.820175
 20
-269.891449
 30
140.0
 11
545.820231
 21
-429.492831
 31
600.0
1001
ACAD
1000
R13OBJECT
1002
{
1005
167
1002
}
  0
LINE
  5
22
  8
TEAM-NET1
 10
-168.706339
 20
331.215213
 30
140.0
 11
-163.286194
 21
409.421015
 31
600.0
1001
ACAD
1000
R13OBJECT
1002
{
1005
167
1002
}
  0
LINE
  5
23
  8
TEAM-NET1
 10
-554.391477
 20
284.708049
 30
140.0
 11
-561.100524
 21
409.421015
 31
600.0
1001
ACAD
1000
R13OBJECT
1002
{
1005
167
1002
}
  0
LINE
  5
24
  8
TEAM-NET1
 10
-655.402162
 20
171.72598
 30
140.0
 11
-746.155384
 21
266.277749
 31
600.0
1001
ACAD
1000
R13OBJECT
1002
{
1005
167
1002
}
  0
LINE
  5
25
  8
TEAM-NET1
 10
-661.314607
 20
139.522121
 30
140.0
 11
-746.122441
 21
152.557889
 31
600.0
1001
ACAD
1000
R13OBJECT
1002
{
1005
167
1002
}
  0
LINE
  5
26
  8
TEAM-NET1
 10
470.200225
 20
-258.122826
 30
140.0
 11
749.742884
 21
-88.134067
 31
600.0
1001
ACAD
1000
R13OBJECT
1002
{
1005
167
1002
}
  0
CIRCLE
  5
27
  8
TEAM-INSP
 10
0.0
 20
0.0
 30
0.0
 40
10.0
  0
POLYLINE
  5
29
  8
TEAM-BODY
 66
     1
 10
0.0
 20
0.0
 30
0.0
 70
     8
  0
VERTEX
  5
2A
  8
TEAM-BODY
 10
-661.314607
 20
139.522121
 30
140.0
 70
    32
  0
VERTEX
  5
2B
  8
TEAM-BODY
 10
-661.691345
 20
120.911428
 30
140.0
 70
    32
  0
VERTEX
  5
2C
  8
TEAM-BODY
 10
-660.187063
 20
103.306362
 30
140.0
 70
    32
  0
VERTEX
  5
2D
  8
TEAM-BODY
 10
-652.846333
 20
70.306336
 30
140.0
 70
    32
  0
VERTEX
  5
2E
  8
TEAM-BODY
 10
-640.988749
 20
39.459558
 30
140.0
 70
    32
  0
VERTEX
  5
2F
  8
TEAM-BODY
 10
-625.461926
 20
10.172187
 30
140.0
 70
    32
  0
VERTEX
  5
30
  8
TEAM-BODY
 10
-606.739017
 20
-17.924692
 30
140.0
 70
    32
  0
VERTEX
  5
31
  8
TEAM-BODY
 10
-585.137352
 20
-45.032598
 30
140.0
 70
    32
  0
VERTEX
  5
32
  8
TEAM-BODY
 10
-560.901963
 20
-71.231489
 30
140.0
 70
    32
  0
VERTEX
  5
33
  8
TEAM-BODY
 10
-534.182115
 20
-96.564013
 30
140.0
 70
    32
  0
VERTEX
  5
34
  8
TEAM-BODY
 10
-505.104868
 20
-121.055771
 30
140.0
 70
    32
  0
VERTEX
  5
35
  8
TEAM-BODY
 10
-473.773759
 20
-144.716904
 30
140.0
 70
    32
  0
VERTEX
  5
36
  8
TEAM-BODY
 10
-440.231287
 20
-167.541719
 30
140.0
 70
    32
  0
VERTEX
  5
37
  8
TEAM-BODY
 10
-404.412618
 20
-189.553169
 30
140.0
 70
    32
  0
VERTEX
  5
38
  8
TEAM-BODY
 10
-366.154111
 20
-210.790903
 30
140.0
 70
    32
  0
VERTEX
  5
39
  8
TEAM-BODY
 10
-325.213114
 20
-231.276023
 30
140.0
 70
    32
  0
VERTEX
  5
3A
  8
TEAM-BODY
 10
-281.260052
 20
-250.993466
 30
140.0
 70
    32
  0
VERTEX
  5
3B
  8
TEAM-BODY
 10
-233.820175
 20
-269.891449
 30
140.0
 70
    32
  0
SEQEND
  5
3D
  8
TEAM-BODY
  0
LINE
  5
3E
  8
TEAM-AXE
 10
-46.281549
 20
-279.965897
 30
140.0
 11
-153.74072
 21
-279.965897
 31
140.0
  0
ARC
  5
41
  8
TEAM-KAN
 10
-100.242712
 20
-279.965897
 30
140.0
 40
26.0
 50
0.0
 51
180.0
  0
ARC
  5
43
  8
TEAM-KAN
 10
-100.242712
 20
-279.965897
 30
140.0
 40
26.0
 50
180.0
 51
0.0
  0
LINE
  5
44
  8
TEAM-AXE
 10
-100.242712
 20
-224.588239
 30
140.0
 11
-100.242712
 21
-335.758906
 31
140.0
  0
POLYLINE
  5
45
  8
TEAM-BODY
 66
     1
 10
0.0
 20
0.0
 30
0.0
 70
     8
  0
VERTEX
  5
46
  8
TEAM-BODY
 10
-168.706339
 20
331.215213
 30
140.0
 70
    32
  0
VERTEX
  5
47
  8
TEAM-BODY
 10
-215.1703
 20
335.983288
 30
140.0
 70
    32
  0
VERTEX
  5
48
  8
TEAM-BODY
 10
-263.364696
 20
338.682371
 30
140.0
 70
    32
  0
VERTEX
  5
49
  8
TEAM-BODY
 10
-313.006731
 20
338.875524
 30
140.0
 70
    32
  0
VERTEX
  5
4A
  8
TEAM-BODY
 10
-363.597308
 20
336.058916
 30
140.0
 70
    32
  0
VERTEX
  5
4B
  8
TEAM-BODY
 10
-414.341881
 20
329.68758
 30
140.0
 70
    32
  0
VERTEX
  5
4C
  8
TEAM-BODY
 10
-464.093796
 20
319.235339
 30
140.0
 70
    32
  0
VERTEX
  5
4D
  8
TEAM-BODY
 10
-511.352992
 20
304.295228
 30
140.0
 70
    32
  0
VERTEX
  5
4E
  8
TEAM-BODY
 10
-533.509976
 20
295.079342
 30
140.0
 70
    32
  0
VERTEX
  5
4F
  8
TEAM-BODY
 10
-554.391477
 20
284.708049
 30
140.0
 70
    32
  0
SEQEND
  5
50
  8
TEAM-BODY
  0
POLYLINE
  5
51
  8
TEAM-BODY
 66
     1
 10
0.0
 20
0.0
 30
0.0
 70
     8
  0
VERTEX
  5
52
  8
TEAM-BODY
 10
-554.391477
 20
284.708049
 30
140.0
 70
    32
  0
VERTEX
  5
53
  8
TEAM-BODY
 10
-573.105627
 20
273.655726
 30
140.0
 70
    32
  0
VERTEX
  5
54
  8
TEAM-BODY
 10
-589.534367
 20
262.175663
 30
140.0
 70
    32
  0
VERTEX
  5
55
  8
TEAM-BODY
 10
-604.125684
 20
250.122661
 30
140.0
 70
    32
  0
VERTEX
  5
56
  8
TEAM-BODY
 10
-617.153252
 20
237.325221
 30
140.0
 70
    32
  0
VERTEX
  5
57
  8
TEAM-BODY
 10
-628.778773
 20
223.556341
 30
140.0
 70
    32
  0
VERTEX
  5
58
  8
TEAM-BODY
 10
-639.073234
 20
208.481853
 30
140.0
 70
    32
  0
VERTEX
  5
59
  8
TEAM-BODY
 10
-648.009845
 20
191.55405
 30
140.0
 70
    32
  0
VERTEX
  5
5A
  8
TEAM-BODY
 10
-655.402162
 20
171.72598
 30
140.0
 70
    32
  0
SEQEND
  5
5B
  8
TEAM-BODY
  0
POLYLINE
  5
5C
  8
TEAM-BODY
 66
     1
 10
0.0
 20
0.0
 30
0.0
 70
     8
  0
VERTEX
  5
5D
  8
TEAM-BODY
 10
-655.402162
 20
171.72598
 30
140.0
 70
    32
  0
VERTEX
  5
5E
  8
TEAM-BODY
 10
-656.961757
 20
166.062844
 30
140.0
 70
    32
  0
VERTEX
  5
5F
  8
TEAM-BODY
 10
-657.952458
 20
161.938864
 30
140.0
 70
    32
  0
VERTEX
  5
60
  8
TEAM-BODY
 10
-659.375288
 20
154.86483
 30
140.0
 70
    32
  0
VERTEX
  5
61
  8
TEAM-BODY
 10
-660.44191
 20
147.927511
 30
140.0
 70
    32
  0
VERTEX
  5
62
  8
TEAM-BODY
 10
-661.314607
 20
139.522121
 30
140.0
 70
    32
  0
SEQEND
  5
63
  8
TEAM-BODY
  0
POLYLINE
  5
64
  8
TEAM-BODY
 66
     1
 10
0.0
 20
0.0
 30
0.0
 70
     8
  0
VERTEX
  5
65
  8
TEAM-BODY
 10
-233.820175
 20
-269.891449
 30
140.0
 70
    32
  0
VERTEX
  5
66
  8
TEAM-BODY
 10
-202.057123
 20
-281.207277
 30
140.0
 70
    32
  0
VERTEX
  5
67
  8
TEAM-BODY
 10
-168.238123
 20
-293.054875
 30
140.0
 70
    32
  0
VERTEX
  5
68
  8
TEAM-BODY
 10
-132.107485
 20
-305.248851
 30
140.0
 70
    32
  0
VERTEX
  5
69
  8
TEAM-BODY
 10
-93.396515
 20
-317.501564
 30
140.0
 70
    32
  0
VERTEX
  5
6A
  8
TEAM-BODY
 10
-51.846152
 20
-329.38755
 30
140.0
 70
    32
  0
VERTEX
  5
6B
  8
TEAM-BODY
 10
-7.249103
 20
-340.302533
 30
140.0
 70
    32
  0
VERTEX
  5
6C
  8
TEAM-BODY
 10
40.474678
 20
-349.464002
 30
140.0
 70
    32
  0
VERTEX
  5
6D
  8
TEAM-BODY
 10
91.083323
 20
-356.083844
 30
140.0
 70
    32
  0
VERTEX
  5
6E
  8
TEAM-BODY
 10
143.970895
 20
-359.408414
 30
140.0
 70
    32
  0
VERTEX
  5
6F
  8
TEAM-BODY
 10
198.217291
 20
-358.784871
 30
140.0
 70
    32
  0
VERTEX
  5
70
  8
TEAM-BODY
 10
252.698104
 20
-353.805297
 30
140.0
 70
    32
  0
VERTEX
  5
71
  8
TEAM-BODY
 10
305.86896
 20
-344.211242
 30
140.0
 70
    32
  0
VERTEX
  5
72
  8
TEAM-BODY
 10
331.252632
 20
-337.569669
 30
140.0
 70
    32
  0
VERTEX
  5
73
  8
TEAM-BODY
 10
355.505171
 20
-329.675537
 30
140.0
 70
    32
  0
VERTEX
  5
74
  8
TEAM-BODY
 10
378.440075
 20
-320.540749
 30
140.0
 70
    32
  0
VERTEX
  5
75
  8
TEAM-BODY
 10
399.917627
 20
-310.195239
 30
140.0
 70
    32
  0
VERTEX
  5
76
  8
TEAM-BODY
 10
419.841955
 20
-298.682769
 30
140.0
 70
    32
  0
VERTEX
  5
77
  8
TEAM-BODY
 10
438.153336
 20
-286.0563
 30
140.0
 70
    32
  0
VERTEX
  5
78
  8
TEAM-BODY
 10
470.200225
 20
-258.122826
 30
140.0
 70
    32
  0
SEQEND
  5
79
  8
TEAM-BODY
  0
POLYLINE
  5
7A
  8
TEAM-BODY
 66
     1
 10
0.0
 20
0.0
 30
0.0
 70
     8
  0
VERTEX
  5
7B
  8
TEAM-BODY
 10
470.200225
 20
-258.122826
 30
140.0
 70
    32
  0
VERTEX
  5
7C
  8
TEAM-BODY
 10
482.526715
 20
-246.473009
 30
140.0
 70
    32
  0
VERTEX
  5
7D
  8
TEAM-BODY
 10
493.254119
 20
-234.510532
 30
140.0
 70
    32
  0
VERTEX
  5
7E
  8
TEAM-BODY
 10
510.250246
 20
-209.817775
 30
140.0
 70
    32
  0
VERTEX
  5
7F
  8
TEAM-BODY
 10
521.785682
 20
-184.33154
 30
140.0
 70
    32
  0
VERTEX
  5
80
  8
TEAM-BODY
 10
528.351747
 20
-158.257392
 30
140.0
 70
    32
  0
VERTEX
  5
81
  8
TEAM-BODY
 10
530.364179
 20
-131.783483
 30
140.0
 70
    32
  0
VERTEX
  5
82
  8
TEAM-BODY
 10
528.189544
 20
-105.14533
 30
140.0
 70
    32
  0
VERTEX
  5
83
  8
TEAM-BODY
 10
522.159341
 20
-78.559009
 30
140.0
 70
    32
  0
VERTEX
  5
84
  8
TEAM-BODY
 10
512.643805
 20
-52.224894
 30
140.0
 70
    32
  0
VERTEX
  5
85
  8
TEAM-BODY
 10
499.99251
 20
-26.316634
 30
140.0
 70
    32
  0
VERTEX
  5
86
  8
TEAM-BODY
 10
484.490799
 20
-0.928447
 30
140.0
 70
    32
  0
VERTEX
  5
87
  8
TEAM-BODY
 10
466.372321
 20
23.906438
 30
140.0
 70
    32
  0
VERTEX
  5
88
  8
TEAM-BODY
 10
445.860902
 20
48.141738
 30
140.0
 70
    32
  0
VERTEX
  5
89
  8
TEAM-BODY
 10
423.207416
 20
71.677613
 30
140.0
 70
    32
  0
VERTEX
  5
8A
  8
TEAM-BODY
 10
398.648033
 20
94.414585
 30
140.0
 70
    32
  0
VERTEX
  5
8B
  8
TEAM-BODY
 10
372.424614
 20
116.270573
 30
140.0
 70
    32
  0
VERTEX
  5
8C
  8
TEAM-BODY
 10
344.786202
 20
137.178916
 30
140.0
 70
    32
  0
VERTEX
  5
8D
  8
TEAM-BODY
 10
286.076679
 20
175.97911
 30
140.0
 70
    32
  0
VERTEX
  5
8E
  8
TEAM-BODY
 10
223.626292
 20
210.771803
 30
140.0
 70
    32
  0
VERTEX
  5
8F
  8
TEAM-BODY
 10
158.51643
 20
241.488186
 30
140.0
 70
    32
  0
VERTEX
  5
90
  8
TEAM-BODY
 10
92.039759
 20
267.91878
 30
140.0
 70
    32
  0
VERTEX
  5
91
  8
TEAM-BODY
 10
25.379975
 20
290.002434
 30
140.0
 70
    32
  0
VERTEX
  5
92
  8
TEAM-BODY
 10
-40.611396
 20
307.805531
 30
140.0
 70
    32
  0
VERTEX
  5
93
  8
TEAM-BODY
 10
-105.459849
 20
321.499341
 30
140.0
 70
    32
  0
VERTEX
  5
94
  8
TEAM-BODY
 10
-168.706339
 20
331.215213
 30
140.0
 70
    32
  0
SEQEND
  5
95
  8
TEAM-BODY
  0
POLYLINE
  5
96
  8
TEAM-NET1
 66
     1
 10
0.0
 20
0.0
 30
0.0
 70
     8
1001
ACAD
1000
R13OBJECT
1002
{
1005
167
1002
}
  0
VERTEX
  5
97
  8
TEAM-NET1
 10
-661.314607
 20
139.522121
 30
140.0
 70
    32
  0
VERTEX
  5
98
  8
TEAM-NET1
 10
-661.79731
 20
127.03985
 30
140.0
 70
    32
  0
VERTEX
  5
99
  8
TEAM-NET1
 10
-661.664737
 20
120.198138
 30
140.0
 70
    32
  0
VERTEX
  5
9A
  8
TEAM-NET1
 10
-661.033656
 20
110.720189
 30
140.0
 70
    32
  0
VERTEX
  5
9B
  8
TEAM-NET1
 10
-660.574507
 20
106.376196
 30
140.0
 70
    32
  0
VERTEX
  5
9C
  8
TEAM-NET1
 10
-658.393178
 20
92.387557
 30
140.0
 70
    32
  0
VERTEX
  5
9D
  8
TEAM-NET1
 10
-655.939647
 20
81.365542
 30
140.0
 70
    32
  0
VERTEX
  5
9E
  8
TEAM-NET1
 10
-654.316581
 20
75.286619
 30
140.0
 70
    32
  0
VERTEX
  5
9F
  8
TEAM-NET1
 10
-651.25422
 20
65.336322
 30
140.0
 70
    32
  0
VERTEX
  5
A0
  8
TEAM-NET1
 10
-647.814364
 20
55.694966
 30
140.0
 70
    32
  0
VERTEX
  5
A1
  8
TEAM-NET1
 10
-641.308405
 20
40.157151
 30
140.0
 70
    32
  0
VERTEX
  5
A2
  8
TEAM-NET1
 10
-640.239996
 20
37.845195
 30
140.0
 70
    32
  0
VERTEX
  5
A3
  8
TEAM-NET1
 10
-634.182416
 20
25.657674
 30
140.0
 70
    32
  0
VERTEX
  5
A4
  8
TEAM-NET1
 10
-630.576602
 20
19.006278
 30
140.0
 70
    32
  0
VERTEX
  5
A5
  8
TEAM-NET1
 10
-626.015149
 20
11.097721
 30
140.0
 70
    32
  0
VERTEX
  5
A6
  8
TEAM-NET1
 10
-619.407827
 20
0.453641
 30
140.0
 70
    32
  0
VERTEX
  5
A7
  8
TEAM-NET1
 10
-612.780533
 20
-9.447436
 30
140.0
 70
    32
  0
VERTEX
  5
A8
  8
TEAM-NET1
 10
-606.646128
 20
-18.051421
 30
140.0
 70
    32
  0
VERTEX
  5
A9
  8
TEAM-NET1
 10
-592.829816
 20
-35.869095
 30
140.0
 70
    32
  0
VERTEX
  5
AA
  8
TEAM-NET1
 10
-585.898819
 20
-44.146394
 30
140.0
 70
    32
  0
VERTEX
  5
AB
  8
TEAM-NET1
 10
-582.100389
 20
-48.524322
 30
140.0
 70
    32
  0
VERTEX
  5
AC
  8
TEAM-NET1
 10
-579.91515
 20
-50.995974
 30
140.0
 70
    32
  0
VERTEX
  5
AD
  8
TEAM-NET1
 10
-567.793366
 20
-64.141657
 30
140.0
 70
    32
  0
VERTEX
  5
AE
  8
TEAM-NET1
 10
-556.019993
 20
-76.103377
 30
140.0
 70
    32
  0
VERTEX
  5
AF
  8
TEAM-NET1
 10
-539.769243
 20
-91.519513
 30
140.0
 70
    32
  0
VERTEX
  5
B0
  8
TEAM-NET1
 10
-523.202371
 20
-106.14038
 30
140.0
 70
    32
  0
VERTEX
  5
B1
  8
TEAM-NET1
 10
-511.320797
 20
-116.046298
 30
140.0
 70
    32
  0
VERTEX
  5
B2
  8
TEAM-NET1
 10
-499.311346
 20
-125.624779
 30
140.0
 70
    32
  0
VERTEX
  5
B3
  8
TEAM-NET1
 10
-479.945131
 20
-140.250387
 30
140.0
 70
    32
  0
VERTEX
  5
B4
  8
TEAM-NET1
 10
-458.688005
 20
-155.273314
 30
140.0
 70
    32
  0
VERTEX
  5
B5
  8
TEAM-NET1
 10
-449.670882
 20
-161.352049
 30
140.0
 70
    32
  0
VERTEX
  5
B6
  8
TEAM-NET1
 10
-437.014145
 20
-169.612164
 30
140.0
 70
    32
  0
VERTEX
  5
B7
  8
TEAM-NET1
 10
-431.629774
 20
-173.034287
 30
140.0
 70
    32
  0
VERTEX
  5
B8
  8
TEAM-NET1
 10
-415.865451
 20
-182.755374
 30
140.0
 70
    32
  0
VERTEX
  5
B9
  8
TEAM-NET1
 10
-391.309305
 20
-197.073338
 30
140.0
 70
    32
  0
VERTEX
  5
BA
  8
TEAM-NET1
 10
-385.374226
 20
-200.393016
 30
140.0
 70
    32
  0
VERTEX
  5
BB
  8
TEAM-NET1
 10
-357.502477
 20
-215.30258
 30
140.0
 70
    32
  0
VERTEX
  5
BC
  8
TEAM-NET1
 10
-332.892801
 20
-227.596452
 30
140.0
 70
    32
  0
VERTEX
  5
BD
  8
TEAM-NET1
 10
-308.226241
 20
-239.161693
 30
140.0
 70
    32
  0
VERTEX
  5
BE
  8
TEAM-NET1
 10
-293.617435
 20
-245.673603
 30
140.0
 70
    32
  0
VERTEX
  5
BF
  8
TEAM-NET1
 10
-276.065036
 20
-253.179594
 30
140.0
 70
    32
  0
VERTEX
  5
C0
  8
TEAM-NET1
 10
-266.911047
 20
-256.960599
 30
140.0
 70
    32
  0
VERTEX
  5
C1
  8
TEAM-NET1
 10
-233.820175
 20
-269.891449
 30
140.0
 70
    32
  0
SEQEND
  5
C2
  8
TEAM-NET1
  0
POLYLINE
  5
C3
  8
TEAM-NET1
 66
     1
 10
0.0
 20
0.0
 30
0.0
 70
     8
1001
ACAD
1000
R13OBJECT
1002
{
1005
167
1002
}
  0
VERTEX
  5
C4
  8
TEAM-NET1
 10
-233.820175
 20
-269.891449
 30
140.0
 70
    32
  0
VERTEX
  5
C5
  8
TEAM-NET1
 10
-227.713838
 20
-272.072457
 30
140.0
 70
    32
  0
VERTEX
  5
C6
  8
TEAM-NET1
 10
-220.004384
 20
-274.82417
 30
140.0
 70
    32
  0
VERTEX
  5
C7
  8
TEAM-NET1
 10
-211.777813
 20
-277.755164
 30
140.0
 70
    32
  0
VERTEX
  5
C8
  8
TEAM-NET1
 10
-203.028405
 20
-280.863014
 30
140.0
 70
    32
  0
VERTEX
  5
C9
  8
TEAM-NET1
 10
-193.749487
 20
-284.144555
 30
140.0
 70
    32
  0
VERTEX
  5
CA
  8
TEAM-NET1
 10
-183.933287
 20
-287.595186
 30
140.0
 70
    32
  0
VERTEX
  5
CB
  8
TEAM-NET1
 10
-176.541296
 20
-290.176299
 30
140.0
 70
    32
  0
VERTEX
  5
CC
  8
TEAM-NET1
 10
-164.742881
 20
-294.259306
 30
140.0
 70
    32
  0
VERTEX
  5
CD
  8
TEAM-NET1
 10
-153.365532
 20
-298.146241
 30
140.0
 70
    32
  0
VERTEX
  5
CE
  8
TEAM-NET1
 10
-141.412863
 20
-302.167808
 30
140.0
 70
    32
  0
VERTEX
  5
CF
  8
TEAM-NET1
 10
-127.835712
 20
-306.647367
 30
140.0
 70
    32
  0
VERTEX
  5
D0
  8
TEAM-NET1
 10
-115.734953
 20
-310.550372
 30
140.0
 70
    32
  0
VERTEX
  5
D1
  8
TEAM-NET1
 10
-104.039183
 20
-314.233349
 30
140.0
 70
    32
  0
VERTEX
  5
D2
  8
TEAM-NET1
 10
-90.35768
 20
-318.419319
 30
140.0
 70
    32
  0
VERTEX
  5
D3
  8
TEAM-NET1
 10
-69.245188
 20
-324.59148
 30
140.0
 70
    32
  0
VERTEX
  5
D4
  8
TEAM-NET1
 10
-40.676836
 20
-332.315101
 30
140.0
 70
    32
  0
VERTEX
  5
D5
  8
TEAM-NET1
 10
-35.622507
 20
-333.598964
 30
140.0
 70
    32
  0
VERTEX
  5
D6
  8
TEAM-NET1
 10
-19.509766
 20
-337.513816
 30
140.0
 70
    32
  0
VERTEX
  5
D7
  8
TEAM-NET1
 10
1.728354
 20
-342.235001
 30
140.0
 70
    32
  0
VERTEX
  5
D8
  8
TEAM-NET1
 10
20.083412
 20
-345.887184
 30
140.0
 70
    32
  0
VERTEX
  5
D9
  8
TEAM-NET1
 10
28.550164
 20
-347.434342
 30
140.0
 70
    32
  0
VERTEX
  5
DA
  8
TEAM-NET1
 10
51.973522
 20
-351.253873
 30
140.0
 70
    32
  0
VERTEX
  5
DB
  8
TEAM-NET1
 10
68.002107
 20
-353.470759
 30
140.0
 70
    32
  0
VERTEX
  5
DC
  8
TEAM-NET1
 10
74.170178
 20
-354.236494
 30
140.0
 70
    32
  0
VERTEX
  5
DD
  8
TEAM-NET1
 10
108.298224
 20
-357.578905
 30
140.0
 70
    32
  0
VERTEX
  5
DE
  8
TEAM-NET1
 10
126.297119
 20
-358.718245
 30
140.0
 70
    32
  0
VERTEX
  5
DF
  8
TEAM-NET1
 10
148.884929
 20
-359.523705
 30
140.0
 70
    32
  0
VERTEX
  5
E0
  8
TEAM-NET1
 10
174.383223
 20
-359.576988
 30
140.0
 70
    32
  0
VERTEX
  5
E1
  8
TEAM-NET1
 10
198.946917
 20
-358.747557
 30
140.0
 70
    32
  0
VERTEX
  5
E2
  8
TEAM-NET1
 10
235.416862
 20
-355.873186
 30
140.0
 70
    32
  0
VERTEX
  5
E3
  8
TEAM-NET1
 10
247.896295
 20
-354.426638
 30
140.0
 70
    32
  0
VERTEX
  5
E4
  8
TEAM-NET1
 10
278.030788
 20
-349.88932
 30
140.0
 70
    32
  0
VERTEX
  5
E5
  8
TEAM-NET1
 10
300.483748
 20
-345.432545
 30
140.0
 70
    32
  0
VERTEX
  5
E6
  8
TEAM-NET1
 10
320.868679
 20
-340.470922
 30
140.0
 70
    32
  0
VERTEX
  5
E7
  8
TEAM-NET1
 10
329.984371
 20
-337.938481
 30
140.0
 70
    32
  0
VERTEX
  5
E8
  8
TEAM-NET1
 10
351.618729
 20
-331.054118
 30
140.0
 70
    32
  0
VERTEX
  5
E9
  8
TEAM-NET1
 10
365.93183
 20
-325.743001
 30
140.0
 70
    32
  0
VERTEX
  5
EA
  8
TEAM-NET1
 10
379.569699
 20
-320.042999
 30
140.0
 70
    32
  0
VERTEX
  5
EB
  8
TEAM-NET1
 10
383.700046
 20
-318.181402
 30
140.0
 70
    32
  0
VERTEX
  5
EC
  8
TEAM-NET1
 10
407.770701
 20
-305.901793
 30
140.0
 70
    32
  0
VERTEX
  5
ED
  8
TEAM-NET1
 10
421.189756
 20
-297.826164
 30
140.0
 70
    32
  0
VERTEX
  5
EE
  8
TEAM-NET1
 10
433.561237
 20
-289.434649
 30
140.0
 70
    32
  0
VERTEX
  5
EF
  8
TEAM-NET1
 10
444.91111
 20
-280.794375
 30
140.0
 70
    32
  0
VERTEX
  5
F0
  8
TEAM-NET1
 10
450.656869
 20
-276.023537
 30
140.0
 70
    32
  0
VERTEX
  5
F1
  8
TEAM-NET1
 10
462.161988
 20
-265.694173
 30
140.0
 70
    32
  0
VERTEX
  5
F2
  8
TEAM-NET1
 10
470.200225
 20
-258.122826
 30
140.0
 70
    32
  0
SEQEND
  5
F3
  8
TEAM-NET1
  0
POLYLINE
  5
F4
  8
TEAM-NET1
 66
     1
 10
0.0
 20
0.0
 30
0.0
 70
     8
1001
ACAD
1000
R13OBJECT
1002
{
1005
167
1002
}
  0
VERTEX
  5
F5
  8
TEAM-NET1
 10
-168.706339
 20
331.215213
 30
140.0
 70
    32
  0
VERTEX
  5
F6
  8
TEAM-NET1
 10
-191.931744
 20
333.856105
 30
140.0
 70
    32
  0
VERTEX
  5
F7
  8
TEAM-NET1
 10
-210.203959
 20
335.572702
 30
140.0
 70
    32
  0
VERTEX
  5
F8
  8
TEAM-NET1
 10
-234.225429
 20
337.332377
 30
140.0
 70
    32
  0
VERTEX
  5
F9
  8
TEAM-NET1
 10
-259.793322
 20
338.564444
 30
140.0
 70
    32
  0
VERTEX
  5
FA
  8
TEAM-NET1
 10
-266.193928
 20
338.766191
 30
140.0
 70
    32
  0
VERTEX
  5
FB
  8
TEAM-NET1
 10
-287.102926
 20
339.117791
 30
140.0
 70
    32
  0
VERTEX
  5
FC
  8
TEAM-NET1
 10
-317.811346
 20
338.744799
 30
140.0
 70
    32
  0
VERTEX
  5
FD
  8
TEAM-NET1
 10
-337.817943
 20
337.89937
 30
140.0
 70
    32
  0
VERTEX
  5
FE
  8
TEAM-NET1
 10
-376.623332
 20
334.787136
 30
140.0
 70
    32
  0
VERTEX
  5
FF
  8
TEAM-NET1
 10
-402.127038
 20
331.581359
 30
140.0
 70
    32
  0
VERTEX
  5
100
  8
TEAM-NET1
 10
-413.684493
 20
329.795723
 30
140.0
 70
    32
  0
VERTEX
  5
101
  8
TEAM-NET1
 10
-442.244202
 20
324.403862
 30
140.0
 70
    32
  0
VERTEX
  5
102
  8
TEAM-NET1
 10
-448.841849
 20
322.944567
 30
140.0
 70
    32
  0
VERTEX
  5
103
  8
TEAM-NET1
 10
-474.372961
 20
316.454032
 30
140.0
 70
    32
  0
VERTEX
  5
104
  8
TEAM-NET1
 10
-481.490016
 20
314.386187
 30
140.0
 70
    32
  0
VERTEX
  5
105
  8
TEAM-NET1
 10
-505.779144
 20
306.366182
 30
140.0
 70
    32
  0
VERTEX
  5
106
  8
TEAM-NET1
 10
-518.587337
 20
301.465571
 30
140.0
 70
    32
  0
VERTEX
  5
107
  8
TEAM-NET1
 10
-535.63553
 20
294.104716
 30
140.0
 70
    32
  0
VERTEX
  5
108
  8
TEAM-NET1
 10
-554.391477
 20
284.708049
 30
140.0
 70
    32
  0
SEQEND
  5
109
  8
TEAM-NET1
  0
POLYLINE
  5
10A
  8
TEAM-NET1
 66
     1
 10
0.0
 20
0.0
 30
0.0
 70
     8
1001
ACAD
1000
R13OBJECT
1002
{
1005
167
1002
}
  0
VERTEX
  5
10B
  8
TEAM-NET1
 10
-554.391477
 20
284.708049
 30
140.0
 70
    32
  0
VERTEX
  5
10C
  8
TEAM-NET1
 10
-565.768736
 20
278.215732
 30
140.0
 70
    32
  0
VERTEX
  5
10D
  8
TEAM-NET1
 10
-571.04593
 20
274.967784
 30
140.0
 70
    32
  0
VERTEX
  5
10E
  8
TEAM-NET1
 10
-579.055975
 20
269.715264
 30
140.0
 70
    32
  0
VERTEX
  5
10F
  8
TEAM-NET1
 10
-583.782749
 20
266.414962
 30
140.0
 70
    32
  0
VERTEX
  5
110
  8
TEAM-NET1
 10
-591.102875
 20
260.973722
 30
140.0
 70
    32
  0
VERTEX
  5
111
  8
TEAM-NET1
 10
-598.461956
 20
255.045432
 30
140.0
 70
    32
  0
VERTEX
  5
112
  8
TEAM-NET1
 10
-601.955721
 20
252.048804
 30
140.0
 70
    32
  0
VERTEX
  5
113
  8
TEAM-NET1
 10
-608.537049
 20
246.039973
 30
140.0
 70
    32
  0
VERTEX
  5
114
  8
TEAM-NET1
 10
-613.269649
 20
241.384929
 30
140.0
 70
    32
  0
VERTEX
  5
115
  8
TEAM-NET1
 10
-617.786887
 20
236.640363
 30
140.0
 70
    32
  0
VERTEX
  5
116
  8
TEAM-NET1
 10
-620.63894
 20
233.473191
 30
140.0
 70
    32
  0
VERTEX
  5
117
  8
TEAM-NET1
 10
-626.150886
 20
226.915514
 30
140.0
 70
    32
  0
VERTEX
  5
118
  8
TEAM-NET1
 10
-631.453727
 20
219.957823
 30
140.0
 70
    32
  0
VERTEX
  5
119
  8
TEAM-NET1
 10
-636.587755
 20
212.453517
 30
140.0
 70
    32
  0
VERTEX
  5
11A
  8
TEAM-NET1
 10
-640.262699
 20
206.488293
 30
140.0
 70
    32
  0
VERTEX
  5
11B
  8
TEAM-NET1
 10
-641.948288
 20
203.547568
 30
140.0
 70
    32
  0
VERTEX
  5
11C
  8
TEAM-NET1
 10
-644.309197
 20
199.170002
 30
140.0
 70
    32
  0
VERTEX
  5
11D
  8
TEAM-NET1
 10
-646.314402
 20
195.172747
 30
140.0
 70
    32
  0
VERTEX
  5
11E
  8
TEAM-NET1
 10
-649.176516
 20
188.913996
 30
140.0
 70
    32
  0
VERTEX
  5
11F
  8
TEAM-NET1
 10
-650.149133
 20
186.605601
 30
140.0
 70
    32
  0
VERTEX
  5
120
  8
TEAM-NET1
 10
-653.447757
 20
177.850897
 30
140.0
 70
    32
  0
VERTEX
  5
121
  8
TEAM-NET1
 10
-655.402162
 20
171.72598
 30
140.0
 70
    32
  0
SEQEND
  5
122
  8
TEAM-NET1
  0
POLYLINE
  5
123
  8
TEAM-NET1
 66
     1
 10
0.0
 20
0.0
 30
0.0
 70
     8
1001
ACAD
1000
R13OBJECT
1002
{
1005
167
1002
}
  0
VERTEX
  5
124
  8
TEAM-NET1
 10
-655.402162
 20
171.72598
 30
140.0
 70
    32
  0
VERTEX
  5
125
  8
TEAM-NET1
 10
-655.825818
 20
170.268974
 30
140.0
 70
    32
  0
VERTEX
  5
126
  8
TEAM-NET1
 10
-656.210934
 20
168.895304
 30
140.0
 70
    32
  0
VERTEX
  5
127
  8
TEAM-NET1
 10
-656.583212
 20
167.518226
 30
140.0
 70
    32
  0
VERTEX
  5
128
  8
TEAM-NET1
 10
-656.942652
 20
166.137722
 30
140.0
 70
    32
  0
VERTEX
  5
129
  8
TEAM-NET1
 10
-657.289338
 20
164.753551
 30
140.0
 70
    32
  0
VERTEX
  5
12A
  8
TEAM-NET1
 10
-657.623264
 20
163.365734
 30
140.0
 70
    32
  0
VERTEX
  5
12B
  8
TEAM-NET1
 10
-658.252573
 20
160.579918
 30
140.0
 70
    32
  0
VERTEX
  5
12C
  8
TEAM-NET1
 10
-658.471934
 20
159.547837
 30
140.0
 70
    32
  0
VERTEX
  5
12D
  8
TEAM-NET1
 10
-658.873981
 20
157.558478
 30
140.0
 70
    32
  0
VERTEX
  5
12E
  8
TEAM-NET1
 10
-659.127154
 20
156.231129
 30
140.0
 70
    32
  0
VERTEX
  5
12F
  8
TEAM-NET1
 10
-659.383671
 20
154.817426
 30
140.0
 70
    32
  0
VERTEX
  5
130
  8
TEAM-NET1
 10
-659.515969
 20
154.057592
 30
140.0
 70
    32
  0
VERTEX
  5
131
  8
TEAM-NET1
 10
-659.757702
 20
152.606619
 30
140.0
 70
    32
  0
VERTEX
  5
132
  8
TEAM-NET1
 10
-659.984825
 20
151.158466
 30
140.0
 70
    32
  0
VERTEX
  5
133
  8
TEAM-NET1
 10
-660.154003
 20
150.017871
 30
140.0
 70
    32
  0
VERTEX
  5
134
  8
TEAM-NET1
 10
-660.364811
 20
148.508251
 30
140.0
 70
    32
  0
VERTEX
  5
135
  8
TEAM-NET1
 10
-660.573745
 20
146.893216
 30
140.0
 70
    32
  0
VERTEX
  5
136
  8
TEAM-NET1
 10
-660.678873
 20
146.026603
 30
140.0
 70
    32
  0
VERTEX
  5
137
  8
TEAM-NET1
 10
-660.852232
 20
144.500648
 30
140.0
 70
    32
  0
VERTEX
  5
138
  8
TEAM-NET1
 10
-660.931165
 20
143.758241
 30
140.0
 70
    32
  0
VERTEX
  5
139
  8
TEAM-NET1
 10
-661.074114
 20
142.319672
 30
140.0
 70
    32
  0
VERTEX
  5
13A
  8
TEAM-NET1
 10
-661.204242
 20
140.877541
 30
140.0
 70
    32
  0
VERTEX
  5
13B
  8
TEAM-NET1
 10
-661.314607
 20
139.522121
 30
140.0
 70
    32
  0
SEQEND
  5
13C
  8
TEAM-NET1
  0
POLYLINE
  5
13D
  8
TEAM-NET1
 66
     1
 10
0.0
 20
0.0
 30
0.0
 70
     8
1001
ACAD
1000
R13OBJECT
1002
{
1005
167
1002
}
  0
VERTEX
  5
13E
  8
TEAM-NET1
 10
470.200225
 20
-258.122826
 30
140.0
 70
    32
  0
VERTEX
  5
13F
  8
TEAM-NET1
 10
486.855216
 20
-241.886475
 30
140.0
 70
    32
  0
VERTEX
  5
140
  8
TEAM-NET1
 10
497.934457
 20
-228.573394
 30
140.0
 70
    32
  0
VERTEX
  5
141
  8
TEAM-NET1
 10
508.807335
 20
-212.323193
 30
140.0
 70
    32
  0
VERTEX
  5
142
  8
TEAM-NET1
 10
518.306321
 20
-193.400565
 30
140.0
 70
    32
  0
VERTEX
  5
143
  8
TEAM-NET1
 10
523.794884
 20
-178.131155
 30
140.0
 70
    32
  0
VERTEX
  5
144
  8
TEAM-NET1
 10
528.108216
 20
-159.729034
 30
140.0
 70
    32
  0
VERTEX
  5
145
  8
TEAM-NET1
 10
530.261905
 20
-138.573948
 30
140.0
 70
    32
  0
VERTEX
  5
146
  8
TEAM-NET1
 10
530.016037
 20
-121.718462
 30
140.0
 70
    32
  0
VERTEX
  5
147
  8
TEAM-NET1
 10
527.61457
 20
-101.671582
 30
140.0
 70
    32
  0
VERTEX
  5
148
  8
TEAM-NET1
 10
522.286757
 20
-78.991397
 30
140.0
 70
    32
  0
VERTEX
  5
149
  8
TEAM-NET1
 10
516.265576
 20
-61.186398
 30
140.0
 70
    32
  0
VERTEX
  5
14A
  8
TEAM-NET1
 10
507.221444
 20
-40.301188
 30
140.0
 70
    32
  0
VERTEX
  5
14B
  8
TEAM-NET1
 10
504.028596
 20
-33.900134
 30
140.0
 70
    32
  0
VERTEX
  5
14C
  8
TEAM-NET1
 10
493.091495
 20
-14.390709
 30
140.0
 70
    32
  0
VERTEX
  5
14D
  8
TEAM-NET1
 10
481.809961
 20
3.013505
 30
140.0
 70
    32
  0
VERTEX
  5
14E
  8
TEAM-NET1
 10
467.814782
 20
22.06677
 30
140.0
 70
    32
  0
VERTEX
  5
14F
  8
TEAM-NET1
 10
452.978008
 20
40.101477
 30
140.0
 70
    32
  0
VERTEX
  5
150
  8
TEAM-NET1
 10
429.73261
 20
65.183921
 30
140.0
 70
    32
  0
VERTEX
  5
151
  8
TEAM-NET1
 10
410.391984
 20
83.853724
 30
140.0
 70
    32
  0
VERTEX
  5
152
  8
TEAM-NET1
 10
393.980418
 20
98.469703
 30
140.0
 70
    32
  0
VERTEX
  5
153
  8
TEAM-NET1
 10
363.321063
 20
123.376207
 30
140.0
 70
    32
  0
VERTEX
  5
154
  8
TEAM-NET1
 10
330.617478
 20
147.183549
 30
140.0
 70
    32
  0
VERTEX
  5
155
  8
TEAM-NET1
 10
292.513116
 20
172.044698
 30
140.0
 70
    32
  0
VERTEX
  5
156
  8
TEAM-NET1
 10
247.072692
 20
198.383788
 30
140.0
 70
    32
  0
VERTEX
  5
157
  8
TEAM-NET1
 10
207.944081
 20
218.646575
 30
140.0
 70
    32
  0
VERTEX
  5
158
  8
TEAM-NET1
 10
198.163772
 20
223.399259
 30
140.0
 70
    32
  0
VERTEX
  5
159
  8
TEAM-NET1
 10
156.972078
 20
242.156038
 30
140.0
 70
    32
  0
VERTEX
  5
15A
  8
TEAM-NET1
 10
150.353501
 20
244.988025
 30
140.0
 70
    32
  0
VERTEX
  5
15B
  8
TEAM-NET1
 10
122.17789
 20
256.509741
 30
140.0
 70
    32
  0
VERTEX
  5
15C
  8
TEAM-NET1
 10
80.759094
 20
271.955606
 30
140.0
 70
    32
  0
VERTEX
  5
15D
  8
TEAM-NET1
 10
45.431026
 20
283.802704
 30
140.0
 70
    32
  0
VERTEX
  5
15E
  8
TEAM-NET1
 10
27.454981
 20
289.378194
 30
140.0
 70
    32
  0
VERTEX
  5
15F
  8
TEAM-NET1
 10
-35.550944
 20
306.579381
 30
140.0
 70
    32
  0
VERTEX
  5
160
  8
TEAM-NET1
 10
-63.331518
 20
313.029274
 30
140.0
 70
    32
  0
VERTEX
  5
161
  8
TEAM-NET1
 10
-116.690096
 20
323.489499
 30
140.0
 70
    32
  0
VERTEX
  5
162
  8
TEAM-NET1
 10
-168.706339
 20
331.215213
 30
140.0
 70
    32
  0
SEQEND
  5
163
  8
TEAM-NET1
  0
ARC
  5
164
  8
TEAM-NET1
 10
-100.242712
 20
-279.965897
 30
140.0
 40
26.0
 50
180.0
 51
0.0
1001
ACAD
1000
R13OBJECT
1002
{
1005
167
1002
}
  0
ARC
  5
165
  8
TEAM-NET1
 10
-100.242712
 20
-279.965897
 30
140.0
 40
26.0
 50
360.0
 51
180.0
1001
ACAD
1000
R13OBJECT
1002
{
1005
167
1002
}
  0
POLYLINE
  5
166
  8
TEAM-NET1
 66
     1
 10
0.0
 20
0.0
 30
140.0
 70
   128
1001
ACAD
1000
R13OBJECT
1002
{
1005
C38930400000167
1002
}
  0
VERTEX
  5
1492
  8
TEAM-NET1
 10
470.200225
 20
-258.122826
 30
140.0
  0
VERTEX
  5
1493
  8
TEAM-NET1
 10
484.863512
 20
-244.034592
 30
140.0
  0
VERTEX
  5
1494
  8
TEAM-NET1
 10
498.027212
 20
-228.453042
 30
140.0
  0
VERTEX
  5
1495
  8
TEAM-NET1
 10
509.389164
 20
-211.32562
 30
140.0
  0
VERTEX
  5
1496
  8
TEAM-NET1
 10
518.628913
 20
-192.618724
 30
140.0
  0
VERTEX
  5
1497
  8
TEAM-NET1
 10
525.413819
 20
-172.322715
 30
140.0
  0
VERTEX
  5
1498
  8
TEAM-NET1
 10
529.407279
 20
-150.457022
 30
140.0
  0
VERTEX
  5
1499
  8
TEAM-NET1
 10
530.279093
 20
-127.075026
 30
140.0
  0
VERTEX
  5
149A
  8
TEAM-NET1
 10
527.71784
 20
-102.268308
 30
140.0
  0
VERTEX
  5
149B
  8
TEAM-NET1
 10
521.444853
 20
-76.169778
 30
140.0
  0
VERTEX
  5
149C
  8
TEAM-NET1
 10
511.229144
 20
-48.95521
 30
140.0
  0
VERTEX
  5
149D
  8
TEAM-NET1
 10
496.902323
 20
-20.842686
 30
140.0
  0
VERTEX
  5
149E
  8
TEAM-NET1
 10
478.372368
 20
7.910382
 30
140.0
  0
VERTEX
  5
149F
  8
TEAM-NET1
 10
455.634957
 20
37.012851
 30
140.0
  0
VERTEX
  5
14A0
  8
TEAM-NET1
 10
428.781101
 20
66.148002
 30
140.0
  0
VERTEX
  5
14A1
  8
TEAM-NET1
 10
398.000032
 20
94.983894
 30
140.0
  0
VERTEX
  5
14A2
  8
TEAM-NET1
 10
363.576667
 20
123.185306
 30
140.0
  0
VERTEX
  5
14A3
  8
TEAM-NET1
 10
325.883494
 20
150.426406
 30
140.0
  0
VERTEX
  5
14A4
  8
TEAM-NET1
 10
285.36729
 20
176.403182
 30
140.0
  0
VERTEX
  5
14A5
  8
TEAM-NET1
 10
242.531669
 20
200.84464
 30
140.0
  0
VERTEX
  5
14A6
  8
TEAM-NET1
 10
197.916855
 20
223.521924
 30
140.0
  0
VERTEX
  5
14A7
  8
TEAM-NET1
 10
152.07834
 20
244.254727
 30
140.0
  0
VERTEX
  5
14A8
  8
TEAM-NET1
 10
105.566098
 20
262.914698
 30
140.0
  0
VERTEX
  5
14A9
  8
TEAM-NET1
 10
58.905826
 20
279.425845
 30
140.0
  0
VERTEX
  5
14AA
  8
TEAM-NET1
 10
12.58334
 20
293.762217
 30
140.0
  0
VERTEX
  5
14AB
  8
TEAM-NET1
 10
-32.967202
 20
305.94339
 30
140.0
  0
VERTEX
  5
14AC
  8
TEAM-NET1
 10
-77.370997
 20
316.028369
 30
140.0
  0
VERTEX
  5
14AD
  8
TEAM-NET1
 10
-120.316403
 20
324.108564
 30
140.0
  0
VERTEX
  5
14AE
  8
TEAM-NET1
 10
-161.555283
 20
330.300443
 30
140.0
  0
VERTEX
  5
14AF
  8
TEAM-NET1
 10
-200.900547
 20
334.738383
 30
140.0
  0
VERTEX
  5
14B0
  8
TEAM-NET1
 10
-238.221598
 20
337.56807
 30
140.0
  0
VERTEX
  5
14B1
  8
TEAM-NET1
 10
-273.438391
 20
338.940728
 30
140.0
  0
VERTEX
  5
14B2
  8
TEAM-NET1
 10
-306.514742
 20
339.008284
 30
140.0
  0
VERTEX
  5
14B3
  8
TEAM-NET1
 10
-371.21344
 20
335.344937
 30
140.0
  0
VERTEX
  5
14B4
  8
TEAM-NET1
 10
-403.726405
 20
331.347883
 30
140.0
  0
VERTEX
  5
14B5
  8
TEAM-NET1
 10
-435.977446
 20
325.713117
 30
140.0
  0
VERTEX
  5
14B6
  8
TEAM-NET1
 10
-467.636177
 20
318.302659
 30
140.0
  0
VERTEX
  5
14B7
  8
TEAM-NET1
 10
-498.332783
 20
308.991442
 30
140.0
  0
VERTEX
  5
14B8
  8
TEAM-NET1
 10
-527.662752
 20
297.673906
 30
140.0
  0
VERTEX
  5
14B9
  8
TEAM-NET1
 10
-555.194431
 20
284.271068
 30
140.0
  0
VERTEX
  5
14BA
  8
TEAM-NET1
 10
-580.479596
 20
268.73768
 30
140.0
  0
VERTEX
  5
14BB
  8
TEAM-NET1
 10
-603.066936
 20
251.068969
 30
140.0
  0
VERTEX
  5
14BC
  8
TEAM-NET1
 10
-622.518072
 20
231.306333
 30
140.0
  0
VERTEX
  5
14BD
  8
TEAM-NET1
 10
-638.425339
 20
209.541369
 30
140.0
  0
VERTEX
  5
14BE
  8
TEAM-NET1
 10
-650.430253
 20
185.917612
 30
140.0
  0
VERTEX
  5
14BF
  8
TEAM-NET1
 10
-658.241274
 20
160.629529
 30
140.0
  0
VERTEX
  5
14C0
  8
TEAM-NET1
 10
-661.64937
 20
133.918501
 30
140.0
  0
VERTEX
  5
14C1
  8
TEAM-NET1
 10
-660.539927
 20
106.065856
 30
140.0
  0
VERTEX
  5
14C2
  8
TEAM-NET1
 10
-654.899815
 20
77.383295
 30
140.0
  0
VERTEX
  5
14C3
  8
TEAM-NET1
 10
-644.818841
 20
48.201373
 30
140.0
  0
VERTEX
  5
14C4
  8
TEAM-NET1
 10
-630.485419
 20
18.856926
 30
140.0
  0
VERTEX
  5
14C5
  8
TEAM-NET1
 10
-612.176852
 20
-10.319577
 30
140.0
  0
VERTEX
  5
14C6
  8
TEAM-NET1
 10
-590.24519
 20
-39.01578
 30
140.0
  0
VERTEX
  5
14C7
  8
TEAM-NET1
 10
-565.099985
 20
-66.94746
 30
140.0
  0
VERTEX
  5
14C8
  8
TEAM-NET1
 10
-537.189488
 20
-93.866237
 30
140.0
  0
VERTEX
  5
14C9
  8
TEAM-NET1
 10
-506.98179
 20
-119.564667
 30
140.0
  0
VERTEX
  5
14CA
  8
TEAM-NET1
 10
-474.947216
 20
-143.8787
 30
140.0
  0
VERTEX
  5
14CB
  8
TEAM-NET1
 10
-441.542988
 20
-166.687727
 30
140.0
  0
VERTEX
  5
14CC
  8
TEAM-NET1
 10
-407.200778
 20
-187.912589
 30
140.0
  0
VERTEX
  5
14CD
  8
TEAM-NET1
 10
-372.317419
 20
-207.512059
 30
140.0
  0
VERTEX
  5
14CE
  8
TEAM-NET1
 10
-337.248732
 20
-225.478281
 30
140.0
  0
VERTEX
  5
14CF
  8
TEAM-NET1
 10
-302.306194
 20
-241.831663
 30
140.0
  0
VERTEX
  5
14D0
  8
TEAM-NET1
 10
-267.756021
 20
-256.615613
 30
140.0
  0
VERTEX
  5
14D1
  8
TEAM-NET1
 10
-233.820175
 20
-269.891449
 30
140.0
  0
SEQEND
  5
14D2
  8
TEAM-NET1
  0
POLYLINE
  5
167
  8
TEAM-NET1
 66
     1
 10
0.0
 20
0.0
 30
140.0
 70
   128
  0
VERTEX
  5
14D3
  8
TEAM-NET1
 10
-233.820175
 20
-269.891449
 30
140.0
  0
VERTEX
  5
14D4
  8
TEAM-NET1
 10
-116.4422
 20
-310.324627
 30
140.0
  0
VERTEX
  5
14D5
  8
TEAM-NET1
 10
-57.188448
 20
-327.944218
 30
140.0
  0
VERTEX
  5
14D6
  8
TEAM-NET1
 10
2.74302
 20
-342.44741
 30
140.0
  0
VERTEX
  5
14D7
  8
TEAM-NET1
 10
61.985067
 20
-352.676832
 30
140.0
  0
VERTEX
  5
14D8
  8
TEAM-NET1
 10
121.965109
 20
-358.484472
 30
140.0
  0
VERTEX
  5
14D9
  8
TEAM-NET1
 10
182.562258
 20
-359.398017
 30
140.0
  0
VERTEX
  5
14DA
  8
TEAM-NET1
 10
243.655627
 20
-354.945151
 30
140.0
  0
VERTEX
  5
14DB
  8
TEAM-NET1
 10
299.552906
 20
-345.637643
 30
140.0
  0
VERTEX
  5
14DC
  8
TEAM-NET1
 10
327.018742
 20
-338.785293
 30
140.0
  0
VERTEX
  5
14DD
  8
TEAM-NET1
 10
353.842434
 20
-330.27125
 30
140.0
  0
VERTEX
  5
14DE
  8
TEAM-NET1
 10
379.783775
 20
-319.948541
 30
140.0
  0
VERTEX
  5
14DF
  8
TEAM-NET1
 10
404.60256
 20
-307.670194
 30
140.0
  0
VERTEX
  5
14E0
  8
TEAM-NET1
 10
428.05858
 20
-293.289235
 30
140.0
  0
VERTEX
  5
14E1
  8
TEAM-NET1
 10
449.91163
 20
-276.658692
 30
140.0
  0
VERTEX
  5
14E2
  8
TEAM-NET1
 10
470.200225
 20
-258.122826
 30
140.0
  0
SEQEND
  5
14E3
  8
TEAM-NET1
  0
POLYLINE
  5
168
  8
TEAM-BODY
 66
     1
 10
0.0
 20
0.0
 30
0.0
 70
     8
  0
VERTEX
  5
169
  8
TEAM-BODY
 10
629.757288
 20
84.311628
 30
600.0
 70
    32
  0
VERTEX
  5
16A
  8
TEAM-BODY
 10
629.757397
 20
67.704064
 30
573.92105
 70
    32
  0
VERTEX
  5
16B
  8
TEAM-BODY
 10
629.757288
 20
51.534085
 30
549.85084
 70
    32
  0
VERTEX
  5
16C
  8
TEAM-BODY
 10
629.757288
 20
15.895915
 30
501.845015
 70
    32
  0
VERTEX
  5
16D
  8
TEAM-BODY
 10
629.757288
 20
-3.451491
 30
478.987203
 70
    32
  0
VERTEX
  5
16E
  8
TEAM-BODY
 10
629.757288
 20
-24.228
 30
457.229166
 70
    32
  0
VERTEX
  5
16F
  8
TEAM-BODY
 10
629.757288
 20
-46.644689
 30
437.282255
 70
    32
  0
VERTEX
  5
170
  8
TEAM-BODY
 10
629.757288
 20
-71.234972
 30
420.0
 70
    32
  0
SEQEND
  5
171
  8
TEAM-BODY
  0
LINE
  5
172
  8
TEAM-BODY
 10
550.023434
 20
337.842757
 30
600.0
 11
550.023434
 21
337.842757
 31
420.0
210
-0.0
220
1.0
230
0.0
  0
LINE
  5
173
  8
TEAM-BODY
 10
629.757288
 20
241.644416
 30
600.0
 11
629.757288
 21
241.644416
 31
420.0
  0
POLYLINE
  5
174
  8
TEAM-BODY
 66
     1
 10
0.0
 20
0.0
 30
0.0
 70
     8
  0
VERTEX
  5
175
  8
TEAM-BODY
 10
67.349478
 20
337.842757
 30
420.0
 70
    32
  0
VERTEX
  5
176
  8
TEAM-BODY
 10
84.704056
 20
337.842866
 30
441.532049
 70
    32
  0
VERTEX
  5
177
  8
TEAM-BODY
 10
103.044122
 20
337.842757
 30
464.577162
 70
    32
  0
VERTEX
  5
178
  8
TEAM-BODY
 10
120.047071
 20
337.842885
 30
486.172081
 70
    32
  0
VERTEX
  5
179
  8
TEAM-BODY
 10
138.270717
 20
337.842757
 30
509.519956
 70
    32
  0
VERTEX
  5
17A
  8
TEAM-BODY
 10
207.962942
 20
337.842757
 30
600.0
 70
    32
  0
SEQEND
  5
17B
  8
TEAM-BODY
  0
LINE
  5
17C
  8
TEAM-NET1
 10
629.914367
 20
247.006117
 30
600.0
 11
629.914367
 21
247.006117
 31
420.0
1001
ACAD
1000
R13OBJECT
1002
{
1005
167
1002
}
  0
POLYLINE
  5
17D
  8
TEAM-NET1
 66
     1
 10
0.0
 20
0.0
 30
0.0
 70
     8
1001
ACAD
1000
R13OBJECT
1002
{
1005
167
1002
}
  0
VERTEX
  5
17E
  8
TEAM-NET1
 10
629.757288
 20
84.311628
 30
600.0
 70
    32
  0
VERTEX
  5
17F
  8
TEAM-NET1
 10
629.757397
 20
67.704064
 30
573.92105
 70
    32
  0
VERTEX
  5
180
  8
TEAM-NET1
 10
629.757351
 20
59.563419
 30
561.634853
 70
    32
  0
VERTEX
  5
181
  8
TEAM-NET1
 10
629.75731
 20
55.534716
 30
555.680073
 70
    32
  0
VERTEX
  5
182
  8
TEAM-NET1
 10
629.757295
 20
53.530876
 30
552.749763
 70
    32
  0
VERTEX
  5
183
  8
TEAM-NET1
 10
629.75729
 20
52.531597
 30
551.296378
 70
    32
  0
VERTEX
  5
184
  8
TEAM-NET1
 10
629.757289
 20
52.03262
 30
550.572628
 70
    32
  0
VERTEX
  5
185
  8
TEAM-NET1
 10
629.757289
 20
51.783297
 30
550.211489
 70
    32
  0
VERTEX
  5
186
  8
TEAM-NET1
 10
629.757289
 20
51.658677
 30
550.031103
 70
    32
  0
VERTEX
  5
187
  8
TEAM-NET1
 10
629.757288
 20
51.596378
 30
549.940956
 70
    32
  0
VERTEX
  5
188
  8
TEAM-NET1
 10
629.757288
 20
51.565231
 30
549.895894
 70
    32
  0
VERTEX
  5
189
  8
TEAM-NET1
 10
629.757288
 20
51.534085
 30
549.85084
 70
    32
  0
VERTEX
  5
18A
  8
TEAM-NET1
 10
629.757305
 20
42.777081
 30
537.390152
 70
    32
  0
VERTEX
  5
18B
  8
TEAM-NET1
 10
629.757298
 20
38.44621
 30
531.382705
 70
    32
  0
VERTEX
  5
18C
  8
TEAM-NET1
 10
629.757292
 20
36.292824
 30
528.434706
 70
    32
  0
VERTEX
  5
18D
  8
TEAM-NET1
 10
629.757289
 20
35.219161
 30
526.974638
 70
    32
  0
VERTEX
  5
18E
  8
TEAM-NET1
 10
629.757289
 20
34.683089
 30
526.248086
 70
    32
  0
VERTEX
  5
18F
  8
TEAM-NET1
 10
629.757289
 20
34.415244
 30
525.885681
 70
    32
  0
VERTEX
  5
190
  8
TEAM-NET1
 10
629.757289
 20
34.281368
 30
525.704696
 70
    32
  0
VERTEX
  5
191
  8
TEAM-NET1
 10
629.757288
 20
34.214443
 30
525.614258
 70
    32
  0
VERTEX
  5
192
  8
TEAM-NET1
 10
629.757288
 20
34.180983
 30
525.569053
 70
    32
  0
VERTEX
  5
193
  8
TEAM-NET1
 10
629.757288
 20
34.147525
 30
525.523857
 70
    32
  0
VERTEX
  5
194
  8
TEAM-NET1
 10
629.757312
 20
24.951181
 30
513.346265
 70
    32
  0
VERTEX
  5
195
  8
TEAM-NET1
 10
629.757302
 20
20.405709
 30
507.511097
 70
    32
  0
VERTEX
  5
196
  8
TEAM-NET1
 10
629.757293
 20
18.146327
 30
504.65692
 70
    32
  0
VERTEX
  5
197
  8
TEAM-NET1
 10
629.75729
 20
17.019996
 30
503.245684
 70
    32
  0
VERTEX
  5
198
  8
TEAM-NET1
 10
629.757289
 20
16.457674
 30
502.544028
 70
    32
  0
VERTEX
  5
199
  8
TEAM-NET1
 10
629.757289
 20
16.176724
 30
502.194191
 70
    32
  0
VERTEX
  5
19A
  8
TEAM-NET1
 10
629.757289
 20
16.036302
 30
502.019521
 70
    32
  0
VERTEX
  5
19B
  8
TEAM-NET1
 10
629.757288
 20
15.966104
 30
501.932247
 70
    32
  0
VERTEX
  5
19C
  8
TEAM-NET1
 10
629.757288
 20
15.931009
 30
501.888626
 70
    32
  0
VERTEX
  5
19D
  8
TEAM-NET1
 10
629.757288
 20
15.895915
 30
501.845015
 70
    32
  0
VERTEX
  5
19E
  8
TEAM-NET1
 10
629.757325
 20
6.143178
 30
490.022952
 70
    32
  0
VERTEX
  5
19F
  8
TEAM-NET1
 10
629.75731
 20
1.325816
 30
484.406788
 70
    32
  0
VERTEX
  5
1A0
  8
TEAM-NET1
 10
629.757296
 20
-1.067879
 30
481.672423
 70
    32
  0
VERTEX
  5
1A1
  8
TEAM-NET1
 10
629.757291
 20
-2.26095
 30
480.32367
 70
    32
  0
VERTEX
  5
1A2
  8
TEAM-NET1
 10
629.757289
 20
-2.856537
 30
479.653901
 70
    32
  0
VERTEX
  5
1A3
  8
TEAM-NET1
 10
629.757289
 20
-3.154093
 30
479.320168
 70
    32
  0
VERTEX
  5
1A4
  8
TEAM-NET1
 10
629.757289
 20
-3.302812
 30
479.15359
 70
    32
  0
VERTEX
  5
1A5
  8
TEAM-NET1
 10
629.757289
 20
-3.377157
 30
479.070372
 70
    32
  0
VERTEX
  5
1A6
  8
TEAM-NET1
 10
629.757288
 20
-3.414325
 30
479.028782
 70
    32
  0
VERTEX
  5
1A7
  8
TEAM-NET1
 10
629.757288
 20
-3.451491
 30
478.987203
 70
    32
  0
VERTEX
  5
1A8
  8
TEAM-NET1
 10
629.757351
 20
-13.928467
 30
467.639386
 70
    32
  0
VERTEX
  5
1A9
  8
TEAM-NET1
 10
629.757324
 20
-19.10079
 30
462.317076
 70
    32
  0
VERTEX
  5
1AA
  8
TEAM-NET1
 10
629.757301
 20
-21.670083
 30
459.743821
 70
    32
  0
VERTEX
  5
1AB
  8
TEAM-NET1
 10
629.757292
 20
-22.950469
 30
458.479169
 70
    32
  0
VERTEX
  5
1AC
  8
TEAM-NET1
 10
629.757289
 20
-23.589592
 30
457.852336
 70
    32
  0
VERTEX
  5
1AD
  8
TEAM-NET1
 10
629.757289
 20
-23.908886
 30
457.540293
 70
    32
  0
VERTEX
  5
1AE
  8
TEAM-NET1
 10
629.757289
 20
-24.068465
 30
457.384615
 70
    32
  0
VERTEX
  5
1AF
  8
TEAM-NET1
 10
629.757289
 20
-24.148238
 30
457.306862
 70
    32
  0
VERTEX
  5
1B0
  8
TEAM-NET1
 10
629.757288
 20
-24.188121
 30
457.268007
 70
    32
  0
VERTEX
  5
1B1
  8
TEAM-NET1
 10
629.757288
 20
-24.228
 30
457.229166
 70
    32
  0
VERTEX
  5
1B2
  8
TEAM-NET1
 10
629.757418
 20
-35.533166
 30
446.692145
 70
    32
  0
VERTEX
  5
1B3
  8
TEAM-NET1
 10
629.757363
 20
-41.113679
 30
441.846309
 70
    32
  0
VERTEX
  5
1B4
  8
TEAM-NET1
 10
629.757314
 20
-43.885441
 30
439.529059
 70
    32
  0
VERTEX
  5
1B5
  8
TEAM-NET1
 10
629.757296
 20
-45.266638
 30
438.396852
 70
    32
  0
VERTEX
  5
1B6
  8
TEAM-NET1
 10
629.75729
 20
-45.956058
 30
437.837352
 70
    32
  0
VERTEX
  5
1B7
  8
TEAM-NET1
 10
629.757289
 20
-46.300472
 30
437.559253
 70
    32
  0
VERTEX
  5
1B8
  8
TEAM-NET1
 10
629.757289
 20
-46.472606
 30
437.420617
 70
    32
  0
VERTEX
  5
1B9
  8
TEAM-NET1
 10
629.757289
 20
-46.558654
 30
437.351402
 70
    32
  0
VERTEX
  5
1BA
  8
TEAM-NET1
 10
629.757288
 20
-46.601673
 30
437.31682
 70
    32
  0
VERTEX
  5
1BB
  8
TEAM-NET1
 10
629.757288
 20
-46.644689
 30
437.282255
 70
    32
  0
VERTEX
  5
1BC
  8
TEAM-NET1
 10
629.757302
 20
-52.654949
 30
432.598351
 70
    32
  0
VERTEX
  5
1BD
  8
TEAM-NET1
 10
629.757296
 20
-55.641345
 30
430.379592
 70
    32
  0
VERTEX
  5
1BE
  8
TEAM-NET1
 10
629.757291
 20
-57.129791
 30
429.301011
 70
    32
  0
VERTEX
  5
1BF
  8
TEAM-NET1
 10
629.757289
 20
-57.872817
 30
428.76942
 70
    32
  0
VERTEX
  5
1C0
  8
TEAM-NET1
 10
629.757289
 20
-58.244029
 30
428.505549
 70
    32
  0
VERTEX
  5
1C1
  8
TEAM-NET1
 10
629.757289
 20
-58.42956
 30
428.374095
 70
    32
  0
VERTEX
  5
1C2
  8
TEAM-NET1
 10
629.757289
 20
-58.522307
 30
428.308488
 70
    32
  0
VERTEX
  5
1C3
  8
TEAM-NET1
 10
629.757288
 20
-58.568676
 30
428.275715
 70
    32
  0
VERTEX
  5
1C4
  8
TEAM-NET1
 10
629.757288
 20
-58.615041
 30
428.242962
 70
    32
  0
VERTEX
  5
1C5
  8
TEAM-NET1
 10
629.757288
 20
-71.234972
 30
420.0
 70
    32
  0
SEQEND
  5
1C6
  8
TEAM-NET1
  0
POLYLINE
  5
1C7
  8
TEAM-NET1
 66
     1
 10
0.0
 20
0.0
 30
0.0
 70
     8
1001
ACAD
1000
R13OBJECT
1002
{
1005
167
1002
}
  0
VERTEX
  5
1C8
  8
TEAM-NET1
 10
67.349478
 20
337.842757
 30
420.0
 70
    32
  0
VERTEX
  5
1C9
  8
TEAM-NET1
 10
84.704056
 20
337.842866
 30
441.532049
 70
    32
  0
VERTEX
  5
1CA
  8
TEAM-NET1
 10
93.75115
 20
337.84282
 30
452.865472
 70
    32
  0
VERTEX
  5
1CB
  8
TEAM-NET1
 10
98.366938
 20
337.842779
 30
458.674034
 70
    32
  0
VERTEX
  5
1CC
  8
TEAM-NET1
 10
100.697861
 20
337.842763
 30
461.613777
 70
    32
  0
VERTEX
  5
1CD
  8
TEAM-NET1
 10
101.869075
 20
337.842758
 30
463.092514
 70
    32
  0
VERTEX
  5
1CE
  8
TEAM-NET1
 10
102.456119
 20
337.842757
 30
463.834099
 70
    32
  0
VERTEX
  5
1CF
  8
TEAM-NET1
 10
102.750001
 20
337.842757
 30
464.205446
 70
    32
  0
VERTEX
  5
1D0
  8
TEAM-NET1
 10
102.897031
 20
337.842757
 30
464.391257
 70
    32
  0
VERTEX
  5
1D1
  8
TEAM-NET1
 10
102.970569
 20
337.842757
 30
464.484198
 70
    32
  0
VERTEX
  5
1D2
  8
TEAM-NET1
 10
103.007343
 20
337.842757
 30
464.530677
 70
    32
  0
VERTEX
  5
1D3
  8
TEAM-NET1
 10
103.025732
 20
337.842757
 30
464.553918
 70
    32
  0
VERTEX
  5
1D4
  8
TEAM-NET1
 10
103.044122
 20
337.842757
 30
464.577162
 70
    32
  0
VERTEX
  5
1D5
  8
TEAM-NET1
 10
120.047071
 20
337.842885
 30
486.172081
 70
    32
  0
VERTEX
  5
1D6
  8
TEAM-NET1
 10
129.006437
 20
337.84283
 30
497.626899
 70
    32
  0
VERTEX
  5
1D7
  8
TEAM-NET1
 10
133.600482
 20
337.842782
 30
503.518647
 70
    32
  0
VERTEX
  5
1D8
  8
TEAM-NET1
 10
135.926078
 20
337.842764
 30
506.505607
 70
    32
  0
VERTEX
  5
1D9
  8
TEAM-NET1
 10
137.096017
 20
337.842759
 30
508.009357
 70
    32
  0
VERTEX
  5
1DA
  8
TEAM-NET1
 10
137.682772
 20
337.842757
 30
508.763801
 70
    32
  0
VERTEX
  5
1DB
  8
TEAM-NET1
 10
137.976596
 20
337.842757
 30
509.141664
 70
    32
  0
VERTEX
  5
1DC
  8
TEAM-NET1
 10
138.123619
 20
337.842757
 30
509.330756
 70
    32
  0
VERTEX
  5
1DD
  8
TEAM-NET1
 10
138.197159
 20
337.842757
 30
509.425343
 70
    32
  0
VERTEX
  5
1DE
  8
TEAM-NET1
 10
138.233936
 20
337.842757
 30
509.472646
 70
    32
  0
VERTEX
  5
1DF
  8
TEAM-NET1
 10
138.252326
 20
337.842757
 30
509.4963
 70
    32
  0
VERTEX
  5
1E0
  8
TEAM-NET1
 10
138.270717
 20
337.842757
 30
509.519956
 70
    32
  0
VERTEX
  5
1E1
  8
TEAM-NET1
 10
146.818498
 20
337.842769
 30
520.532555
 70
    32
  0
VERTEX
  5
1E2
  8
TEAM-NET1
 10
151.240162
 20
337.842763
 30
526.242403
 70
    32
  0
VERTEX
  5
1E3
  8
TEAM-NET1
 10
153.487943
 20
337.842759
 30
529.148214
 70
    32
  0
VERTEX
  5
1E4
  8
TEAM-NET1
 10
154.621072
 20
337.842757
 30
530.613842
 70
    32
  0
VERTEX
  5
1E5
  8
TEAM-NET1
 10
155.189946
 20
337.842757
 30
531.349836
 70
    32
  0
VERTEX
  5
1E6
  8
TEAM-NET1
 10
155.47496
 20
337.842757
 30
531.718628
 70
    32
  0
VERTEX
  5
1E7
  8
TEAM-NET1
 10
155.617611
 20
337.842757
 30
531.903223
 70
    32
  0
VERTEX
  5
1E8
  8
TEAM-NET1
 10
155.688973
 20
337.842757
 30
531.99557
 70
    32
  0
VERTEX
  5
1E9
  8
TEAM-NET1
 10
155.724663
 20
337.842757
 30
532.041756
 70
    32
  0
VERTEX
  5
1EA
  8
TEAM-NET1
 10
155.760359
 20
337.842757
 30
532.087951
 70
    32
  0
VERTEX
  5
1EB
  8
TEAM-NET1
 10
164.22365
 20
337.84277
 30
543.053537
 70
    32
  0
VERTEX
  5
1EC
  8
TEAM-NET1
 10
168.645134
 20
337.842765
 30
548.791762
 70
    32
  0
VERTEX
  5
1ED
  8
TEAM-NET1
 10
170.90336
 20
337.842759
 30
551.724733
 70
    32
  0
VERTEX
  5
1EE
  8
TEAM-NET1
 10
172.044348
 20
337.842758
 30
553.207183
 70
    32
  0
VERTEX
  5
1EF
  8
TEAM-NET1
 10
172.617811
 20
337.842757
 30
553.952399
 70
    32
  0
VERTEX
  5
1F0
  8
TEAM-NET1
 10
172.905285
 20
337.842757
 30
554.326005
 70
    32
  0
VERTEX
  5
1F1
  8
TEAM-NET1
 10
173.049207
 20
337.842757
 30
554.513058
 70
    32
  0
VERTEX
  5
1F2
  8
TEAM-NET1
 10
173.121215
 20
337.842757
 30
554.606646
 70
    32
  0
VERTEX
  5
1F3
  8
TEAM-NET1
 10
173.15723
 20
337.842757
 30
554.653456
 70
    32
  0
VERTEX
  5
1F4
  8
TEAM-NET1
 10
173.175241
 20
337.842757
 30
554.676865
 70
    32
  0
VERTEX
  5
1F5
  8
TEAM-NET1
 10
173.193254
 20
337.842757
 30
554.700276
 70
    32
  0
VERTEX
  5
1F6
  8
TEAM-NET1
 10
181.543093
 20
337.84277
 30
565.561149
 70
    32
  0
VERTEX
  5
1F7
  8
TEAM-NET1
 10
185.978808
 20
337.842764
 30
571.336579
 70
    32
  0
VERTEX
  5
1F8
  8
TEAM-NET1
 10
188.261907
 20
337.842759
 30
574.310543
 70
    32
  0
VERTEX
  5
1F9
  8
TEAM-NET1
 10
189.41977
 20
337.842757
 30
575.819087
 70
    32
  0
VERTEX
  5
1FA
  8
TEAM-NET1
 10
190.00278
 20
337.842757
 30
576.578749
 70
    32
  0
VERTEX
  5
1FB
  8
TEAM-NET1
 10
190.295304
 20
337.842757
 30
576.959928
 70
    32
  0
VERTEX
  5
1FC
  8
TEAM-NET1
 10
190.441821
 20
337.842757
 30
577.150854
 70
    32
  0
VERTEX
  5
1FD
  8
TEAM-NET1
 10
190.515144
 20
337.842757
 30
577.246402
 70
    32
  0
VERTEX
  5
1FE
  8
TEAM-NET1
 10
190.551821
 20
337.842757
 30
577.294197
 70
    32
  0
VERTEX
  5
1FF
  8
TEAM-NET1
 10
190.570163
 20
337.842757
 30
577.318099
 70
    32
  0
VERTEX
  5
200
  8
TEAM-NET1
 10
190.588508
 20
337.842757
 30
577.342005
 70
    32
  0
VERTEX
  5
201
  8
TEAM-NET1
 10
198.783489
 20
337.842757
 30
588.025481
 70
    32
  0
VERTEX
  5
202
  8
TEAM-NET1
 10
207.962942
 20
337.842757
 30
600.0
 70
    32
  0
SEQEND
  5
203
  8
TEAM-NET1
  0
POLYLINE
  5
204
  8
TEAM-NET1
 66
     1
 10
0.0
 20
0.0
 30
0.0
 70
     8
1001
ACAD
1000
R13OBJECT
1002
{
1005
167
1002
}
  0
VERTEX
  5
205
  8
TEAM-NET1
 10
207.962942
 20
337.842757
 30
600.0
 70
    32
  0
VERTEX
  5
206
  8
TEAM-NET1
 10
198.62464
 20
337.842757
 30
587.818346
 70
    32
  0
VERTEX
  5
207
  8
TEAM-NET1
 10
194.443803
 20
337.842757
 30
582.367012
 70
    32
  0
VERTEX
  5
208
  8
TEAM-NET1
 10
192.475463
 20
337.842757
 30
579.801218
 70
    32
  0
VERTEX
  5
209
  8
TEAM-NET1
 10
191.521813
 20
337.842757
 30
578.558289
 70
    32
  0
VERTEX
  5
20A
  8
TEAM-NET1
 10
191.052617
 20
337.842757
 30
577.946816
 70
    32
  0
VERTEX
  5
20B
  8
TEAM-NET1
 10
190.819927
 20
337.842757
 30
577.643578
 70
    32
  0
VERTEX
  5
20C
  8
TEAM-NET1
 10
190.704059
 20
337.842757
 30
577.492584
 70
    32
  0
VERTEX
  5
20D
  8
TEAM-NET1
 10
190.646244
 20
337.842757
 30
577.417242
 70
    32
  0
VERTEX
  5
20E
  8
TEAM-NET1
 10
190.617366
 20
337.842757
 30
577.379611
 70
    32
  0
VERTEX
  5
20F
  8
TEAM-NET1
 10
190.602935
 20
337.842757
 30
577.360805
 70
    32
  0
VERTEX
  5
210
  8
TEAM-NET1
 10
190.595721
 20
337.842757
 30
577.351404
 70
    32
  0
VERTEX
  5
211
  8
TEAM-NET1
 10
190.588508
 20
337.842757
 30
577.342005
 70
    32
  0
VERTEX
  5
212
  8
TEAM-NET1
 10
181.449004
 20
337.842757
 30
565.438675
 70
    32
  0
VERTEX
  5
213
  8
TEAM-NET1
 10
177.210659
 20
337.842757
 30
559.923859
 70
    32
  0
VERTEX
  5
214
  8
TEAM-NET1
 10
175.174339
 20
337.842757
 30
557.275664
 70
    32
  0
VERTEX
  5
215
  8
TEAM-NET1
 10
174.176892
 20
337.842757
 30
555.978869
 70
    32
  0
VERTEX
  5
216
  8
TEAM-NET1
 10
173.683347
 20
337.842757
 30
555.337297
 70
    32
  0
VERTEX
  5
217
  8
TEAM-NET1
 10
173.437869
 20
337.842757
 30
555.018218
 70
    32
  0
VERTEX
  5
218
  8
TEAM-NET1
 10
173.315453
 20
337.842757
 30
554.859105
 70
    32
  0
VERTEX
  5
219
  8
TEAM-NET1
 10
173.254326
 20
337.842757
 30
554.779655
 70
    32
  0
VERTEX
  5
21A
  8
TEAM-NET1
 10
173.223783
 20
337.842757
 30
554.739957
 70
    32
  0
VERTEX
  5
21B
  8
TEAM-NET1
 10
173.208517
 20
337.842757
 30
554.720114
 70
    32
  0
VERTEX
  5
21C
  8
TEAM-NET1
 10
173.193254
 20
337.842757
 30
554.700276
 70
    32
  0
VERTEX
  5
21D
  8
TEAM-NET1
 10
164.188233
 20
337.842757
 30
543.007608
 70
    32
  0
VERTEX
  5
21E
  8
TEAM-NET1
 10
159.902153
 20
337.842757
 30
537.451153
 70
    32
  0
VERTEX
  5
21F
  8
TEAM-NET1
 10
157.81322
 20
337.842757
 30
534.745395
 70
    32
  0
VERTEX
  5
220
  8
TEAM-NET1
 10
156.782281
 20
337.842757
 30
533.410634
 70
    32
  0
VERTEX
  5
221
  8
TEAM-NET1
 10
156.270193
 20
337.842757
 30
532.747782
 70
    32
  0
VERTEX
  5
222
  8
TEAM-NET1
 10
156.014994
 20
337.842757
 30
532.417489
 70
    32
  0
VERTEX
  5
223
  8
TEAM-NET1
 10
155.887606
 20
337.842757
 30
532.252626
 70
    32
  0
VERTEX
  5
224
  8
TEAM-NET1
 10
155.823965
 20
337.842757
 30
532.170265
 70
    32
  0
VERTEX
  5
225
  8
TEAM-NET1
 10
155.792158
 20
337.842757
 30
532.129102
 70
    32
  0
VERTEX
  5
226
  8
TEAM-NET1
 10
155.760359
 20
337.842757
 30
532.087951
 70
    32
  0
VERTEX
  5
227
  8
TEAM-NET1
 10
146.813245
 20
337.842757
 30
520.52578
 70
    32
  0
VERTEX
  5
228
  8
TEAM-NET1
 10
142.491408
 20
337.842757
 30
514.953324
 70
    32
  0
VERTEX
  5
229
  8
TEAM-NET1
 10
140.368419
 20
337.842757
 30
512.219254
 70
    32
  0
VERTEX
  5
22A
  8
TEAM-NET1
 10
139.316407
 20
337.842757
 30
510.865258
 70
    32
  0
VERTEX
  5
22B
  8
TEAM-NET1
 10
138.792772
 20
337.842757
 30
510.19152
 70
    32
  0
VERTEX
  5
22C
  8
TEAM-NET1
 10
138.531547
 20
337.842757
 30
509.855466
 70
    32
  0
VERTEX
  5
22D
  8
TEAM-NET1
 10
138.401083
 20
337.842757
 30
509.687643
 70
    32
  0
VERTEX
  5
22E
  8
TEAM-NET1
 10
138.335888
 20
337.842757
 30
509.603782
 70
    32
  0
VERTEX
  5
22F
  8
TEAM-NET1
 10
138.303299
 20
337.842757
 30
509.561865
 70
    32
  0
VERTEX
  5
230
  8
TEAM-NET1
 10
138.270717
 20
337.842757
 30
509.519956
 70
    32
  0
VERTEX
  5
231
  8
TEAM-NET1
 10
120.083795
 20
337.842757
 30
486.218853
 70
    32
  0
VERTEX
  5
232
  8
TEAM-NET1
 10
111.420552
 20
337.842757
 30
475.190581
 70
    32
  0
VERTEX
  5
233
  8
TEAM-NET1
 10
107.196485
 20
337.842757
 30
469.832015
 70
    32
  0
VERTEX
  5
234
  8
TEAM-NET1
 10
105.111341
 20
337.842757
 30
467.191624
 70
    32
  0
VERTEX
  5
235
  8
TEAM-NET1
 10
104.07549
 20
337.842757
 30
465.881152
 70
    32
  0
VERTEX
  5
236
  8
TEAM-NET1
 10
103.559246
 20
337.842757
 30
465.228346
 70
    32
  0
VERTEX
  5
237
  8
TEAM-NET1
 10
103.301544
 20
337.842757
 30
464.902551
 70
    32
  0
VERTEX
  5
238
  8
TEAM-NET1
 10
103.172798
 20
337.842757
 30
464.739806
 70
    32
  0
VERTEX
  5
239
  8
TEAM-NET1
 10
103.108451
 20
337.842757
 30
464.658471
 70
    32
  0
VERTEX
  5
23A
  8
TEAM-NET1
 10
103.076284
 20
337.842757
 30
464.617813
 70
    32
  0
VERTEX
  5
23B
  8
TEAM-NET1
 10
103.060202
 20
337.842757
 30
464.597487
 70
    32
  0
VERTEX
  5
23C
  8
TEAM-NET1
 10
103.044122
 20
337.842757
 30
464.577162
 70
    32
  0
VERTEX
  5
23D
  8
TEAM-NET1
 10
84.752897
 20
337.842757
 30
441.592897
 70
    32
  0
VERTEX
  5
23E
  8
TEAM-NET1
 10
67.349478
 20
337.842757
 30
420.0
 70
    32
  0
SEQEND
  5
23F
  8
TEAM-NET1
  0
LINE
  5
240
  8
TEAM-NET1
 10
629.757288
 20
241.644416
 30
600.0
 11
629.757288
 21
241.644416
 31
420.0
1001
ACAD
1000
R13OBJECT
1002
{
1005
167
1002
}
  0
LINE
  5
241
  8
TEAM-NET1
 10
550.023434
 20
337.842757
 30
600.0
 11
550.023434
 21
337.842757
 31
420.0
1001
ACAD
1000
R13OBJECT
1002
{
1005
167
1002
}
  0
POLYLINE
  5
242
  8
TEAM-NET1
 66
     1
 10
0.0
 20
0.0
 30
0.0
 70
     8
1001
ACAD
1000
R13OBJECT
1002
{
1005
167
1002
}
  0
VERTEX
  5
243
  8
TEAM-NET1
 10
629.757288
 20
-71.234972
 30
420.0
 70
    32
  0
VERTEX
  5
244
  8
TEAM-NET1
 10
629.757288
 20
-59.034966
 30
427.94748
 70
    32
  0
VERTEX
  5
245
  8
TEAM-NET1
 10
629.757288
 20
-52.870239
 30
432.436132
 70
    32
  0
VERTEX
  5
246
  8
TEAM-NET1
 10
629.757288
 20
-49.771695
 30
434.809186
 70
    32
  0
VERTEX
  5
247
  8
TEAM-NET1
 10
629.757288
 20
-48.218377
 30
436.027895
 70
    32
  0
VERTEX
  5
248
  8
TEAM-NET1
 10
629.757288
 20
-47.440707
 30
436.645295
 70
    32
  0
VERTEX
  5
249
  8
TEAM-NET1
 10
629.757288
 20
-47.05162
 30
436.956006
 70
    32
  0
VERTEX
  5
24A
  8
TEAM-NET1
 10
629.757288
 20
-46.857012
 30
437.111865
 70
    32
  0
VERTEX
  5
24B
  8
TEAM-NET1
 10
629.757288
 20
-46.759693
 30
437.18992
 70
    32
  0
VERTEX
  5
24C
  8
TEAM-NET1
 10
629.757288
 20
-46.711029
 30
437.228979
 70
    32
  0
VERTEX
  5
24D
  8
TEAM-NET1
 10
629.757288
 20
-46.686697
 30
437.248516
 70
    32
  0
VERTEX
  5
24E
  8
TEAM-NET1
 10
629.757288
 20
-46.662363
 30
437.268058
 70
    32
  0
VERTEX
  5
24F
  8
TEAM-NET1
 10
629.757288
 20
-35.589974
 30
446.641486
 70
    32
  0
VERTEX
  5
250
  8
TEAM-NET1
 10
629.757288
 20
-29.993076
 30
451.736931
 70
    32
  0
VERTEX
  5
251
  8
TEAM-NET1
 10
629.757288
 20
-27.17945
 30
454.386836
 70
    32
  0
VERTEX
  5
252
  8
TEAM-NET1
 10
629.757288
 20
-25.768843
 30
455.737334
 70
    32
  0
VERTEX
  5
253
  8
TEAM-NET1
 10
629.757288
 20
-25.062592
 30
456.41897
 70
    32
  0
VERTEX
  5
254
  8
TEAM-NET1
 10
629.757288
 20
-24.709228
 30
456.761384
 70
    32
  0
VERTEX
  5
255
  8
TEAM-NET1
 10
629.757288
 20
-24.532488
 30
456.93299
 70
    32
  0
VERTEX
  5
256
  8
TEAM-NET1
 10
629.757288
 20
-24.444102
 30
457.018893
 70
    32
  0
VERTEX
  5
257
  8
TEAM-NET1
 10
629.757288
 20
-24.399906
 30
457.06187
 70
    32
  0
VERTEX
  5
258
  8
TEAM-NET1
 10
629.757288
 20
-24.355707
 30
457.104863
 70
    32
  0
VERTEX
  5
259
  8
TEAM-NET1
 10
629.757288
 20
-14.078599
 30
467.482185
 70
    32
  0
VERTEX
  5
25A
  8
TEAM-NET1
 10
629.757288
 20
-8.884691
 30
473.008885
 70
    32
  0
VERTEX
  5
25B
  8
TEAM-NET1
 10
629.757288
 20
-6.273899
 30
475.856746
 70
    32
  0
VERTEX
  5
25C
  8
TEAM-NET1
 10
629.757288
 20
-4.965043
 30
477.301803
 70
    32
  0
VERTEX
  5
25D
  8
TEAM-NET1
 10
629.757288
 20
-4.309751
 30
478.029614
 70
    32
  0
VERTEX
  5
25E
  8
TEAM-NET1
 10
629.757288
 20
-3.981888
 30
478.39484
 70
    32
  0
VERTEX
  5
25F
  8
TEAM-NET1
 10
629.757288
 20
-3.817903
 30
478.577783
 70
    32
  0
VERTEX
  5
260
  8
TEAM-NET1
 10
629.757288
 20
-3.735896
 30
478.669337
 70
    32
  0
VERTEX
  5
261
  8
TEAM-NET1
 10
629.757288
 20
-3.69489
 30
478.715134
 70
    32
  0
VERTEX
  5
262
  8
TEAM-NET1
 10
629.757288
 20
-3.653881
 30
478.760946
 70
    32
  0
VERTEX
  5
263
  8
TEAM-NET1
 10
629.757288
 20
5.99104
 30
489.843252
 70
    32
  0
VERTEX
  5
264
  8
TEAM-NET1
 10
629.757288
 20
10.86297
 30
495.669559
 70
    32
  0
VERTEX
  5
265
  8
TEAM-NET1
 10
629.757288
 20
13.311302
 30
498.654
 70
    32
  0
VERTEX
  5
266
  8
TEAM-NET1
 10
629.757288
 20
14.53856
 30
500.164043
 70
    32
  0
VERTEX
  5
267
  8
TEAM-NET1
 10
629.757288
 20
15.152962
 30
500.92352
 70
    32
  0
VERTEX
  5
268
  8
TEAM-NET1
 10
629.757288
 20
15.460356
 30
501.304373
 70
    32
  0
VERTEX
  5
269
  8
TEAM-NET1
 10
629.757288
 20
15.614102
 30
501.495077
 70
    32
  0
VERTEX
  5
26A
  8
TEAM-NET1
 10
629.757288
 20
15.690986
 30
501.590499
 70
    32
  0
VERTEX
  5
26B
  8
TEAM-NET1
 10
629.757288
 20
15.729432
 30
501.638228
 70
    32
  0
VERTEX
  5
26C
  8
TEAM-NET1
 10
629.757288
 20
15.748655
 30
501.662096
 70
    32
  0
VERTEX
  5
26D
  8
TEAM-NET1
 10
629.757288
 20
15.767879
 30
501.685968
 70
    32
  0
VERTEX
  5
26E
  8
TEAM-NET1
 10
629.757288
 20
33.413132
 30
524.533575
 70
    32
  0
VERTEX
  5
26F
  8
TEAM-NET1
 10
629.757288
 20
42.399591
 30
536.862448
 70
    32
  0
VERTEX
  5
270
  8
TEAM-NET1
 10
629.757288
 20
46.933779
 30
543.253152
 70
    32
  0
VERTEX
  5
271
  8
TEAM-NET1
 10
629.757288
 20
49.211113
 30
546.505071
 70
    32
  0
VERTEX
  5
272
  8
TEAM-NET1
 10
629.757288
 20
50.352339
 30
548.145173
 70
    32
  0
VERTEX
  5
273
  8
TEAM-NET1
 10
629.757288
 20
50.923593
 30
548.968759
 70
    32
  0
VERTEX
  5
274
  8
TEAM-NET1
 10
629.757288
 20
51.209379
 30
549.381435
 70
    32
  0
VERTEX
  5
275
  8
TEAM-NET1
 10
629.757288
 20
51.352312
 30
549.587995
 70
    32
  0
VERTEX
  5
276
  8
TEAM-NET1
 10
629.757288
 20
51.423789
 30
549.69133
 70
    32
  0
VERTEX
  5
277
  8
TEAM-NET1
 10
629.757288
 20
51.45953
 30
549.743011
 70
    32
  0
VERTEX
  5
278
  8
TEAM-NET1
 10
629.757288
 20
51.477401
 30
549.768855
 70
    32
  0
VERTEX
  5
279
  8
TEAM-NET1
 10
629.757288
 20
51.495272
 30
549.794702
 70
    32
  0
VERTEX
  5
27A
  8
TEAM-NET1
 10
629.757288
 20
67.731533
 30
573.962847
 70
    32
  0
VERTEX
  5
27B
  8
TEAM-NET1
 10
629.757288
 20
84.311628
 30
600.0
 70
    32
  0
SEQEND
  5
27C
  8
TEAM-NET1
  0
LINE
  5
27D
  8
TEAM-BODY
 10
629.757288
 20
241.644416
 30
420.0
 11
629.757288
 21
-71.234972
 31
420.0
210
1.0
220
0.0
230
0.0
  0
ARC
  5
27E
  8
TEAM-BODY
 10
-538.327902
 20
247.006117
 30
-420.0
 40
91.586465
210
0.0
220
0.0
230
-1.0
 50
97.336666
 51
183.356158
  0
POLYLINE
  5
27F
  8
TEAM-BODY
 66
     1
 10
0.0
 20
0.0
 30
0.0
 70
     8
  0
VERTEX
  5
280
  8
TEAM-BODY
 10
629.757288
 20
-71.234972
 30
420.0
 70
    32
  0
VERTEX
  5
281
  8
TEAM-BODY
 10
617.160963
 20
-36.186023
 30
420.0
 70
    32
  0
VERTEX
  5
282
  8
TEAM-BODY
 10
600.23913
 20
-1.629754
 30
420.0
 70
    32
  0
VERTEX
  5
283
  8
TEAM-BODY
 10
579.240308
 20
32.139684
 30
420.0
 70
    32
  0
VERTEX
  5
284
  8
TEAM-BODY
 10
554.430226
 20
64.852019
 30
420.0
 70
    32
  0
VERTEX
  5
285
  8
TEAM-BODY
 10
526.030709
 20
96.300462
 30
420.0
 70
    32
  0
VERTEX
  5
286
  8
TEAM-BODY
 10
494.307227
 20
126.403522
 30
420.0
 70
    32
  0
VERTEX
  5
287
  8
TEAM-BODY
 10
459.582135
 20
155.077367
 30
420.0
 70
    32
  0
VERTEX
  5
288
  8
TEAM-BODY
 10
422.200392
 20
182.205525
 30
420.0
 70
    32
  0
VERTEX
  5
289
  8
TEAM-BODY
 10
382.521126
 20
207.694347
 30
420.0
 70
    32
  0
VERTEX
  5
28A
  8
TEAM-BODY
 10
340.912375
 20
231.474538
 30
420.0
 70
    32
  0
VERTEX
  5
28B
  8
TEAM-BODY
 10
297.687169
 20
253.522013
 30
420.0
 70
    32
  0
VERTEX
  5
28C
  8
TEAM-BODY
 10
253.113346
 20
273.851743
 30
420.0
 70
    32
  0
VERTEX
  5
28D
  8
TEAM-BODY
 10
207.492692
 20
292.465303
 30
420.0
 70
    32
  0
VERTEX
  5
28E
  8
TEAM-BODY
 10
161.161971
 20
309.345538
 30
420.0
 70
    32
  0
VERTEX
  5
28F
  8
TEAM-BODY
 10
114.381651
 20
324.474038
 30
420.0
 70
    32
  0
VERTEX
  5
290
  8
TEAM-BODY
 10
67.349478
 20
337.842757
 30
420.0
 70
    32
  0
SEQEND
  5
291
  8
TEAM-BODY
  0
LINE
  5
292
  8
TEAM-BODY
 10
67.349478
 20
337.842757
 30
420.0
 11
550.023434
 21
337.842757
 31
420.0
210
-0.0
220
1.0
230
0.0
  0
POLYLINE
  5
293
  8
TEAM-NET1
 66
     1
 10
0.0
 20
0.0
 30
0.0
 70
     8
1001
ACAD
1000
R13OBJECT
1002
{
1005
167
1002
}
  0
VERTEX
  5
294
  8
TEAM-NET1
 10
629.757288
 20
-71.234972
 30
420.0
 70
    32
  0
VERTEX
  5
295
  8
TEAM-NET1
 10
623.931821
 20
-53.43113
 30
420.0
 70
    32
  0
VERTEX
  5
296
  8
TEAM-NET1
 10
615.801397
 20
-33.028862
 30
420.0
 70
    32
  0
VERTEX
  5
297
  8
TEAM-NET1
 10
608.323278
 20
-17.00011
 30
420.0
 70
    32
  0
VERTEX
  5
298
  8
TEAM-NET1
 10
598.286552
 20
1.843589
 30
420.0
 70
    32
  0
VERTEX
  5
299
  8
TEAM-NET1
 10
585.425577
 20
22.917738
 30
420.0
 70
    32
  0
VERTEX
  5
29A
  8
TEAM-NET1
 10
574.19175
 20
39.308573
 30
420.0
 70
    32
  0
VERTEX
  5
29B
  8
TEAM-NET1
 10
559.698547
 20
58.389344
 30
420.0
 70
    32
  0
VERTEX
  5
29C
  8
TEAM-NET1
 10
554.962695
 20
64.209105
 30
420.0
 70
    32
  0
VERTEX
  5
29D
  8
TEAM-NET1
 10
539.648128
 20
81.86363
 30
420.0
 70
    32
  0
VERTEX
  5
29E
  8
TEAM-NET1
 10
524.849571
 20
97.504333
 30
420.0
 70
    32
  0
VERTEX
  5
29F
  8
TEAM-NET1
 10
507.398133
 20
114.506627
 30
420.0
 70
    32
  0
VERTEX
  5
2A0
  8
TEAM-NET1
 10
489.64504
 20
130.48364
 30
420.0
 70
    32
  0
VERTEX
  5
2A1
  8
TEAM-NET1
 10
462.848109
 20
152.537372
 30
420.0
 70
    32
  0
VERTEX
  5
2A2
  8
TEAM-NET1
 10
441.196068
 20
168.845581
 30
420.0
 70
    32
  0
VERTEX
  5
2A3
  8
TEAM-NET1
 10
423.147284
 20
181.558757
 30
420.0
 70
    32
  0
VERTEX
  5
2A4
  8
TEAM-NET1
 10
389.978981
 20
203.130016
 30
420.0
 70
    32
  0
VERTEX
  5
2A5
  8
TEAM-NET1
 10
355.11723
 20
223.661041
 30
420.0
 70
    32
  0
VERTEX
  5
2A6
  8
TEAM-NET1
 10
314.931841
 20
245.022133
 30
420.0
 70
    32
  0
VERTEX
  5
2A7
  8
TEAM-NET1
 10
267.491818
 20
267.538985
 30
420.0
 70
    32
  0
VERTEX
  5
2A8
  8
TEAM-NET1
 10
226.987934
 20
284.765101
 30
420.0
 70
    32
  0
VERTEX
  5
2A9
  8
TEAM-NET1
 10
216.90194
 20
288.79464
 30
420.0
 70
    32
  0
VERTEX
  5
2AA
  8
TEAM-NET1
 10
174.545999
 20
304.668159
 30
420.0
 70
    32
  0
VERTEX
  5
2AB
  8
TEAM-NET1
 10
167.754077
 20
307.061588
 30
420.0
 70
    32
  0
VERTEX
  5
2AC
  8
TEAM-NET1
 10
138.859
 20
316.791569
 30
420.0
 70
    32
  0
VERTEX
  5
2AD
  8
TEAM-NET1
 10
96.356613
 20
329.811317
 30
420.0
 70
    32
  0
VERTEX
  5
2AE
  8
TEAM-NET1
 10
67.349478
 20
337.842757
 30
420.0
 70
    32
  0
SEQEND
  5
2AF
  8
TEAM-NET1
  0
LINE
  5
2B0
  8
TEAM-NET1
 10
550.023434
 20
337.842757
 30
420.0
 11
67.349478
 21
337.842757
 31
420.0
1001
ACAD
1000
R13OBJECT
1002
{
1005
167
1002
}
  0
ARC
  5
2B1
  8
TEAM-NET1
 10
538.327902
 20
247.006117
 30
420.0
 40
91.586465
 50
356.643842
 51
82.663334
1001
ACAD
1000
R13OBJECT
1002
{
1005
167
1002
}
  0
LINE
  5
2B2
  8
TEAM-NET1
 10
629.757288
 20
-71.234947
 30
420.0
 11
629.757288
 21
241.644416
 31
420.0
1001
ACAD
1000
R13OBJECT
1002
{
1005
167
1002
}
  0
POLYLINE
  5
2B3
  8
TEAM-NET1
 66
     1
 10
0.0
 20
0.0
 30
0.0
 70
     8
1001
ACAD
1000
R13OBJECT
1002
{
1005
167
1002
}
  0
VERTEX
  5
2B4
  8
TEAM-NET1
 10
629.757288
 20
-71.234947
 30
420.0
 70
    32
  0
VERTEX
  5
2B5
  8
TEAM-NET1
 10
629.346257
 20
-69.847984
 30
420.0
 70
    32
  0
VERTEX
  5
2B6
  8
TEAM-NET1
 10
629.242322
 20
-69.501097
 30
420.0
 70
    32
  0
VERTEX
  5
2B7
  8
TEAM-NET1
 10
629.191786
 20
-69.332978
 30
420.0
 70
    32
  0
VERTEX
  5
2B8
  8
TEAM-NET1
 10
629.141495
 20
-69.166023
 30
420.0
 70
    32
  0
VERTEX
  5
2B9
  8
TEAM-NET1
 10
628.939261
 20
-68.498141
 30
420.0
 70
    32
  0
VERTEX
  5
2BA
  8
TEAM-NET1
 10
628.113219
 20
-65.82562
 30
420.0
 70
    32
  0
VERTEX
  5
2BB
  8
TEAM-NET1
 10
626.379023
 20
-60.475819
 30
420.0
 70
    32
  0
VERTEX
  5
2BC
  8
TEAM-NET1
 10
622.582182
 20
-49.757174
 30
420.0
 70
    32
  0
VERTEX
  5
2BD
  8
TEAM-NET1
 10
622.076784
 20
-48.415558
 30
420.0
 70
    32
  0
VERTEX
  5
2BE
  8
TEAM-NET1
 10
621.82152
 20
-47.744601
 30
420.0
 70
    32
  0
VERTEX
  5
2BF
  8
TEAM-NET1
 10
621.757436
 20
-47.576847
 30
420.0
 70
    32
  0
VERTEX
  5
2C0
  8
TEAM-NET1
 10
621.693283
 20
-47.409181
 30
420.0
 70
    32
  0
VERTEX
  5
2C1
  8
TEAM-NET1
 10
621.568326
 20
-47.083389
 30
420.0
 70
    32
  0
VERTEX
  5
2C2
  8
TEAM-NET1
 10
620.554628
 20
-44.47747
 30
420.0
 70
    32
  0
VERTEX
  5
2C3
  8
TEAM-NET1
 10
618.45233
 20
-39.267882
 30
420.0
 70
    32
  0
VERTEX
  5
2C4
  8
TEAM-NET1
 10
613.948129
 20
-28.857707
 30
420.0
 70
    32
  0
VERTEX
  5
2C5
  8
TEAM-NET1
 10
612.759662
 20
-26.257038
 30
420.0
 70
    32
  0
VERTEX
  5
2C6
  8
TEAM-NET1
 10
612.166167
 20
-24.978632
 30
420.0
 70
    32
  0
VERTEX
  5
2C7
  8
TEAM-NET1
 10
611.569745
 20
-23.707015
 30
420.0
 70
    32
  0
VERTEX
  5
2C8
  8
TEAM-NET1
 10
609.126391
 20
-18.62694
 30
420.0
 70
    32
  0
VERTEX
  5
2C9
  8
TEAM-NET1
 10
603.962875
 20
-8.497473
 30
420.0
 70
    32
  0
VERTEX
  5
2CA
  8
TEAM-NET1
 10
602.614327
 20
-5.971499
 30
420.0
 70
    32
  0
VERTEX
  5
2CB
  8
TEAM-NET1
 10
602.273586
 20
-5.340405
 30
420.0
 70
    32
  0
VERTEX
  5
2CC
  8
TEAM-NET1
 10
602.103339
 20
-5.026142
 30
420.0
 70
    32
  0
VERTEX
  5
2CD
  8
TEAM-NET1
 10
601.935251
 20
-4.71655
 30
420.0
 70
    32
  0
VERTEX
  5
2CE
  8
TEAM-NET1
 10
601.259457
 20
-3.47864
 30
420.0
 70
    32
  0
VERTEX
  5
2CF
  8
TEAM-NET1
 10
598.501202
 20
1.465736
 30
420.0
 70
    32
  0
VERTEX
  5
2D0
  8
TEAM-NET1
 10
592.720306
 20
11.319612
 30
420.0
 70
    32
  0
VERTEX
  5
2D1
  8
TEAM-NET1
 10
591.220001
 20
13.775814
 30
420.0
 70
    32
  0
VERTEX
  5
2D2
  8
TEAM-NET1
 10
590.461587
 20
15.002826
 30
420.0
 70
    32
  0
VERTEX
  5
2D3
  8
TEAM-NET1
 10
590.27281
 20
15.306751
 30
420.0
 70
    32
  0
VERTEX
  5
2D4
  8
TEAM-NET1
 10
590.087486
 20
15.604547
 30
420.0
 70
    32
  0
VERTEX
  5
2D5
  8
TEAM-NET1
 10
589.715895
 20
16.19996
 30
420.0
 70
    32
  0
VERTEX
  5
2D6
  8
TEAM-NET1
 10
586.697927
 20
20.954754
 30
420.0
 70
    32
  0
VERTEX
  5
2D7
  8
TEAM-NET1
 10
580.420696
 20
30.418916
 30
420.0
 70
    32
  0
VERTEX
  5
2D8
  8
TEAM-NET1
 10
578.801119
 20
32.775493
 30
420.0
 70
    32
  0
VERTEX
  5
2D9
  8
TEAM-NET1
 10
577.98379
 20
33.952361
 30
420.0
 70
    32
  0
VERTEX
  5
2DA
  8
TEAM-NET1
 10
577.57324
 20
34.540441
 30
420.0
 70
    32
  0
VERTEX
  5
2DB
  8
TEAM-NET1
 10
577.369694
 20
34.831252
 30
420.0
 70
    32
  0
VERTEX
  5
2DC
  8
TEAM-NET1
 10
577.16904
 20
35.117445
 30
420.0
 70
    32
  0
VERTEX
  5
2DD
  8
TEAM-NET1
 10
573.919891
 20
39.686265
 30
420.0
 70
    32
  0
VERTEX
  5
2DE
  8
TEAM-NET1
 10
567.20313
 20
48.76594
 30
420.0
 70
    32
  0
VERTEX
  5
2DF
  8
TEAM-NET1
 10
563.735518
 20
53.276795
 30
420.0
 70
    32
  0
VERTEX
  5
2E0
  8
TEAM-NET1
 10
563.303615
 20
53.830754
 30
420.0
 70
    32
  0
VERTEX
  5
2E1
  8
TEAM-NET1
 10
562.872854
 20
54.381556
 30
420.0
 70
    32
  0
VERTEX
  5
2E2
  8
TEAM-NET1
 10
562.008275
 20
55.482009
 30
420.0
 70
    32
  0
VERTEX
  5
2E3
  8
TEAM-NET1
 10
560.266899
 20
57.678318
 30
420.0
 70
    32
  0
VERTEX
  5
2E4
  8
TEAM-NET1
 10
553.138453
 20
66.402261
 30
420.0
 70
    32
  0
VERTEX
  5
2E5
  8
TEAM-NET1
 10
549.476466
 20
70.727455
 30
420.0
 70
    32
  0
VERTEX
  5
2E6
  8
TEAM-NET1
 10
549.014135
 20
71.26638
 30
420.0
 70
    32
  0
VERTEX
  5
2E7
  8
TEAM-NET1
 10
548.5632
 20
71.790516
 30
420.0
 70
    32
  0
VERTEX
  5
2E8
  8
TEAM-NET1
 10
547.664168
 20
72.831111
 30
420.0
 70
    32
  0
VERTEX
  5
2E9
  8
TEAM-NET1
 10
545.853189
 20
74.909835
 30
420.0
 70
    32
  0
VERTEX
  5
2EA
  8
TEAM-NET1
 10
538.437076
 20
83.191878
 30
420.0
 70
    32
  0
VERTEX
  5
2EB
  8
TEAM-NET1
 10
522.778299
 20
99.598257
 30
420.0
 70
    32
  0
VERTEX
  5
2EC
  8
TEAM-NET1
 10
518.691407
 20
103.666997
 30
420.0
 70
    32
  0
VERTEX
  5
2ED
  8
TEAM-NET1
 10
517.658921
 20
104.682128
 30
420.0
 70
    32
  0
VERTEX
  5
2EE
  8
TEAM-NET1
 10
517.141064
 20
105.189386
 30
420.0
 70
    32
  0
VERTEX
  5
2EF
  8
TEAM-NET1
 10
516.891042
 20
105.43384
 30
420.0
 70
    32
  0
VERTEX
  5
2F0
  8
TEAM-NET1
 10
516.64301
 20
105.676061
 30
420.0
 70
    32
  0
VERTEX
  5
2F1
  8
TEAM-NET1
 10
514.650453
 20
107.611625
 30
420.0
 70
    32
  0
VERTEX
  5
2F2
  8
TEAM-NET1
 10
506.532648
 20
115.314679
 30
420.0
 70
    32
  0
VERTEX
  5
2F3
  8
TEAM-NET1
 10
489.588668
 20
130.53263
 30
420.0
 70
    32
  0
VERTEX
  5
2F4
  8
TEAM-NET1
 10
485.205096
 20
134.297918
 30
420.0
 70
    32
  0
VERTEX
  5
2F5
  8
TEAM-NET1
 10
482.991174
 20
136.174682
 30
420.0
 70
    32
  0
VERTEX
  5
2F6
  8
TEAM-NET1
 10
482.713396
 20
136.409002
 30
420.0
 70
    32
  0
VERTEX
  5
2F7
  8
TEAM-NET1
 10
482.57442
 20
136.526139
 30
420.0
 70
    32
  0
VERTEX
  5
2F8
  8
TEAM-NET1
 10
482.504911
 20
136.584702
 30
420.0
 70
    32
  0
VERTEX
  5
2F9
  8
TEAM-NET1
 10
482.43548
 20
136.643182
 30
420.0
 70
    32
  0
VERTEX
  5
2FA
  8
TEAM-NET1
 10
481.90734
 20
137.087507
 30
420.0
 70
    32
  0
VERTEX
  5
2FB
  8
TEAM-NET1
 10
480.848769
 20
137.975328
 30
420.0
 70
    32
  0
VERTEX
  5
2FC
  8
TEAM-NET1
 10
472.270179
 20
145.038157
 30
420.0
 70
    32
  0
VERTEX
  5
2FD
  8
TEAM-NET1
 10
454.526243
 20
158.951849
 30
420.0
 70
    32
  0
VERTEX
  5
2FE
  8
TEAM-NET1
 10
445.360895
 20
165.802713
 30
420.0
 70
    32
  0
VERTEX
  5
2FF
  8
TEAM-NET1
 10
440.704877
 20
169.201648
 30
420.0
 70
    32
  0
VERTEX
  5
300
  8
TEAM-NET1
 10
440.558588
 20
169.307581
 30
420.0
 70
    32
  0
VERTEX
  5
301
  8
TEAM-NET1
 10
440.417111
 20
169.40998
 30
420.0
 70
    32
  0
VERTEX
  5
302
  8
TEAM-NET1
 10
440.137188
 20
169.612441
 30
420.0
 70
    32
  0
VERTEX
  5
303
  8
TEAM-NET1
 10
439.576822
 20
170.01717
 30
420.0
 70
    32
  0
VERTEX
  5
304
  8
TEAM-NET1
 10
438.454009
 20
170.82586
 30
420.0
 70
    32
  0
VERTEX
  5
305
  8
TEAM-NET1
 10
436.200067
 20
172.44016
 30
420.0
 70
    32
  0
VERTEX
  5
306
  8
TEAM-NET1
 10
417.769241
 20
185.206784
 30
420.0
 70
    32
  0
VERTEX
  5
307
  8
TEAM-NET1
 10
408.287638
 20
191.491576
 30
420.0
 70
    32
  0
VERTEX
  5
308
  8
TEAM-NET1
 10
407.693329
 20
191.879466
 30
420.0
 70
    32
  0
VERTEX
  5
309
  8
TEAM-NET1
 10
407.114855
 20
192.256352
 30
420.0
 70
    32
  0
VERTEX
  5
30A
  8
TEAM-NET1
 10
405.956124
 20
193.009304
 30
420.0
 70
    32
  0
VERTEX
  5
30B
  8
TEAM-NET1
 10
403.631535
 20
194.511928
 30
420.0
 70
    32
  0
VERTEX
  5
30C
  8
TEAM-NET1
 10
398.953851
 20
197.504059
 30
420.0
 70
    32
  0
VERTEX
  5
30D
  8
TEAM-NET1
 10
379.863037
 20
209.297684
 30
420.0
 70
    32
  0
VERTEX
  5
30E
  8
TEAM-NET1
 10
370.089582
 20
215.089556
 30
420.0
 70
    32
  0
VERTEX
  5
30F
  8
TEAM-NET1
 10
368.857211
 20
215.808621
 30
420.0
 70
    32
  0
VERTEX
  5
310
  8
TEAM-NET1
 10
368.548747
 20
215.988217
 30
420.0
 70
    32
  0
VERTEX
  5
311
  8
TEAM-NET1
 10
368.245903
 20
216.164389
 30
420.0
 70
    32
  0
VERTEX
  5
312
  8
TEAM-NET1
 10
367.647357
 20
216.512142
 30
420.0
 70
    32
  0
VERTEX
  5
313
  8
TEAM-NET1
 10
365.24783
 20
217.900439
 30
420.0
 70
    32
  0
VERTEX
  5
314
  8
TEAM-NET1
 10
360.423144
 20
220.664005
 30
420.0
 70
    32
  0
VERTEX
  5
315
  8
TEAM-NET1
 10
340.782623
 20
231.544556
 30
420.0
 70
    32
  0
VERTEX
  5
316
  8
TEAM-NET1
 10
330.757296
 20
236.880603
 30
420.0
 70
    32
  0
VERTEX
  5
317
  8
TEAM-NET1
 10
328.229603
 20
238.203758
 30
420.0
 70
    32
  0
VERTEX
  5
318
  8
TEAM-NET1
 10
327.91304
 20
238.368847
 30
420.0
 70
    32
  0
VERTEX
  5
319
  8
TEAM-NET1
 10
327.603164
 20
238.530316
 30
420.0
 70
    32
  0
VERTEX
  5
31A
  8
TEAM-NET1
 10
326.986372
 20
238.85132
 30
420.0
 70
    32
  0
VERTEX
  5
31B
  8
TEAM-NET1
 10
325.751338
 20
239.492522
 30
420.0
 70
    32
  0
VERTEX
  5
31C
  8
TEAM-NET1
 10
320.791848
 20
242.046593
 30
420.0
 70
    32
  0
VERTEX
  5
31D
  8
TEAM-NET1
 10
300.644248
 20
252.091045
 30
420.0
 70
    32
  0
VERTEX
  5
31E
  8
TEAM-NET1
 10
290.384664
 20
257.010172
 30
420.0
 70
    32
  0
VERTEX
  5
31F
  8
TEAM-NET1
 10
287.800415
 20
258.229214
 30
420.0
 70
    32
  0
VERTEX
  5
320
  8
TEAM-NET1
 10
286.505388
 20
258.837124
 30
420.0
 70
    32
  0
VERTEX
  5
321
  8
TEAM-NET1
 10
286.343373
 20
258.913037
 30
420.0
 70
    32
  0
VERTEX
  5
322
  8
TEAM-NET1
 10
286.181354
 20
258.988922
 30
420.0
 70
    32
  0
VERTEX
  5
323
  8
TEAM-NET1
 10
285.864929
 20
259.137036
 30
420.0
 70
    32
  0
VERTEX
  5
324
  8
TEAM-NET1
 10
285.231761
 20
259.43306
 30
420.0
 70
    32
  0
VERTEX
  5
325
  8
TEAM-NET1
 10
280.151089
 20
261.791459
 30
420.0
 70
    32
  0
VERTEX
  5
326
  8
TEAM-NET1
 10
259.555998
 20
271.050981
 30
420.0
 70
    32
  0
VERTEX
  5
327
  8
TEAM-NET1
 10
249.095008
 20
275.576298
 30
420.0
 70
    32
  0
VERTEX
  5
328
  8
TEAM-NET1
 10
243.823652
 20
277.812845
 30
420.0
 70
    32
  0
VERTEX
  5
329
  8
TEAM-NET1
 10
242.528064
 20
278.358123
 30
420.0
 70
    32
  0
VERTEX
  5
32A
  8
TEAM-NET1
 10
241.237607
 20
278.89952
 30
420.0
 70
    32
  0
VERTEX
  5
32B
  8
TEAM-NET1
 10
238.65236
 20
279.978986
 30
420.0
 70
    32
  0
VERTEX
  5
32C
  8
TEAM-NET1
 10
217.762457
 20
288.454912
 30
420.0
 70
    32
  0
VERTEX
  5
32D
  8
TEAM-NET1
 10
207.178888
 20
292.586344
 30
420.0
 70
    32
  0
VERTEX
  5
32E
  8
TEAM-NET1
 10
201.852449
 20
294.625427
 30
420.0
 70
    32
  0
VERTEX
  5
32F
  8
TEAM-NET1
 10
200.517229
 20
295.132424
 30
420.0
 70
    32
  0
VERTEX
  5
330
  8
TEAM-NET1
 10
199.856654
 20
295.382639
 30
420.0
 70
    32
  0
VERTEX
  5
331
  8
TEAM-NET1
 10
199.19907
 20
295.631318
 30
420.0
 70
    32
  0
VERTEX
  5
332
  8
TEAM-NET1
 10
196.566551
 20
296.622845
 30
420.0
 70
    32
  0
VERTEX
  5
333
  8
TEAM-NET1
 10
175.38053
 20
304.371431
 30
420.0
 70
    32
  0
VERTEX
  5
334
  8
TEAM-NET1
 10
164.703606
 20
308.1233
 30
420.0
 70
    32
  0
VERTEX
  5
335
  8
TEAM-NET1
 10
159.344166
 20
309.968629
 30
420.0
 70
    32
  0
VERTEX
  5
336
  8
TEAM-NET1
 10
156.659202
 20
310.883642
 30
420.0
 70
    32
  0
VERTEX
  5
337
  8
TEAM-NET1
 10
155.323744
 20
311.336413
 30
420.0
 70
    32
  0
VERTEX
  5
338
  8
TEAM-NET1
 10
153.988535
 20
311.787546
 30
420.0
 70
    32
  0
VERTEX
  5
339
  8
TEAM-NET1
 10
132.534959
 20
318.825026
 30
420.0
 70
    32
  0
VERTEX
  5
33A
  8
TEAM-NET1
 10
121.744473
 20
322.21625
 30
420.0
 70
    32
  0
VERTEX
  5
33B
  8
TEAM-NET1
 10
116.333306
 20
323.879984
 30
420.0
 70
    32
  0
VERTEX
  5
33C
  8
TEAM-NET1
 10
110.914864
 20
325.52146
 30
420.0
 70
    32
  0
VERTEX
  5
33D
  8
TEAM-NET1
 10
67.349478
 20
337.842757
 30
420.0
 70
    32
  0
SEQEND
  5
33E
  8
TEAM-NET1
  0
LINE
  5
33F
  8
TEAM-NET1
 10
67.349478
 20
337.842757
 30
420.0
 11
550.023434
 21
337.842757
 31
420.0
1001
ACAD
1000
R13OBJECT
1002
{
1005
167
1002
}
  0
ARC
  5
340
  8
TEAM-NET1
 10
-538.327902
 20
247.006117
 30
-420.0
 40
91.586465
210
0.0
220
0.0
230
-1.0
 50
97.336666
 51
183.356158
1001
ACAD
1000
R13OBJECT
1002
{
1005
167
1002
}
  0
LINE
  5
341
  8
TEAM-NET1
 10
629.757288
 20
241.644416
 30
420.0
 11
629.757288
 21
-71.234972
 31
420.0
1001
ACAD
1000
R13OBJECT
1002
{
1005
167
1002
}
  0
LINE
  5
342
  8
TEAM-AXE
 10
-85.393567
 20
-335.330446
 30
545.999016
 11
-82.192285
 21
-324.65875
 31
494.000613
  0
POLYLINE
  5
343
  8
TEAM-DET1
 66
     1
 10
0.0
 20
0.0
 30
0.0
 70
     8
  0
VERTEX
  5
344
  8
TEAM-DET1
 10
-108.835211
 20
-322.804841
 30
520.082161
 70
    32
  0
VERTEX
  5
345
  8
TEAM-DET1
 10
-106.343715
 20
-321.407292
 30
510.221148
 70
    32
  0
VERTEX
  5
346
  8
TEAM-DET1
 10
-100.473783
 20
-321.287645
 30
501.804436
 70
    32
  0
VERTEX
  5
347
  8
TEAM-DET1
 10
-92.029827
 20
-322.428085
 30
496.088801
 70
    32
  0
VERTEX
  5
348
  8
TEAM-DET1
 10
-82.230154
 20
-324.648642
 30
494.000911
 70
    32
  0
VERTEX
  5
349
  8
TEAM-DET1
 10
-72.592161
 20
-327.629483
 30
495.944944
 70
    32
  0
VERTEX
  5
34A
  8
TEAM-DET1
 10
-64.702345
 20
-330.936857
 30
501.631831
 70
    32
  0
VERTEX
  5
34B
  8
TEAM-DET1
 10
-59.820363
 20
-334.091766
 30
510.094434
 70
    32
  0
VERTEX
  5
34C
  8
TEAM-DET1
 10
-58.620789
 20
-336.65484
 30
520.0
 70
    32
  0
SEQEND
  5
34E
  8
TEAM-DET1
  0
POLYLINE
  5
34F
  8
TEAM-NET1
 66
     1
 10
0.0
 20
0.0
 30
0.0
 70
     8
1001
ACAD
1000
R13OBJECT
1002
{
1005
167
1002
}
  0
VERTEX
  5
350
  8
TEAM-NET1
 10
-108.835211
 20
-322.804841
 30
520.082161
 70
    32
  0
VERTEX
  5
351
  8
TEAM-NET1
 10
-108.556875
 20
-322.3415
 30
517.559826
 70
    32
  0
VERTEX
  5
352
  8
TEAM-NET1
 10
-108.331029
 20
-322.138282
 30
516.311015
 70
    32
  0
VERTEX
  5
353
  8
TEAM-NET1
 10
-108.196581
 20
-322.043708
 30
515.689699
 70
    32
  0
VERTEX
  5
354
  8
TEAM-NET1
 10
-108.123994
 20
-321.99817
 30
515.379813
 70
    32
  0
VERTEX
  5
355
  8
TEAM-NET1
 10
-108.047838
 20
-321.953795
 30
515.070443
 70
    32
  0
VERTEX
  5
356
  8
TEAM-NET1
 10
-106.343715
 20
-321.407292
 30
510.221148
 70
    32
  0
VERTEX
  5
357
  8
TEAM-NET1
 10
-103.792326
 20
-321.18486
 30
505.749828
 70
    32
  0
VERTEX
  5
358
  8
TEAM-NET1
 10
-100.473783
 20
-321.287645
 30
501.804436
 70
    32
  0
VERTEX
  5
359
  8
TEAM-NET1
 10
-98.560132
 20
-321.459246
 30
500.076155
 70
    32
  0
VERTEX
  5
35A
  8
TEAM-NET1
 10
-97.54735
 20
-321.574461
 30
499.282022
 70
    32
  0
VERTEX
  5
35B
  8
TEAM-NET1
 10
-97.026759
 20
-321.639439
 30
498.902458
 70
    32
  0
VERTEX
  5
35C
  8
TEAM-NET1
 10
-96.496621
 20
-321.709335
 30
498.534561
 70
    32
  0
VERTEX
  5
35D
  8
TEAM-NET1
 10
-92.029827
 20
-322.428085
 30
496.088801
 70
    32
  0
VERTEX
  5
35E
  8
TEAM-NET1
 10
-89.646364
 20
-322.893323
 30
495.198892
 70
    32
  0
VERTEX
  5
35F
  8
TEAM-NET1
 10
-88.426475
 20
-323.150887
 30
494.842795
 70
    32
  0
VERTEX
  5
360
  8
TEAM-NET1
 10
-87.193675
 20
-323.423955
 30
494.548264
 70
    32
  0
VERTEX
  5
361
  8
TEAM-NET1
 10
-84.718133
 20
-324.00983
 30
494.148538
 70
    32
  0
VERTEX
  5
362
  8
TEAM-NET1
 10
-83.475965
 20
-324.322526
 30
494.043213
 70
    32
  0
VERTEX
  5
363
  8
TEAM-NET1
 10
-82.853546
 20
-324.483896
 30
494.014184
 70
    32
  0
VERTEX
  5
364
  8
TEAM-NET1
 10
-82.230154
 20
-324.648642
 30
494.000911
 70
    32
  0
VERTEX
  5
365
  8
TEAM-NET1
 10
-77.282864
 20
-326.070936
 30
494.470542
 70
    32
  0
VERTEX
  5
366
  8
TEAM-NET1
 10
-74.893465
 20
-326.836457
 30
495.084717
 70
    32
  0
VERTEX
  5
367
  8
TEAM-NET1
 10
-72.592161
 20
-327.629483
 30
495.944944
 70
    32
  0
VERTEX
  5
368
  8
TEAM-NET1
 10
-70.404074
 20
-328.441926
 30
497.039704
 70
    32
  0
VERTEX
  5
369
  8
TEAM-NET1
 10
-68.346399
 20
-329.268703
 30
498.361409
 70
    32
  0
VERTEX
  5
36A
  8
TEAM-NET1
 10
-66.440677
 20
-330.102042
 30
499.895327
 70
    32
  0
VERTEX
  5
36B
  8
TEAM-NET1
 10
-65.550382
 20
-330.519256
 30
500.738256
 70
    32
  0
VERTEX
  5
36C
  8
TEAM-NET1
 10
-65.121052
 20
-330.728008
 30
501.178713
 70
    32
  0
VERTEX
  5
36D
  8
TEAM-NET1
 10
-64.910367
 20
-330.83242
 30
501.403689
 70
    32
  0
VERTEX
  5
36E
  8
TEAM-NET1
 10
-64.702345
 20
-330.936857
 30
501.631831
 70
    32
  0
VERTEX
  5
36F
  8
TEAM-NET1
 10
-63.171377
 20
-331.753395
 30
503.524227
 70
    32
  0
VERTEX
  5
370
  8
TEAM-NET1
 10
-62.478535
 20
-332.157454
 30
504.533662
 70
    32
  0
VERTEX
  5
371
  8
TEAM-NET1
 10
-62.150524
 20
-332.358408
 30
505.054189
 70
    32
  0
VERTEX
  5
372
  8
TEAM-NET1
 10
-61.991154
 20
-332.458612
 30
505.318404
 70
    32
  0
VERTEX
  5
373
  8
TEAM-NET1
 10
-61.834888
 20
-332.558633
 30
505.585255
 70
    32
  0
VERTEX
  5
374
  8
TEAM-NET1
 10
-60.718234
 20
-333.337464
 30
507.773652
 70
    32
  0
VERTEX
  5
375
  8
TEAM-NET1
 10
-60.241617
 20
-333.717742
 30
508.917495
 70
    32
  0
VERTEX
  5
376
  8
TEAM-NET1
 10
-60.024026
 20
-333.905544
 30
509.501827
 70
    32
  0
VERTEX
  5
377
  8
TEAM-NET1
 10
-59.920448
 20
-333.998854
 30
509.797096
 70
    32
  0
VERTEX
  5
378
  8
TEAM-NET1
 10
-59.820363
 20
-334.091766
 30
510.094434
 70
    32
  0
VERTEX
  5
379
  8
TEAM-NET1
 10
-59.164386
 20
-334.79998
 30
512.477268
 70
    32
  0
VERTEX
  5
37A
  8
TEAM-NET1
 10
-58.923428
 20
-335.139992
 30
513.70178
 70
    32
  0
VERTEX
  5
37B
  8
TEAM-NET1
 10
-58.824989
 20
-335.306402
 30
514.322309
 70
    32
  0
VERTEX
  5
37C
  8
TEAM-NET1
 10
-58.781316
 20
-335.388697
 30
514.634642
 70
    32
  0
VERTEX
  5
37D
  8
TEAM-NET1
 10
-58.741354
 20
-335.470382
 30
514.948354
 70
    32
  0
VERTEX
  5
37E
  8
TEAM-NET1
 10
-58.620789
 20
-336.65484
 30
520.0
 70
    32
  0
SEQEND
  5
37F
  8
TEAM-NET1
  0
POLYLINE
  5
380
  8
TEAM-DET1
 66
     1
 10
0.0
 20
0.0
 30
0.0
 70
     8
  0
VERTEX
  5
381
  8
TEAM-DET1
 10
-58.620789
 20
-336.65484
 30
520.0
 70
    32
  0
VERTEX
  5
382
  8
TEAM-DET1
 10
-61.194456
 20
-338.240564
 30
529.820836
 70
    32
  0
VERTEX
  5
383
  8
TEAM-DET1
 10
-67.126156
 20
-338.594401
 30
538.195735
 70
    32
  0
VERTEX
  5
384
  8
TEAM-DET1
 10
-75.594426
 20
-337.597068
 30
543.901414
 70
    32
  0
VERTEX
  5
385
  8
TEAM-DET1
 10
-85.374191
 20
-335.335906
 30
545.998833
 70
    32
  0
VERTEX
  5
386
  8
TEAM-DET1
 10
-94.93452
 20
-332.15624
 30
544.07068
 70
    32
  0
VERTEX
  5
387
  8
TEAM-DET1
 10
-102.73949
 20
-328.612875
 30
538.41068
 70
    32
  0
VERTEX
  5
388
  8
TEAM-DET1
 10
-107.594044
 20
-325.321154
 30
529.964706
 70
    32
  0
VERTEX
  5
389
  8
TEAM-DET1
 10
-108.835211
 20
-322.804841
 30
520.082161
 70
    32
  0
SEQEND
  5
38A
  8
TEAM-DET1
  0
POLYLINE
  5
38B
  8
TEAM-NET1
 66
     1
 10
0.0
 20
0.0
 30
0.0
 70
     8
1001
ACAD
1000
R13OBJECT
1002
{
1005
167
1002
}
  0
VERTEX
  5
38C
  8
TEAM-NET1
 10
-58.620789
 20
-336.65484
 30
520.0
 70
    32
  0
VERTEX
  5
38D
  8
TEAM-NET1
 10
-58.917775
 20
-337.15269
 30
522.507373
 70
    32
  0
VERTEX
  5
38E
  8
TEAM-NET1
 10
-59.154563
 20
-337.377911
 30
523.756025
 70
    32
  0
VERTEX
  5
38F
  8
TEAM-NET1
 10
-59.45066
 20
-337.587091
 30
525.00132
 70
    32
  0
VERTEX
  5
390
  8
TEAM-NET1
 10
-60.210951
 20
-337.950873
 30
527.444466
 70
    32
  0
VERTEX
  5
391
  8
TEAM-NET1
 10
-60.674758
 20
-338.10505
 30
528.640998
 70
    32
  0
VERTEX
  5
392
  8
TEAM-NET1
 10
-61.194456
 20
-338.240564
 30
529.820836
 70
    32
  0
VERTEX
  5
393
  8
TEAM-NET1
 10
-62.385039
 20
-338.451769
 30
532.097083
 70
    32
  0
VERTEX
  5
394
  8
TEAM-NET1
 10
-63.054624
 20
-338.527177
 30
533.191799
 70
    32
  0
VERTEX
  5
395
  8
TEAM-NET1
 10
-63.407916
 20
-338.557299
 30
533.728305
 70
    32
  0
VERTEX
  5
396
  8
TEAM-NET1
 10
-63.589178
 20
-338.57046
 30
533.993846
 70
    32
  0
VERTEX
  5
397
  8
TEAM-NET1
 10
-63.773514
 20
-338.582354
 30
534.257578
 70
    32
  0
VERTEX
  5
398
  8
TEAM-NET1
 10
-65.365377
 20
-338.630992
 30
536.307132
 70
    32
  0
VERTEX
  5
399
  8
TEAM-NET1
 10
-66.224848
 20
-338.62335
 30
537.271552
 70
    32
  0
VERTEX
  5
39A
  8
TEAM-NET1
 10
-67.126156
 20
-338.594401
 30
538.195735
 70
    32
  0
VERTEX
  5
39B
  8
TEAM-NET1
 10
-69.046072
 20
-338.472539
 30
539.915376
 70
    32
  0
VERTEX
  5
39C
  8
TEAM-NET1
 10
-70.055339
 20
-338.380009
 30
540.7023
 70
    32
  0
VERTEX
  5
39D
  8
TEAM-NET1
 10
-70.572063
 20
-338.325876
 30
541.077538
 70
    32
  0
VERTEX
  5
39E
  8
TEAM-NET1
 10
-70.833419
 20
-338.296847
 30
541.260601
 70
    32
  0
VERTEX
  5
39F
  8
TEAM-NET1
 10
-71.09676
 20
-338.26651
 30
541.440627
 70
    32
  0
VERTEX
  5
3A0
  8
TEAM-NET1
 10
-73.299292
 20
-337.97267
 30
542.783317
 70
    32
  0
VERTEX
  5
3A1
  8
TEAM-NET1
 10
-74.435596
 20
-337.79502
 30
543.37044
 70
    32
  0
VERTEX
  5
3A2
  8
TEAM-NET1
 10
-75.012233
 20
-337.698573
 30
543.642945
 70
    32
  0
VERTEX
  5
3A3
  8
TEAM-NET1
 10
-75.594426
 20
-337.597068
 30
543.901414
 70
    32
  0
VERTEX
  5
3A4
  8
TEAM-NET1
 10
-77.974534
 20
-337.140942
 30
544.792197
 70
    32
  0
VERTEX
  5
3A5
  8
TEAM-NET1
 10
-79.183545
 20
-336.884984
 30
545.146882
 70
    32
  0
VERTEX
  5
3A6
  8
TEAM-NET1
 10
-79.792523
 20
-336.750109
 30
545.301548
 70
    32
  0
VERTEX
  5
3A7
  8
TEAM-NET1
 10
-80.404387
 20
-336.610666
 30
545.441097
 70
    32
  0
VERTEX
  5
3A8
  8
TEAM-NET1
 10
-82.886463
 20
-336.005416
 30
545.847164
 70
    32
  0
VERTEX
  5
3A9
  8
TEAM-NET1
 10
-84.129877
 20
-335.678594
 30
545.954798
 70
    32
  0
VERTEX
  5
3AA
  8
TEAM-NET1
 10
-85.374191
 20
-335.335906
 30
545.998833
 70
    32
  0
VERTEX
  5
3AB
  8
TEAM-NET1
 10
-87.853763
 20
-334.606286
 30
545.895108
 70
    32
  0
VERTEX
  5
3AC
  8
TEAM-NET1
 10
-89.078468
 20
-334.222445
 30
545.747028
 70
    32
  0
VERTEX
  5
3AD
  8
TEAM-NET1
 10
-90.292658
 20
-333.826166
 30
545.534804
 70
    32
  0
VERTEX
  5
3AE
  8
TEAM-NET1
 10
-92.657013
 20
-333.007752
 30
544.925519
 70
    32
  0
VERTEX
  5
3AF
  8
TEAM-NET1
 10
-93.806683
 20
-332.58606
 30
544.528794
 70
    32
  0
VERTEX
  5
3B0
  8
TEAM-NET1
 10
-94.93452
 20
-332.15624
 30
544.07068
 70
    32
  0
VERTEX
  5
3B1
  8
TEAM-NET1
 10
-97.109987
 20
-331.278168
 30
542.975753
 70
    32
  0
VERTEX
  5
3B2
  8
TEAM-NET1
 10
-98.147774
 20
-330.833942
 30
542.343062
 70
    32
  0
VERTEX
  5
3B3
  8
TEAM-NET1
 10
-98.654233
 20
-330.610571
 30
542.00541
 70
    32
  0
VERTEX
  5
3B4
  8
TEAM-NET1
 10
-99.152429
 20
-330.386371
 30
541.653553
 70
    32
  0
VERTEX
  5
3B5
  8
TEAM-NET1
 10
-101.031766
 20
-329.496093
 30
540.128671
 70
    32
  0
VERTEX
  5
3B6
  8
TEAM-NET1
 10
-101.906907
 20
-329.053598
 30
539.293814
 70
    32
  0
VERTEX
  5
3B7
  8
TEAM-NET1
 10
-102.73949
 20
-328.612875
 30
538.41068
 70
    32
  0
VERTEX
  5
3B8
  8
TEAM-NET1
 10
-104.266505
 20
-327.742846
 30
536.511392
 70
    32
  0
VERTEX
  5
3B9
  8
TEAM-NET1
 10
-104.953213
 20
-327.318039
 30
535.504475
 70
    32
  0
VERTEX
  5
3BA
  8
TEAM-NET1
 10
-105.277589
 20
-327.108159
 30
534.986698
 70
    32
  0
VERTEX
  5
3BB
  8
TEAM-NET1
 10
-105.589402
 20
-326.899946
 30
534.459375
 70
    32
  0
VERTEX
  5
3BC
  8
TEAM-NET1
 10
-106.704617
 20
-326.088129
 30
532.265065
 70
    32
  0
VERTEX
  5
3BD
  8
TEAM-NET1
 10
-107.177259
 20
-325.699103
 30
531.128142
 70
    32
  0
VERTEX
  5
3BE
  8
TEAM-NET1
 10
-107.594044
 20
-325.321154
 30
529.964706
 70
    32
  0
VERTEX
  5
3BF
  8
TEAM-NET1
 10
-108.2561
 20
-324.603281
 30
527.574364
 70
    32
  0
VERTEX
  5
3C0
  8
TEAM-NET1
 10
-108.498851
 20
-324.266364
 30
526.357711
 70
    32
  0
VERTEX
  5
3C1
  8
TEAM-NET1
 10
-108.598407
 20
-324.103336
 30
525.744015
 70
    32
  0
VERTEX
  5
3C2
  8
TEAM-NET1
 10
-108.642762
 20
-324.023169
 30
525.435824
 70
    32
  0
VERTEX
  5
3C3
  8
TEAM-NET1
 10
-108.683513
 20
-323.943897
 30
525.126738
 70
    32
  0
VERTEX
  5
3C4
  8
TEAM-NET1
 10
-108.878811
 20
-323.339606
 30
522.609908
 70
    32
  0
VERTEX
  5
3C5
  8
TEAM-NET1
 10
-108.835211
 20
-322.804841
 30
520.082161
 70
    32
  0
SEQEND
  5
3C6
  8
TEAM-NET1
  0
LINE
  5
3C7
  8
TEAM-AXE
 10
-108.835211
 20
-322.804841
 30
520.082161
 11
-58.620789
 21
-336.65484
 31
520.0
  0
ARC
  5
3C8
  8
TEAM-BODY
 10
-859.757288
 20
480.034103
 30
600.0
 40
30.0
 50
90.0
 51
180.997805
  0
ARC
  5
3C9
  8
TEAM-BODY
 10
-859.757288
 20
480.034103
 30
570.0
 40
30.0
 50
90.0
 51
180.0
  0
POLYLINE
  5
3CA
  8
TEAM-BODY
 66
     1
 10
0.0
 20
0.0
 30
570.0
 70
   128
  0
VERTEX
  5
14E4
  8
TEAM-BODY
 10
-889.752739
 20
479.51168
 30
570.0
  0
VERTEX
  5
14E5
  8
TEAM-BODY
 10
-887.924624
 20
408.758443
 30
570.0
  0
VERTEX
  5
14E6
  8
TEAM-BODY
 10
-883.868396
 20
338.165923
 30
570.0
  0
VERTEX
  5
14E7
  8
TEAM-BODY
 10
-876.027123
 20
267.846422
 30
570.0
  0
VERTEX
  5
14E8
  8
TEAM-BODY
 10
-862.892069
 20
197.944458
 30
570.0
  0
VERTEX
  5
14E9
  8
TEAM-BODY
 10
-854.066966
 20
163.328254
 30
570.0
  0
VERTEX
  5
14EA
  8
TEAM-BODY
 10
-843.707538
 20
129.107804
 30
570.0
  0
VERTEX
  5
14EB
  8
TEAM-BODY
 10
-831.795915
 20
95.415268
 30
570.0
  0
VERTEX
  5
14EC
  8
TEAM-BODY
 10
-818.314226
 20
62.382804
 30
570.0
  0
VERTEX
  5
14ED
  8
TEAM-BODY
 10
-803.244601
 20
30.142568
 30
570.0
  0
VERTEX
  5
14EE
  8
TEAM-BODY
 10
-786.569168
 20
-1.173281
 30
570.0
  0
VERTEX
  5
14EF
  8
TEAM-BODY
 10
-768.270057
 20
-31.432584
 30
570.0
  0
VERTEX
  5
14F0
  8
TEAM-BODY
 10
-748.333554
 20
-60.508926
 30
570.0
  0
VERTEX
  5
14F1
  8
TEAM-BODY
 10
-726.810571
 20
-88.365167
 30
570.0
  0
VERTEX
  5
14F2
  8
TEAM-BODY
 10
-703.80305
 20
-115.034661
 30
570.0
  0
VERTEX
  5
14F3
  8
TEAM-BODY
 10
-679.414324
 20
-140.552682
 30
570.0
  0
VERTEX
  5
14F4
  8
TEAM-BODY
 10
-653.747723
 20
-164.954502
 30
570.0
  0
VERTEX
  5
14F5
  8
TEAM-BODY
 10
-598.994226
 20
-210.550632
 30
570.0
  0
VERTEX
  5
14F6
  8
TEAM-BODY
 10
-540.369212
 20
-252.105236
 30
570.0
  0
VERTEX
  5
14F7
  8
TEAM-BODY
 10
-478.699333
 20
-289.900497
 30
570.0
  0
VERTEX
  5
14F8
  8
TEAM-BODY
 10
-414.811242
 20
-324.2186
 30
570.0
  0
VERTEX
  5
14F9
  8
TEAM-BODY
 10
-349.531405
 20
-355.34169
 30
570.0
  0
VERTEX
  5
14FA
  8
TEAM-BODY
 10
-283.504909
 20
-383.513849
 30
570.0
  0
VERTEX
  5
14FB
  8
TEAM-BODY
 10
-216.856368
 20
-408.869938
 30
570.0
  0
VERTEX
  5
14FC
  8
TEAM-BODY
 10
-149.617622
 20
-431.525351
 30
570.0
  0
VERTEX
  5
14FD
  8
TEAM-BODY
 10
-81.820514
 20
-451.595479
 30
570.0
  0
VERTEX
  5
14FE
  8
TEAM-BODY
 10
-13.496885
 20
-469.195717
 30
570.0
  0
VERTEX
  5
14FF
  8
TEAM-BODY
 10
55.321425
 20
-484.441456
 30
570.0
  0
VERTEX
  5
1500
  8
TEAM-BODY
 10
124.602575
 20
-497.44809
 30
570.0
  0
VERTEX
  5
1501
  8
TEAM-BODY
 10
194.311224
 20
-508.336386
 30
570.0
  0
VERTEX
  5
1502
  8
TEAM-BODY
 10
264.386063
 20
-517.267025
 30
570.0
  0
VERTEX
  5
1503
  8
TEAM-BODY
 10
334.754089
 20
-524.418648
 30
570.0
  0
VERTEX
  5
1504
  8
TEAM-BODY
 10
405.342247
 20
-529.969984
 30
570.0
  0
VERTEX
  5
1505
  8
TEAM-BODY
 10
546.886727
 20
-536.986713
 30
570.0
  0
VERTEX
  5
1506
  8
TEAM-BODY
 10
688.449719
 20
-539.759491
 30
570.0
  0
VERTEX
  5
1507
  8
TEAM-BODY
 10
829.818986
 20
-540.03404
 30
570.0
  0
SEQEND
  5
1508
  8
TEAM-BODY
  0
POLYLINE
  5
3CB
  8
TEAM-BODY
 66
     1
 10
0.0
 20
0.0
 30
600.0
 70
   128
  0
VERTEX
  5
1509
  8
TEAM-BODY
 10
-889.752739
 20
479.51168
 30
600.0
  0
VERTEX
  5
150A
  8
TEAM-BODY
 10
-887.924624
 20
408.758443
 30
600.0
  0
VERTEX
  5
150B
  8
TEAM-BODY
 10
-883.868396
 20
338.165923
 30
600.0
  0
VERTEX
  5
150C
  8
TEAM-BODY
 10
-876.027123
 20
267.846422
 30
600.0
  0
VERTEX
  5
150D
  8
TEAM-BODY
 10
-862.892069
 20
197.944458
 30
600.0
  0
VERTEX
  5
150E
  8
TEAM-BODY
 10
-854.066966
 20
163.328254
 30
600.0
  0
VERTEX
  5
150F
  8
TEAM-BODY
 10
-843.707538
 20
129.107804
 30
600.0
  0
VERTEX
  5
1510
  8
TEAM-BODY
 10
-831.795915
 20
95.415268
 30
600.0
  0
VERTEX
  5
1511
  8
TEAM-BODY
 10
-818.314226
 20
62.382804
 30
600.0
  0
VERTEX
  5
1512
  8
TEAM-BODY
 10
-803.244601
 20
30.142568
 30
600.0
  0
VERTEX
  5
1513
  8
TEAM-BODY
 10
-786.569168
 20
-1.173281
 30
600.0
  0
VERTEX
  5
1514
  8
TEAM-BODY
 10
-768.270057
 20
-31.432584
 30
600.0
  0
VERTEX
  5
1515
  8
TEAM-BODY
 10
-748.333554
 20
-60.508926
 30
600.0
  0
VERTEX
  5
1516
  8
TEAM-BODY
 10
-726.810571
 20
-88.365167
 30
600.0
  0
VERTEX
  5
1517
  8
TEAM-BODY
 10
-703.80305
 20
-115.034661
 30
600.0
  0
VERTEX
  5
1518
  8
TEAM-BODY
 10
-679.414324
 20
-140.552682
 30
600.0
  0
VERTEX
  5
1519
  8
TEAM-BODY
 10
-653.747723
 20
-164.954502
 30
600.0
  0
VERTEX
  5
151A
  8
TEAM-BODY
 10
-598.994226
 20
-210.550632
 30
600.0
  0
VERTEX
  5
151B
  8
TEAM-BODY
 10
-540.369212
 20
-252.105236
 30
600.0
  0
VERTEX
  5
151C
  8
TEAM-BODY
 10
-478.699333
 20
-289.900497
 30
600.0
  0
VERTEX
  5
151D
  8
TEAM-BODY
 10
-414.811242
 20
-324.2186
 30
600.0
  0
VERTEX
  5
151E
  8
TEAM-BODY
 10
-349.531405
 20
-355.34169
 30
600.0
  0
VERTEX
  5
151F
  8
TEAM-BODY
 10
-283.504909
 20
-383.513849
 30
600.0
  0
VERTEX
  5
1520
  8
TEAM-BODY
 10
-216.856368
 20
-408.869938
 30
600.0
  0
VERTEX
  5
1521
  8
TEAM-BODY
 10
-149.617622
 20
-431.525351
 30
600.0
  0
VERTEX
  5
1522
  8
TEAM-BODY
 10
-81.820514
 20
-451.595479
 30
600.0
  0
VERTEX
  5
1523
  8
TEAM-BODY
 10
-13.496885
 20
-469.195717
 30
600.0
  0
VERTEX
  5
1524
  8
TEAM-BODY
 10
55.321425
 20
-484.441456
 30
600.0
  0
VERTEX
  5
1525
  8
TEAM-BODY
 10
124.602575
 20
-497.44809
 30
600.0
  0
VERTEX
  5
1526
  8
TEAM-BODY
 10
194.311224
 20
-508.336386
 30
600.0
  0
VERTEX
  5
1527
  8
TEAM-BODY
 10
264.386063
 20
-517.267025
 30
600.0
  0
VERTEX
  5
1528
  8
TEAM-BODY
 10
334.754089
 20
-524.418648
 30
600.0
  0
VERTEX
  5
1529
  8
TEAM-BODY
 10
405.342247
 20
-529.969984
 30
600.0
  0
VERTEX
  5
152A
  8
TEAM-BODY
 10
546.886727
 20
-536.986713
 30
600.0
  0
VERTEX
  5
152B
  8
TEAM-BODY
 10
688.449719
 20
-539.759491
 30
600.0
  0
VERTEX
  5
152C
  8
TEAM-BODY
 10
829.818986
 20
-540.03404
 30
600.0
  0
SEQEND
  5
152D
  8
TEAM-BODY
  0
POLYLINE
  5
3CC
  8
TEAM-NET1
 66
     1
 10
0.0
 20
0.0
 30
600.0
 70
   128
1001
ACAD
1000
R13OBJECT
1002
{
1005
F437930400000167
1002
}
  0
VERTEX
  5
152E
  8
TEAM-NET1
 10
-889.752739
 20
479.51168
 30
600.0
  0
VERTEX
  5
152F
  8
TEAM-NET1
 10
-885.38682
 20
358.938889
 30
600.0
  0
VERTEX
  5
1530
  8
TEAM-NET1
 10
-880.058593
 20
298.879365
 30
600.0
  0
VERTEX
  5
1531
  8
TEAM-NET1
 10
-871.346454
 20
239.063927
 30
600.0
  0
VERTEX
  5
1532
  8
TEAM-NET1
 10
-863.729471
 20
201.592549
 30
600.0
  0
VERTEX
  5
1533
  8
TEAM-NET1
 10
-854.367063
 20
164.408972
 30
600.0
  0
VERTEX
  5
1534
  8
TEAM-NET1
 10
-843.237124
 20
127.676691
 30
600.0
  0
VERTEX
  5
1535
  8
TEAM-NET1
 10
-830.317544
 20
91.559202
 30
600.0
  0
VERTEX
  5
1536
  8
TEAM-NET1
 10
-815.586216
 20
56.22
 30
600.0
  0
VERTEX
  5
1537
  8
TEAM-NET1
 10
-799.021031
 20
21.822582
 30
600.0
  0
VERTEX
  5
1538
  8
TEAM-NET1
 10
-780.599881
 20
-11.469557
 30
600.0
  0
VERTEX
  5
1539
  8
TEAM-NET1
 10
-760.300657
 20
-43.492922
 30
600.0
  0
VERTEX
  5
153A
  8
TEAM-NET1
 10
-741.878159
 20
-69.204975
 30
600.0
  0
VERTEX
  5
153B
  8
TEAM-NET1
 10
-722.201098
 20
-93.940547
 30
600.0
  0
VERTEX
  5
153C
  8
TEAM-NET1
 10
-679.382502
 20
-140.584386
 30
600.0
  0
VERTEX
  5
153D
  8
TEAM-NET1
 10
-632.443293
 20
-183.628719
 30
600.0
  0
VERTEX
  5
153E
  8
TEAM-NET1
 10
-581.981899
 20
-223.277821
 30
600.0
  0
VERTEX
  5
153F
  8
TEAM-NET1
 10
-528.596746
 20
-259.735971
 30
600.0
  0
VERTEX
  5
1540
  8
TEAM-NET1
 10
-472.886258
 20
-293.207444
 30
600.0
  0
VERTEX
  5
1541
  8
TEAM-NET1
 10
-415.448863
 20
-323.896519
 30
600.0
  0
VERTEX
  5
1542
  8
TEAM-NET1
 10
-356.882986
 20
-352.007472
 30
600.0
  0
VERTEX
  5
1543
  8
TEAM-NET1
 10
-296.6135
 20
-378.169218
 30
600.0
  0
VERTEX
  5
1544
  8
TEAM-NET1
 10
-235.818895
 20
-401.958442
 30
600.0
  0
VERTEX
  5
1545
  8
TEAM-NET1
 10
-174.523497
 20
-423.463306
 30
600.0
  0
VERTEX
  5
1546
  8
TEAM-NET1
 10
-112.751634
 20
-442.771969
 30
600.0
  0
VERTEX
  5
1547
  8
TEAM-NET1
 10
-50.527631
 20
-459.97259
 30
600.0
  0
VERTEX
  5
1548
  8
TEAM-NET1
 10
12.124184
 20
-475.153329
 30
600.0
  0
VERTEX
  5
1549
  8
TEAM-NET1
 10
75.179485
 20
-488.402348
 30
600.0
  0
VERTEX
  5
154A
  8
TEAM-NET1
 10
138.613945
 20
-499.807804
 30
600.0
  0
VERTEX
  5
154B
  8
TEAM-NET1
 10
257.870243
 20
-516.515956
 30
600.0
  0
VERTEX
  5
154C
  8
TEAM-NET1
 10
377.999307
 20
-527.999743
 30
600.0
  0
VERTEX
  5
154D
  8
TEAM-NET1
 10
498.638562
 20
-535.146177
 30
600.0
  0
VERTEX
  5
154E
  8
TEAM-NET1
 10
619.425433
 20
-538.842274
 30
600.0
  0
VERTEX
  5
154F
  8
TEAM-NET1
 10
829.818986
 20
-540.03404
 30
600.0
  0
SEQEND
  5
1550
  8
TEAM-NET1
  0
POLYLINE
  5
3CD
  8
TEAM-NET1
 66
     1
 10
0.0
 20
0.0
 30
570.0
 70
   128
1001
ACAD
1000
R13OBJECT
1002
{
1005
4C00930400000167
1002
}
  0
VERTEX
  5
1551
  8
TEAM-NET1
 10
-889.752739
 20
479.51168
 30
570.0
  0
VERTEX
  5
1552
  8
TEAM-NET1
 10
-885.38682
 20
358.938889
 30
570.0
  0
VERTEX
  5
1553
  8
TEAM-NET1
 10
-880.058593
 20
298.879365
 30
570.0
  0
VERTEX
  5
1554
  8
TEAM-NET1
 10
-871.346454
 20
239.063927
 30
570.0
  0
VERTEX
  5
1555
  8
TEAM-NET1
 10
-863.729471
 20
201.592549
 30
570.0
  0
VERTEX
  5
1556
  8
TEAM-NET1
 10
-854.367063
 20
164.408972
 30
570.0
  0
VERTEX
  5
1557
  8
TEAM-NET1
 10
-843.237124
 20
127.676691
 30
570.0
  0
VERTEX
  5
1558
  8
TEAM-NET1
 10
-830.317544
 20
91.559202
 30
570.0
  0
VERTEX
  5
1559
  8
TEAM-NET1
 10
-815.586216
 20
56.22
 30
570.0
  0
VERTEX
  5
155A
  8
TEAM-NET1
 10
-799.021031
 20
21.822582
 30
570.0
  0
VERTEX
  5
155B
  8
TEAM-NET1
 10
-780.599881
 20
-11.469557
 30
570.0
  0
VERTEX
  5
155C
  8
TEAM-NET1
 10
-760.300657
 20
-43.492922
 30
570.0
  0
VERTEX
  5
155D
  8
TEAM-NET1
 10
-741.878159
 20
-69.204975
 30
570.0
  0
VERTEX
  5
155E
  8
TEAM-NET1
 10
-722.201098
 20
-93.940547
 30
570.0
  0
VERTEX
  5
155F
  8
TEAM-NET1
 10
-679.382502
 20
-140.584386
 30
570.0
  0
VERTEX
  5
1560
  8
TEAM-NET1
 10
-632.443293
 20
-183.628719
 30
570.0
  0
VERTEX
  5
1561
  8
TEAM-NET1
 10
-581.981899
 20
-223.277821
 30
570.0
  0
VERTEX
  5
1562
  8
TEAM-NET1
 10
-528.596746
 20
-259.735971
 30
570.0
  0
VERTEX
  5
1563
  8
TEAM-NET1
 10
-472.886258
 20
-293.207444
 30
570.0
  0
VERTEX
  5
1564
  8
TEAM-NET1
 10
-415.448863
 20
-323.896519
 30
570.0
  0
VERTEX
  5
1565
  8
TEAM-NET1
 10
-356.882986
 20
-352.007472
 30
570.0
  0
VERTEX
  5
1566
  8
TEAM-NET1
 10
-296.6135
 20
-378.169218
 30
570.0
  0
VERTEX
  5
1567
  8
TEAM-NET1
 10
-235.818895
 20
-401.958442
 30
570.0
  0
VERTEX
  5
1568
  8
TEAM-NET1
 10
-174.523497
 20
-423.463306
 30
570.0
  0
VERTEX
  5
1569
  8
TEAM-NET1
 10
-112.751634
 20
-442.771969
 30
570.0
  0
VERTEX
  5
156A
  8
TEAM-NET1
 10
-50.527631
 20
-459.97259
 30
570.0
  0
VERTEX
  5
156B
  8
TEAM-NET1
 10
12.124184
 20
-475.153329
 30
570.0
  0
VERTEX
  5
156C
  8
TEAM-NET1
 10
75.179485
 20
-488.402348
 30
570.0
  0
VERTEX
  5
156D
  8
TEAM-NET1
 10
138.613945
 20
-499.807804
 30
570.0
  0
VERTEX
  5
156E
  8
TEAM-NET1
 10
257.870243
 20
-516.515956
 30
570.0
  0
VERTEX
  5
156F
  8
TEAM-NET1
 10
377.999307
 20
-527.999743
 30
570.0
  0
VERTEX
  5
1570
  8
TEAM-NET1
 10
498.638562
 20
-535.146177
 30
570.0
  0
VERTEX
  5
1571
  8
TEAM-NET1
 10
619.425433
 20
-538.842274
 30
570.0
  0
VERTEX
  5
1572
  8
TEAM-NET1
 10
829.818986
 20
-540.03404
 30
570.0
  0
SEQEND
  5
1573
  8
TEAM-NET1
  0
ARC
  5
3CE
  8
TEAM-NET1
 10
-859.757288
 20
480.034103
 30
570.0
 40
30.0
 50
90.0
 51
180.0
1001
ACAD
1000
R13OBJECT
1002
{
1005
167
1002
}
  0
ARC
  5
3CF
  8
TEAM-NET1
 10
-859.757288
 20
480.034103
 30
600.0
 40
30.0
 50
90.0
 51
180.0
1001
ACAD
1000
R13OBJECT
1002
{
1005
167
1002
}
  0
POLYLINE
  5
3D0
  8
TEAM-NET1
 66
     1
 10
0.0
 20
0.0
 30
600.0
 70
   128
1001
ACAD
1000
R13OBJECT
1002
{
1005
4413930400000167
1002
}
  0
VERTEX
  5
1574
  8
TEAM-NET1
 10
-889.752739
 20
479.51168
 30
600.0
  0
VERTEX
  5
1575
  8
TEAM-NET1
 10
-885.38682
 20
358.938889
 30
600.0
  0
VERTEX
  5
1576
  8
TEAM-NET1
 10
-880.058593
 20
298.879365
 30
600.0
  0
VERTEX
  5
1577
  8
TEAM-NET1
 10
-871.346454
 20
239.063927
 30
600.0
  0
VERTEX
  5
1578
  8
TEAM-NET1
 10
-863.729471
 20
201.592549
 30
600.0
  0
VERTEX
  5
1579
  8
TEAM-NET1
 10
-854.367063
 20
164.408972
 30
600.0
  0
VERTEX
  5
157A
  8
TEAM-NET1
 10
-843.237124
 20
127.676691
 30
600.0
  0
VERTEX
  5
157B
  8
TEAM-NET1
 10
-830.317544
 20
91.559202
 30
600.0
  0
VERTEX
  5
157C
  8
TEAM-NET1
 10
-815.586216
 20
56.22
 30
600.0
  0
VERTEX
  5
157D
  8
TEAM-NET1
 10
-799.021031
 20
21.822582
 30
600.0
  0
VERTEX
  5
157E
  8
TEAM-NET1
 10
-780.599881
 20
-11.469557
 30
600.0
  0
VERTEX
  5
157F
  8
TEAM-NET1
 10
-760.300657
 20
-43.492922
 30
600.0
  0
VERTEX
  5
1580
  8
TEAM-NET1
 10
-741.878159
 20
-69.204975
 30
600.0
  0
VERTEX
  5
1581
  8
TEAM-NET1
 10
-722.201098
 20
-93.940547
 30
600.0
  0
VERTEX
  5
1582
  8
TEAM-NET1
 10
-679.382502
 20
-140.584386
 30
600.0
  0
VERTEX
  5
1583
  8
TEAM-NET1
 10
-632.443293
 20
-183.628719
 30
600.0
  0
VERTEX
  5
1584
  8
TEAM-NET1
 10
-581.981899
 20
-223.277821
 30
600.0
  0
VERTEX
  5
1585
  8
TEAM-NET1
 10
-528.596746
 20
-259.735971
 30
600.0
  0
VERTEX
  5
1586
  8
TEAM-NET1
 10
-472.886258
 20
-293.207444
 30
600.0
  0
VERTEX
  5
1587
  8
TEAM-NET1
 10
-415.448863
 20
-323.896519
 30
600.0
  0
VERTEX
  5
1588
  8
TEAM-NET1
 10
-356.882986
 20
-352.007472
 30
600.0
  0
VERTEX
  5
1589
  8
TEAM-NET1
 10
-296.6135
 20
-378.169218
 30
600.0
  0
VERTEX
  5
158A
  8
TEAM-NET1
 10
-235.818895
 20
-401.958442
 30
600.0
  0
VERTEX
  5
158B
  8
TEAM-NET1
 10
-174.523497
 20
-423.463306
 30
600.0
  0
VERTEX
  5
158C
  8
TEAM-NET1
 10
-112.751634
 20
-442.771969
 30
600.0
  0
VERTEX
  5
158D
  8
TEAM-NET1
 10
-50.527631
 20
-459.97259
 30
600.0
  0
VERTEX
  5
158E
  8
TEAM-NET1
 10
12.124184
 20
-475.153329
 30
600.0
  0
VERTEX
  5
158F
  8
TEAM-NET1
 10
75.179485
 20
-488.402348
 30
600.0
  0
VERTEX
  5
1590
  8
TEAM-NET1
 10
138.613945
 20
-499.807804
 30
600.0
  0
VERTEX
  5
1591
  8
TEAM-NET1
 10
257.870243
 20
-516.515956
 30
600.0
  0
VERTEX
  5
1592
  8
TEAM-NET1
 10
377.999307
 20
-527.999743
 30
600.0
  0
VERTEX
  5
1593
  8
TEAM-NET1
 10
498.638562
 20
-535.146177
 30
600.0
  0
VERTEX
  5
1594
  8
TEAM-NET1
 10
619.425433
 20
-538.842274
 30
600.0
  0
VERTEX
  5
1595
  8
TEAM-NET1
 10
829.818986
 20
-540.03404
 30
600.0
  0
SEQEND
  5
1596
  8
TEAM-NET1
  0
ARC
  5
3D1
  8
TEAM-NET1
 10
-859.757288
 20
480.034103
 30
600.0
 40
30.0
 50
90.0
 51
180.997805
1001
ACAD
1000
R13OBJECT
1002
{
1005
167
1002
}
  0
LINE
  5
3D2
  8
TEAM-BODY
 10
-889.752739
 20
479.51168
 30
600.0
 11
-889.752739
 21
479.51168
 31
570.0
  0
LINE
  5
3D3
  8
TEAM-BODY
 10
-889.757288
 20
480.034103
 30
600.0
 11
-889.757288
 21
480.034103
 31
570.0
  0
LINE
  5
3D4
  8
TEAM-BODY
 10
-889.752739
 20
479.51168
 30
600.0
 11
-889.752739
 21
479.51168
 31
570.0
  0
LINE
  5
3D5
  8
TEAM-NET1
 10
-889.752739
 20
479.51168
 30
600.0
 11
-889.752739
 21
479.51168
 31
570.0
1001
ACAD
1000
R13OBJECT
1002
{
1005
167
1002
}
  0
LINE
  5
3D6
  8
TEAM-NET1
 10
-889.757288
 20
480.034103
 30
600.0
 11
-889.757288
 21
480.034103
 31
570.0
1001
ACAD
1000
R13OBJECT
1002
{
1005
167
1002
}
  0
ARC
  5
3D7
  8
TEAM-BODY
 10
-859.757288
 20
480.034103
 30
570.0
 40
30.0
 50
180.0
 51
180.997805
  0
ARC
  5
3D8
  8
TEAM-NET1
 10
-859.757288
 20
480.034103
 30
570.0
 40
30.0
 50
180.0
 51
180.997805
1001
ACAD
1000
R13OBJECT
1002
{
1005
167
1002
}
  0
ARC
  5
3D9
  8
TEAM-BODY
 10
-859.757288
 20
480.034103
 30
600.0
 40
30.0
 50
180.0
 51
180.997805
  0
ARC
  5
3DA
  8
TEAM-NET1
 10
-859.757288
 20
480.034103
 30
600.0
 40
30.0
 50
180.0
 51
180.997805
1001
ACAD
1000
R13OBJECT
1002
{
1005
167
1002
}
  0
LINE
  5
3DB
  8
TEAM-BODY
 10
859.757288
 20
-510.034103
 30
600.0
 11
859.757288
 21
-510.034103
 31
570.0
210
-1.0
220
0.0
230
0.0
  0
LINE
  5
3DC
  8
TEAM-BODY
 10
829.818986
 20
-540.03404
 30
600.0
 11
829.818986
 21
-540.03404
 31
570.0
  0
LINE
  5
3DD
  8
TEAM-BODY
 10
859.757288
 20
480.034103
 30
600.0
 11
859.757288
 21
480.034103
 31
570.0
210
-1.0
220
0.0
230
0.0
  0
LINE
  5
3DE
  8
TEAM-BODY
 10
829.757288
 20
510.034103
 30
600.0
 11
829.757288
 21
510.034103
 31
570.0
210
0.0
220
-1.0
230
0.0
  0
LINE
  5
3DF
  8
TEAM-BODY
 10
-859.757288
 20
510.034103
 30
600.0
 11
-859.757288
 21
510.034103
 31
570.0
210
0.0
220
-1.0
230
0.0
  0
LINE
  5
3E0
  8
TEAM-NET1
 10
-859.757288
 20
510.034103
 30
600.0
 11
-859.757288
 21
510.034103
 31
570.0
1001
ACAD
1000
R13OBJECT
1002
{
1005
167
1002
}
  0
LINE
  5
3E1
  8
TEAM-NET1
 10
829.757288
 20
510.034103
 30
600.0
 11
829.757288
 21
510.034103
 31
570.0
1001
ACAD
1000
R13OBJECT
1002
{
1005
167
1002
}
  0
LINE
  5
3E2
  8
TEAM-NET1
 10
859.757288
 20
480.034103
 30
600.0
 11
859.757288
 21
480.034103
 31
570.0
1001
ACAD
1000
R13OBJECT
1002
{
1005
167
1002
}
  0
LINE
  5
3E3
  8
TEAM-NET1
 10
859.757288
 20
-510.034103
 30
600.0
 11
859.757288
 21
-510.034103
 31
570.0
1001
ACAD
1000
R13OBJECT
1002
{
1005
167
1002
}
  0
LINE
  5
3E4
  8
TEAM-NET1
 10
829.818986
 20
-540.03404
 30
600.0
 11
829.818986
 21
-540.03404
 31
570.0
1001
ACAD
1000
R13OBJECT
1002
{
1005
167
1002
}
  0
LINE
  5
3E5
  8
TEAM-BODY
 10
859.757288
 20
-510.034103
 30
570.0
 11
859.757288
 21
480.034103
 31
570.0
210
-1.0
220
0.0
230
0.0
  0
ARC
  5
3E6
  8
TEAM-BODY
 10
829.757288
 20
-510.034103
 30
570.0
 40
30.0
 50
270.117834
 51
0.0
  0
ARC
  5
3E7
  8
TEAM-BODY
 10
829.757288
 20
480.034103
 30
570.0
 40
30.0
 50
0.0
 51
90.0
  0
LINE
  5
3E8
  8
TEAM-BODY
 10
829.757288
 20
510.034103
 30
570.0
 11
-859.757288
 21
510.034103
 31
570.0
210
0.0
220
-1.0
230
0.0
  0
LINE
  5
3E9
  8
TEAM-NET1
 10
829.757288
 20
510.034103
 30
570.0
 11
-859.757288
 21
510.034103
 31
570.0
1001
ACAD
1000
R13OBJECT
1002
{
1005
167
1002
}
  0
ARC
  5
3EA
  8
TEAM-NET1
 10
829.757288
 20
480.034103
 30
570.0
 40
30.0
 50
0.0
 51
90.0
1001
ACAD
1000
R13OBJECT
1002
{
1005
167
1002
}
  0
LINE
  5
3EB
  8
TEAM-NET1
 10
859.757288
 20
-510.034103
 30
570.0
 11
859.757288
 21
480.034103
 31
570.0
1001
ACAD
1000
R13OBJECT
1002
{
1005
167
1002
}
  0
ARC
  5
3EC
  8
TEAM-NET1
 10
829.757288
 20
-510.034103
 30
570.0
 40
30.0
 50
270.117834
 51
0.0
1001
ACAD
1000
R13OBJECT
1002
{
1005
167
1002
}
  0
LINE
  5
3ED
  8
TEAM-BODY
 10
859.757288
 20
-510.034103
 30
600.0
 11
859.757288
 21
480.034103
 31
600.0
  0
ARC
  5
3EE
  8
TEAM-BODY
 10
829.757288
 20
-510.034103
 30
600.0
 40
30.0
 50
270.117834
 51
0.0
  0
ARC
  5
3EF
  8
TEAM-BODY
 10
829.757288
 20
-510.034103
 30
600.0
 40
30.0
 50
270.117834
 51
0.0
  0
ARC
  5
3F0
  8
TEAM-BODY
 10
829.757288
 20
480.034103
 30
600.0
 40
30.0
 50
0.0
 51
90.0
  0
ARC
  5
3F1
  8
TEAM-BODY
 10
829.757288
 20
480.034103
 30
600.0
 40
30.0
 50
0.0
 51
90.0
  0
ARC
  5
3F2
  8
TEAM-BODY
 10
1249.756911
 20
1.901778
 30
600.0
 40
500.0
 50
180.070409
 51
195.694776
  0
ARC
  5
3F3
  8
TEAM-BODY
 10
1249.756911
 20
1.901778
 30
600.0
 40
500.0
 50
180.070409
 51
195.694776
  0
POLYLINE
  5
3F4
  8
TEAM-BODY
 66
     1
 10
0.0
 20
0.0
 30
600.0
 70
   128
  0
VERTEX
  5
1597
  8
TEAM-BODY
 10
749.742884
 20
-88.134067
 30
600.0
  0
VERTEX
  5
1598
  8
TEAM-BODY
 10
723.649703
 20
-42.759784
 30
600.0
  0
VERTEX
  5
1599
  8
TEAM-BODY
 10
695.142026
 20
1.239832
 30
600.0
  0
VERTEX
  5
159A
  8
TEAM-BODY
 10
663.94281
 20
43.667727
 30
600.0
  0
VERTEX
  5
159B
  8
TEAM-BODY
 10
629.757288
 20
84.311628
 30
600.0
  0
SEQEND
  5
159C
  8
TEAM-BODY
  0
POLYLINE
  5
3F5
  8
TEAM-BODY
 66
     1
 10
0.0
 20
0.0
 30
600.0
 70
   128
  0
VERTEX
  5
159D
  8
TEAM-BODY
 10
545.820231
 20
-429.492831
 30
600.0
  0
VERTEX
  5
159E
  8
TEAM-BODY
 10
568.00597
 20
-428.50471
 30
600.0
  0
VERTEX
  5
159F
  8
TEAM-BODY
 10
587.786618
 20
-425.800275
 30
600.0
  0
VERTEX
  5
15A0
  8
TEAM-BODY
 10
605.744183
 20
-421.806937
 30
600.0
  0
VERTEX
  5
15A1
  8
TEAM-BODY
 10
622.2325
 20
-416.784903
 30
600.0
  0
VERTEX
  5
15A2
  8
TEAM-BODY
 10
651.669427
 20
-404.274602
 30
600.0
  0
VERTEX
  5
15A3
  8
TEAM-BODY
 10
677.287437
 20
-389.049569
 30
600.0
  0
VERTEX
  5
15A4
  8
TEAM-BODY
 10
699.736832
 20
-371.50429
 30
600.0
  0
VERTEX
  5
15A5
  8
TEAM-BODY
 10
719.3342
 20
-351.93443
 30
600.0
  0
VERTEX
  5
15A6
  8
TEAM-BODY
 10
736.158932
 20
-330.64073
 30
600.0
  0
VERTEX
  5
15A7
  8
TEAM-BODY
 10
750.185549
 20
-307.841074
 30
600.0
  0
VERTEX
  5
15A8
  8
TEAM-BODY
 10
761.385511
 20
-283.736138
 30
600.0
  0
VERTEX
  5
15A9
  8
TEAM-BODY
 10
769.761959
 20
-258.550216
 30
600.0
  0
VERTEX
  5
15AA
  8
TEAM-BODY
 10
775.231696
 20
-232.474833
 30
600.0
  0
VERTEX
  5
15AB
  8
TEAM-BODY
 10
777.655511
 20
-205.59821
 30
600.0
  0
VERTEX
  5
15AC
  8
TEAM-BODY
 10
776.840403
 20
-177.859792
 30
600.0
  0
VERTEX
  5
15AD
  8
TEAM-BODY
 10
772.432512
 20
-149.146066
 30
600.0
  0
VERTEX
  5
15AE
  8
TEAM-BODY
 10
763.788104
 20
-119.309974
 30
600.0
  0
VERTEX
  5
15AF
  8
TEAM-BODY
 10
757.54536
 20
-103.909528
 30
600.0
  0
VERTEX
  5
15B0
  8
TEAM-BODY
 10
749.742884
 20
-88.134067
 30
600.0
  0
SEQEND
  5
15B1
  8
TEAM-BODY
  0
LINE
  5
3F6
  8
TEAM-BODY
 10
207.962942
 20
337.842757
 30
600.0
 11
550.023434
 21
337.842757
 31
600.0
210
-0.0
220
1.0
230
0.0
  0
LINE
  5
3F7
  8
TEAM-BODY
 10
629.757288
 20
241.644416
 30
600.0
 11
629.757288
 21
84.311628
 31
600.0
210
1.0
220
0.0
230
0.0
  0
LINE
  5
3F8
  8
TEAM-BODY
 10
749.757288
 20
1.287346
 30
600.0
 11
749.757288
 21
329.421015
 31
600.0
  0
ARC
  5
3F9
  8
TEAM-BODY
 10
669.757288
 20
329.421015
 30
600.0
 40
80.0
 50
0.0
 51
90.0
  0
ARC
  5
3FA
  8
TEAM-BODY
 10
-538.327902
 20
247.006117
 30
-600.0
 40
91.586465
210
0.0
220
0.0
230
-1.0
 50
97.336666
 51
183.356158
  0
TEXT
  5
3FB
  8
TEAM-TXT
 10
-367.218939
 20
179.566053
 30
600.0
 40
30.0
  1
team 121855
 41
0.8
 51
15.0
  7
TEAM
  0
LINE
  5
3FE
  8
TEAM-BODY
 10
-163.286194
 20
409.421015
 30
600.0
 11
-561.100524
 21
409.421015
 31
600.0
  0
POLYLINE
  5
3FF
  8
TEAM-BODY
 66
     1
 10
0.0
 20
0.0
 30
600.0
 70
   128
  0
VERTEX
  5
15B2
  8
TEAM-BODY
 10
207.962942
 20
337.842757
 30
600.0
  0
VERTEX
  5
15B3
  8
TEAM-BODY
 10
116.338641
 20
364.484366
 30
600.0
  0
VERTEX
  5
15B4
  8
TEAM-BODY
 10
23.536675
 20
385.239361
 30
600.0
  0
VERTEX
  5
15B5
  8
TEAM-BODY
 10
-69.86309
 20
400.167571
 30
600.0
  0
VERTEX
  5
15B6
  8
TEAM-BODY
 10
-163.286194
 20
409.421015
 30
600.0
  0
SEQEND
  5
15B7
  8
TEAM-BODY
  0
LINE
  5
400
  8
TEAM-BODY
 10
669.757288
 20
409.421015
 30
600.0
 11
-163.286194
 21
409.421015
 31
600.0
  0
POLYLINE
  5
401
  8
TEAM-BODY
 66
     1
 10
0.0
 20
0.0
 30
600.0
 70
   128
  0
VERTEX
  5
15B8
  8
TEAM-BODY
 10
-746.155384
 20
266.277749
 30
600.0
  0
VERTEX
  5
15B9
  8
TEAM-BODY
 10
-748.711232
 20
256.799674
 30
600.0
  0
VERTEX
  5
15BA
  8
TEAM-BODY
 10
-751.076774
 20
245.730092
 30
600.0
  0
VERTEX
  5
15BB
  8
TEAM-BODY
 10
-753.044179
 20
232.632535
 30
600.0
  0
VERTEX
  5
15BC
  8
TEAM-BODY
 10
-754.240325
 20
217.181237
 30
600.0
  0
VERTEX
  5
15BD
  8
TEAM-BODY
 10
-754.153164
 20
199.767325
 30
600.0
  0
VERTEX
  5
15BE
  8
TEAM-BODY
 10
-752.506244
 20
182.091148
 30
600.0
  0
VERTEX
  5
15BF
  8
TEAM-BODY
 10
-749.633743
 20
166.11232
 30
600.0
  0
VERTEX
  5
15C0
  8
TEAM-BODY
 10
-746.122441
 20
152.557889
 30
600.0
  0
SEQEND
  5
15C1
  8
TEAM-BODY
  0
POLYLINE
  5
402
  8
TEAM-BODY
 66
     1
 10
0.0
 20
0.0
 30
600.0
 70
   128
  0
VERTEX
  5
15C2
  8
TEAM-BODY
 10
-561.100524
 20
409.421015
 30
600.0
  0
VERTEX
  5
15C3
  8
TEAM-BODY
 10
-588.959898
 20
406.522498
 30
600.0
  0
VERTEX
  5
15C4
  8
TEAM-BODY
 10
-618.382178
 20
399.012975
 30
600.0
  0
VERTEX
  5
15C5
  8
TEAM-BODY
 10
-648.253813
 20
386.113033
 30
600.0
  0
VERTEX
  5
15C6
  8
TEAM-BODY
 10
-676.72668
 20
367.711267
 30
600.0
  0
VERTEX
  5
15C7
  8
TEAM-BODY
 10
-701.693153
 20
344.776729
 30
600.0
  0
VERTEX
  5
15C8
  8
TEAM-BODY
 10
-721.686283
 20
319.105403
 30
600.0
  0
VERTEX
  5
15C9
  8
TEAM-BODY
 10
-736.348484
 20
292.514957
 30
600.0
  0
VERTEX
  5
15CA
  8
TEAM-BODY
 10
-746.155384
 20
266.277749
 30
600.0
  0
SEQEND
  5
15CB
  8
TEAM-BODY
  0
POLYLINE
  5
403
  8
TEAM-BODY
 66
     1
 10
0.0
 20
0.0
 30
600.0
 70
   128
  0
VERTEX
  5
15CC
  8
TEAM-BODY
 10
-746.122441
 20
152.557889
 30
600.0
  0
VERTEX
  5
15CD
  8
TEAM-BODY
 10
-729.268416
 20
108.384504
 30
600.0
  0
VERTEX
  5
15CE
  8
TEAM-BODY
 10
-709.172677
 20
65.744557
 30
600.0
  0
VERTEX
  5
15CF
  8
TEAM-BODY
 10
-685.833482
 20
25.256162
 30
600.0
  0
VERTEX
  5
15D0
  8
TEAM-BODY
 10
-659.109403
 20
-12.789179
 30
600.0
  0
VERTEX
  5
15D1
  8
TEAM-BODY
 10
-628.538463
 20
-49.045827
 30
600.0
  0
VERTEX
  5
15D2
  8
TEAM-BODY
 10
-594.270957
 20
-83.579812
 30
600.0
  0
VERTEX
  5
15D3
  8
TEAM-BODY
 10
-556.590117
 20
-116.362271
 30
600.0
  0
VERTEX
  5
15D4
  8
TEAM-BODY
 10
-515.870462
 20
-147.352336
 30
600.0
  0
VERTEX
  5
15D5
  8
TEAM-BODY
 10
-472.55928
 20
-176.519741
 30
600.0
  0
VERTEX
  5
15D6
  8
TEAM-BODY
 10
-427.155697
 20
-203.857571
 30
600.0
  0
VERTEX
  5
15D7
  8
TEAM-BODY
 10
-380.188602
 20
-229.388069
 30
600.0
  0
VERTEX
  5
15D8
  8
TEAM-BODY
 10
-332.193558
 20
-253.164461
 30
600.0
  0
VERTEX
  5
15D9
  8
TEAM-BODY
 10
-283.776494
 20
-275.216946
 30
600.0
  0
VERTEX
  5
15DA
  8
TEAM-BODY
 10
-235.527319
 20
-295.4508
 30
600.0
  0
VERTEX
  5
15DB
  8
TEAM-BODY
 10
-187.566368
 20
-313.894631
 30
600.0
  0
VERTEX
  5
15DC
  8
TEAM-BODY
 10
-139.973814
 20
-330.599057
 30
600.0
  0
VERTEX
  5
15DD
  8
TEAM-BODY
 10
-92.820455
 20
-345.623764
 30
600.0
  0
VERTEX
  5
15DE
  8
TEAM-BODY
 10
-46.167003
 20
-359.034555
 30
600.0
  0
VERTEX
  5
15DF
  8
TEAM-BODY
 10
-0.065056
 20
-370.901888
 30
600.0
  0
VERTEX
  5
15E0
  8
TEAM-BODY
 10
45.441995
 20
-381.299111
 30
600.0
  0
VERTEX
  5
15E1
  8
TEAM-BODY
 10
134.54141
 20
-397.983418
 30
600.0
  0
VERTEX
  5
15E2
  8
TEAM-BODY
 10
221.2202
 20
-409.784989
 30
600.0
  0
VERTEX
  5
15E3
  8
TEAM-BODY
 10
305.866626
 20
-417.834919
 30
600.0
  0
VERTEX
  5
15E4
  8
TEAM-BODY
 10
388.27039
 20
-423.220863
 30
600.0
  0
VERTEX
  5
15E5
  8
TEAM-BODY
 10
468.281099
 20
-426.854677
 30
600.0
  0
VERTEX
  5
15E6
  8
TEAM-BODY
 10
545.820231
 20
-429.492831
 30
600.0
  0
SEQEND
  5
15E7
  8
TEAM-BODY
  0
LINE
  5
404
  8
TEAM-BODY
 10
829.757288
 20
510.034103
 30
600.0
 11
-859.757288
 21
510.034103
 31
600.0
210
0.0
220
-1.0
230
0.0
  0
POLYLINE
  5
405
  8
TEAM-NET1
 66
     1
 10
0.0
 20
0.0
 30
600.0
 70
   128
1001
ACAD
1000
R13OBJECT
1002
{
1005
3400930400000167
1002
}
  0
VERTEX
  5
15E8
  8
TEAM-NET1
 10
-746.122441
 20
152.557889
 30
600.0
  0
VERTEX
  5
15E9
  8
TEAM-NET1
 10
-735.29283
 20
123.089942
 30
600.0
  0
VERTEX
  5
15EA
  8
TEAM-NET1
 10
-728.535716
 20
106.665667
 30
600.0
  0
VERTEX
  5
15EB
  8
TEAM-NET1
 10
-718.155362
 20
83.73231
 30
600.0
  0
VERTEX
  5
15EC
  8
TEAM-NET1
 10
-712.986096
 20
73.191527
 30
600.0
  0
VERTEX
  5
15ED
  8
TEAM-NET1
 10
-694.501575
 20
39.367085
 30
600.0
  0
VERTEX
  5
15EE
  8
TEAM-NET1
 10
-677.875706
 20
13.133102
 30
600.0
  0
VERTEX
  5
15EF
  8
TEAM-NET1
 10
-667.846544
 20
-1.140949
 30
600.0
  0
VERTEX
  5
15F0
  8
TEAM-NET1
 10
-649.915411
 20
-24.366477
 30
600.0
  0
VERTEX
  5
15F1
  8
TEAM-NET1
 10
-630.712727
 20
-46.661711
 30
600.0
  0
VERTEX
  5
15F2
  8
TEAM-NET1
 10
-595.942284
 20
-82.012778
 30
600.0
  0
VERTEX
  5
15F3
  8
TEAM-NET1
 10
-590.367096
 20
-87.198829
 30
600.0
  0
VERTEX
  5
15F4
  8
TEAM-NET1
 10
-559.289812
 20
-114.159455
 30
600.0
  0
VERTEX
  5
15F5
  8
TEAM-NET1
 10
-541.163517
 20
-128.574762
 30
600.0
  0
VERTEX
  5
15F6
  8
TEAM-NET1
 10
-518.583542
 20
-145.405845
 30
600.0
  0
VERTEX
  5
15F7
  8
TEAM-NET1
 10
-486.52957
 20
-167.479092
 30
600.0
  0
VERTEX
  5
15F8
  8
TEAM-NET1
 10
-455.13054
 20
-187.362653
 30
600.0
  0
VERTEX
  5
15F9
  8
TEAM-NET1
 10
-426.730404
 20
-204.100347
 30
600.0
  0
VERTEX
  5
15FA
  8
TEAM-NET1
 10
-365.10056
 20
-237.091568
 30
600.0
  0
VERTEX
  5
15FB
  8
TEAM-NET1
 10
-335.405884
 20
-251.636623
 30
600.0
  0
VERTEX
  5
15FC
  8
TEAM-NET1
 10
-319.481727
 20
-259.128627
 30
600.0
  0
VERTEX
  5
15FD
  8
TEAM-NET1
 10
-310.436798
 20
-263.295425
 30
600.0
  0
VERTEX
  5
15FE
  8
TEAM-NET1
 10
-261.933301
 20
-284.588924
 30
600.0
  0
VERTEX
  5
15FF
  8
TEAM-NET1
 10
-217.290096
 20
-302.657608
 30
600.0
  0
VERTEX
  5
1600
  8
TEAM-NET1
 10
-159.136139
 20
-324.061766
 30
600.0
  0
VERTEX
  5
1601
  8
TEAM-NET1
 10
-103.437514
 20
-342.371126
 30
600.0
  0
VERTEX
  5
1602
  8
TEAM-NET1
 10
-65.447457
 20
-353.665249
 30
600.0
  0
VERTEX
  5
1603
  8
TEAM-NET1
 10
-28.544522
 20
-363.731507
 30
600.0
  0
VERTEX
  5
1604
  8
TEAM-NET1
 10
28.085656
 20
-377.485936
 30
600.0
  0
VERTEX
  5
1605
  8
TEAM-NET1
 10
86.570443
 20
-389.596038
 30
600.0
  0
VERTEX
  5
1606
  8
TEAM-NET1
 10
110.318457
 20
-393.919974
 30
600.0
  0
VERTEX
  5
1607
  8
TEAM-NET1
 10
142.652273
 20
-399.266286
 30
600.0
  0
VERTEX
  5
1608
  8
TEAM-NET1
 10
156.068575
 20
-401.303543
 30
600.0
  0
VERTEX
  5
1609
  8
TEAM-NET1
 10
194.327353
 20
-406.554123
 30
600.0
  0
VERTEX
  5
160A
  8
TEAM-NET1
 10
251.090819
 20
-412.969917
 30
600.0
  0
VERTEX
  5
160B
  8
TEAM-NET1
 10
264.314037
 20
-414.254137
 30
600.0
  0
VERTEX
  5
160C
  8
TEAM-NET1
 10
323.955959
 20
-419.196519
 30
600.0
  0
VERTEX
  5
160D
  8
TEAM-NET1
 10
373.417848
 20
-422.393549
 30
600.0
  0
VERTEX
  5
160E
  8
TEAM-NET1
 10
420.180105
 20
-424.821407
 30
600.0
  0
VERTEX
  5
160F
  8
TEAM-NET1
 10
446.618099
 20
-425.988208
 30
600.0
  0
VERTEX
  5
1610
  8
TEAM-NET1
 10
477.201541
 20
-427.191222
 30
600.0
  0
VERTEX
  5
1611
  8
TEAM-NET1
 10
492.656993
 20
-427.749931
 30
600.0
  0
VERTEX
  5
1612
  8
TEAM-NET1
 10
545.820231
 20
-429.492831
 30
600.0
  0
SEQEND
  5
1613
  8
TEAM-NET1
  0
POLYLINE
  5
406
  8
TEAM-NET1
 66
     1
 10
0.0
 20
0.0
 30
600.0
 70
   128
1001
ACAD
1000
R13OBJECT
1002
{
1005
1C00930400000167
1002
}
  0
VERTEX
  5
1614
  8
TEAM-NET1
 10
545.820231
 20
-429.492831
 30
600.0
  0
VERTEX
  5
1615
  8
TEAM-NET1
 10
554.901478
 20
-429.347045
 30
600.0
  0
VERTEX
  5
1616
  8
TEAM-NET1
 10
565.589802
 20
-428.716389
 30
600.0
  0
VERTEX
  5
1617
  8
TEAM-NET1
 10
576.183415
 20
-427.597667
 30
600.0
  0
VERTEX
  5
1618
  8
TEAM-NET1
 10
586.667492
 20
-426.000012
 30
600.0
  0
VERTEX
  5
1619
  8
TEAM-NET1
 10
597.027072
 20
-423.93247
 30
600.0
  0
VERTEX
  5
161A
  8
TEAM-NET1
 10
607.247175
 20
-421.404068
 30
600.0
  0
VERTEX
  5
161B
  8
TEAM-NET1
 10
614.49825
 20
-419.307283
 30
600.0
  0
VERTEX
  5
161C
  8
TEAM-NET1
 10
625.3674
 20
-415.676174
 30
600.0
  0
VERTEX
  5
161D
  8
TEAM-NET1
 10
635.115691
 20
-411.899417
 30
600.0
  0
VERTEX
  5
161E
  8
TEAM-NET1
 10
644.670155
 20
-407.692463
 30
600.0
  0
VERTEX
  5
161F
  8
TEAM-NET1
 10
654.762994
 20
-402.668752
 30
600.0
  0
VERTEX
  5
1620
  8
TEAM-NET1
 10
663.145946
 20
-398.008955
 30
600.0
  0
VERTEX
  5
1621
  8
TEAM-NET1
 10
670.753304
 20
-393.369663
 30
600.0
  0
VERTEX
  5
1622
  8
TEAM-NET1
 10
679.089304
 20
-387.800747
 30
600.0
  0
VERTEX
  5
1623
  8
TEAM-NET1
 10
690.885149
 20
-378.963512
 30
600.0
  0
VERTEX
  5
1624
  8
TEAM-NET1
 10
705.04236
 20
-366.652427
 30
600.0
  0
VERTEX
  5
1625
  8
TEAM-NET1
 10
707.351933
 20
-364.443899
 30
600.0
  0
VERTEX
  5
1626
  8
TEAM-NET1
 10
714.354373
 20
-357.359928
 30
600.0
  0
VERTEX
  5
1627
  8
TEAM-NET1
 10
722.800193
 20
-347.94722
 30
600.0
  0
VERTEX
  5
1628
  8
TEAM-NET1
 10
729.439501
 20
-339.766159
 30
600.0
  0
VERTEX
  5
1629
  8
TEAM-NET1
 10
732.310121
 20
-335.981472
 30
600.0
  0
VERTEX
  5
162A
  8
TEAM-NET1
 10
739.664285
 20
-325.479492
 30
600.0
  0
VERTEX
  5
162B
  8
TEAM-NET1
 10
744.229275
 20
-318.267048
 30
600.0
  0
VERTEX
  5
162C
  8
TEAM-NET1
 10
745.89033
 20
-315.485751
 30
600.0
  0
VERTEX
  5
162D
  8
TEAM-NET1
 10
754.187096
 20
-300.030695
 30
600.0
  0
VERTEX
  5
162E
  8
TEAM-NET1
 10
757.996245
 20
-291.82979
 30
600.0
  0
VERTEX
  5
162F
  8
TEAM-NET1
 10
762.268312
 20
-281.477538
 30
600.0
  0
VERTEX
  5
1630
  8
TEAM-NET1
 10
766.447308
 20
-269.690451
 30
600.0
  0
VERTEX
  5
1631
  8
TEAM-NET1
 10
769.854568
 20
-258.207005
 30
600.0
  0
VERTEX
  5
1632
  8
TEAM-NET1
 10
773.815627
 20
-240.854876
 30
600.0
  0
VERTEX
  5
1633
  8
TEAM-NET1
 10
774.868283
 20
-234.815342
 30
600.0
  0
VERTEX
  5
1634
  8
TEAM-NET1
 10
776.761083
 20
-219.924986
 30
600.0
  0
VERTEX
  5
1635
  8
TEAM-NET1
 10
777.550402
 20
-208.423955
 30
600.0
  0
VERTEX
  5
1636
  8
TEAM-NET1
 10
777.763945
 20
-197.563904
 30
600.0
  0
VERTEX
  5
1637
  8
TEAM-NET1
 10
777.689292
 20
-192.548976
 30
600.0
  0
VERTEX
  5
1638
  8
TEAM-NET1
 10
777.036074
 20
-180.166268
 30
600.0
  0
VERTEX
  5
1639
  8
TEAM-NET1
 10
776.183549
 20
-171.530196
 30
600.0
  0
VERTEX
  5
163A
  8
TEAM-NET1
 10
775.003745
 20
-162.902727
 30
600.0
  0
VERTEX
  5
163B
  8
TEAM-NET1
 10
774.566453
 20
-160.202307
 30
600.0
  0
VERTEX
  5
163C
  8
TEAM-NET1
 10
771.125484
 20
-143.499084
 30
600.0
  0
VERTEX
  5
163D
  8
TEAM-NET1
 10
768.38966
 20
-133.323726
 30
600.0
  0
VERTEX
  5
163E
  8
TEAM-NET1
 10
765.181818
 20
-123.2484
 30
600.0
  0
VERTEX
  5
163F
  8
TEAM-NET1
 10
761.501146
 20
-113.290564
 30
600.0
  0
VERTEX
  5
1640
  8
TEAM-NET1
 10
759.304842
 20
-107.94011
 30
600.0
  0
VERTEX
  5
1641
  8
TEAM-NET1
 10
754.091684
 20
-96.550518
 30
600.0
  0
VERTEX
  5
1642
  8
TEAM-NET1
 10
749.742884
 20
-88.134067
 30
600.0
  0
SEQEND
  5
1643
  8
TEAM-NET1
  0
LINE
  5
407
  8
TEAM-NET1
 10
-163.286194
 20
409.421015
 30
600.0
 11
-561.100524
 21
409.421015
 31
600.0
1001
ACAD
1000
R13OBJECT
1002
{
1005
167
1002
}
  0
POLYLINE
  5
408
  8
TEAM-NET1
 66
     1
 10
0.0
 20
0.0
 30
600.0
 70
   128
1001
ACAD
1000
R13OBJECT
1002
{
1005
AC12930400000167
1002
}
  0
VERTEX
  5
1644
  8
TEAM-NET1
 10
-561.100524
 20
409.421015
 30
600.0
  0
VERTEX
  5
1645
  8
TEAM-NET1
 10
-577.348867
 20
408.210189
 30
600.0
  0
VERTEX
  5
1646
  8
TEAM-NET1
 10
-585.606926
 20
407.081482
 30
600.0
  0
VERTEX
  5
1647
  8
TEAM-NET1
 10
-599.064717
 20
404.479014
 30
600.0
  0
VERTEX
  5
1648
  8
TEAM-NET1
 10
-607.539366
 20
402.339391
 30
600.0
  0
VERTEX
  5
1649
  8
TEAM-NET1
 10
-621.437604
 20
397.952018
 30
600.0
  0
VERTEX
  5
164A
  8
TEAM-NET1
 10
-636.298945
 20
391.974328
 30
600.0
  0
VERTEX
  5
164B
  8
TEAM-NET1
 10
-643.627594
 20
388.498842
 30
600.0
  0
VERTEX
  5
164C
  8
TEAM-NET1
 10
-657.799676
 20
380.691843
 30
600.0
  0
VERTEX
  5
164D
  8
TEAM-NET1
 10
-668.179375
 20
373.96922
 30
600.0
  0
VERTEX
  5
164E
  8
TEAM-NET1
 10
-678.118481
 20
366.624904
 30
600.0
  0
VERTEX
  5
164F
  8
TEAM-NET1
 10
-684.357407
 20
361.503887
 30
600.0
  0
VERTEX
  5
1650
  8
TEAM-NET1
 10
-696.201186
 20
350.52091
 30
600.0
  0
VERTEX
  5
1651
  8
TEAM-NET1
 10
-707.145345
 20
338.592218
 30
600.0
  0
VERTEX
  5
1652
  8
TEAM-NET1
 10
-717.124429
 20
325.768154
 30
600.0
  0
VERTEX
  5
1653
  8
TEAM-NET1
 10
-723.800145
 20
315.8098
 30
600.0
  0
VERTEX
  5
1654
  8
TEAM-NET1
 10
-726.71441
 20
311.018245
 30
600.0
  0
VERTEX
  5
1655
  8
TEAM-NET1
 10
-730.628783
 20
304.058776
 30
600.0
  0
VERTEX
  5
1656
  8
TEAM-NET1
 10
-733.79274
 20
297.906137
 30
600.0
  0
VERTEX
  5
1657
  8
TEAM-NET1
 10
-738.042084
 20
288.694616
 30
600.0
  0
VERTEX
  5
1658
  8
TEAM-NET1
 10
-739.412649
 20
285.434522
 30
600.0
  0
VERTEX
  5
1659
  8
TEAM-NET1
 10
-743.776977
 20
273.769492
 30
600.0
  0
VERTEX
  5
165A
  8
TEAM-NET1
 10
-746.155384
 20
266.277749
 30
600.0
  0
SEQEND
  5
165B
  8
TEAM-NET1
  0
POLYLINE
  5
409
  8
TEAM-NET1
 66
     1
 10
0.0
 20
0.0
 30
600.0
 70
   128
1001
ACAD
1000
R13OBJECT
1002
{
1005
8812930400000167
1002
}
  0
VERTEX
  5
165C
  8
TEAM-NET1
 10
-746.155384
 20
266.277749
 30
600.0
  0
VERTEX
  5
165D
  8
TEAM-NET1
 10
-746.691083
 20
264.436916
 30
600.0
  0
VERTEX
  5
165E
  8
TEAM-NET1
 10
-747.281994
 20
262.326138
 30
600.0
  0
VERTEX
  5
165F
  8
TEAM-NET1
 10
-747.945894
 20
259.840088
 30
600.0
  0
VERTEX
  5
1660
  8
TEAM-NET1
 10
-748.670507
 20
256.966665
 30
600.0
  0
VERTEX
  5
1661
  8
TEAM-NET1
 10
-749.442056
 20
253.689886
 30
600.0
  0
VERTEX
  5
1662
  8
TEAM-NET1
 10
-750.243931
 20
249.989237
 30
600.0
  0
VERTEX
  5
1663
  8
TEAM-NET1
 10
-751.854488
 20
241.218877
 30
600.0
  0
VERTEX
  5
1664
  8
TEAM-NET1
 10
-752.418167
 20
237.486603
 30
600.0
  0
VERTEX
  5
1665
  8
TEAM-NET1
 10
-753.381725
 20
229.524253
 30
600.0
  0
VERTEX
  5
1666
  8
TEAM-NET1
 10
-753.885746
 20
223.653462
 30
600.0
  0
VERTEX
  5
1667
  8
TEAM-NET1
 10
-754.249118
 20
216.949706
 30
600.0
  0
VERTEX
  5
1668
  8
TEAM-NET1
 10
-754.354426
 20
213.183001
 30
600.0
  0
VERTEX
  5
1669
  8
TEAM-NET1
 10
-754.354387
 20
205.765276
 30
600.0
  0
VERTEX
  5
166A
  8
TEAM-NET1
 10
-754.072858
 20
198.234114
 30
600.0
  0
VERTEX
  5
166B
  8
TEAM-NET1
 10
-753.655462
 20
192.358484
 30
600.0
  0
VERTEX
  5
166C
  8
TEAM-NET1
 10
-752.868447
 20
184.85458
 30
600.0
  0
VERTEX
  5
166D
  8
TEAM-NET1
 10
-751.797661
 20
177.37688
 30
600.0
  0
VERTEX
  5
166E
  8
TEAM-NET1
 10
-751.155849
 20
173.650572
 30
600.0
  0
VERTEX
  5
166F
  8
TEAM-NET1
 10
-749.961643
 20
167.616744
 30
600.0
  0
VERTEX
  5
1670
  8
TEAM-NET1
 10
-749.367266
 20
164.928933
 30
600.0
  0
VERTEX
  5
1671
  8
TEAM-NET1
 10
-748.21995
 20
160.174015
 30
600.0
  0
VERTEX
  5
1672
  8
TEAM-NET1
 10
-747.107347
 20
155.988503
 30
600.0
  0
VERTEX
  5
1673
  8
TEAM-NET1
 10
-746.122441
 20
152.557889
 30
600.0
  0
SEQEND
  5
1674
  8
TEAM-NET1
  0
POLYLINE
  5
40A
  8
TEAM-NET1
 66
     1
 10
0.0
 20
0.0
 30
600.0
 70
   128
1001
ACAD
1000
R13OBJECT
1002
{
1005
5812930400000167
1002
}
  0
VERTEX
  5
1675
  8
TEAM-NET1
 10
207.962942
 20
337.842757
 30
600.0
  0
VERTEX
  5
1676
  8
TEAM-NET1
 10
185.84352
 20
344.854521
 30
600.0
  0
VERTEX
  5
1677
  8
TEAM-NET1
 10
178.940162
 20
346.966022
 30
600.0
  0
VERTEX
  5
1678
  8
TEAM-NET1
 10
149.582571
 20
355.544173
 30
600.0
  0
VERTEX
  5
1679
  8
TEAM-NET1
 10
106.383589
 20
367.004275
 30
600.0
  0
VERTEX
  5
167A
  8
TEAM-NET1
 10
69.345775
 20
375.754198
 30
600.0
  0
VERTEX
  5
167B
  8
TEAM-NET1
 10
50.390448
 20
379.856246
 30
600.0
  0
VERTEX
  5
167C
  8
TEAM-NET1
 10
-16.756035
 20
392.392322
 30
600.0
  0
VERTEX
  5
167D
  8
TEAM-NET1
 10
-46.755084
 20
397.011912
 30
600.0
  0
VERTEX
  5
167E
  8
TEAM-NET1
 10
-105.16147
 20
404.320201
 30
600.0
  0
VERTEX
  5
167F
  8
TEAM-NET1
 10
-163.286194
 20
409.421015
 30
600.0
  0
SEQEND
  5
1680
  8
TEAM-NET1
  0
POLYLINE
  5
40B
  8
TEAM-NET1
 66
     1
 10
0.0
 20
0.0
 30
600.0
 70
   128
1001
ACAD
1000
R13OBJECT
1002
{
1005
2812930400000167
1002
}
  0
VERTEX
  5
1681
  8
TEAM-NET1
 10
749.742884
 20
-88.134067
 30
600.0
  0
VERTEX
  5
1682
  8
TEAM-NET1
 10
739.388348
 20
-69.497422
 30
600.0
  0
VERTEX
  5
1683
  8
TEAM-NET1
 10
730.893872
 20
-54.836227
 30
600.0
  0
VERTEX
  5
1684
  8
TEAM-NET1
 10
720.45372
 20
-37.5526
 30
600.0
  0
VERTEX
  5
1685
  8
TEAM-NET1
 10
708.124556
 20
-18.129237
 30
600.0
  0
VERTEX
  5
1686
  8
TEAM-NET1
 10
697.996643
 20
-2.92747
 30
600.0
  0
VERTEX
  5
1687
  8
TEAM-NET1
 10
685.53271
 20
14.903237
 30
600.0
  0
VERTEX
  5
1688
  8
TEAM-NET1
 10
670.791071
 20
34.82155
 30
600.0
  0
VERTEX
  5
1689
  8
TEAM-NET1
 10
658.663646
 20
50.31883
 30
600.0
  0
VERTEX
  5
168A
  8
TEAM-NET1
 10
643.718541
 20
68.389056
 30
600.0
  0
VERTEX
  5
168B
  8
TEAM-NET1
 10
629.757288
 20
84.311628
 30
600.0
  0
SEQEND
  5
168C
  8
TEAM-NET1
  0
LINE
  5
40C
  8
TEAM-NET1
 10
829.757288
 20
510.034103
 30
600.0
 11
-859.757288
 21
510.034103
 31
600.0
1001
ACAD
1000
R13OBJECT
1002
{
1005
167
1002
}
  0
ARC
  5
40D
  8
TEAM-NET1
 10
829.757288
 20
480.034103
 30
600.0
 40
30.0
 50
0.0
 51
90.0
1001
ACAD
1000
R13OBJECT
1002
{
1005
167
1002
}
  0
LINE
  5
40E
  8
TEAM-NET1
 10
859.757288
 20
-510.034103
 30
600.0
 11
859.757288
 21
480.034103
 31
600.0
1001
ACAD
1000
R13OBJECT
1002
{
1005
167
1002
}
  0
ARC
  5
40F
  8
TEAM-NET1
 10
829.757288
 20
-510.034103
 30
600.0
 40
30.0
 50
270.117834
 51
0.0
1001
ACAD
1000
R13OBJECT
1002
{
1005
167
1002
}
  0
LINE
  5
410
  8
TEAM-NET1
 10
207.962942
 20
337.842757
 30
600.0
 11
550.023434
 21
337.842757
 31
600.0
1001
ACAD
1000
R13OBJECT
1002
{
1005
167
1002
}
  0
POLYLINE
  5
411
  8
TEAM-NET1
 66
     1
 10
0.0
 20
0.0
 30
-600.0
 70
   128
210
0.0
220
0.0
230
-1.0
1001
ACAD
1000
R13OBJECT
1002
{
1005
F811930400000167
1002
}
  0
VERTEX
  5
168D
  8
TEAM-NET1
 10
163.286194
 20
409.421015
 30
-600.0
  0
VERTEX
  5
168E
  8
TEAM-NET1
 10
105.16147
 20
404.320201
 30
-600.0
  0
VERTEX
  5
168F
  8
TEAM-NET1
 10
46.755084
 20
397.011912
 30
-600.0
  0
VERTEX
  5
1690
  8
TEAM-NET1
 10
16.756035
 20
392.392322
 30
-600.0
  0
VERTEX
  5
1691
  8
TEAM-NET1
 10
-50.390448
 20
379.856246
 30
-600.0
  0
VERTEX
  5
1692
  8
TEAM-NET1
 10
-69.345775
 20
375.754198
 30
-600.0
  0
VERTEX
  5
1693
  8
TEAM-NET1
 10
-106.383589
 20
367.004275
 30
-600.0
  0
VERTEX
  5
1694
  8
TEAM-NET1
 10
-149.582571
 20
355.544173
 30
-600.0
  0
VERTEX
  5
1695
  8
TEAM-NET1
 10
-178.940162
 20
346.966022
 30
-600.0
  0
VERTEX
  5
1696
  8
TEAM-NET1
 10
-185.84352
 20
344.854521
 30
-600.0
  0
VERTEX
  5
1697
  8
TEAM-NET1
 10
-207.962942
 20
337.842757
 30
-600.0
  0
SEQEND
  5
1698
  8
TEAM-NET1
  0
LINE
  5
412
  8
TEAM-NET1
 10
669.757288
 20
409.421015
 30
600.0
 11
-163.286194
 21
409.421015
 31
600.0
1001
ACAD
1000
R13OBJECT
1002
{
1005
167
1002
}
  0
ARC
  5
413
  8
TEAM-NET1
 10
669.757288
 20
329.421015
 30
600.0
 40
80.0
 50
360.0
 51
90.0
1001
ACAD
1000
R13OBJECT
1002
{
1005
167
1002
}
  0
LINE
  5
414
  8
TEAM-NET1
 10
749.757288
 20
1.287346
 30
600.0
 11
749.757288
 21
329.421015
 31
600.0
1001
ACAD
1000
R13OBJECT
1002
{
1005
167
1002
}
  0
ARC
  5
415
  8
TEAM-NET1
 10
-1249.756911
 20
1.901778
 30
-600.0
 40
500.0
210
0.0
220
0.0
230
-1.0
 50
344.305224
 51
359.929591
1001
ACAD
1000
R13OBJECT
1002
{
1005
167
1002
}
  0
POLYLINE
  5
416
  8
TEAM-NET1
 66
     1
 10
0.0
 20
0.0
 30
-600.0
 70
   128
210
0.0
220
0.0
230
-1.0
1001
ACAD
1000
R13OBJECT
1002
{
1005
C811930400000167
1002
}
  0
VERTEX
  5
1699
  8
TEAM-NET1
 10
-749.742884
 20
-88.134067
 30
-600.0
  0
VERTEX
  5
169A
  8
TEAM-NET1
 10
-754.091684
 20
-96.550518
 30
-600.0
  0
VERTEX
  5
169B
  8
TEAM-NET1
 10
-759.304842
 20
-107.94011
 30
-600.0
  0
VERTEX
  5
169C
  8
TEAM-NET1
 10
-761.501146
 20
-113.290564
 30
-600.0
  0
VERTEX
  5
169D
  8
TEAM-NET1
 10
-765.181818
 20
-123.2484
 30
-600.0
  0
VERTEX
  5
169E
  8
TEAM-NET1
 10
-768.38966
 20
-133.323726
 30
-600.0
  0
VERTEX
  5
169F
  8
TEAM-NET1
 10
-768.398703
 20
-133.354555
 30
-600.0
  0
SEQEND
  5
16A0
  8
TEAM-NET1
  0
POLYLINE
  5
417
  8
TEAM-NET1
 66
     1
 10
0.0
 20
0.0
 30
-600.0
 70
   128
210
0.0
220
0.0
230
-1.0
1001
ACAD
1000
R13OBJECT
1002
{
1005
9811930400000167
1002
}
  0
VERTEX
  5
16A1
  8
TEAM-NET1
 10
-629.757288
 20
84.311628
 30
-600.0
  0
VERTEX
  5
16A2
  8
TEAM-NET1
 10
-643.718541
 20
68.389056
 30
-600.0
  0
VERTEX
  5
16A3
  8
TEAM-NET1
 10
-658.663646
 20
50.31883
 30
-600.0
  0
VERTEX
  5
16A4
  8
TEAM-NET1
 10
-670.791071
 20
34.82155
 30
-600.0
  0
VERTEX
  5
16A5
  8
TEAM-NET1
 10
-685.53271
 20
14.903237
 30
-600.0
  0
VERTEX
  5
16A6
  8
TEAM-NET1
 10
-697.996643
 20
-2.92747
 30
-600.0
  0
VERTEX
  5
16A7
  8
TEAM-NET1
 10
-708.124556
 20
-18.129237
 30
-600.0
  0
VERTEX
  5
16A8
  8
TEAM-NET1
 10
-720.45372
 20
-37.5526
 30
-600.0
  0
VERTEX
  5
16A9
  8
TEAM-NET1
 10
-730.893872
 20
-54.836227
 30
-600.0
  0
VERTEX
  5
16AA
  8
TEAM-NET1
 10
-739.388348
 20
-69.497422
 30
-600.0
  0
VERTEX
  5
16AB
  8
TEAM-NET1
 10
-749.742884
 20
-88.134067
 30
-600.0
  0
SEQEND
  5
16AC
  8
TEAM-NET1
  0
LINE
  5
418
  8
TEAM-NET1
 10
629.757288
 20
241.644416
 30
600.0
 11
629.757288
 21
84.311628
 31
600.0
1001
ACAD
1000
R13OBJECT
1002
{
1005
167
1002
}
  0
ARC
  5
419
  8
TEAM-NET1
 10
-538.327902
 20
247.006117
 30
-600.0
 40
91.586465
210
0.0
220
0.0
230
-1.0
 50
97.336666
 51
183.356158
1001
ACAD
1000
R13OBJECT
1002
{
1005
167
1002
}
  0
LINE
  5
41A
  8
TEAM-NET1
 10
207.962942
 20
337.842757
 30
600.0
 11
550.023434
 21
337.842757
 31
600.0
1001
ACAD
1000
R13OBJECT
1002
{
1005
167
1002
}
  0
ARC
  5
41B
  8
TEAM-NET1
 10
-538.327902
 20
247.006117
 30
-600.0
 40
91.586465
210
0.0
220
0.0
230
-1.0
 50
97.336666
 51
183.356158
1001
ACAD
1000
R13OBJECT
1002
{
1005
167
1002
}
  0
LINE
  5
41C
  8
TEAM-NET1
 10
629.757288
 20
241.644416
 30
600.0
 11
629.757288
 21
84.311628
 31
600.0
1001
ACAD
1000
R13OBJECT
1002
{
1005
167
1002
}
  0
LINE
  5
41D
  8
TEAM-NET1
 10
829.757288
 20
510.034103
 30
600.0
 11
-859.757288
 21
510.034103
 31
600.0
1001
ACAD
1000
R13OBJECT
1002
{
1005
167
1002
}
  0
ARC
  5
41E
  8
TEAM-NET1
 10
829.757288
 20
480.034103
 30
600.0
 40
30.0
 50
0.0
 51
90.0
1001
ACAD
1000
R13OBJECT
1002
{
1005
167
1002
}
  0
LINE
  5
41F
  8
TEAM-NET1
 10
859.757288
 20
-510.034103
 30
600.0
 11
859.757288
 21
480.034103
 31
600.0
1001
ACAD
1000
R13OBJECT
1002
{
1005
167
1002
}
  0
ARC
  5
420
  8
TEAM-NET1
 10
829.757288
 20
-510.034103
 30
600.0
 40
30.0
 50
270.117834
 51
360.0
1001
ACAD
1000
R13OBJECT
1002
{
1005
167
1002
}
  0
POLYLINE
  5
421
  8
TEAM-NET1
 66
     1
 10
0.0
 20
0.0
 30
600.0
 70
   128
1001
ACAD
1000
R13OBJECT
1002
{
1005
6811930400000167
1002
}
  0
VERTEX
  5
16AD
  8
TEAM-NET1
 10
-561.100524
 20
409.421015
 30
600.0
  0
VERTEX
  5
16AE
  8
TEAM-NET1
 10
-577.348867
 20
408.210189
 30
600.0
  0
VERTEX
  5
16AF
  8
TEAM-NET1
 10
-585.606926
 20
407.081482
 30
600.0
  0
VERTEX
  5
16B0
  8
TEAM-NET1
 10
-599.064717
 20
404.479014
 30
600.0
  0
VERTEX
  5
16B1
  8
TEAM-NET1
 10
-607.539366
 20
402.339391
 30
600.0
  0
VERTEX
  5
16B2
  8
TEAM-NET1
 10
-621.437604
 20
397.952018
 30
600.0
  0
VERTEX
  5
16B3
  8
TEAM-NET1
 10
-636.298945
 20
391.974328
 30
600.0
  0
VERTEX
  5
16B4
  8
TEAM-NET1
 10
-643.627594
 20
388.498842
 30
600.0
  0
VERTEX
  5
16B5
  8
TEAM-NET1
 10
-657.799676
 20
380.691843
 30
600.0
  0
VERTEX
  5
16B6
  8
TEAM-NET1
 10
-668.179375
 20
373.96922
 30
600.0
  0
VERTEX
  5
16B7
  8
TEAM-NET1
 10
-678.118481
 20
366.624904
 30
600.0
  0
VERTEX
  5
16B8
  8
TEAM-NET1
 10
-684.357407
 20
361.503887
 30
600.0
  0
VERTEX
  5
16B9
  8
TEAM-NET1
 10
-696.201186
 20
350.52091
 30
600.0
  0
VERTEX
  5
16BA
  8
TEAM-NET1
 10
-707.145345
 20
338.592218
 30
600.0
  0
VERTEX
  5
16BB
  8
TEAM-NET1
 10
-717.124429
 20
325.768154
 30
600.0
  0
VERTEX
  5
16BC
  8
TEAM-NET1
 10
-723.800145
 20
315.8098
 30
600.0
  0
VERTEX
  5
16BD
  8
TEAM-NET1
 10
-726.71441
 20
311.018245
 30
600.0
  0
VERTEX
  5
16BE
  8
TEAM-NET1
 10
-730.628783
 20
304.058776
 30
600.0
  0
VERTEX
  5
16BF
  8
TEAM-NET1
 10
-733.79274
 20
297.906137
 30
600.0
  0
VERTEX
  5
16C0
  8
TEAM-NET1
 10
-738.042084
 20
288.694616
 30
600.0
  0
VERTEX
  5
16C1
  8
TEAM-NET1
 10
-739.412649
 20
285.434522
 30
600.0
  0
VERTEX
  5
16C2
  8
TEAM-NET1
 10
-743.776977
 20
273.769492
 30
600.0
  0
VERTEX
  5
16C3
  8
TEAM-NET1
 10
-746.155384
 20
266.277749
 30
600.0
  0
SEQEND
  5
16C4
  8
TEAM-NET1
  0
POLYLINE
  5
422
  8
TEAM-NET1
 66
     1
 10
0.0
 20
0.0
 30
600.0
 70
   128
1001
ACAD
1000
R13OBJECT
1002
{
1005
3811930400000167
1002
}
  0
VERTEX
  5
16C5
  8
TEAM-NET1
 10
-746.155384
 20
266.277749
 30
600.0
  0
VERTEX
  5
16C6
  8
TEAM-NET1
 10
-746.691083
 20
264.436916
 30
600.0
  0
VERTEX
  5
16C7
  8
TEAM-NET1
 10
-747.281994
 20
262.326138
 30
600.0
  0
VERTEX
  5
16C8
  8
TEAM-NET1
 10
-747.945894
 20
259.840088
 30
600.0
  0
VERTEX
  5
16C9
  8
TEAM-NET1
 10
-748.670507
 20
256.966665
 30
600.0
  0
VERTEX
  5
16CA
  8
TEAM-NET1
 10
-749.442056
 20
253.689886
 30
600.0
  0
VERTEX
  5
16CB
  8
TEAM-NET1
 10
-750.243931
 20
249.989237
 30
600.0
  0
VERTEX
  5
16CC
  8
TEAM-NET1
 10
-751.854488
 20
241.218877
 30
600.0
  0
VERTEX
  5
16CD
  8
TEAM-NET1
 10
-752.418167
 20
237.486603
 30
600.0
  0
VERTEX
  5
16CE
  8
TEAM-NET1
 10
-753.381725
 20
229.524253
 30
600.0
  0
VERTEX
  5
16CF
  8
TEAM-NET1
 10
-753.885746
 20
223.653462
 30
600.0
  0
VERTEX
  5
16D0
  8
TEAM-NET1
 10
-754.249118
 20
216.949706
 30
600.0
  0
VERTEX
  5
16D1
  8
TEAM-NET1
 10
-754.354426
 20
213.183001
 30
600.0
  0
VERTEX
  5
16D2
  8
TEAM-NET1
 10
-754.354387
 20
205.765276
 30
600.0
  0
VERTEX
  5
16D3
  8
TEAM-NET1
 10
-754.072858
 20
198.234114
 30
600.0
  0
VERTEX
  5
16D4
  8
TEAM-NET1
 10
-753.655462
 20
192.358484
 30
600.0
  0
VERTEX
  5
16D5
  8
TEAM-NET1
 10
-752.868447
 20
184.85458
 30
600.0
  0
VERTEX
  5
16D6
  8
TEAM-NET1
 10
-751.797661
 20
177.37688
 30
600.0
  0
VERTEX
  5
16D7
  8
TEAM-NET1
 10
-751.155849
 20
173.650572
 30
600.0
  0
VERTEX
  5
16D8
  8
TEAM-NET1
 10
-749.961643
 20
167.616744
 30
600.0
  0
VERTEX
  5
16D9
  8
TEAM-NET1
 10
-749.367266
 20
164.928933
 30
600.0
  0
VERTEX
  5
16DA
  8
TEAM-NET1
 10
-748.21995
 20
160.174015
 30
600.0
  0
VERTEX
  5
16DB
  8
TEAM-NET1
 10
-747.107347
 20
155.988503
 30
600.0
  0
VERTEX
  5
16DC
  8
TEAM-NET1
 10
-746.122441
 20
152.557889
 30
600.0
  0
SEQEND
  5
16DD
  8
TEAM-NET1
  0
POLYLINE
  5
423
  8
TEAM-NET1
 66
     1
 10
0.0
 20
0.0
 30
600.0
 70
   128
1001
ACAD
1000
R13OBJECT
1002
{
1005
811930400000167
1002
}
  0
VERTEX
  5
16DE
  8
TEAM-NET1
 10
-746.122441
 20
152.557889
 30
600.0
  0
VERTEX
  5
16DF
  8
TEAM-NET1
 10
-735.29283
 20
123.089942
 30
600.0
  0
VERTEX
  5
16E0
  8
TEAM-NET1
 10
-728.535716
 20
106.665667
 30
600.0
  0
VERTEX
  5
16E1
  8
TEAM-NET1
 10
-718.155362
 20
83.73231
 30
600.0
  0
VERTEX
  5
16E2
  8
TEAM-NET1
 10
-712.986096
 20
73.191527
 30
600.0
  0
VERTEX
  5
16E3
  8
TEAM-NET1
 10
-694.501575
 20
39.367085
 30
600.0
  0
VERTEX
  5
16E4
  8
TEAM-NET1
 10
-677.875706
 20
13.133102
 30
600.0
  0
VERTEX
  5
16E5
  8
TEAM-NET1
 10
-667.846544
 20
-1.140949
 30
600.0
  0
VERTEX
  5
16E6
  8
TEAM-NET1
 10
-649.915411
 20
-24.366477
 30
600.0
  0
VERTEX
  5
16E7
  8
TEAM-NET1
 10
-630.712727
 20
-46.661711
 30
600.0
  0
VERTEX
  5
16E8
  8
TEAM-NET1
 10
-595.942284
 20
-82.012778
 30
600.0
  0
VERTEX
  5
16E9
  8
TEAM-NET1
 10
-590.367096
 20
-87.198829
 30
600.0
  0
VERTEX
  5
16EA
  8
TEAM-NET1
 10
-559.289812
 20
-114.159455
 30
600.0
  0
VERTEX
  5
16EB
  8
TEAM-NET1
 10
-541.163517
 20
-128.574762
 30
600.0
  0
VERTEX
  5
16EC
  8
TEAM-NET1
 10
-518.583542
 20
-145.405845
 30
600.0
  0
VERTEX
  5
16ED
  8
TEAM-NET1
 10
-486.52957
 20
-167.479092
 30
600.0
  0
VERTEX
  5
16EE
  8
TEAM-NET1
 10
-455.13054
 20
-187.362653
 30
600.0
  0
VERTEX
  5
16EF
  8
TEAM-NET1
 10
-426.730404
 20
-204.100347
 30
600.0
  0
VERTEX
  5
16F0
  8
TEAM-NET1
 10
-365.10056
 20
-237.091568
 30
600.0
  0
VERTEX
  5
16F1
  8
TEAM-NET1
 10
-335.405884
 20
-251.636623
 30
600.0
  0
VERTEX
  5
16F2
  8
TEAM-NET1
 10
-319.481727
 20
-259.128627
 30
600.0
  0
VERTEX
  5
16F3
  8
TEAM-NET1
 10
-310.436798
 20
-263.295425
 30
600.0
  0
VERTEX
  5
16F4
  8
TEAM-NET1
 10
-261.933301
 20
-284.588924
 30
600.0
  0
VERTEX
  5
16F5
  8
TEAM-NET1
 10
-217.290096
 20
-302.657608
 30
600.0
  0
VERTEX
  5
16F6
  8
TEAM-NET1
 10
-159.136139
 20
-324.061766
 30
600.0
  0
VERTEX
  5
16F7
  8
TEAM-NET1
 10
-103.437514
 20
-342.371126
 30
600.0
  0
VERTEX
  5
16F8
  8
TEAM-NET1
 10
-65.447457
 20
-353.665249
 30
600.0
  0
VERTEX
  5
16F9
  8
TEAM-NET1
 10
-28.544522
 20
-363.731507
 30
600.0
  0
VERTEX
  5
16FA
  8
TEAM-NET1
 10
28.085656
 20
-377.485936
 30
600.0
  0
VERTEX
  5
16FB
  8
TEAM-NET1
 10
86.570443
 20
-389.596038
 30
600.0
  0
VERTEX
  5
16FC
  8
TEAM-NET1
 10
110.318457
 20
-393.919974
 30
600.0
  0
VERTEX
  5
16FD
  8
TEAM-NET1
 10
142.652273
 20
-399.266286
 30
600.0
  0
VERTEX
  5
16FE
  8
TEAM-NET1
 10
156.068575
 20
-401.303543
 30
600.0
  0
VERTEX
  5
16FF
  8
TEAM-NET1
 10
194.327353
 20
-406.554123
 30
600.0
  0
VERTEX
  5
1700
  8
TEAM-NET1
 10
251.090819
 20
-412.969917
 30
600.0
  0
VERTEX
  5
1701
  8
TEAM-NET1
 10
264.314037
 20
-414.254137
 30
600.0
  0
VERTEX
  5
1702
  8
TEAM-NET1
 10
323.955959
 20
-419.196519
 30
600.0
  0
VERTEX
  5
1703
  8
TEAM-NET1
 10
373.417848
 20
-422.393549
 30
600.0
  0
VERTEX
  5
1704
  8
TEAM-NET1
 10
420.180105
 20
-424.821407
 30
600.0
  0
VERTEX
  5
1705
  8
TEAM-NET1
 10
446.618099
 20
-425.988208
 30
600.0
  0
VERTEX
  5
1706
  8
TEAM-NET1
 10
477.201541
 20
-427.191222
 30
600.0
  0
VERTEX
  5
1707
  8
TEAM-NET1
 10
492.656993
 20
-427.749931
 30
600.0
  0
VERTEX
  5
1708
  8
TEAM-NET1
 10
545.820231
 20
-429.492831
 30
600.0
  0
SEQEND
  5
1709
  8
TEAM-NET1
  0
POLYLINE
  5
424
  8
TEAM-NET1
 66
     1
 10
0.0
 20
0.0
 30
600.0
 70
   128
1001
ACAD
1000
R13OBJECT
1002
{
1005
D810930400000167
1002
}
  0
VERTEX
  5
170A
  8
TEAM-NET1
 10
545.820231
 20
-429.492831
 30
600.0
  0
VERTEX
  5
170B
  8
TEAM-NET1
 10
554.901478
 20
-429.347045
 30
600.0
  0
VERTEX
  5
170C
  8
TEAM-NET1
 10
565.589802
 20
-428.716389
 30
600.0
  0
VERTEX
  5
170D
  8
TEAM-NET1
 10
576.183415
 20
-427.597667
 30
600.0
  0
VERTEX
  5
170E
  8
TEAM-NET1
 10
586.667492
 20
-426.000012
 30
600.0
  0
VERTEX
  5
170F
  8
TEAM-NET1
 10
597.027072
 20
-423.93247
 30
600.0
  0
VERTEX
  5
1710
  8
TEAM-NET1
 10
607.247175
 20
-421.404068
 30
600.0
  0
VERTEX
  5
1711
  8
TEAM-NET1
 10
614.49825
 20
-419.307283
 30
600.0
  0
VERTEX
  5
1712
  8
TEAM-NET1
 10
625.3674
 20
-415.676174
 30
600.0
  0
VERTEX
  5
1713
  8
TEAM-NET1
 10
635.115691
 20
-411.899417
 30
600.0
  0
VERTEX
  5
1714
  8
TEAM-NET1
 10
644.670155
 20
-407.692463
 30
600.0
  0
VERTEX
  5
1715
  8
TEAM-NET1
 10
654.762994
 20
-402.668752
 30
600.0
  0
VERTEX
  5
1716
  8
TEAM-NET1
 10
663.145946
 20
-398.008955
 30
600.0
  0
VERTEX
  5
1717
  8
TEAM-NET1
 10
670.753304
 20
-393.369663
 30
600.0
  0
VERTEX
  5
1718
  8
TEAM-NET1
 10
679.089304
 20
-387.800747
 30
600.0
  0
VERTEX
  5
1719
  8
TEAM-NET1
 10
690.885149
 20
-378.963512
 30
600.0
  0
VERTEX
  5
171A
  8
TEAM-NET1
 10
705.04236
 20
-366.652427
 30
600.0
  0
VERTEX
  5
171B
  8
TEAM-NET1
 10
707.351933
 20
-364.443899
 30
600.0
  0
VERTEX
  5
171C
  8
TEAM-NET1
 10
714.354373
 20
-357.359928
 30
600.0
  0
VERTEX
  5
171D
  8
TEAM-NET1
 10
722.800193
 20
-347.94722
 30
600.0
  0
VERTEX
  5
171E
  8
TEAM-NET1
 10
729.439501
 20
-339.766159
 30
600.0
  0
VERTEX
  5
171F
  8
TEAM-NET1
 10
732.310121
 20
-335.981472
 30
600.0
  0
VERTEX
  5
1720
  8
TEAM-NET1
 10
739.664285
 20
-325.479492
 30
600.0
  0
VERTEX
  5
1721
  8
TEAM-NET1
 10
744.229275
 20
-318.267048
 30
600.0
  0
VERTEX
  5
1722
  8
TEAM-NET1
 10
745.89033
 20
-315.485751
 30
600.0
  0
VERTEX
  5
1723
  8
TEAM-NET1
 10
754.187096
 20
-300.030695
 30
600.0
  0
VERTEX
  5
1724
  8
TEAM-NET1
 10
757.996245
 20
-291.82979
 30
600.0
  0
VERTEX
  5
1725
  8
TEAM-NET1
 10
762.268312
 20
-281.477538
 30
600.0
  0
VERTEX
  5
1726
  8
TEAM-NET1
 10
766.447308
 20
-269.690451
 30
600.0
  0
VERTEX
  5
1727
  8
TEAM-NET1
 10
769.854568
 20
-258.207005
 30
600.0
  0
VERTEX
  5
1728
  8
TEAM-NET1
 10
773.815627
 20
-240.854876
 30
600.0
  0
VERTEX
  5
1729
  8
TEAM-NET1
 10
774.868283
 20
-234.815342
 30
600.0
  0
VERTEX
  5
172A
  8
TEAM-NET1
 10
776.761083
 20
-219.924986
 30
600.0
  0
VERTEX
  5
172B
  8
TEAM-NET1
 10
777.550402
 20
-208.423955
 30
600.0
  0
VERTEX
  5
172C
  8
TEAM-NET1
 10
777.763945
 20
-197.563904
 30
600.0
  0
VERTEX
  5
172D
  8
TEAM-NET1
 10
777.689292
 20
-192.548976
 30
600.0
  0
VERTEX
  5
172E
  8
TEAM-NET1
 10
777.036074
 20
-180.166268
 30
600.0
  0
VERTEX
  5
172F
  8
TEAM-NET1
 10
776.183549
 20
-171.530196
 30
600.0
  0
VERTEX
  5
1730
  8
TEAM-NET1
 10
775.003745
 20
-162.902727
 30
600.0
  0
VERTEX
  5
1731
  8
TEAM-NET1
 10
774.566453
 20
-160.202307
 30
600.0
  0
VERTEX
  5
1732
  8
TEAM-NET1
 10
771.125484
 20
-143.499084
 30
600.0
  0
VERTEX
  5
1733
  8
TEAM-NET1
 10
768.398703
 20
-133.354555
 30
600.0
  0
SEQEND
  5
1734
  8
TEAM-NET1
  0
ARC
  5
425
  8
TEAM-NET1
 10
-1249.756911
 20
1.901778
 30
-600.0
 40
500.0
210
0.0
220
0.0
230
-1.0
 50
344.305224
 51
359.929591
1001
ACAD
1000
R13OBJECT
1002
{
1005
167
1002
}
  0
LINE
  5
426
  8
TEAM-NET1
 10
749.757288
 20
1.287346
 30
600.0
 11
749.757288
 21
329.421015
 31
600.0
1001
ACAD
1000
R13OBJECT
1002
{
1005
167
1002
}
  0
ARC
  5
427
  8
TEAM-NET1
 10
669.757288
 20
329.421015
 30
600.0
 40
80.0
 50
360.0
 51
90.0
1001
ACAD
1000
R13OBJECT
1002
{
1005
167
1002
}
  0
LINE
  5
428
  8
TEAM-NET1
 10
669.757288
 20
409.421015
 30
600.0
 11
-561.100524
 21
409.421015
 31
600.0
1001
ACAD
1000
R13OBJECT
1002
{
1005
167
1002
}
  0
ENDSEC
  0
EOF
