  0
SECTION
  2
HEADER
  9
$ACADVER
  1
AC1009
  9
$INSBASE
 10
0.0
 20
0.0
 30
0.0
  9
$EXTMIN
 10
-851.512952
 20
-655.140462
 30
-0.029657
  9
$EXTMAX
 10
851.529303
 20
351.467418
 30
580.031777
  9
$LIMMIN
 10
-851.512952
 20
-655.140462
  9
$LIMMAX
 10
851.529303
 20
351.467418
  9
$ORTHOMODE
 70
     1
  9
$REGENMODE
 70
     1
  9
$FILLMODE
 70
     1
  9
$QTEXTMODE
 70
     0
  9
$MIRRTEXT
 70
     0
  9
$DRAGMODE
 70
     2
  9
$LTSCALE
 40
25.0
  9
$OSMODE
 70
     0
  9
$ATTMODE
 70
     1
  9
$TEXTSIZE
 40
200.0
  9
$TRACEWID
 40
1.0
  9
$TEXTSTYLE
  7
STANDARD
  9
$CLAYER
  8
TEAM-MAS
  9
$CELTYPE
  6
BYLAYER
  9
$CECOLOR
 62
   256
  9
$DIMSCALE
 40
0.0
  9
$DIMASZ
 40
20.0
  9
$DIMEXO
 40
10.0
  9
$DIMDLI
 40
1.0
  9
$DIMRND
 40
0.0
  9
$DIMDLE
 40
0.0
  9
$DIMEXE
 40
1.0
  9
$DIMTP
 40
0.0
  9
$DIMTM
 40
0.0
  9
$DIMTXT
 40
35.0
  9
$DIMCEN
 40
1.0
  9
$DIMTSZ
 40
0.0
  9
$DIMTOL
 70
     0
  9
$DIMLIM
 70
     0
  9
$DIMTIH
 70
     0
  9
$DIMTOH
 70
     0
  9
$DIMSE1
 70
     0
  9
$DIMSE2
 70
     0
  9
$DIMTAD
 70
     0
  9
$DIMZIN
 70
     0
  9
$DIMBLK
  1

  9
$DIMASO
 70
     1
  9
$DIMSHO
 70
     0
  9
$DIMPOST
  1

  9
$DIMAPOST
  1

  9
$DIMALT
 70
     0
  9
$DIMALTD
 70
     2
  9
$DIMALTF
 40
25.4
  9
$DIMLFAC
 40
1.0
  9
$DIMTOFL
 70
     0
  9
$DIMTVP
 40
0.0
  9
$DIMTIX
 70
     0
  9
$DIMSOXD
 70
     0
  9
$DIMSAH
 70
     0
  9
$DIMBLK1
  1

  9
$DIMBLK2
  1

  9
$DIMSTYLE
  2
TEAM
  9
$DIMCLRD
 70
     9
  9
$DIMCLRE
 70
     9
  9
$DIMCLRT
 70
    11
  9
$DIMTFAC
 40
1.0
  9
$DIMGAP
 40
15.0
  9
$LUNITS
 70
     2
  9
$LUPREC
 70
     1
  9
$SKETCHINC
 40
1.0
  9
$FILLETRAD
 40
50.0
  9
$AUNITS
 70
     0
  9
$AUPREC
 70
     0
  9
$MENU
  1
ROPLANS
  9
$ELEVATION
 40
0.0
  9
$PELEVATION
 40
0.0
  9
$THICKNESS
 40
0.0
  9
$LIMCHECK
 70
     0
  9
$BLIPMODE
 70
     1
  9
$CHAMFERA
 40
0.0
  9
$CHAMFERB
 40
0.0
  9
$SKPOLY
 70
     0
  9
$TDCREATE
 40
2450392.957851
  9
$TDUPDATE
 40
2455534.564459
  9
$TDINDWG
 40
2.577934
  9
$TDUSRTIMER
 40
2.577934
  9
$USRTIMER
 70
     1
  9
$ANGBASE
 50
0.0
  9
$ANGDIR
 70
     0
  9
$PDMODE
 70
     0
  9
$PDSIZE
 40
0.0
  9
$PLINEWID
 40
0.0
  9
$COORDS
 70
     2
  9
$SPLFRAME
 70
     0
  9
$SPLINETYPE
 70
     6
  9
$SPLINESEGS
 70
     8
  9
$ATTDIA
 70
     0
  9
$ATTREQ
 70
     0
  9
$HANDLING
 70
     1
  9
$HANDSEED
  5
1035
  9
$SURFTAB1
 70
    36
  9
$SURFTAB2
 70
    36
  9
$SURFTYPE
 70
     6
  9
$SURFU
 70
     6
  9
$SURFV
 70
     6
  9
$UCSNAME
  2

  9
$UCSORG
 10
0.0
 20
0.0
 30
0.0
  9
$UCSXDIR
 10
1.0
 20
0.0
 30
0.0
  9
$UCSYDIR
 10
0.0
 20
1.0
 30
0.0
  9
$PUCSNAME
  2

  9
$PUCSORG
 10
0.0
 20
0.0
 30
0.0
  9
$PUCSXDIR
 10
1.0
 20
0.0
 30
0.0
  9
$PUCSYDIR
 10
0.0
 20
1.0
 30
0.0
  9
$USERI1
 70
     0
  9
$USERI2
 70
     0
  9
$USERI3
 70
     0
  9
$USERI4
 70
     0
  9
$USERI5
 70
     0
  9
$USERR1
 40
0.0
  9
$USERR2
 40
0.0
  9
$USERR3
 40
0.0
  9
$USERR4
 40
0.0
  9
$USERR5
 40
0.0
  9
$WORLDVIEW
 70
     1
  9
$SHADEDGE
 70
     0
  9
$SHADEDIF
 70
    70
  9
$TILEMODE
 70
     1
  9
$MAXACTVP
 70
    16
  9
$PLIMCHECK
 70
     0
  9
$PEXTMIN
 10
-0.805942
 20
0.005011
 30
0.0
  9
$PEXTMAX
 10
20.421406
 20
13.725274
 30
0.0
  9
$PLIMMIN
 10
0.0
 20
0.0
  9
$PLIMMAX
 10
12.0
 20
9.0
  9
$UNITMODE
 70
     0
  9
$VISRETAIN
 70
     0
  9
$PLINEGEN
 70
     0
  9
$PSLTSCALE
 70
     0
  0
ENDSEC
  0
SECTION
  2
TABLES
  0
TABLE
  2
VPORT
 70
     2
  0
VPORT
  2
*ACTIVE
 70
     0
 10
0.0
 20
0.0
 11
1.0
 21
1.0
 12
0.008176
 22
-151.836522
 13
0.0
 23
0.0
 14
1.0
 24
1.0
 15
50.0
 25
50.0
 16
0.0
 26
0.0
 36
1.0
 17
0.0
 27
0.0
 37
0.0
 40
1012.789709
 41
1.865779
 42
50.0
 43
0.0
 44
0.0
 50
0.0
 51
0.0
 71
     0
 72
   100
 73
     1
 74
     1
 75
     0
 76
     0
 77
     0
 78
     0
  0
ENDTAB
  0
TABLE
  2
LTYPE
 70
     1
  0
LTYPE
  2
CONTINUOUS
 70
     0
  3
Solid Line
 72
    65
 73
     0
 40
0.0
  0
ENDTAB
  0
TABLE
  2
LAYER
 70
     6
  0
LAYER
  2
0
 70
     0
 62
     7
  6
CONTINUOUS
  0
LAYER
  2
TEAM-MAS
 70
     0
 62
     9
  6
CONTINUOUS
  0
LAYER
  2
TEAM-TXT
 70
     0
 62
    11
  6
CONTINUOUS
  0
LAYER
  2
TEAM-KAN
 70
     0
 62
     6
  6
CONTINUOUS
  0
LAYER
  2
TEAM-NET
 70
     0
 62
    15
  6
CONTINUOUS
  0
LAYER
  2
TEAM-INSP
 70
     0
 62
     5
  6
CONTINUOUS
  0
ENDTAB
  0
TABLE
  2
STYLE
 70
     2
  0
STYLE
  2
STANDARD
 70
     0
 40
0.0
 41
1.0
 50
0.0
 71
     0
 42
200.0
  3
txt
  4

  0
STYLE
  2
TEAM
 70
     0
 40
0.0
 41
0.8
 50
15.0
 71
     0
 42
7.0
  3
ROMANS.shx
  4

  0
ENDTAB
  0
TABLE
  2
VIEW
 70
     0
  0
ENDTAB
  0
TABLE
  2
UCS
 70
     0
  0
ENDTAB
  0
TABLE
  2
APPID
 70
     1
  0
APPID
  2
ACAD
 70
     0
  0
ENDTAB
  0
TABLE
  2
DIMSTYLE
 70
     1
  0
DIMSTYLE
  2
TEAM
 70
     0
  3

  4

  5

  6

  7

 40
0.0
 41
20.0
 42
10.0
 43
1.0
 44
1.0
 45
0.0
 46
0.0
 47
0.0
 48
0.0
140
35.0
141
1.0
142
0.0
143
25.4
144
1.0
145
0.0
146
1.0
147
15.0
 71
     0
 72
     0
 73
     0
 74
     0
 75
     0
 76
     0
 77
     0
 78
     0
170
     0
171
     2
172
     0
173
     0
174
     0
175
     0
176
     9
177
     9
178
    11
  0
ENDTAB
  0
ENDSEC
  0
SECTION
  2
BLOCKS
  0
BLOCK
  8
0
  2
$MODEL_SPACE
 70
     0
 10
0.0
 20
0.0
 30
0.0
  3
$MODEL_SPACE
  1

  0
ENDBLK
  5
BDA
  8
0
  0
BLOCK
 67
     1
  8
0
  2
$PAPER_SPACE
 70
     0
 10
0.0
 20
0.0
 30
0.0
  3
$PAPER_SPACE
  1

  0
ENDBLK
  5
BD8
 67
     1
  8
0
  0
ENDSEC
  0
SECTION
  2
ENTITIES
  0
LINE
  5
20
  8
TEAM-NET
 10
719.10029
 20
241.11816
 30
475.0
 11
655.575476
 21
171.859312
 31
38.307599
210
0.985575
220
0.0
230
-0.16924
  0
LINE
  5
22
  8
TEAM-NET
 10
651.1016
 20
167.385436
 30
53.615197
 11
710.999246
 21
233.017116
 31
469.184681
  0
LINE
  5
23
  8
TEAM-NET
 10
681.432001
 20
262.584362
 30
469.184681
 11
621.534355
 21
196.952681
 31
53.615197
  0
LINE
  5
24
  8
TEAM-NET
 10
626.008231
 20
201.426557
 30
38.307599
 11
689.533045
 21
270.685406
 31
475.0
  0
LINE
  5
25
  8
TEAM-NET
 10
719.10029
 20
241.11816
 30
475.0
 11
655.575476
 21
171.859312
 31
38.307599
  0
LINE
  5
26
  8
TEAM-NET
 10
681.432001
 20
262.584362
 30
469.184681
 11
621.534355
 21
196.952681
 31
53.615197
210
0.0
220
-0.985575
230
0.16924
  0
LINE
  5
27
  8
TEAM-NET
 10
626.008231
 20
201.426557
 30
38.307599
 11
689.533045
 21
270.685406
 31
475.0
210
0.0
220
0.985575
230
-0.16924
  0
LINE
  5
28
  8
TEAM-NET
 10
651.1016
 20
167.385436
 30
53.615197
 11
710.999246
 21
233.017116
 31
469.184681
210
-0.985575
220
0.0
230
0.16924
  0
LINE
  5
29
  8
TEAM-NET
 10
-622.371076
 20
-477.823124
 30
475.0
 11
-379.764441
 21
-385.039158
 31
34.754229
210
-0.851363
220
-0.0
230
-0.524577
  0
LINE
  5
2A
  8
TEAM-NET
 10
-349.844653
 20
-413.386054
 30
38.307599
 11
-590.261838
 21
-505.559845
 31
475.0
  0
LINE
  5
2B
  8
TEAM-NET
 10
-622.371076
 20
-477.823124
 30
475.0
 11
-379.764441
 21
-385.039158
 31
34.754229
  0
LINE
  5
2C
  8
TEAM-NET
 10
-578.456551
 20
-497.458801
 30
469.184681
 11
-351.054497
 21
-408.912177
 31
53.615197
  0
LINE
  5
2D
  8
TEAM-NET
 10
-378.784835
 20
-379.955107
 30
46.508457
 11
-612.098405
 21
-470.149202
 31
471.67204
  0
LINE
  5
2E
  8
TEAM-NET
 10
-578.456551
 20
-497.458801
 30
469.184681
 11
-351.054497
 21
-408.912177
 31
53.615197
210
-0.0
220
0.985575
230
0.16924
  0
LINE
  5
2F
  8
TEAM-NET
 10
-349.844653
 20
-413.386054
 30
38.307599
 11
-590.261838
 21
-505.559845
 31
475.0
210
0.0
220
-0.985575
230
-0.16924
  0
LINE
  5
30
  8
TEAM-NET
 10
-378.784835
 20
-379.955107
 30
46.508457
 11
-612.098405
 21
-470.149202
 31
471.67204
210
0.851363
220
0.0
230
0.524577
  0
LINE
  5
31
  8
TEAM-NET
 10
768.313097
 20
-158.745852
 30
469.184681
 11
696.952681
 21
-87.385436
 31
53.615197
210
-0.985575
220
0.0
230
0.16924
  0
LINE
  5
32
  8
TEAM-NET
 10
701.426557
 20
-91.859312
 30
38.307599
 11
776.414141
 21
-166.846896
 31
475.0
210
0.985575
220
0.0
230
-0.16924
  0
LINE
  5
33
  8
TEAM-NET
 10
667.385436
 20
-116.952681
 30
53.615197
 11
738.745852
 21
-188.313097
 31
469.184681
210
-0.0
220
0.985575
230
0.16924
  0
LINE
  5
34
  8
TEAM-NET
 10
746.846896
 20
-196.414141
 30
475.0
 11
671.859312
 21
-121.426557
 31
38.307599
210
0.0
220
-0.985575
230
-0.16924
  0
LINE
  5
35
  8
TEAM-NET
 10
768.313097
 20
-158.745852
 30
469.184681
 11
696.952681
 21
-87.385436
 31
53.615197
  0
LINE
  5
36
  8
TEAM-NET
 10
667.385436
 20
-116.952681
 30
53.615197
 11
738.745852
 21
-188.313097
 31
469.184681
  0
LINE
  5
37
  8
TEAM-NET
 10
746.846896
 20
-196.414141
 30
475.0
 11
671.859312
 21
-121.426557
 31
38.307599
  0
LINE
  5
38
  8
TEAM-NET
 10
701.426557
 20
-91.859312
 30
38.307599
 11
776.414141
 21
-166.846896
 31
475.0
  0
LINE
  5
39
  8
TEAM-NET
 10
-722.082681
 20
276.414141
 30
475.0
 11
-453.009585
 21
201.426557
 31
38.307599
210
0.0
220
0.985575
230
-0.16924
  0
LINE
  5
3A
  8
TEAM-NET
 10
-454.219429
 20
196.952681
 30
53.615197
 11
-710.277394
 21
268.313097
 31
469.184681
210
0.0
220
-0.985575
230
0.16924
  0
LINE
  5
3B
  8
TEAM-NET
 10
-482.929373
 20
173.079661
 30
34.754229
 11
-754.191919
 21
248.67742
 31
475.0
210
-0.851363
220
-0.0
230
-0.524577
  0
LINE
  5
3C
  8
TEAM-NET
 10
-743.919247
 20
241.003498
 30
471.67204
 11
-481.949767
 21
167.99561
 31
46.508457
210
0.851363
220
0.0
230
0.524577
  0
LINE
  5
3D
  8
TEAM-NET
 10
-482.929373
 20
173.079661
 30
34.754229
 11
-754.191919
 21
248.67742
 31
475.0
  0
LINE
  5
3E
  8
TEAM-NET
 10
-722.082681
 20
276.414141
 30
475.0
 11
-453.009585
 21
201.426557
 31
38.307599
  0
LINE
  5
3F
  8
TEAM-NET
 10
-743.919247
 20
241.003498
 30
471.67204
 11
-481.949767
 21
167.99561
 31
46.508457
  0
LINE
  5
40
  8
TEAM-NET
 10
-454.219429
 20
196.952681
 30
53.615197
 11
-710.277394
 21
268.313097
 31
469.184681
  0
LINE
  5
41
  8
TEAM-KAN
 10
89.30029
 20
-52.629057
 30
47.52604
 11
89.30029
 21
-52.629057
 31
12.52604
210
0.711485
220
-0.702701
230
0.0
  0
LINE
  5
43
  8
TEAM-KAN
 10
99.88304
 20
-41.914023
 30
47.52604
 11
99.88304
 21
-41.914023
 31
7.52604
210
0.711485
220
-0.702701
230
0.0
  0
LINE
  5
44
  8
TEAM-KAN
 10
106.774543
 20
-32.090217
 30
47.52604
 11
106.774543
 21
-32.090217
 31
7.52604
  0
LINE
  5
45
  8
TEAM-KAN
 10
99.82229
 20
-32.133398
 30
7.52604
 11
99.82229
 21
-32.133398
 31
47.52604
  0
LINE
  5
46
  8
TEAM-KAN
 10
98.416888
 20
-33.556368
 30
47.52604
 11
98.416888
 21
-33.556368
 31
7.52604
  0
LINE
  5
47
  8
TEAM-KAN
 10
98.46007
 20
-40.508621
 30
47.52604
 11
98.46007
 21
-40.508621
 31
7.52604
  0
LINE
  5
48
  8
TEAM-KAN
 10
87.701854
 20
-22.973619
 30
47.52604
 11
87.701854
 21
-22.973619
 31
12.52604
210
-0.702701
220
-0.711485
230
0.0
  0
LINE
  5
49
  8
TEAM-KAN
 10
98.416888
 20
-33.556368
 30
47.52604
 11
98.416888
 21
-33.556368
 31
7.52604
210
-0.702701
220
-0.711485
230
0.0
  0
LINE
  5
4A
  8
TEAM-KAN
 10
108.240695
 20
-40.447872
 30
47.52604
 11
108.240695
 21
-40.447872
 31
7.52604
  0
LINE
  5
4B
  8
TEAM-KAN
 10
108.197513
 20
-33.495619
 30
7.52604
 11
108.197513
 21
-33.495619
 31
47.52604
  0
LINE
  5
4C
  8
TEAM-KAN
 10
117.357292
 20
-21.375183
 30
47.52604
 11
117.357292
 21
-21.375183
 31
12.52604
210
-0.711485
220
0.702701
230
0.0
  0
LINE
  5
4D
  8
TEAM-KAN
 10
106.774543
 20
-32.090217
 30
47.52604
 11
106.774543
 21
-32.090217
 31
7.52604
210
-0.711485
220
0.702701
230
0.0
  0
LINE
  5
4E
  8
TEAM-KAN
 10
106.835292
 20
-41.870842
 30
7.52604
 11
106.835292
 21
-41.870842
 31
47.52604
  0
LINE
  5
4F
  8
TEAM-KAN
 10
99.88304
 20
-41.914023
 30
47.52604
 11
99.88304
 21
-41.914023
 31
7.52604
  0
LINE
  5
50
  8
TEAM-KAN
 10
118.955728
 20
-51.030621
 30
47.52604
 11
118.955728
 21
-51.030621
 31
12.52604
210
0.702701
220
0.711485
230
0.0
  0
LINE
  5
51
  8
TEAM-KAN
 10
108.240695
 20
-40.447872
 30
47.52604
 11
108.240695
 21
-40.447872
 31
7.52604
210
0.702701
220
0.711485
230
0.0
  0
LINE
  5
52
  8
TEAM-KAN
 10
89.30029
 20
-52.629057
 30
47.52604
 11
89.30029
 21
-52.629057
 31
12.52604
  0
LINE
  5
53
  8
TEAM-KAN
 10
87.87732
 20
-51.223655
 30
47.52604
 11
87.87732
 21
-51.223655
 31
12.52604
  0
LINE
  5
54
  8
TEAM-KAN
 10
87.87732
 20
-51.223655
 30
47.52604
 11
87.87732
 21
-51.223655
 31
12.52604
210
-0.711485
220
0.702701
230
0.0
  0
LINE
  5
55
  8
TEAM-KAN
 10
98.46007
 20
-40.508621
 30
47.52604
 11
98.46007
 21
-40.508621
 31
7.52604
210
-0.711485
220
0.702701
230
0.0
  0
LINE
  5
56
  8
TEAM-KAN
 10
118.955728
 20
-51.030621
 30
47.52604
 11
118.955728
 21
-51.030621
 31
12.52604
  0
LINE
  5
57
  8
TEAM-KAN
 10
117.550326
 20
-52.453591
 30
47.52604
 11
117.550326
 21
-52.453591
 31
12.52604
  0
LINE
  5
58
  8
TEAM-KAN
 10
117.550326
 20
-52.453591
 30
47.52604
 11
117.550326
 21
-52.453591
 31
12.52604
210
-0.702701
220
-0.711485
230
0.0
  0
LINE
  5
59
  8
TEAM-KAN
 10
106.835292
 20
-41.870842
 30
7.52604
 11
106.835292
 21
-41.870842
 31
47.52604
210
-0.702701
220
-0.711485
230
0.0
  0
LINE
  5
5A
  8
TEAM-KAN
 10
117.357292
 20
-21.375183
 30
47.52604
 11
117.357292
 21
-21.375183
 31
12.52604
  0
LINE
  5
5B
  8
TEAM-KAN
 10
118.780262
 20
-22.780585
 30
47.52604
 11
118.780262
 21
-22.780585
 31
12.52604
  0
LINE
  5
5C
  8
TEAM-KAN
 10
118.780262
 20
-22.780585
 30
47.52604
 11
118.780262
 21
-22.780585
 31
12.52604
210
0.711485
220
-0.702701
230
0.0
  0
LINE
  5
5D
  8
TEAM-KAN
 10
108.197513
 20
-33.495619
 30
7.52604
 11
108.197513
 21
-33.495619
 31
47.52604
210
0.711485
220
-0.702701
230
0.0
  0
LINE
  5
5E
  8
TEAM-KAN
 10
87.701854
 20
-22.973619
 30
47.52604
 11
87.701854
 21
-22.973619
 31
12.52604
  0
LINE
  5
5F
  8
TEAM-KAN
 10
89.107257
 20
-21.550649
 30
47.52604
 11
89.107257
 21
-21.550649
 31
12.52604
  0
LINE
  5
60
  8
TEAM-KAN
 10
89.107257
 20
-21.550649
 30
47.52604
 11
89.107257
 21
-21.550649
 31
12.52604
210
0.702701
220
0.711485
230
0.0
  0
LINE
  5
61
  8
TEAM-KAN
 10
99.82229
 20
-32.133398
 30
7.52604
 11
99.82229
 21
-32.133398
 31
47.52604
210
0.702701
220
0.711485
230
0.0
  0
LINE
  5
62
  8
TEAM-KAN
 10
124.328791
 20
-37.00212
 30
31.842382
 11
124.328791
 21
-37.00212
 31
2.0
1001
ACAD
1000
R13OBJECT
1002
{
1005
0
1002
}
  0
LINE
  5
63
  8
TEAM-KAN
 10
82.328791
 20
-37.00212
 30
31.842382
 11
82.328791
 21
-37.00212
 31
2.0
  0
LINE
  5
64
  8
TEAM-KAN
 10
103.328791
 20
-59.00212
 30
2.0
 11
103.328791
 21
-59.00212
 31
32.0
1001
ACAD
1000
R13OBJECT
1002
{
1005
0
1002
}
  0
LINE
  5
65
  8
TEAM-KAN
 10
125.328791
 20
-37.00212
 30
32.0
 11
125.328791
 21
-37.00212
 31
2.0
1001
ACAD
1000
R13OBJECT
1002
{
1005
0
1002
}
  0
LINE
  5
66
  8
TEAM-KAN
 10
81.328791
 20
-37.00212
 30
32.0
 11
81.328791
 21
-37.00212
 31
2.0
  0
LINE
  5
67
  8
TEAM-KAN
 10
103.328791
 20
-15.00212
 30
2.0
 11
103.328791
 21
-15.00212
 31
32.0
1001
ACAD
1000
R13OBJECT
1002
{
1005
0
1002
}
  0
LINE
  5
68
  8
TEAM-KAN
 10
125.328791
 20
-37.00212
 30
32.0
 11
125.328791
 21
-37.00212
 31
2.0
1001
ACAD
1000
R13OBJECT
1002
{
1005
0
1002
}
  0
LINE
  5
69
  8
TEAM-KAN
 10
81.328791
 20
-37.00212
 30
32.0
 11
81.328791
 21
-37.00212
 31
2.0
  0
LINE
  5
6A
  8
TEAM-KAN
 10
124.328791
 20
-37.00212
 30
31.842382
 11
124.328791
 21
-37.00212
 31
2.0
1001
ACAD
1000
R13OBJECT
1002
{
1005
0
1002
}
  0
LINE
  5
6B
  8
TEAM-KAN
 10
82.328791
 20
-37.00212
 30
31.842382
 11
82.328791
 21
-37.00212
 31
2.0
  0
LINE
  5
6C
  8
TEAM-KAN
 10
129.328791
 20
-37.00212
 30
31.0
 11
129.328791
 21
-37.00212
 31
0.0
  0
LINE
  5
6D
  8
TEAM-KAN
 10
77.328791
 20
-37.00212
 30
31.0
 11
77.328791
 21
-37.00212
 31
0.0
  0
LINE
  5
6E
  8
TEAM-KAN
 10
129.328791
 20
-37.00212
 30
31.0
 11
129.328791
 21
-37.00212
 31
0.0
  0
LINE
  5
6F
  8
TEAM-KAN
 10
77.328791
 20
-37.00212
 30
31.0
 11
77.328791
 21
-37.00212
 31
0.0
  0
LINE
  5
70
  8
TEAM-KAN
 10
146.212434
 20
-37.00212
 30
25.092027
 11
140.828791
 21
-37.00212
 31
5.0
  0
LINE
  5
71
  8
TEAM-KAN
 10
60.520253
 20
-37.00212
 30
24.811733
 11
65.828791
 21
-37.00212
 31
5.0
  0
LINE
  5
72
  8
TEAM-KAN
 10
146.212434
 20
-37.00212
 30
25.092027
 11
140.828791
 21
-37.00212
 31
5.0
  0
LINE
  5
73
  8
TEAM-KAN
 10
60.520253
 20
-37.00212
 30
24.811733
 11
65.828791
 21
-37.00212
 31
5.0
  0
LINE
  5
74
  8
TEAM-NET
 10
666.0
 20
-86.570809
 30
23.0
 11
666.0
 21
-86.570809
 31
0.0
210
0.0
220
-1.0
230
0.0
  0
LINE
  5
75
  8
TEAM-NET
 10
666.0
 20
-86.570809
 30
23.0
 11
666.0
 21
-86.570809
 31
0.0
210
1.0
220
0.0
230
0.0
  0
LINE
  5
76
  8
TEAM-NET
 10
602.955779
 20
166.570809
 30
23.0
 11
602.955779
 21
166.570809
 31
0.0
210
1.0
220
0.0
230
0.0
  0
LINE
  5
77
  8
TEAM-NET
 10
602.955779
 20
166.570809
 30
23.0
 11
602.955779
 21
166.570809
 31
0.0
210
0.0
220
1.0
230
0.0
  0
LINE
  5
78
  8
TEAM-NET
 10
-346.250812
 20
-378.530305
 30
23.0
 11
-346.250812
 21
-378.530305
 31
0.0
210
-1.0
220
0.0
230
0.0
  0
LINE
  5
79
  8
TEAM-NET
 10
-346.250812
 20
-378.530305
 30
23.0
 11
-346.250812
 21
-378.530305
 31
0.0
210
0.0
220
-1.0
230
0.0
  0
LINE
  5
7A
  8
TEAM-NET
 10
-449.415744
 20
166.570809
 30
23.0
 11
-449.415744
 21
166.570809
 31
0.0
210
0.0
220
1.0
230
0.0
  0
LINE
  5
7B
  8
TEAM-NET
 10
-449.415744
 20
166.570809
 30
23.0
 11
-449.415744
 21
166.570809
 31
0.0
210
-1.0
220
0.0
230
0.0
  0
LINE
  5
7C
  8
TEAM-NET
 10
-346.250812
 20
-378.530305
 30
0.0
 11
666.0
 21
-86.570809
 31
0.0
210
0.0
220
-1.0
230
0.0
  0
LINE
  5
7D
  8
TEAM-NET
 10
-346.250812
 20
-378.530305
 30
0.0
 11
666.0
 21
-86.570809
 31
0.0
210
0.0
220
0.0
230
-1.0
  0
LINE
  5
7E
  8
TEAM-NET
 10
602.955779
 20
166.570809
 30
0.0
 11
-449.415744
 21
166.570809
 31
0.0
210
0.0
220
0.0
230
-1.0
  0
LINE
  5
7F
  8
TEAM-NET
 10
602.955779
 20
166.570809
 30
0.0
 11
-449.415744
 21
166.570809
 31
0.0
210
0.0
220
1.0
230
0.0
  0
POLYLINE
  5
80
  8
TEAM-KAN
 66
     1
 10
0.0
 20
0.0
 30
47.282817
 70
   128
210
0.702701
220
0.711485
230
0.0
  0
VERTEX
  5
BE0
  8
TEAM-KAN
 10
-78.542147
 20
12.52604
 30
47.282817
  0
VERTEX
  5
BE1
  8
TEAM-KAN
 10
-80.009775
 20
8.989134
 30
47.282817
  0
VERTEX
  5
BE2
  8
TEAM-KAN
 10
-83.549605
 20
7.52604
 30
47.282817
  0
SEQEND
  5
BE3
  8
TEAM-KAN
  0
POLYLINE
  5
81
  8
TEAM-KAN
 66
     1
 10
0.0
 20
0.0
 30
-45.282817
 70
   128
210
-0.702701
220
-0.711485
230
-0.0
  0
VERTEX
  5
BE4
  8
TEAM-KAN
 10
83.549605
 20
7.52604
 30
-45.282817
  0
VERTEX
  5
BE5
  8
TEAM-KAN
 10
80.009768
 20
8.989141
 30
-45.282817
  0
VERTEX
  5
BE6
  8
TEAM-KAN
 10
78.542147
 20
12.52604
 30
-45.282817
  0
SEQEND
  5
BE7
  8
TEAM-KAN
  0
POLYLINE
  5
82
  8
TEAM-KAN
 66
     1
 10
0.0
 20
0.0
 30
100.518324
 70
   128
210
0.711485
220
-0.702701
230
-0.0
  0
VERTEX
  5
BE8
  8
TEAM-KAN
 10
67.258994
 20
12.52604
 30
100.518324
  0
VERTEX
  5
BE9
  8
TEAM-KAN
 10
65.791366
 20
8.989134
 30
100.518324
  0
VERTEX
  5
BEA
  8
TEAM-KAN
 10
62.251536
 20
7.52604
 30
100.518324
  0
SEQEND
  5
BEB
  8
TEAM-KAN
  0
POLYLINE
  5
83
  8
TEAM-KAN
 66
     1
 10
0.0
 20
0.0
 30
-98.518324
 70
   128
210
-0.711485
220
0.702701
230
-0.0
  0
VERTEX
  5
BEC
  8
TEAM-KAN
 10
-62.251536
 20
7.52604
 30
-98.518324
  0
VERTEX
  5
BED
  8
TEAM-KAN
 10
-65.791373
 20
8.989141
 30
-98.518324
  0
VERTEX
  5
BEE
  8
TEAM-KAN
 10
-67.258994
 20
12.52604
 30
-98.518324
  0
SEQEND
  5
BEF
  8
TEAM-KAN
  0
POLYLINE
  5
84
  8
TEAM-KAN
 66
     1
 10
0.0
 20
0.0
 30
-45.282817
 70
   128
210
-0.702701
220
-0.711485
230
0.0
  0
VERTEX
  5
BF0
  8
TEAM-KAN
 10
120.494501
 20
12.52604
 30
-45.282817
  0
VERTEX
  5
BF1
  8
TEAM-KAN
 10
119.026873
 20
8.989134
 30
-45.282817
  0
VERTEX
  5
BF2
  8
TEAM-KAN
 10
115.487044
 20
7.52604
 30
-45.282817
  0
SEQEND
  5
BF3
  8
TEAM-KAN
  0
POLYLINE
  5
85
  8
TEAM-KAN
 66
     1
 10
0.0
 20
0.0
 30
47.282817
 70
   128
210
0.702701
220
0.711485
230
-0.0
  0
VERTEX
  5
BF4
  8
TEAM-KAN
 10
-115.487044
 20
7.52604
 30
47.282817
  0
VERTEX
  5
BF5
  8
TEAM-KAN
 10
-119.02688
 20
8.989141
 30
47.282817
  0
VERTEX
  5
BF6
  8
TEAM-KAN
 10
-120.494501
 20
12.52604
 30
47.282817
  0
SEQEND
  5
BF7
  8
TEAM-KAN
  0
POLYLINE
  5
86
  8
TEAM-KAN
 66
     1
 10
0.0
 20
0.0
 30
-98.518324
 70
   128
210
-0.711485
220
0.702701
230
-0.0
  0
VERTEX
  5
BF8
  8
TEAM-KAN
 10
-25.30664
 20
12.52604
 30
-98.518324
  0
VERTEX
  5
BF9
  8
TEAM-KAN
 10
-26.774268
 20
8.989134
 30
-98.518324
  0
VERTEX
  5
BFA
  8
TEAM-KAN
 10
-30.314098
 20
7.52604
 30
-98.518324
  0
SEQEND
  5
BFB
  8
TEAM-KAN
  0
POLYLINE
  5
87
  8
TEAM-KAN
 66
     1
 10
0.0
 20
0.0
 30
100.518324
 70
   128
210
0.711485
220
-0.702701
230
-0.0
  0
VERTEX
  5
BFC
  8
TEAM-KAN
 10
30.314098
 20
7.52604
 30
100.518324
  0
VERTEX
  5
BFD
  8
TEAM-KAN
 10
26.774261
 20
8.989141
 30
100.518324
  0
VERTEX
  5
BFE
  8
TEAM-KAN
 10
25.30664
 20
12.52604
 30
100.518324
  0
SEQEND
  5
BFF
  8
TEAM-KAN
  0
POLYLINE
  5
88
  8
TEAM-KAN
 66
     1
 10
0.0
 20
0.0
 30
47.282817
 70
   128
210
0.702701
220
0.711485
230
0.0
  0
VERTEX
  5
C00
  8
TEAM-KAN
 10
-78.542147
 20
12.52604
 30
47.282817
  0
VERTEX
  5
C01
  8
TEAM-KAN
 10
-80.009775
 20
8.989134
 30
47.282817
  0
VERTEX
  5
C02
  8
TEAM-KAN
 10
-83.549605
 20
7.52604
 30
47.282817
  0
SEQEND
  5
C03
  8
TEAM-KAN
  0
POLYLINE
  5
89
  8
TEAM-KAN
 66
     1
 10
0.0
 20
0.0
 30
100.518324
 70
   128
210
0.711485
220
-0.702701
230
-0.0
  0
VERTEX
  5
C04
  8
TEAM-KAN
 10
67.258994
 20
12.52604
 30
100.518324
  0
VERTEX
  5
C05
  8
TEAM-KAN
 10
65.791366
 20
8.989134
 30
100.518324
  0
VERTEX
  5
C06
  8
TEAM-KAN
 10
62.251536
 20
7.52604
 30
100.518324
  0
SEQEND
  5
C07
  8
TEAM-KAN
  0
POLYLINE
  5
8A
  8
TEAM-KAN
 66
     1
 10
0.0
 20
0.0
 30
-45.282817
 70
   128
210
-0.702701
220
-0.711485
230
0.0
  0
VERTEX
  5
C08
  8
TEAM-KAN
 10
120.494501
 20
12.52604
 30
-45.282817
  0
VERTEX
  5
C09
  8
TEAM-KAN
 10
119.026873
 20
8.989134
 30
-45.282817
  0
VERTEX
  5
C0A
  8
TEAM-KAN
 10
115.487044
 20
7.52604
 30
-45.282817
  0
SEQEND
  5
C0B
  8
TEAM-KAN
  0
POLYLINE
  5
8B
  8
TEAM-KAN
 66
     1
 10
0.0
 20
0.0
 30
-98.518324
 70
   128
210
-0.711485
220
0.702701
230
-0.0
  0
VERTEX
  5
C0C
  8
TEAM-KAN
 10
-25.30664
 20
12.52604
 30
-98.518324
  0
VERTEX
  5
C0D
  8
TEAM-KAN
 10
-26.774268
 20
8.989134
 30
-98.518324
  0
VERTEX
  5
C0E
  8
TEAM-KAN
 10
-30.314098
 20
7.52604
 30
-98.518324
  0
SEQEND
  5
C0F
  8
TEAM-KAN
  0
POLYLINE
  5
8C
  8
TEAM-KAN
 66
     1
 10
0.0
 20
0.0
 30
47.282817
 70
   128
210
0.702701
220
0.711485
230
-0.0
  0
VERTEX
  5
C10
  8
TEAM-KAN
 10
-115.487044
 20
7.52604
 30
47.282817
  0
VERTEX
  5
C11
  8
TEAM-KAN
 10
-119.02688
 20
8.989141
 30
47.282817
  0
VERTEX
  5
C12
  8
TEAM-KAN
 10
-120.494501
 20
12.52604
 30
47.282817
  0
SEQEND
  5
C13
  8
TEAM-KAN
  0
POLYLINE
  5
8D
  8
TEAM-KAN
 66
     1
 10
0.0
 20
0.0
 30
-98.518324
 70
   128
210
-0.711485
220
0.702701
230
-0.0
  0
VERTEX
  5
C14
  8
TEAM-KAN
 10
-62.251536
 20
7.52604
 30
-98.518324
  0
VERTEX
  5
C15
  8
TEAM-KAN
 10
-65.791373
 20
8.989141
 30
-98.518324
  0
VERTEX
  5
C16
  8
TEAM-KAN
 10
-67.258994
 20
12.52604
 30
-98.518324
  0
SEQEND
  5
C17
  8
TEAM-KAN
  0
POLYLINE
  5
8E
  8
TEAM-KAN
 66
     1
 10
0.0
 20
0.0
 30
-45.282817
 70
   128
210
-0.702701
220
-0.711485
230
-0.0
  0
VERTEX
  5
C18
  8
TEAM-KAN
 10
83.549605
 20
7.52604
 30
-45.282817
  0
VERTEX
  5
C19
  8
TEAM-KAN
 10
80.009768
 20
8.989141
 30
-45.282817
  0
VERTEX
  5
C1A
  8
TEAM-KAN
 10
78.542147
 20
12.52604
 30
-45.282817
  0
SEQEND
  5
C1B
  8
TEAM-KAN
  0
POLYLINE
  5
8F
  8
TEAM-KAN
 66
     1
 10
0.0
 20
0.0
 30
100.518324
 70
   128
210
0.711485
220
-0.702701
230
-0.0
  0
VERTEX
  5
C1C
  8
TEAM-KAN
 10
30.314098
 20
7.52604
 30
100.518324
  0
VERTEX
  5
C1D
  8
TEAM-KAN
 10
26.774261
 20
8.989141
 30
100.518324
  0
VERTEX
  5
C1E
  8
TEAM-KAN
 10
25.30664
 20
12.52604
 30
100.518324
  0
SEQEND
  5
C1F
  8
TEAM-KAN
  0
LINE
  5
90
  8
TEAM-KAN
 10
92.819037
 20
-49.066326
 30
7.52604
 11
99.88304
 21
-41.914023
 31
7.52604
210
0.711485
220
-0.702701
230
0.0
  0
ARC
  5
91
  8
TEAM-KAN
 10
103.328791
 20
-37.00212
 30
7.52604
 40
6.0
 50
54.949938
 51
125.761802
  0
ARC
  5
92
  8
TEAM-KAN
 10
103.328791
 20
-37.00212
 30
7.52604
 40
6.0
 50
144.949938
 51
215.761802
  0
LINE
  5
93
  8
TEAM-KAN
 10
91.264585
 20
-26.492366
 30
7.52604
 11
98.416888
 21
-33.556368
 31
7.52604
210
-0.702701
220
-0.711485
230
0.0
  0
ARC
  5
94
  8
TEAM-KAN
 10
103.328791
 20
-37.00212
 30
7.52604
 40
6.0
 50
324.949938
 51
35.761802
  0
LINE
  5
95
  8
TEAM-KAN
 10
113.838545
 20
-24.937914
 30
7.52604
 11
106.774543
 21
-32.090217
 31
7.52604
210
-0.711485
220
0.702701
230
0.0
  0
ARC
  5
96
  8
TEAM-KAN
 10
103.328791
 20
-37.00212
 30
7.52604
 40
6.0
 50
234.949938
 51
305.761802
  0
LINE
  5
97
  8
TEAM-KAN
 10
115.392997
 20
-47.511874
 30
7.52604
 11
108.240695
 21
-40.447872
 31
7.52604
210
0.702701
220
0.711485
230
0.0
  0
LINE
  5
98
  8
TEAM-KAN
 10
98.46007
 20
-40.508621
 30
7.52604
 11
91.396067
 21
-47.660924
 31
7.52604
210
-0.711485
220
0.702701
230
0.0
  0
LINE
  5
99
  8
TEAM-KAN
 10
106.835292
 20
-41.870842
 30
7.52604
 11
113.987595
 21
-48.934844
 31
7.52604
210
-0.702701
220
-0.711485
230
0.0
  0
LINE
  5
9A
  8
TEAM-KAN
 10
108.197513
 20
-33.495619
 30
7.52604
 11
115.261515
 21
-26.343316
 31
7.52604
210
0.711485
220
-0.702701
230
0.0
  0
LINE
  5
9B
  8
TEAM-KAN
 10
99.82229
 20
-32.133398
 30
7.52604
 11
92.669988
 21
-25.069396
 31
7.52604
210
0.702701
220
0.711485
230
0.0
  0
ARC
  5
9C
  8
TEAM-KAN
 10
103.328791
 20
-37.00212
 30
7.52604
 40
16.0
 50
221.772548
 51
228.939192
  0
ARC
  5
9D
  8
TEAM-KAN
 10
103.328791
 20
-37.00212
 30
7.52604
 40
16.0
 50
311.772548
 51
318.939192
  0
ARC
  5
9E
  8
TEAM-KAN
 10
103.328791
 20
-37.00212
 30
7.52604
 40
16.0
 50
41.772548
 51
48.939192
  0
ARC
  5
9F
  8
TEAM-KAN
 10
103.328791
 20
-37.00212
 30
7.52604
 40
16.0
 50
131.772548
 51
138.939192
  0
ARC
  5
A0
  8
TEAM-KAN
 10
-103.328791
 20
-37.00212
 30
-7.52604
 40
16.0
210
0.0
220
0.0
230
-1.0
 50
41.060808
 51
48.227452
  0
LINE
  5
A1
  8
TEAM-KAN
 10
99.82229
 20
-32.133398
 30
7.52604
 11
92.669988
 21
-25.069396
 31
7.52604
210
0.0
220
0.0
230
-1.0
  0
LINE
  5
A2
  8
TEAM-KAN
 10
91.264585
 20
-26.492366
 30
7.52604
 11
98.416888
 21
-33.556368
 31
7.52604
210
0.0
220
0.0
230
-1.0
  0
ARC
  5
A3
  8
TEAM-KAN
 10
-103.328791
 20
-37.00212
 30
-7.52604
 40
6.0
210
0.0
220
0.0
230
-1.0
 50
54.238198
 51
125.050062
  0
ARC
  5
A4
  8
TEAM-KAN
 10
-103.328791
 20
-37.00212
 30
-7.52604
 40
6.0
210
0.0
220
0.0
230
-1.0
 50
324.238198
 51
35.050062
  0
LINE
  5
A5
  8
TEAM-KAN
 10
113.838545
 20
-24.937914
 30
7.52604
 11
106.774543
 21
-32.090217
 31
7.52604
210
0.0
220
0.0
230
-1.0
  0
LINE
  5
A6
  8
TEAM-KAN
 10
98.46007
 20
-40.508621
 30
7.52604
 11
91.396067
 21
-47.660924
 31
7.52604
210
0.0
220
0.0
230
-1.0
  0
ARC
  5
A7
  8
TEAM-KAN
 10
-103.328791
 20
-37.00212
 30
-7.52604
 40
16.0
210
0.0
220
0.0
230
-1.0
 50
131.060808
 51
138.227452
  0
ARC
  5
A8
  8
TEAM-KAN
 10
-103.328791
 20
-37.00212
 30
-7.52604
 40
16.0
210
0.0
220
0.0
230
-1.0
 50
311.060808
 51
318.227452
  0
LINE
  5
A9
  8
TEAM-KAN
 10
108.197513
 20
-33.495619
 30
7.52604
 11
115.261515
 21
-26.343316
 31
7.52604
210
0.0
220
0.0
230
-1.0
  0
LINE
  5
AA
  8
TEAM-KAN
 10
92.819037
 20
-49.066326
 30
7.52604
 11
99.88304
 21
-41.914023
 31
7.52604
210
0.0
220
0.0
230
-1.0
  0
ARC
  5
AB
  8
TEAM-KAN
 10
-103.328791
 20
-37.00212
 30
-7.52604
 40
6.0
210
0.0
220
0.0
230
-1.0
 50
144.238198
 51
215.050062
  0
ARC
  5
AC
  8
TEAM-KAN
 10
-103.328791
 20
-37.00212
 30
-7.52604
 40
6.0
210
0.0
220
0.0
230
-1.0
 50
234.238198
 51
305.050062
  0
LINE
  5
AD
  8
TEAM-KAN
 10
115.392997
 20
-47.511874
 30
7.52604
 11
108.240695
 21
-40.447872
 31
7.52604
210
0.0
220
0.0
230
-1.0
  0
LINE
  5
AE
  8
TEAM-KAN
 10
106.835292
 20
-41.870842
 30
7.52604
 11
113.987595
 21
-48.934844
 31
7.52604
210
0.0
220
0.0
230
-1.0
  0
ARC
  5
AF
  8
TEAM-KAN
 10
-103.328791
 20
-37.00212
 30
-7.52604
 40
16.0
210
0.0
220
0.0
230
-1.0
 50
221.060808
 51
228.227452
  0
ARC
  5
B0
  8
TEAM-KAN
 10
-103.328791
 20
-37.00212
 30
-12.52604
 40
21.0
210
0.0
220
0.0
230
-1.0
 50
311.914727
 51
317.373533
  0
ARC
  5
B1
  8
TEAM-KAN
 10
-103.328791
 20
-37.00212
 30
-12.52604
 40
21.0
210
0.0
220
0.0
230
-1.0
 50
221.914727
 51
227.373533
  0
ARC
  5
B2
  8
TEAM-KAN
 10
-103.328791
 20
-37.00212
 30
-12.52604
 40
21.0
210
0.0
220
0.0
230
-1.0
 50
131.914727
 51
137.373533
  0
ARC
  5
B3
  8
TEAM-KAN
 10
-103.328791
 20
-37.00212
 30
-12.52604
 40
21.0
210
0.0
220
0.0
230
-1.0
 50
41.914727
 51
47.373533
  0
ARC
  5
B4
  8
TEAM-KAN
 10
-103.328791
 20
-37.00212
 30
-12.52604
 40
21.0
210
0.0
220
0.0
230
-1.0
 50
311.914727
 51
317.373533
  0
ARC
  5
B5
  8
TEAM-KAN
 10
-103.328791
 20
-37.00212
 30
-12.52604
 40
21.0
210
0.0
220
0.0
230
-1.0
 50
221.914727
 51
227.373533
  0
ARC
  5
B6
  8
TEAM-KAN
 10
-103.328791
 20
-37.00212
 30
-12.52604
 40
21.0
210
0.0
220
0.0
230
-1.0
 50
131.914727
 51
137.373533
  0
ARC
  5
B7
  8
TEAM-KAN
 10
-103.328791
 20
-37.00212
 30
-12.52604
 40
21.0
210
0.0
220
0.0
230
-1.0
 50
41.914727
 51
47.373533
  0
CIRCLE
  5
B8
  8
TEAM-INSP
 10
0.0
 20
0.0
 30
0.0
 40
10.0
  0
ARC
  5
BA
  8
TEAM-KAN
 10
-103.328791
 20
-37.00212
 30
-2.0
 40
22.0
210
0.0
220
0.0
230
-1.0
 50
0.0
 51
180.0
1001
ACAD
1000
R13OBJECT
1002
{
1005
0
1002
}
  0
ARC
  5
BB
  8
TEAM-KAN
 10
-103.328791
 20
-37.00212
 30
-2.0
 40
22.0
210
0.0
220
0.0
230
-1.0
 50
180.0
 51
0.0
1001
ACAD
1000
R13OBJECT
1002
{
1005
0
1002
}
  0
ARC
  5
BC
  8
TEAM-KAN
 10
-103.328791
 20
-37.00212
 30
-2.0
 40
21.0
210
0.0
220
0.0
230
-1.0
 50
0.0
 51
180.0
1001
ACAD
1000
R13OBJECT
1002
{
1005
0
1002
}
  0
ARC
  5
BD
  8
TEAM-KAN
 10
-103.328791
 20
-37.00212
 30
-2.0
 40
21.0
210
0.0
220
0.0
230
-1.0
 50
180.0
 51
360.0
  0
ARC
  5
BE
  8
TEAM-KAN
 10
103.328791
 20
-37.00212
 30
0.0
 40
26.0
 50
0.0
 51
180.0
  0
ARC
  5
BF
  8
TEAM-KAN
 10
103.328791
 20
-37.00212
 30
0.0
 40
26.0
 50
180.0
 51
0.0
  0
ARC
  5
C0
  8
TEAM-KAN
 10
103.328791
 20
-37.00212
 30
5.0
 40
37.5
 50
180.0
 51
0.0
  0
ARC
  5
C1
  8
TEAM-KAN
 10
103.328791
 20
-37.00212
 30
5.0
 40
37.5
 50
0.0
 51
180.0
  0
LINE
  5
C2
  8
TEAM-KAN
 10
140.828791
 20
-37.00212
 30
0.0
 11
140.828791
 21
-37.00212
 31
5.0
  0
ARC
  5
C3
  8
TEAM-KAN
 10
103.328791
 20
-37.00212
 30
0.0
 40
37.5
 50
0.0
 51
180.0
  0
ARC
  5
C4
  8
TEAM-KAN
 10
103.328791
 20
-37.00212
 30
5.0
 40
37.5
 50
0.0
 51
180.0
  0
LINE
  5
C5
  8
TEAM-KAN
 10
65.828791
 20
-37.00212
 30
0.0
 11
65.828791
 21
-37.00212
 31
5.0
  0
LINE
  5
C6
  8
TEAM-KAN
 10
140.828791
 20
-37.00212
 30
0.0
 11
140.828791
 21
-37.00212
 31
5.0
  0
ARC
  5
C7
  8
TEAM-KAN
 10
103.328791
 20
-37.00212
 30
5.0
 40
37.5
 50
180.0
 51
0.0
  0
ARC
  5
C8
  8
TEAM-KAN
 10
103.328791
 20
-37.00212
 30
0.0
 40
37.5
 50
180.0
 51
0.0
  0
LINE
  5
C9
  8
TEAM-KAN
 10
65.828791
 20
-37.00212
 30
0.0
 11
65.828791
 21
-37.00212
 31
5.0
  0
ARC
  5
CA
  8
TEAM-KAN
 10
-103.328791
 20
-37.00212
 30
0.0
 40
37.5
210
0.0
220
0.0
230
-1.0
 50
180.0
 51
0.0
  0
ARC
  5
CB
  8
TEAM-KAN
 10
-103.328791
 20
-37.00212
 30
0.0
 40
37.5
210
0.0
220
0.0
230
-1.0
 50
360.0
 51
180.0
  0
ARC
  5
CC
  8
TEAM-KAN
 10
-103.328791
 20
-37.00212
 30
0.0
 40
26.0
210
0.0
220
0.0
230
-1.0
 50
180.0
 51
0.0
  0
ARC
  5
CD
  8
TEAM-KAN
 10
-103.328791
 20
-37.00212
 30
0.0
 40
26.0
210
0.0
220
0.0
230
-1.0
 50
360.0
 51
180.0
  0
LINE
  5
CE
  8
TEAM-NET
 10
-449.415744
 20
166.570809
 30
0.0
 11
-346.250812
 21
-378.530305
 31
0.0
210
0.0
220
0.0
230
-1.0
  0
LINE
  5
CF
  8
TEAM-NET
 10
-449.415744
 20
166.570809
 30
0.0
 11
-346.250812
 21
-378.530305
 31
0.0
210
-1.0
220
0.0
230
0.0
  0
ARC
  5
D0
  8
TEAM-KAN
 10
-103.328791
 20
-37.00212
 30
-2.0
 40
21.0
210
0.0
220
0.0
230
-1.0
 50
0.0
 51
180.0
1001
ACAD
1000
R13OBJECT
1002
{
1005
0
1002
}
  0
ARC
  5
D1
  8
TEAM-KAN
 10
-103.328791
 20
-37.00212
 30
-2.0
 40
22.0
210
0.0
220
0.0
230
-1.0
 50
180.0
 51
0.0
1001
ACAD
1000
R13OBJECT
1002
{
1005
0
1002
}
  0
ARC
  5
D2
  8
TEAM-KAN
 10
-103.328791
 20
-37.00212
 30
-2.0
 40
22.0
210
0.0
220
0.0
230
-1.0
 50
0.0
 51
180.0
1001
ACAD
1000
R13OBJECT
1002
{
1005
0
1002
}
  0
ARC
  5
D3
  8
TEAM-KAN
 10
-103.328791
 20
-37.00212
 30
-2.0
 40
21.0
210
0.0
220
0.0
230
-1.0
 50
180.0
 51
360.0
1001
ACAD
1000
R13OBJECT
1002
{
1005
0
1002
}
  0
LINE
  5
D4
  8
TEAM-NET
 10
666.0
 20
-86.570809
 30
0.0
 11
602.955779
 21
166.570809
 31
0.0
210
1.0
220
0.0
230
0.0
  0
LINE
  5
D5
  8
TEAM-NET
 10
666.0
 20
-86.570809
 30
0.0
 11
602.955779
 21
166.570809
 31
0.0
210
0.0
220
0.0
230
-1.0
  0
ARC
  5
D6
  8
TEAM-NET
 10
191.570809
 20
40.0
 30
626.008231
 40
10.0
210
1.0
220
0.0
230
0.0
 50
270.0
 51
350.256359
  0
ARC
  5
D7
  8
TEAM-NET
 10
191.570809
 20
40.0
 30
626.008231
 40
10.0
210
1.0
220
0.0
230
0.0
 50
270.0
 51
350.256359
  0
ARC
  5
D8
  8
TEAM-NET
 10
645.719728
 20
40.0
 30
-171.859312
 40
10.0
210
0.0
220
-1.0
230
0.0
 50
270.0
 51
350.256359
  0
ARC
  5
D9
  8
TEAM-NET
 10
645.719728
 20
40.0
 30
-171.859312
 40
10.0
210
0.0
220
-1.0
230
0.0
 50
270.0
 51
350.256359
  0
ARC
  5
DA
  8
TEAM-NET
 10
-403.530305
 20
40.0
 30
-349.844653
 40
10.0
210
1.0
220
0.0
230
0.0
 50
189.743641
 51
270.0
  0
ARC
  5
DB
  8
TEAM-NET
 10
-403.530305
 20
40.0
 30
-349.844653
 40
10.0
210
1.0
220
0.0
230
0.0
 50
189.743641
 51
270.0
  0
ARC
  5
DC
  8
TEAM-NET
 10
691.570809
 20
40.0
 30
91.859312
 40
10.0
210
0.0
220
-1.0
230
0.0
 50
270.0
 51
350.256359
  0
ARC
  5
DD
  8
TEAM-NET
 10
-111.570809
 20
40.0
 30
671.859312
 40
10.0
210
1.0
220
0.0
230
0.0
 50
189.743641
 51
270.0
  0
ARC
  5
DE
  8
TEAM-NET
 10
-111.570809
 20
40.0
 30
671.859312
 40
10.0
210
1.0
220
0.0
230
0.0
 50
189.743641
 51
270.0
  0
ARC
  5
DF
  8
TEAM-NET
 10
691.570809
 20
40.0
 30
91.859312
 40
10.0
210
0.0
220
-1.0
230
0.0
 50
270.0
 51
350.256359
  0
ARC
  5
E0
  8
TEAM-NET
 10
191.570809
 20
40.0
 30
-453.009585
 40
10.0
210
1.0
220
0.0
230
0.0
 50
270.0
 51
350.256359
  0
ARC
  5
E1
  8
TEAM-NET
 10
191.570809
 20
40.0
 30
-453.009585
 40
10.0
210
1.0
220
0.0
230
0.0
 50
270.0
 51
350.256359
  0
LINE
  5
E2
  8
TEAM-KAN
 10
135.224324
 20
-37.00212
 30
40.52604
 11
124.328791
 21
-37.00212
 31
31.842382
1001
ACAD
1000
R13OBJECT
1002
{
1005
0
1002
}
  0
LINE
  5
E3
  8
TEAM-KAN
 10
71.433258
 20
-37.00212
 30
40.52604
 11
82.328791
 21
-37.00212
 31
31.842382
  0
LINE
  5
E4
  8
TEAM-KAN
 10
103.328791
 20
-59.00212
 30
32.0
 11
103.328791
 21
-69.699886
 31
40.52604
1001
ACAD
1000
R13OBJECT
1002
{
1005
0
1002
}
  0
LINE
  5
E5
  8
TEAM-KAN
 10
136.026558
 20
-37.00212
 30
40.52604
 11
125.328791
 21
-37.00212
 31
32.0
1001
ACAD
1000
R13OBJECT
1002
{
1005
0
1002
}
  0
LINE
  5
E6
  8
TEAM-KAN
 10
70.631025
 20
-37.00212
 30
40.52604
 11
81.328791
 21
-37.00212
 31
32.0
  0
LINE
  5
E7
  8
TEAM-KAN
 10
103.328791
 20
-15.00212
 30
32.0
 11
103.328791
 21
-4.304354
 31
40.52604
1001
ACAD
1000
R13OBJECT
1002
{
1005
0
1002
}
  0
LINE
  5
E8
  8
TEAM-KAN
 10
136.026558
 20
-37.00212
 30
40.52604
 11
125.328791
 21
-37.00212
 31
32.0
1001
ACAD
1000
R13OBJECT
1002
{
1005
0
1002
}
  0
LINE
  5
E9
  8
TEAM-KAN
 10
70.631025
 20
-37.00212
 30
40.52604
 11
81.328791
 21
-37.00212
 31
32.0
  0
LINE
  5
EA
  8
TEAM-KAN
 10
135.224324
 20
-37.00212
 30
40.52604
 11
124.328791
 21
-37.00212
 31
31.842382
1001
ACAD
1000
R13OBJECT
1002
{
1005
0
1002
}
  0
LINE
  5
EB
  8
TEAM-KAN
 10
71.433258
 20
-37.00212
 30
40.52604
 11
82.328791
 21
-37.00212
 31
31.842382
  0
LINE
  5
EC
  8
TEAM-KAN
 10
135.328791
 20
-37.00212
 30
37.0
 11
129.328791
 21
-37.00212
 31
31.0
  0
LINE
  5
ED
  8
TEAM-KAN
 10
71.328791
 20
-37.00212
 30
37.0
 11
77.328791
 21
-37.00212
 31
31.0
  0
LINE
  5
EE
  8
TEAM-KAN
 10
135.328791
 20
-37.00212
 30
37.0
 11
129.328791
 21
-37.00212
 31
31.0
  0
LINE
  5
EF
  8
TEAM-KAN
 10
71.328791
 20
-37.00212
 30
37.0
 11
77.328791
 21
-37.00212
 31
31.0
  0
POLYLINE
  5
F0
  8
TEAM-NET
 66
     1
 10
0.0
 20
0.0
 30
111.795623
 70
   128
210
-0.159154
220
-0.044354
230
0.986257
  0
VERTEX
  5
C20
  8
TEAM-NET
 10
304.29252
 20
-435.493494
 30
111.795623
  0
VERTEX
  5
C21
  8
TEAM-NET
 10
302.069837
 20
-441.021085
 30
111.795623
  0
VERTEX
  5
C22
  8
TEAM-NET
 10
298.948698
 20
-446.009072
 30
111.795623
  0
VERTEX
  5
C23
  8
TEAM-NET
 10
295.035892
 20
-450.286792
 30
111.795623
  0
VERTEX
  5
C24
  8
TEAM-NET
 10
290.465296
 20
-453.707883
 30
111.795623
  0
VERTEX
  5
C25
  8
TEAM-NET
 10
285.393293
 20
-456.155293
 30
111.795623
  0
VERTEX
  5
C26
  8
TEAM-NET
 10
279.99342
 20
-457.545284
 30
111.795623
  0
VERTEX
  5
C27
  8
TEAM-NET
 10
274.450434
 20
-457.830297
 30
111.795623
  0
VERTEX
  5
C28
  8
TEAM-NET
 10
268.953988
 20
-457.000581
 30
111.795623
  0
SEQEND
  5
C29
  8
TEAM-NET
  0
POLYLINE
  5
F1
  8
TEAM-NET
 66
     1
 10
0.0
 20
0.0
 30
111.795623
 70
   128
210
-0.159154
220
-0.044354
230
0.986257
  0
VERTEX
  5
C2A
  8
TEAM-NET
 10
304.29252
 20
-435.493494
 30
111.795623
  0
VERTEX
  5
C2B
  8
TEAM-NET
 10
302.069837
 20
-441.021085
 30
111.795623
  0
VERTEX
  5
C2C
  8
TEAM-NET
 10
298.948698
 20
-446.009072
 30
111.795623
  0
VERTEX
  5
C2D
  8
TEAM-NET
 10
295.035892
 20
-450.286792
 30
111.795623
  0
VERTEX
  5
C2E
  8
TEAM-NET
 10
290.465296
 20
-453.707883
 30
111.795623
  0
VERTEX
  5
C2F
  8
TEAM-NET
 10
285.393293
 20
-456.155293
 30
111.795623
  0
VERTEX
  5
C30
  8
TEAM-NET
 10
279.99342
 20
-457.545284
 30
111.795623
  0
VERTEX
  5
C31
  8
TEAM-NET
 10
274.450434
 20
-457.830297
 30
111.795623
  0
VERTEX
  5
C32
  8
TEAM-NET
 10
268.953988
 20
-457.000581
 30
111.795623
  0
SEQEND
  5
C33
  8
TEAM-NET
  0
POLYLINE
  5
F2
  8
TEAM-NET
 66
     1
 10
0.0
 20
0.0
 30
118.813383
 70
   128
210
-0.159154
220
0.044354
230
0.986257
  0
VERTEX
  5
C34
  8
TEAM-NET
 10
-37.079768
 20
-498.892449
 30
118.813383
  0
VERTEX
  5
C35
  8
TEAM-NET
 10
-42.576214
 20
-499.722165
 30
118.813383
  0
VERTEX
  5
C36
  8
TEAM-NET
 10
-48.1192
 20
-499.437152
 30
118.813383
  0
VERTEX
  5
C37
  8
TEAM-NET
 10
-53.519073
 20
-498.047161
 30
118.813383
  0
VERTEX
  5
C38
  8
TEAM-NET
 10
-58.591076
 20
-495.599751
 30
118.813383
  0
VERTEX
  5
C39
  8
TEAM-NET
 10
-63.161672
 20
-492.17866
 30
118.813383
  0
VERTEX
  5
C3A
  8
TEAM-NET
 10
-67.074478
 20
-487.90094
 30
118.813383
  0
VERTEX
  5
C3B
  8
TEAM-NET
 10
-70.195617
 20
-482.912953
 30
118.813383
  0
VERTEX
  5
C3C
  8
TEAM-NET
 10
-72.4183
 20
-477.385362
 30
118.813383
  0
SEQEND
  5
C3D
  8
TEAM-NET
  0
POLYLINE
  5
F3
  8
TEAM-NET
 66
     1
 10
0.0
 20
0.0
 30
118.813383
 70
   128
210
-0.159154
220
0.044354
230
0.986257
  0
VERTEX
  5
C3E
  8
TEAM-NET
 10
-37.079768
 20
-498.892449
 30
118.813383
  0
VERTEX
  5
C3F
  8
TEAM-NET
 10
-42.576214
 20
-499.722165
 30
118.813383
  0
VERTEX
  5
C40
  8
TEAM-NET
 10
-48.1192
 20
-499.437152
 30
118.813383
  0
VERTEX
  5
C41
  8
TEAM-NET
 10
-53.519073
 20
-498.047161
 30
118.813383
  0
VERTEX
  5
C42
  8
TEAM-NET
 10
-58.591076
 20
-495.599751
 30
118.813383
  0
VERTEX
  5
C43
  8
TEAM-NET
 10
-63.161672
 20
-492.17866
 30
118.813383
  0
VERTEX
  5
C44
  8
TEAM-NET
 10
-67.074478
 20
-487.90094
 30
118.813383
  0
VERTEX
  5
C45
  8
TEAM-NET
 10
-70.195617
 20
-482.912953
 30
118.813383
  0
VERTEX
  5
C46
  8
TEAM-NET
 10
-72.4183
 20
-477.385362
 30
118.813383
  0
SEQEND
  5
C47
  8
TEAM-NET
  0
ARC
  5
F4
  8
TEAM-NET
 10
177.241184
 20
57.0
 30
621.534355
 40
20.0
210
1.0
220
0.0
230
0.0
 50
270.0
 51
350.256359
  0
ARC
  5
F5
  8
TEAM-NET
 10
631.390103
 20
57.0
 30
-167.385436
 40
20.0
210
0.0
220
-1.0
230
0.0
 50
270.0
 51
350.256359
  0
ARC
  5
F6
  8
TEAM-NET
 10
177.241184
 20
57.0
 30
621.534355
 40
20.0
210
1.0
220
0.0
230
0.0
 50
270.0
 51
350.256359
  0
ARC
  5
F7
  8
TEAM-NET
 10
631.390103
 20
57.0
 30
-167.385436
 40
20.0
210
0.0
220
-1.0
230
0.0
 50
270.0
 51
350.256359
  0
ARC
  5
F8
  8
TEAM-NET
 10
-361.757576
 20
57.0
 30
379.955107
 40
20.0
210
0.0
220
-1.0
230
0.0
 50
211.639782
 51
270.0
  0
ARC
  5
F9
  8
TEAM-NET
 10
-389.200681
 20
57.0
 30
-351.054497
 40
20.0
210
1.0
220
0.0
230
0.0
 50
189.743641
 51
270.0
  0
ARC
  5
FA
  8
TEAM-NET
 10
-361.757576
 20
57.0
 30
379.955107
 40
20.0
210
0.0
220
-1.0
230
0.0
 50
211.639782
 51
270.0
  0
ARC
  5
FB
  8
TEAM-NET
 10
-389.200681
 20
57.0
 30
-351.054497
 40
20.0
210
1.0
220
0.0
230
0.0
 50
189.743641
 51
270.0
  0
ARC
  5
FC
  8
TEAM-NET
 10
-677.241184
 20
57.0
 30
-87.385436
 40
20.0
210
0.0
220
1.0
230
0.0
 50
189.743641
 51
270.0
  0
ARC
  5
FD
  8
TEAM-NET
 10
-97.241184
 20
57.0
 30
667.385436
 40
20.0
210
1.0
220
0.0
230
0.0
 50
189.743641
 51
270.0
  0
ARC
  5
FE
  8
TEAM-NET
 10
-677.241184
 20
57.0
 30
-87.385436
 40
20.0
210
0.0
220
1.0
230
0.0
 50
189.743641
 51
270.0
  0
ARC
  5
FF
  8
TEAM-NET
 10
-97.241184
 20
57.0
 30
667.385436
 40
20.0
210
1.0
220
0.0
230
0.0
 50
189.743641
 51
270.0
  0
ARC
  5
100
  8
TEAM-NET
 10
177.241184
 20
57.0
 30
-454.219429
 40
20.0
210
1.0
220
0.0
230
0.0
 50
270.0
 51
350.256359
  0
ARC
  5
101
  8
TEAM-NET
 10
464.922509
 20
57.0
 30
167.99561
 40
20.0
210
0.0
220
1.0
230
0.0
 50
270.0
 51
328.360218
  0
ARC
  5
102
  8
TEAM-NET
 10
177.241184
 20
57.0
 30
-454.219429
 40
20.0
210
1.0
220
0.0
230
0.0
 50
270.0
 51
350.256359
  0
ARC
  5
103
  8
TEAM-NET
 10
464.922509
 20
57.0
 30
167.99561
 40
20.0
210
0.0
220
1.0
230
0.0
 50
270.0
 51
328.360218
  0
LINE
  5
104
  8
TEAM-NET
 10
673.0
 20
-93.570809
 30
30.0
 11
-353.250812
 21
-385.530305
 31
30.0
  0
LINE
  5
105
  8
TEAM-NET
 10
673.0
 20
-93.570809
 30
30.0
 11
-353.250812
 21
-385.530305
 31
30.0
210
0.0
220
0.0
230
-1.0
  0
LINE
  5
106
  8
TEAM-NET
 10
-456.415744
 20
173.570809
 30
30.0
 11
609.955779
 21
173.570809
 31
30.0
210
0.0
220
0.0
230
-1.0
  0
LINE
  5
107
  8
TEAM-NET
 10
-456.415744
 20
173.570809
 30
30.0
 11
609.955779
 21
173.570809
 31
30.0
  0
LINE
  5
108
  8
TEAM-NET
 10
626.008231
 20
191.570809
 30
30.0
 11
-453.009585
 21
191.570809
 31
30.0
  0
LINE
  5
109
  8
TEAM-NET
 10
626.008231
 20
191.570809
 30
30.0
 11
-453.009585
 21
191.570809
 31
30.0
210
0.0
220
0.0
230
-1.0
  0
LINE
  5
10A
  8
TEAM-NET
 10
-349.844653
 20
-403.530305
 30
30.0
 11
671.859312
 21
-111.570809
 31
30.0
210
0.0
220
0.0
230
-1.0
  0
LINE
  5
10B
  8
TEAM-NET
 10
-349.844653
 20
-403.530305
 30
30.0
 11
671.859312
 21
-111.570809
 31
30.0
  0
LINE
  5
10C
  8
TEAM-NET
 10
-346.250812
 20
-378.530305
 30
23.0
 11
666.0
 21
-86.570809
 31
23.0
  0
LINE
  5
10D
  8
TEAM-NET
 10
-346.250812
 20
-378.530305
 30
23.0
 11
666.0
 21
-86.570809
 31
23.0
210
0.0
220
-1.0
230
0.0
  0
LINE
  5
10E
  8
TEAM-NET
 10
602.955779
 20
166.570809
 30
23.0
 11
-449.415744
 21
166.570809
 31
23.0
210
0.0
220
1.0
230
0.0
  0
LINE
  5
10F
  8
TEAM-NET
 10
602.955779
 20
166.570809
 30
23.0
 11
-449.415744
 21
166.570809
 31
23.0
  0
ARC
  5
110
  8
TEAM-KAN
 10
-159.322445
 20
23.0
 30
0.633118
 40
7.0
210
0.342561
220
0.939495
230
-0.0
 50
15.0
 51
90.0
  0
ARC
  5
111
  8
TEAM-KAN
 10
133.971458
 20
23.0
 30
70.159768
 40
7.0
210
0.342561
220
-0.939495
230
0.0
 50
90.0
 51
165.0
  0
ARC
  5
112
  8
TEAM-KAN
 10
-159.322445
 20
23.0
 30
0.633118
 40
7.0
210
0.342561
220
0.939495
230
-0.0
 50
15.0
 51
90.0
  0
ARC
  5
113
  8
TEAM-KAN
 10
133.971458
 20
23.0
 30
70.159768
 40
7.0
210
0.342561
220
-0.939495
230
0.0
 50
90.0
 51
165.0
  0
ARC
  5
114
  8
TEAM-NET
 10
-371.250812
 20
40.0
 30
385.039158
 40
10.0
210
0.0
220
-1.0
230
0.0
 50
211.639782
 51
270.0
  0
ARC
  5
115
  8
TEAM-NET
 10
-371.250812
 20
40.0
 30
385.039158
 40
10.0
210
0.0
220
-1.0
230
0.0
 50
211.639782
 51
270.0
  0
ARC
  5
116
  8
TEAM-NET
 10
-474.415744
 20
40.0
 30
-173.079661
 40
10.0
210
0.0
220
-1.0
230
0.0
 50
211.639782
 51
270.0
  0
ARC
  5
117
  8
TEAM-NET
 10
-474.415744
 20
40.0
 30
-173.079661
 40
10.0
210
0.0
220
-1.0
230
0.0
 50
211.639782
 51
270.0
  0
POLYLINE
  5
118
  8
TEAM-KAN
 66
     1
 10
0.0
 20
0.0
 30
-20.926587
 70
   128
210
0.024721
220
-0.014606
230
-0.999588
  0
VERTEX
  5
C48
  8
TEAM-KAN
 10
42.517278
 20
145.365714
 30
-20.926587
  0
VERTEX
  5
C49
  8
TEAM-KAN
 10
48.577848
 20
140.987276
 30
-20.926587
  0
VERTEX
  5
C4A
  8
TEAM-KAN
 10
53.78713
 20
135.607581
 30
-20.926587
  0
SEQEND
  5
C4B
  8
TEAM-KAN
  0
POLYLINE
  5
119
  8
TEAM-KAN
 66
     1
 10
0.0
 20
0.0
 30
-22.032028
 70
   128
210
0.024561
220
0.014635
230
-0.999591
  0
VERTEX
  5
C4C
  8
TEAM-KAN
 10
-117.8631
 20
97.538456
 30
-22.032028
  0
VERTEX
  5
C4D
  8
TEAM-KAN
 10
-112.678009
 20
102.933792
 30
-22.032028
  0
VERTEX
  5
C4E
  8
TEAM-KAN
 10
-106.629631
 20
107.338451
 30
-22.032028
  0
SEQEND
  5
C4F
  8
TEAM-KAN
  0
POLYLINE
  5
11A
  8
TEAM-KAN
 66
     1
 10
0.0
 20
0.0
 30
-20.926587
 70
   128
210
0.024721
220
-0.014606
230
-0.999588
  0
VERTEX
  5
C50
  8
TEAM-KAN
 10
42.517278
 20
145.365714
 30
-20.926587
  0
VERTEX
  5
C51
  8
TEAM-KAN
 10
48.577848
 20
140.987276
 30
-20.926587
  0
VERTEX
  5
C52
  8
TEAM-KAN
 10
53.78713
 20
135.607581
 30
-20.926587
  0
SEQEND
  5
C53
  8
TEAM-KAN
  0
POLYLINE
  5
11B
  8
TEAM-KAN
 66
     1
 10
0.0
 20
0.0
 30
-22.032028
 70
   128
210
0.024561
220
0.014635
230
-0.999591
  0
VERTEX
  5
C54
  8
TEAM-KAN
 10
-117.8631
 20
97.538456
 30
-22.032028
  0
VERTEX
  5
C55
  8
TEAM-KAN
 10
-112.678009
 20
102.933792
 30
-22.032028
  0
VERTEX
  5
C56
  8
TEAM-KAN
 10
-106.629631
 20
107.338451
 30
-22.032028
  0
SEQEND
  5
C57
  8
TEAM-KAN
  0
ARC
  5
11C
  8
TEAM-KAN
 10
103.328791
 20
-37.00212
 30
24.811733
 40
42.808538
 50
180.0
 51
339.967002
  0
ARC
  5
11D
  8
TEAM-KAN
 10
103.328791
 20
-37.00212
 30
24.811733
 40
42.808538
 50
20.032998
 51
180.0
  0
ARC
  5
11E
  8
TEAM-KAN
 10
103.328791
 20
-37.00212
 30
24.811733
 40
42.808538
 50
180.0
 51
339.967002
  0
ARC
  5
11F
  8
TEAM-KAN
 10
103.328791
 20
-37.00212
 30
24.811733
 40
42.808538
 50
20.032998
 51
180.0
  0
POLYLINE
  5
120
  8
TEAM-KAN
 66
     1
 10
0.0
 20
0.0
 30
16.270771
 70
   128
210
-0.090763
220
-0.0
230
0.995872
  0
VERTEX
  5
C58
  8
TEAM-KAN
 10
20.021351
 20
152.00379
 30
16.270771
  0
VERTEX
  5
C59
  8
TEAM-KAN
 10
37.012349
 20
153.819694
 30
16.270771
  0
VERTEX
  5
C5A
  8
TEAM-KAN
 10
53.982889
 20
152.00379
 30
16.270771
  0
SEQEND
  5
C5B
  8
TEAM-KAN
  0
POLYLINE
  5
121
  8
TEAM-KAN
 66
     1
 10
0.0
 20
0.0
 30
16.270771
 70
   128
210
-0.090763
220
-0.0
230
0.995872
  0
VERTEX
  5
C5C
  8
TEAM-KAN
 10
20.021351
 20
152.00379
 30
16.270771
  0
VERTEX
  5
C5D
  8
TEAM-KAN
 10
37.012349
 20
153.819694
 30
16.270771
  0
VERTEX
  5
C5E
  8
TEAM-KAN
 10
53.982889
 20
152.00379
 30
16.270771
  0
SEQEND
  5
C5F
  8
TEAM-KAN
  0
ARC
  5
122
  8
TEAM-KAN
 10
-103.328791
 20
-37.00212
 30
-31.842382
 40
21.0
210
0.0
220
0.0
230
-1.0
 50
0.0
 51
180.0
1001
ACAD
1000
R13OBJECT
1002
{
1005
0
1002
}
  0
ARC
  5
123
  8
TEAM-KAN
 10
-103.328791
 20
-37.00212
 30
-32.0
 40
22.0
210
0.0
220
0.0
230
-1.0
 50
180.0
 51
0.0
1001
ACAD
1000
R13OBJECT
1002
{
1005
0
1002
}
  0
ARC
  5
124
  8
TEAM-KAN
 10
-103.328791
 20
-37.00212
 30
-32.0
 40
22.0
210
0.0
220
0.0
230
-1.0
 50
0.0
 51
180.0
1001
ACAD
1000
R13OBJECT
1002
{
1005
0
1002
}
  0
ARC
  5
125
  8
TEAM-KAN
 10
-103.328791
 20
-37.00212
 30
-31.842382
 40
21.0
210
0.0
220
0.0
230
-1.0
 50
180.0
 51
360.0
1001
ACAD
1000
R13OBJECT
1002
{
1005
0
1002
}
  0
ARC
  5
126
  8
TEAM-KAN
 10
-103.328791
 20
-37.00212
 30
-30.0
 40
49.570019
210
0.0
220
0.0
230
-1.0
 50
200.032998
 51
159.967002
  0
ARC
  5
127
  8
TEAM-KAN
 10
-103.328791
 20
-37.00212
 30
-30.0
 40
49.570019
210
0.0
220
0.0
230
-1.0
 50
200.032998
 51
159.967002
  0
ARC
  5
128
  8
TEAM-KAN
 10
-103.328791
 20
-37.00212
 30
-31.0
 40
26.0
210
0.0
220
0.0
230
-1.0
 50
360.0
 51
180.0
  0
ARC
  5
129
  8
TEAM-KAN
 10
-103.328791
 20
-37.00212
 30
-31.0
 40
26.0
210
0.0
220
0.0
230
-1.0
 50
180.0
 51
0.0
  0
ARC
  5
12A
  8
TEAM-KAN
 10
-103.328791
 20
-37.00212
 30
-31.0
 40
26.0
210
0.0
220
0.0
230
-1.0
 50
360.0
 51
180.0
  0
ARC
  5
12B
  8
TEAM-KAN
 10
-103.328791
 20
-37.00212
 30
-31.0
 40
26.0
210
0.0
220
0.0
230
-1.0
 50
180.0
 51
0.0
  0
POLYLINE
  5
12C
  8
TEAM-NET
 66
     1
 10
0.0
 20
0.0
 30
-30.0
 70
   128
210
0.0
220
0.0
230
-1.0
  0
VERTEX
  5
C60
  8
TEAM-NET
 10
371.250812
 20
-385.039158
 30
-30.0
  0
VERTEX
  5
C61
  8
TEAM-NET
 10
370.848928
 20
-388.731092
 30
-30.0
  0
VERTEX
  5
C62
  8
TEAM-NET
 10
369.657026
 20
-392.235067
 30
-30.0
  0
VERTEX
  5
C63
  8
TEAM-NET
 10
367.715887
 20
-395.431193
 30
-30.0
  0
VERTEX
  5
C64
  8
TEAM-NET
 10
365.091928
 20
-398.210115
 30
-30.0
  0
VERTEX
  5
C65
  8
TEAM-NET
 10
361.874926
 20
-400.476754
 30
-30.0
  0
VERTEX
  5
C66
  8
TEAM-NET
 10
358.174951
 20
-402.153555
 30
-30.0
  0
VERTEX
  5
C67
  8
TEAM-NET
 10
354.118597
 20
-403.183148
 30
-30.0
  0
VERTEX
  5
C68
  8
TEAM-NET
 10
349.844653
 20
-403.530305
 30
-30.0
  0
SEQEND
  5
C69
  8
TEAM-NET
  0
POLYLINE
  5
12D
  8
TEAM-NET
 66
     1
 10
0.0
 20
0.0
 30
30.0
 70
   128
  0
VERTEX
  5
C6A
  8
TEAM-NET
 10
-349.844653
 20
-403.530305
 30
30.0
  0
VERTEX
  5
C6B
  8
TEAM-NET
 10
-354.118597
 20
-403.183148
 30
30.0
  0
VERTEX
  5
C6C
  8
TEAM-NET
 10
-358.174951
 20
-402.153555
 30
30.0
  0
VERTEX
  5
C6D
  8
TEAM-NET
 10
-361.874926
 20
-400.476754
 30
30.0
  0
VERTEX
  5
C6E
  8
TEAM-NET
 10
-365.091928
 20
-398.210115
 30
30.0
  0
VERTEX
  5
C6F
  8
TEAM-NET
 10
-367.715887
 20
-395.431193
 30
30.0
  0
VERTEX
  5
C70
  8
TEAM-NET
 10
-369.657026
 20
-392.235067
 30
30.0
  0
VERTEX
  5
C71
  8
TEAM-NET
 10
-370.848928
 20
-388.731092
 30
30.0
  0
VERTEX
  5
C72
  8
TEAM-NET
 10
-371.250812
 20
-385.039158
 30
30.0
  0
SEQEND
  5
C73
  8
TEAM-NET
  0
LINE
  5
12E
  8
TEAM-NET
 10
-474.415744
 20
173.079661
 30
30.0
 11
-371.250812
 21
-385.039158
 31
30.0
210
0.0
220
0.0
230
-1.0
  0
LINE
  5
12F
  8
TEAM-NET
 10
-353.250812
 20
-385.530305
 30
30.0
 11
-456.415744
 21
173.570809
 31
30.0
210
0.0
220
0.0
230
-1.0
  0
LINE
  5
130
  8
TEAM-NET
 10
-379.764441
 20
-385.039158
 30
34.754229
 11
-482.929373
 21
173.079661
 31
34.754229
210
-0.851363
220
-0.0
230
-0.524577
  0
LINE
  5
131
  8
TEAM-NET
 10
-474.415744
 20
173.079661
 30
30.0
 11
-371.250812
 21
-385.039158
 31
30.0
  0
LINE
  5
132
  8
TEAM-NET
 10
-379.764441
 20
-385.039158
 30
34.754229
 11
-482.929373
 21
173.079661
 31
34.754229
  0
LINE
  5
133
  8
TEAM-NET
 10
-353.250812
 20
-385.530305
 30
30.0
 11
-456.415744
 21
173.570809
 31
30.0
  0
POLYLINE
  5
134
  8
TEAM-NET
 66
     1
 10
0.0
 20
0.0
 30
-30.0
 70
   128
210
0.0
220
0.0
230
-1.0
  0
VERTEX
  5
C74
  8
TEAM-NET
 10
453.009585
 20
191.570809
 30
-30.0
  0
VERTEX
  5
C75
  8
TEAM-NET
 10
457.283529
 20
191.223652
 30
-30.0
  0
VERTEX
  5
C76
  8
TEAM-NET
 10
461.339883
 20
190.194059
 30
-30.0
  0
VERTEX
  5
C77
  8
TEAM-NET
 10
465.039858
 20
188.517257
 30
-30.0
  0
VERTEX
  5
C78
  8
TEAM-NET
 10
468.25686
 20
186.250619
 30
-30.0
  0
VERTEX
  5
C79
  8
TEAM-NET
 10
470.880819
 20
183.471696
 30
-30.0
  0
VERTEX
  5
C7A
  8
TEAM-NET
 10
472.821958
 20
180.27557
 30
-30.0
  0
VERTEX
  5
C7B
  8
TEAM-NET
 10
474.01386
 20
176.771596
 30
-30.0
  0
VERTEX
  5
C7C
  8
TEAM-NET
 10
474.415744
 20
173.079661
 30
-30.0
  0
SEQEND
  5
C7D
  8
TEAM-NET
  0
POLYLINE
  5
135
  8
TEAM-NET
 66
     1
 10
0.0
 20
0.0
 30
30.0
 70
   128
  0
VERTEX
  5
C7E
  8
TEAM-NET
 10
-474.415744
 20
173.079661
 30
30.0
  0
VERTEX
  5
C7F
  8
TEAM-NET
 10
-474.01386
 20
176.771596
 30
30.0
  0
VERTEX
  5
C80
  8
TEAM-NET
 10
-472.821958
 20
180.27557
 30
30.0
  0
VERTEX
  5
C81
  8
TEAM-NET
 10
-470.880819
 20
183.471696
 30
30.0
  0
VERTEX
  5
C82
  8
TEAM-NET
 10
-468.25686
 20
186.250619
 30
30.0
  0
VERTEX
  5
C83
  8
TEAM-NET
 10
-465.039858
 20
188.517257
 30
30.0
  0
VERTEX
  5
C84
  8
TEAM-NET
 10
-461.339883
 20
190.194059
 30
30.0
  0
VERTEX
  5
C85
  8
TEAM-NET
 10
-457.283529
 20
191.223652
 30
30.0
  0
VERTEX
  5
C86
  8
TEAM-NET
 10
-453.009585
 20
191.570809
 30
30.0
  0
SEQEND
  5
C87
  8
TEAM-NET
  0
ARC
  5
136
  8
TEAM-KAN
 10
-103.328791
 20
-37.00212
 30
-31.842382
 40
21.0
210
0.0
220
0.0
230
-1.0
 50
0.0
 51
180.0
1001
ACAD
1000
R13OBJECT
1002
{
1005
0
1002
}
  0
ARC
  5
137
  8
TEAM-KAN
 10
-103.328791
 20
-37.00212
 30
-32.0
 40
22.0
210
0.0
220
0.0
230
-1.0
 50
180.0
 51
0.0
1001
ACAD
1000
R13OBJECT
1002
{
1005
0
1002
}
  0
ARC
  5
138
  8
TEAM-KAN
 10
-103.328791
 20
-37.00212
 30
-32.0
 40
22.0
210
0.0
220
0.0
230
-1.0
 50
0.0
 51
180.0
1001
ACAD
1000
R13OBJECT
1002
{
1005
0
1002
}
  0
ARC
  5
139
  8
TEAM-KAN
 10
-103.328791
 20
-37.00212
 30
-31.842382
 40
21.0
210
0.0
220
0.0
230
-1.0
 50
180.0
 51
360.0
1001
ACAD
1000
R13OBJECT
1002
{
1005
0
1002
}
  0
LINE
  5
13A
  8
TEAM-NET
 10
-449.415744
 20
166.570809
 30
23.0
 11
-346.250812
 21
-378.530305
 31
23.0
  0
LINE
  5
13B
  8
TEAM-NET
 10
-449.415744
 20
166.570809
 30
23.0
 11
-346.250812
 21
-378.530305
 31
23.0
210
-1.0
220
0.0
230
0.0
  0
POLYLINE
  5
13C
  8
TEAM-NET
 66
     1
 10
0.0
 20
0.0
 30
-22.825049
 70
   128
210
-0.707107
220
0.707107
230
0.0
  0
VERTEX
  5
C88
  8
TEAM-NET
 10
512.497643
 20
23.0
 30
-22.825049
  0
VERTEX
  5
C89
  8
TEAM-NET
 10
512.687859
 20
24.365632
 30
-22.825049
  0
VERTEX
  5
C8A
  8
TEAM-NET
 10
513.251197
 20
25.678784
 30
-22.825049
  0
VERTEX
  5
C8B
  8
TEAM-NET
 10
514.166009
 20
26.888992
 30
-22.825049
  0
VERTEX
  5
C8C
  8
TEAM-NET
 10
515.397138
 20
27.949747
 30
-22.825049
  0
VERTEX
  5
C8D
  8
TEAM-NET
 10
516.897273
 20
28.820287
 30
-22.825049
  0
VERTEX
  5
C8E
  8
TEAM-NET
 10
518.608765
 20
29.467157
 30
-22.825049
  0
VERTEX
  5
C8F
  8
TEAM-NET
 10
520.465842
 20
29.865497
 30
-22.825049
  0
VERTEX
  5
C90
  8
TEAM-NET
 10
522.397138
 20
30.0
 30
-22.825049
  0
SEQEND
  5
C91
  8
TEAM-NET
  0
POLYLINE
  5
13D
  8
TEAM-NET
 66
     1
 10
0.0
 20
0.0
 30
-22.825049
 70
   128
210
-0.707107
220
0.707107
230
0.0
  0
VERTEX
  5
C92
  8
TEAM-NET
 10
512.497643
 20
23.0
 30
-22.825049
  0
VERTEX
  5
C93
  8
TEAM-NET
 10
512.687859
 20
24.365632
 30
-22.825049
  0
VERTEX
  5
C94
  8
TEAM-NET
 10
513.251197
 20
25.678784
 30
-22.825049
  0
VERTEX
  5
C95
  8
TEAM-NET
 10
514.166009
 20
26.888992
 30
-22.825049
  0
VERTEX
  5
C96
  8
TEAM-NET
 10
515.397138
 20
27.949747
 30
-22.825049
  0
VERTEX
  5
C97
  8
TEAM-NET
 10
516.897273
 20
28.820287
 30
-22.825049
  0
VERTEX
  5
C98
  8
TEAM-NET
 10
518.608765
 20
29.467157
 30
-22.825049
  0
VERTEX
  5
C99
  8
TEAM-NET
 10
520.465842
 20
29.865497
 30
-22.825049
  0
VERTEX
  5
C9A
  8
TEAM-NET
 10
522.397138
 20
30.0
 30
-22.825049
  0
SEQEND
  5
C9B
  8
TEAM-NET
  0
POLYLINE
  5
13E
  8
TEAM-NET
 66
     1
 10
0.0
 20
0.0
 30
200.001572
 70
   128
210
-0.707107
220
-0.707107
230
0.0
  0
VERTEX
  5
C9C
  8
TEAM-NET
 10
-445.467764
 20
30.0
 30
200.001572
  0
VERTEX
  5
C9D
  8
TEAM-NET
 10
-443.536468
 20
29.865497
 30
200.001572
  0
VERTEX
  5
C9E
  8
TEAM-NET
 10
-441.679391
 20
29.467157
 30
200.001572
  0
VERTEX
  5
C9F
  8
TEAM-NET
 10
-439.967899
 20
28.820287
 30
200.001572
  0
VERTEX
  5
CA0
  8
TEAM-NET
 10
-438.467764
 20
27.949747
 30
200.001572
  0
VERTEX
  5
CA1
  8
TEAM-NET
 10
-437.236634
 20
26.888992
 30
200.001572
  0
VERTEX
  5
CA2
  8
TEAM-NET
 10
-436.321823
 20
25.678784
 30
200.001572
  0
VERTEX
  5
CA3
  8
TEAM-NET
 10
-435.758485
 20
24.365632
 30
200.001572
  0
VERTEX
  5
CA4
  8
TEAM-NET
 10
-435.568269
 20
23.0
 30
200.001572
  0
SEQEND
  5
CA5
  8
TEAM-NET
  0
POLYLINE
  5
13F
  8
TEAM-NET
 66
     1
 10
0.0
 20
0.0
 30
200.001572
 70
   128
210
-0.707107
220
-0.707107
230
0.0
  0
VERTEX
  5
CA6
  8
TEAM-NET
 10
-445.467764
 20
30.0
 30
200.001572
  0
VERTEX
  5
CA7
  8
TEAM-NET
 10
-443.536468
 20
29.865497
 30
200.001572
  0
VERTEX
  5
CA8
  8
TEAM-NET
 10
-441.679391
 20
29.467157
 30
200.001572
  0
VERTEX
  5
CA9
  8
TEAM-NET
 10
-439.967899
 20
28.820287
 30
200.001572
  0
VERTEX
  5
CAA
  8
TEAM-NET
 10
-438.467764
 20
27.949747
 30
200.001572
  0
VERTEX
  5
CAB
  8
TEAM-NET
 10
-437.236634
 20
26.888992
 30
200.001572
  0
VERTEX
  5
CAC
  8
TEAM-NET
 10
-436.321823
 20
25.678784
 30
200.001572
  0
VERTEX
  5
CAD
  8
TEAM-NET
 10
-435.758485
 20
24.365632
 30
200.001572
  0
VERTEX
  5
CAE
  8
TEAM-NET
 10
-435.568269
 20
23.0
 30
200.001572
  0
SEQEND
  5
CAF
  8
TEAM-NET
  0
LINE
  5
140
  8
TEAM-NET
 10
691.570809
 20
-91.859312
 30
30.0
 11
678.914465
 21
-17.92935
 31
30.0
210
0.0
220
0.0
230
-1.0
  0
LINE
  5
141
  8
TEAM-NET
 10
691.570809
 20
-91.859312
 30
30.0
 11
678.914465
 21
-17.92935
 31
30.0
  0
LINE
  5
142
  8
TEAM-NET
 10
678.914465
 20
-17.92935
 30
30.0
 11
645.719728
 21
171.859312
 31
30.0
  0
LINE
  5
143
  8
TEAM-NET
 10
676.383197
 20
15.083606
 30
30.0
 11
645.719728
 21
171.859312
 31
30.0
210
0.0
220
0.0
230
-1.0
  0
LINE
  5
144
  8
TEAM-NET
 10
609.955779
 20
173.570809
 30
30.0
 11
673.0
 21
-93.570809
 31
30.0
  0
LINE
  5
145
  8
TEAM-NET
 10
609.955779
 20
173.570809
 30
30.0
 11
673.0
 21
-93.570809
 31
30.0
210
0.0
220
0.0
230
-1.0
  0
POLYLINE
  5
146
  8
TEAM-NET
 66
     1
 10
0.0
 20
0.0
 30
-30.0
 70
   128
210
0.0
220
0.0
230
-1.0
  0
VERTEX
  5
CB0
  8
TEAM-NET
 10
-645.719728
 20
171.859312
 30
-30.0
  0
VERTEX
  5
CB1
  8
TEAM-NET
 10
-645.343857
 20
175.734573
 30
-30.0
  0
VERTEX
  5
CB2
  8
TEAM-NET
 10
-644.230169
 20
179.444744
 30
-30.0
  0
VERTEX
  5
CB3
  8
TEAM-NET
 10
-642.41992
 20
182.852382
 30
-30.0
  0
VERTEX
  5
CB4
  8
TEAM-NET
 10
-639.980171
 20
185.831252
 30
-30.0
  0
VERTEX
  5
CB5
  8
TEAM-NET
 10
-637.001301
 20
188.271001
 30
-30.0
  0
VERTEX
  5
CB6
  8
TEAM-NET
 10
-633.593663
 20
190.08125
 30
-30.0
  0
VERTEX
  5
CB7
  8
TEAM-NET
 10
-629.883492
 20
191.194938
 30
-30.0
  0
VERTEX
  5
CB8
  8
TEAM-NET
 10
-626.008231
 20
191.570809
 30
-30.0
  0
SEQEND
  5
CB9
  8
TEAM-NET
  0
POLYLINE
  5
147
  8
TEAM-NET
 66
     1
 10
0.0
 20
0.0
 30
30.0
 70
   128
  0
VERTEX
  5
CBA
  8
TEAM-NET
 10
626.008231
 20
191.570809
 30
30.0
  0
VERTEX
  5
CBB
  8
TEAM-NET
 10
629.883492
 20
191.194938
 30
30.0
  0
VERTEX
  5
CBC
  8
TEAM-NET
 10
633.593663
 20
190.08125
 30
30.0
  0
VERTEX
  5
CBD
  8
TEAM-NET
 10
637.001301
 20
188.271001
 30
30.0
  0
VERTEX
  5
CBE
  8
TEAM-NET
 10
639.980171
 20
185.831252
 30
30.0
  0
VERTEX
  5
CBF
  8
TEAM-NET
 10
642.41992
 20
182.852382
 30
30.0
  0
VERTEX
  5
CC0
  8
TEAM-NET
 10
644.230169
 20
179.444744
 30
30.0
  0
VERTEX
  5
CC1
  8
TEAM-NET
 10
645.343857
 20
175.734573
 30
30.0
  0
VERTEX
  5
CC2
  8
TEAM-NET
 10
645.719728
 20
171.859312
 30
30.0
  0
SEQEND
  5
CC3
  8
TEAM-NET
  0
POLYLINE
  5
148
  8
TEAM-NET
 66
     1
 10
0.0
 20
0.0
 30
-30.0
 70
   128
210
0.0
220
0.0
230
-1.0
  0
VERTEX
  5
CC4
  8
TEAM-NET
 10
-671.859312
 20
-111.570809
 30
-30.0
  0
VERTEX
  5
CC5
  8
TEAM-NET
 10
-675.734573
 20
-111.194938
 30
-30.0
  0
VERTEX
  5
CC6
  8
TEAM-NET
 10
-679.444744
 20
-110.08125
 30
-30.0
  0
VERTEX
  5
CC7
  8
TEAM-NET
 10
-682.852382
 20
-108.271001
 30
-30.0
  0
VERTEX
  5
CC8
  8
TEAM-NET
 10
-685.831252
 20
-105.831252
 30
-30.0
  0
VERTEX
  5
CC9
  8
TEAM-NET
 10
-688.271001
 20
-102.852382
 30
-30.0
  0
VERTEX
  5
CCA
  8
TEAM-NET
 10
-690.08125
 20
-99.444744
 30
-30.0
  0
VERTEX
  5
CCB
  8
TEAM-NET
 10
-691.194938
 20
-95.734573
 30
-30.0
  0
VERTEX
  5
CCC
  8
TEAM-NET
 10
-691.570809
 20
-91.859312
 30
-30.0
  0
SEQEND
  5
CCD
  8
TEAM-NET
  0
POLYLINE
  5
149
  8
TEAM-NET
 66
     1
 10
0.0
 20
0.0
 30
30.0
 70
   128
  0
VERTEX
  5
CCE
  8
TEAM-NET
 10
691.570809
 20
-91.859312
 30
30.0
  0
VERTEX
  5
CCF
  8
TEAM-NET
 10
691.194938
 20
-95.734573
 30
30.0
  0
VERTEX
  5
CD0
  8
TEAM-NET
 10
690.08125
 20
-99.444744
 30
30.0
  0
VERTEX
  5
CD1
  8
TEAM-NET
 10
688.271001
 20
-102.852382
 30
30.0
  0
VERTEX
  5
CD2
  8
TEAM-NET
 10
685.831252
 20
-105.831252
 30
30.0
  0
VERTEX
  5
CD3
  8
TEAM-NET
 10
682.852382
 20
-108.271001
 30
30.0
  0
VERTEX
  5
CD4
  8
TEAM-NET
 10
679.444744
 20
-110.08125
 30
30.0
  0
VERTEX
  5
CD5
  8
TEAM-NET
 10
675.734573
 20
-111.194938
 30
30.0
  0
VERTEX
  5
CD6
  8
TEAM-NET
 10
671.859312
 20
-111.570809
 30
30.0
  0
SEQEND
  5
CD7
  8
TEAM-NET
  0
LINE
  5
14A
  8
TEAM-NET
 10
666.0
 20
-86.570809
 30
23.0
 11
602.955779
 21
166.570809
 31
23.0
210
1.0
220
0.0
230
0.0
  0
LINE
  5
14B
  8
TEAM-NET
 10
666.0
 20
-86.570809
 30
23.0
 11
602.955779
 21
166.570809
 31
23.0
  0
POLYLINE
  5
14C
  8
TEAM-NET
 66
     1
 10
0.0
 20
0.0
 30
-409.71831
 70
   128
210
-0.707107
220
-0.707107
230
-0.0
  0
VERTEX
  5
CD8
  8
TEAM-NET
 10
532.147922
 20
23.0
 30
-409.71831
  0
VERTEX
  5
CD9
  8
TEAM-NET
 10
532.338138
 20
24.365632
 30
-409.71831
  0
VERTEX
  5
CDA
  8
TEAM-NET
 10
532.901476
 20
25.678784
 30
-409.71831
  0
VERTEX
  5
CDB
  8
TEAM-NET
 10
533.816288
 20
26.888992
 30
-409.71831
  0
VERTEX
  5
CDC
  8
TEAM-NET
 10
535.047417
 20
27.949747
 30
-409.71831
  0
VERTEX
  5
CDD
  8
TEAM-NET
 10
536.547553
 20
28.820287
 30
-409.71831
  0
VERTEX
  5
CDE
  8
TEAM-NET
 10
538.259045
 20
29.467157
 30
-409.71831
  0
VERTEX
  5
CDF
  8
TEAM-NET
 10
540.116122
 20
29.865497
 30
-409.71831
  0
VERTEX
  5
CE0
  8
TEAM-NET
 10
542.047417
 20
30.0
 30
-409.71831
  0
SEQEND
  5
CE1
  8
TEAM-NET
  0
POLYLINE
  5
14D
  8
TEAM-NET
 66
     1
 10
0.0
 20
0.0
 30
-409.71831
 70
   128
210
-0.707107
220
-0.707107
230
-0.0
  0
VERTEX
  5
CE2
  8
TEAM-NET
 10
532.147922
 20
23.0
 30
-409.71831
  0
VERTEX
  5
CE3
  8
TEAM-NET
 10
532.338138
 20
24.365632
 30
-409.71831
  0
VERTEX
  5
CE4
  8
TEAM-NET
 10
532.901476
 20
25.678784
 30
-409.71831
  0
VERTEX
  5
CE5
  8
TEAM-NET
 10
533.816288
 20
26.888992
 30
-409.71831
  0
VERTEX
  5
CE6
  8
TEAM-NET
 10
535.047417
 20
27.949747
 30
-409.71831
  0
VERTEX
  5
CE7
  8
TEAM-NET
 10
536.547553
 20
28.820287
 30
-409.71831
  0
VERTEX
  5
CE8
  8
TEAM-NET
 10
538.259045
 20
29.467157
 30
-409.71831
  0
VERTEX
  5
CE9
  8
TEAM-NET
 10
540.116122
 20
29.865497
 30
-409.71831
  0
VERTEX
  5
CEA
  8
TEAM-NET
 10
542.047417
 20
30.0
 30
-409.71831
  0
SEQEND
  5
CEB
  8
TEAM-NET
  0
POLYLINE
  5
14E
  8
TEAM-NET
 66
     1
 10
0.0
 20
0.0
 30
308.570771
 70
   128
210
0.707107
220
-0.707107
230
0.0
  0
VERTEX
  5
CEC
  8
TEAM-NET
 10
544.137468
 20
23.0
 30
308.570771
  0
VERTEX
  5
CED
  8
TEAM-NET
 10
544.327684
 20
24.365632
 30
308.570771
  0
VERTEX
  5
CEE
  8
TEAM-NET
 10
544.891022
 20
25.678784
 30
308.570771
  0
VERTEX
  5
CEF
  8
TEAM-NET
 10
545.805834
 20
26.888992
 30
308.570771
  0
VERTEX
  5
CF0
  8
TEAM-NET
 10
547.036963
 20
27.949747
 30
308.570771
  0
VERTEX
  5
CF1
  8
TEAM-NET
 10
548.537099
 20
28.820287
 30
308.570771
  0
VERTEX
  5
CF2
  8
TEAM-NET
 10
550.248591
 20
29.467157
 30
308.570771
  0
VERTEX
  5
CF3
  8
TEAM-NET
 10
552.105668
 20
29.865497
 30
308.570771
  0
VERTEX
  5
CF4
  8
TEAM-NET
 10
554.036963
 20
30.0
 30
308.570771
  0
SEQEND
  5
CF5
  8
TEAM-NET
  0
POLYLINE
  5
14F
  8
TEAM-NET
 66
     1
 10
0.0
 20
0.0
 30
308.570771
 70
   128
210
0.707107
220
-0.707107
230
0.0
  0
VERTEX
  5
CF6
  8
TEAM-NET
 10
544.137468
 20
23.0
 30
308.570771
  0
VERTEX
  5
CF7
  8
TEAM-NET
 10
544.327684
 20
24.365632
 30
308.570771
  0
VERTEX
  5
CF8
  8
TEAM-NET
 10
544.891022
 20
25.678784
 30
308.570771
  0
VERTEX
  5
CF9
  8
TEAM-NET
 10
545.805834
 20
26.888992
 30
308.570771
  0
VERTEX
  5
CFA
  8
TEAM-NET
 10
547.036963
 20
27.949747
 30
308.570771
  0
VERTEX
  5
CFB
  8
TEAM-NET
 10
548.537099
 20
28.820287
 30
308.570771
  0
VERTEX
  5
CFC
  8
TEAM-NET
 10
550.248591
 20
29.467157
 30
308.570771
  0
VERTEX
  5
CFD
  8
TEAM-NET
 10
552.105668
 20
29.865497
 30
308.570771
  0
VERTEX
  5
CFE
  8
TEAM-NET
 10
554.036963
 20
30.0
 30
308.570771
  0
SEQEND
  5
CFF
  8
TEAM-NET
  0
LINE
  5
150
  8
TEAM-NET
 10
621.534355
 20
196.952681
 30
53.615197
 11
-454.219429
 21
196.952681
 31
53.615197
  0
LINE
  5
151
  8
TEAM-NET
 10
621.534355
 20
196.952681
 30
53.615197
 11
-454.219429
 21
196.952681
 31
53.615197
210
0.0
220
-0.985575
230
0.16924
  0
LINE
  5
152
  8
TEAM-NET
 10
-351.054497
 20
-408.912177
 30
53.615197
 11
667.385436
 21
-116.952681
 31
53.615197
210
-0.0
220
0.985575
230
0.16924
  0
LINE
  5
153
  8
TEAM-NET
 10
-351.054497
 20
-408.912177
 30
53.615197
 11
667.385436
 21
-116.952681
 31
53.615197
  0
LINE
  5
154
  8
TEAM-NET
 10
-454.219429
 20
177.241184
 30
37.0
 11
621.534355
 21
177.241184
 31
37.0
  0
LINE
  5
155
  8
TEAM-NET
 10
-454.219429
 20
177.241184
 30
37.0
 11
621.534355
 21
177.241184
 31
37.0
  0
LINE
  5
156
  8
TEAM-NET
 10
-453.009585
 20
201.426557
 30
38.307599
 11
626.008231
 21
201.426557
 31
38.307599
  0
LINE
  5
157
  8
TEAM-NET
 10
-453.009585
 20
201.426557
 30
38.307599
 11
626.008231
 21
201.426557
 31
38.307599
210
0.0
220
0.985575
230
-0.16924
  0
LINE
  5
158
  8
TEAM-NET
 10
667.385436
 20
-97.241184
 30
37.0
 11
-351.054497
 21
-389.200681
 31
37.0
  0
LINE
  5
159
  8
TEAM-NET
 10
671.859312
 20
-121.426557
 30
38.307599
 11
-349.844653
 21
-413.386054
 31
38.307599
210
0.0
220
-0.985575
230
-0.16924
  0
LINE
  5
15A
  8
TEAM-NET
 10
671.859312
 20
-121.426557
 30
38.307599
 11
-349.844653
 21
-413.386054
 31
38.307599
  0
LINE
  5
15B
  8
TEAM-NET
 10
667.385436
 20
-97.241184
 30
37.0
 11
-351.054497
 21
-389.200681
 31
37.0
  0
POLYLINE
  5
15C
  8
TEAM-NET
 66
     1
 10
0.0
 20
0.0
 30
-207.573125
 70
   128
210
0.338433
220
0.094317
230
-0.936252
  0
VERTEX
  5
D00
  8
TEAM-NET
 10
-264.319549
 20
-420.779568
 30
-207.573125
  0
VERTEX
  5
D01
  8
TEAM-NET
 10
-269.815995
 20
-421.559943
 30
-207.573125
  0
VERTEX
  5
D02
  8
TEAM-NET
 10
-275.358981
 20
-421.291879
 30
-207.573125
  0
VERTEX
  5
D03
  8
TEAM-NET
 10
-280.758854
 20
-419.984546
 30
-207.573125
  0
VERTEX
  5
D04
  8
TEAM-NET
 10
-285.830857
 20
-417.682675
 30
-207.573125
  0
VERTEX
  5
D05
  8
TEAM-NET
 10
-290.401453
 20
-414.465024
 30
-207.573125
  0
VERTEX
  5
D06
  8
TEAM-NET
 10
-294.314259
 20
-410.441685
 30
-207.573125
  0
VERTEX
  5
D07
  8
TEAM-NET
 10
-297.435398
 20
-405.750316
 30
-207.573125
  0
VERTEX
  5
D08
  8
TEAM-NET
 10
-299.658081
 20
-400.551433
 30
-207.573125
  0
SEQEND
  5
D09
  8
TEAM-NET
  0
POLYLINE
  5
15D
  8
TEAM-NET
 66
     1
 10
0.0
 20
0.0
 30
-207.573125
 70
   128
210
0.338433
220
0.094317
230
-0.936252
  0
VERTEX
  5
D0A
  8
TEAM-NET
 10
-264.319549
 20
-420.779568
 30
-207.573125
  0
VERTEX
  5
D0B
  8
TEAM-NET
 10
-269.815995
 20
-421.559943
 30
-207.573125
  0
VERTEX
  5
D0C
  8
TEAM-NET
 10
-275.358981
 20
-421.291879
 30
-207.573125
  0
VERTEX
  5
D0D
  8
TEAM-NET
 10
-280.758854
 20
-419.984546
 30
-207.573125
  0
VERTEX
  5
D0E
  8
TEAM-NET
 10
-285.830857
 20
-417.682675
 30
-207.573125
  0
VERTEX
  5
D0F
  8
TEAM-NET
 10
-290.401453
 20
-414.465024
 30
-207.573125
  0
VERTEX
  5
D10
  8
TEAM-NET
 10
-294.314259
 20
-410.441685
 30
-207.573125
  0
VERTEX
  5
D11
  8
TEAM-NET
 10
-297.435398
 20
-405.750316
 30
-207.573125
  0
VERTEX
  5
D12
  8
TEAM-NET
 10
-299.658081
 20
-400.551433
 30
-207.573125
  0
SEQEND
  5
D13
  8
TEAM-NET
  0
POLYLINE
  5
15E
  8
TEAM-NET
 66
     1
 10
0.0
 20
0.0
 30
-222.49606
 70
   128
210
0.338433
220
-0.094317
230
-0.936252
  0
VERTEX
  5
D14
  8
TEAM-NET
 10
67.783861
 20
-440.319303
 30
-222.49606
  0
VERTEX
  5
D15
  8
TEAM-NET
 10
65.561178
 20
-445.518187
 30
-222.49606
  0
VERTEX
  5
D16
  8
TEAM-NET
 10
62.440039
 20
-450.209556
 30
-222.49606
  0
VERTEX
  5
D17
  8
TEAM-NET
 10
58.527233
 20
-454.232895
 30
-222.49606
  0
VERTEX
  5
D18
  8
TEAM-NET
 10
53.956637
 20
-457.450546
 30
-222.49606
  0
VERTEX
  5
D19
  8
TEAM-NET
 10
48.884634
 20
-459.752417
 30
-222.49606
  0
VERTEX
  5
D1A
  8
TEAM-NET
 10
43.484761
 20
-461.05975
 30
-222.49606
  0
VERTEX
  5
D1B
  8
TEAM-NET
 10
37.941775
 20
-461.327814
 30
-222.49606
  0
VERTEX
  5
D1C
  8
TEAM-NET
 10
32.445329
 20
-460.547439
 30
-222.49606
  0
SEQEND
  5
D1D
  8
TEAM-NET
  0
POLYLINE
  5
15F
  8
TEAM-NET
 66
     1
 10
0.0
 20
0.0
 30
-222.49606
 70
   128
210
0.338433
220
-0.094317
230
-0.936252
  0
VERTEX
  5
D1E
  8
TEAM-NET
 10
67.783861
 20
-440.319303
 30
-222.49606
  0
VERTEX
  5
D1F
  8
TEAM-NET
 10
65.561178
 20
-445.518187
 30
-222.49606
  0
VERTEX
  5
D20
  8
TEAM-NET
 10
62.440039
 20
-450.209556
 30
-222.49606
  0
VERTEX
  5
D21
  8
TEAM-NET
 10
58.527233
 20
-454.232895
 30
-222.49606
  0
VERTEX
  5
D22
  8
TEAM-NET
 10
53.956637
 20
-457.450546
 30
-222.49606
  0
VERTEX
  5
D23
  8
TEAM-NET
 10
48.884634
 20
-459.752417
 30
-222.49606
  0
VERTEX
  5
D24
  8
TEAM-NET
 10
43.484761
 20
-461.05975
 30
-222.49606
  0
VERTEX
  5
D25
  8
TEAM-NET
 10
37.941775
 20
-461.327814
 30
-222.49606
  0
VERTEX
  5
D26
  8
TEAM-NET
 10
32.445329
 20
-460.547439
 30
-222.49606
  0
SEQEND
  5
D27
  8
TEAM-NET
  0
LINE
  5
160
  8
TEAM-KAN
 10
89.30029
 20
-52.629057
 30
47.52604
 11
99.88304
 21
-41.914023
 31
47.52604
210
0.711485
220
-0.702701
230
0.0
  0
ARC
  5
161
  8
TEAM-KAN
 10
103.328791
 20
-37.00212
 30
47.52604
 40
6.0
 50
54.949938
 51
125.761802
  0
ARC
  5
162
  8
TEAM-KAN
 10
103.328791
 20
-37.00212
 30
47.52604
 40
6.0
 50
144.949938
 51
215.761802
  0
LINE
  5
163
  8
TEAM-KAN
 10
87.701854
 20
-22.973619
 30
47.52604
 11
98.416888
 21
-33.556368
 31
47.52604
210
-0.702701
220
-0.711485
230
0.0
  0
ARC
  5
164
  8
TEAM-KAN
 10
103.328791
 20
-37.00212
 30
47.52604
 40
6.0
 50
324.949938
 51
35.761802
  0
LINE
  5
165
  8
TEAM-KAN
 10
117.357292
 20
-21.375183
 30
47.52604
 11
106.774543
 21
-32.090217
 31
47.52604
210
-0.711485
220
0.702701
230
0.0
  0
ARC
  5
166
  8
TEAM-KAN
 10
103.328791
 20
-37.00212
 30
47.52604
 40
6.0
 50
234.949938
 51
305.761802
  0
LINE
  5
167
  8
TEAM-KAN
 10
118.955728
 20
-51.030621
 30
47.52604
 11
108.240695
 21
-40.447872
 31
47.52604
210
0.702701
220
0.711485
230
0.0
  0
ARC
  5
168
  8
TEAM-KAN
 10
103.328791
 20
-37.00212
 30
47.52604
 40
21.0
 50
222.626467
 51
228.085273
  0
LINE
  5
169
  8
TEAM-KAN
 10
98.46007
 20
-40.508621
 30
47.52604
 11
87.87732
 21
-51.223655
 31
47.52604
210
-0.711485
220
0.702701
230
0.0
  0
ARC
  5
16A
  8
TEAM-KAN
 10
103.328791
 20
-37.00212
 30
47.52604
 40
21.0
 50
312.626467
 51
318.085273
  0
LINE
  5
16B
  8
TEAM-KAN
 10
106.835292
 20
-41.870842
 30
47.52604
 11
117.550326
 21
-52.453591
 31
47.52604
210
-0.702701
220
-0.711485
230
0.0
  0
ARC
  5
16C
  8
TEAM-KAN
 10
103.328791
 20
-37.00212
 30
47.52604
 40
21.0
 50
42.626467
 51
48.085273
  0
LINE
  5
16D
  8
TEAM-KAN
 10
108.197513
 20
-33.495619
 30
47.52604
 11
118.780262
 21
-22.780585
 31
47.52604
210
0.711485
220
-0.702701
230
0.0
  0
ARC
  5
16E
  8
TEAM-KAN
 10
103.328791
 20
-37.00212
 30
47.52604
 40
21.0
 50
132.626467
 51
138.085273
  0
LINE
  5
16F
  8
TEAM-KAN
 10
99.82229
 20
-32.133398
 30
47.52604
 11
89.107257
 21
-21.550649
 31
47.52604
210
0.702701
220
0.711485
230
0.0
  0
ARC
  5
170
  8
TEAM-KAN
 10
-37.648549
 20
-38.623256
 30
103.328791
 40
91.7912
210
1.0
220
0.0
230
0.0
 50
89.596498
 51
108.650003
  0
ARC
  5
171
  8
TEAM-KAN
 10
103.328791
 20
-37.00212
 30
48.34796
 40
30.0
 50
270.0
 51
0.0
  0
ARC
  5
172
  8
TEAM-KAN
 10
36.355691
 20
-38.623256
 30
-103.328791
 40
91.7912
210
-1.0
220
0.0
230
0.0
 50
89.596498
 51
108.650003
  0
ARC
  5
173
  8
TEAM-KAN
 10
103.328791
 20
-37.00212
 30
48.34796
 40
30.0
 50
360.0
 51
90.0
  0
LINE
  5
174
  8
TEAM-KAN
 10
73.328791
 20
-37.00212
 30
48.34796
 11
73.328791
 21
-37.00212
 31
47.52604
  0
ARC
  5
175
  8
TEAM-KAN
 10
103.328791
 20
-37.00212
 30
47.52604
 40
30.0
 50
180.0
 51
0.0
  0
ARC
  5
176
  8
TEAM-KAN
 10
103.328791
 20
-37.00212
 30
48.34796
 40
30.0
 50
180.0
 51
270.0
  0
LINE
  5
177
  8
TEAM-KAN
 10
133.328791
 20
-37.00212
 30
48.34796
 11
133.328791
 21
-37.00212
 31
47.52604
  0
ARC
  5
178
  8
TEAM-KAN
 10
103.328791
 20
-37.00212
 30
48.34796
 40
30.0
 50
270.0
 51
0.0
  0
ARC
  5
179
  8
TEAM-KAN
 10
-103.328791
 20
-37.00212
 30
-47.52604
 40
30.0
210
0.0
220
0.0
230
-1.0
 50
180.0
 51
0.0
  0
ARC
  5
17A
  8
TEAM-KAN
 10
-103.328791
 20
-37.00212
 30
-47.52604
 40
30.0
210
0.0
220
0.0
230
-1.0
 50
0.0
 51
180.0
  0
LINE
  5
17B
  8
TEAM-KAN
 10
118.955728
 20
-51.030621
 30
47.52604
 11
108.240695
 21
-40.447872
 31
47.52604
210
0.0
220
0.0
230
-1.0
  0
ARC
  5
17C
  8
TEAM-KAN
 10
-103.328791
 20
-37.00212
 30
-47.52604
 40
6.0
210
0.0
220
0.0
230
-1.0
 50
144.238198
 51
215.050062
  0
ARC
  5
17D
  8
TEAM-KAN
 10
-103.328791
 20
-37.00212
 30
-47.52604
 40
21.0
210
0.0
220
0.0
230
-1.0
 50
221.914727
 51
227.373533
  0
LINE
  5
17E
  8
TEAM-KAN
 10
108.197513
 20
-33.495619
 30
47.52604
 11
118.780262
 21
-22.780585
 31
47.52604
210
0.0
220
0.0
230
-1.0
  0
LINE
  5
17F
  8
TEAM-KAN
 10
106.835292
 20
-41.870842
 30
47.52604
 11
117.550326
 21
-52.453591
 31
47.52604
210
0.0
220
0.0
230
-1.0
  0
ARC
  5
180
  8
TEAM-KAN
 10
-103.328791
 20
-37.00212
 30
-47.52604
 40
21.0
210
0.0
220
0.0
230
-1.0
 50
131.914727
 51
137.373533
  0
ARC
  5
181
  8
TEAM-KAN
 10
-103.328791
 20
-37.00212
 30
-47.52604
 40
6.0
210
0.0
220
0.0
230
-1.0
 50
234.238198
 51
305.050062
  0
LINE
  5
182
  8
TEAM-KAN
 10
117.357292
 20
-21.375183
 30
47.52604
 11
106.774543
 21
-32.090217
 31
47.52604
210
0.0
220
0.0
230
-1.0
  0
LINE
  5
183
  8
TEAM-KAN
 10
89.30029
 20
-52.629057
 30
47.52604
 11
99.88304
 21
-41.914023
 31
47.52604
210
0.0
220
0.0
230
-1.0
  0
ARC
  5
184
  8
TEAM-KAN
 10
-103.328791
 20
-37.00212
 30
-47.52604
 40
6.0
210
0.0
220
0.0
230
-1.0
 50
54.238198
 51
125.050062
  0
ARC
  5
185
  8
TEAM-KAN
 10
-103.328791
 20
-37.00212
 30
-47.52604
 40
21.0
210
0.0
220
0.0
230
-1.0
 50
311.914727
 51
317.373533
  0
LINE
  5
186
  8
TEAM-KAN
 10
99.82229
 20
-32.133398
 30
47.52604
 11
89.107257
 21
-21.550649
 31
47.52604
210
0.0
220
0.0
230
-1.0
  0
LINE
  5
187
  8
TEAM-KAN
 10
98.46007
 20
-40.508621
 30
47.52604
 11
87.87732
 21
-51.223655
 31
47.52604
210
0.0
220
0.0
230
-1.0
  0
ARC
  5
188
  8
TEAM-KAN
 10
-103.328791
 20
-37.00212
 30
-47.52604
 40
21.0
210
0.0
220
0.0
230
-1.0
 50
41.914727
 51
47.373533
  0
ARC
  5
189
  8
TEAM-KAN
 10
-103.328791
 20
-37.00212
 30
-47.52604
 40
6.0
210
0.0
220
0.0
230
-1.0
 50
324.238198
 51
35.050062
  0
LINE
  5
18A
  8
TEAM-KAN
 10
87.701854
 20
-22.973619
 30
47.52604
 11
98.416888
 21
-33.556368
 31
47.52604
210
0.0
220
0.0
230
-1.0
  0
LINE
  5
18B
  8
TEAM-KAN
 10
73.328791
 20
-37.00212
 30
48.34796
 11
73.328791
 21
-37.00212
 31
47.52604
  0
ARC
  5
18C
  8
TEAM-KAN
 10
103.328791
 20
-37.00212
 30
48.34796
 40
30.0
 50
90.0
 51
180.0
  0
ARC
  5
18D
  8
TEAM-KAN
 10
103.328791
 20
-37.00212
 30
47.52604
 40
30.0
 50
360.0
 51
180.0
  0
ARC
  5
18E
  8
TEAM-KAN
 10
103.328791
 20
-37.00212
 30
48.34796
 40
30.0
 50
360.0
 51
90.0
  0
LINE
  5
18F
  8
TEAM-KAN
 10
133.328791
 20
-37.00212
 30
48.34796
 11
133.328791
 21
-37.00212
 31
47.52604
  0
ARC
  5
190
  8
TEAM-KAN
 10
-37.648549
 20
-38.623256
 30
103.328791
 40
91.7912
210
1.0
220
0.0
230
0.0
 50
89.596498
 51
108.650003
  0
ARC
  5
191
  8
TEAM-KAN
 10
36.355691
 20
-38.623256
 30
-103.328791
 40
91.7912
210
-1.0
220
0.0
230
0.0
 50
89.596498
 51
108.650003
  0
ARC
  5
192
  8
TEAM-KAN
 10
103.328791
 20
-37.00212
 30
48.34796
 40
30.0
 50
180.0
 51
270.0
  0
ARC
  5
193
  8
TEAM-KAN
 10
103.328791
 20
-37.00212
 30
48.34796
 40
30.0
 50
90.0
 51
180.0
  0
LINE
  5
194
  8
TEAM-NET
 10
-481.949767
 20
167.99561
 30
46.508457
 11
-378.784835
 21
-379.955107
 31
46.508457
210
0.851363
220
0.0
230
0.524577
  0
LINE
  5
195
  8
TEAM-NET
 10
-481.949767
 20
167.99561
 30
46.508457
 11
-378.784835
 21
-379.955107
 31
46.508457
  0
ARC
  5
196
  8
TEAM-KAN
 10
-103.328791
 20
-37.00212
 30
-40.52604
 40
31.895533
210
0.0
220
0.0
230
-1.0
 50
360.0
 51
180.0
1001
ACAD
1000
R13OBJECT
1002
{
1005
0
1002
}
  0
ARC
  5
197
  8
TEAM-KAN
 10
-103.328791
 20
-37.00212
 30
-40.52604
 40
32.697766
210
0.0
220
0.0
230
-1.0
 50
0.0
 51
180.0
1001
ACAD
1000
R13OBJECT
1002
{
1005
0
1002
}
  0
ARC
  5
198
  8
TEAM-KAN
 10
-103.328791
 20
-37.00212
 30
-40.52604
 40
32.697766
210
0.0
220
0.0
230
-1.0
 50
180.0
 51
360.0
1001
ACAD
1000
R13OBJECT
1002
{
1005
0
1002
}
  0
ARC
  5
199
  8
TEAM-KAN
 10
-103.328791
 20
-37.00212
 30
-40.52604
 40
31.895533
210
0.0
220
0.0
230
-1.0
 50
360.0
 51
180.0
1001
ACAD
1000
R13OBJECT
1002
{
1005
0
1002
}
  0
ARC
  5
19A
  8
TEAM-KAN
 10
-103.328791
 20
-37.00212
 30
-40.52604
 40
31.895533
210
0.0
220
0.0
230
-1.0
 50
180.0
 51
0.0
  0
ARC
  5
19B
  8
TEAM-KAN
 10
-103.328791
 20
-37.00212
 30
-40.52604
 40
32.697766
210
0.0
220
0.0
230
-1.0
 50
180.0
 51
360.0
1001
ACAD
1000
R13OBJECT
1002
{
1005
0
1002
}
  0
ARC
  5
19C
  8
TEAM-KAN
 10
-103.328791
 20
-37.00212
 30
-40.52604
 40
32.697766
210
0.0
220
0.0
230
-1.0
 50
0.0
 51
180.0
1001
ACAD
1000
R13OBJECT
1002
{
1005
0
1002
}
  0
ARC
  5
19D
  8
TEAM-KAN
 10
-103.328791
 20
-37.00212
 30
-40.52604
 40
31.895533
210
0.0
220
0.0
230
-1.0
 50
180.0
 51
0.0
1001
ACAD
1000
R13OBJECT
1002
{
1005
0
1002
}
  0
ARC
  5
19E
  8
TEAM-KAN
 10
103.328791
 20
-37.00212
 30
37.0
 40
32.0
 50
0.0
 51
180.0
  0
ARC
  5
19F
  8
TEAM-KAN
 10
103.328791
 20
-37.00212
 30
37.0
 40
32.0
 50
180.0
 51
0.0
  0
ARC
  5
1A0
  8
TEAM-KAN
 10
103.328791
 20
-37.00212
 30
37.0
 40
32.0
 50
0.0
 51
180.0
  0
ARC
  5
1A1
  8
TEAM-KAN
 10
103.328791
 20
-37.00212
 30
37.0
 40
32.0
 50
180.0
 51
0.0
  0
POLYLINE
  5
1A2
  8
TEAM-NET
 66
     1
 10
0.0
 20
0.0
 30
37.0
 70
   128
  0
VERTEX
  5
D28
  8
TEAM-NET
 10
-351.054497
 20
-389.200681
 30
37.0
  0
VERTEX
  5
D29
  8
TEAM-NET
 10
-353.191469
 20
-389.027102
 30
37.0
  0
VERTEX
  5
D2A
  8
TEAM-NET
 10
-355.219646
 20
-388.512306
 30
37.0
  0
VERTEX
  5
D2B
  8
TEAM-NET
 10
-357.069633
 20
-387.673905
 30
37.0
  0
VERTEX
  5
D2C
  8
TEAM-NET
 10
-358.678134
 20
-386.540586
 30
37.0
  0
VERTEX
  5
D2D
  8
TEAM-NET
 10
-359.990114
 20
-385.151124
 30
37.0
  0
VERTEX
  5
D2E
  8
TEAM-NET
 10
-360.960684
 20
-383.553061
 30
37.0
  0
VERTEX
  5
D2F
  8
TEAM-NET
 10
-361.556634
 20
-381.801074
 30
37.0
  0
VERTEX
  5
D30
  8
TEAM-NET
 10
-361.757576
 20
-379.955107
 30
37.0
  0
SEQEND
  5
D31
  8
TEAM-NET
  0
POLYLINE
  5
1A3
  8
TEAM-NET
 66
     1
 10
0.0
 20
0.0
 30
-37.0
 70
   128
210
0.0
220
0.0
230
-1.0
  0
VERTEX
  5
D32
  8
TEAM-NET
 10
361.757576
 20
-379.955107
 30
-37.0
  0
VERTEX
  5
D33
  8
TEAM-NET
 10
361.556634
 20
-381.801074
 30
-37.0
  0
VERTEX
  5
D34
  8
TEAM-NET
 10
360.960684
 20
-383.553061
 30
-37.0
  0
VERTEX
  5
D35
  8
TEAM-NET
 10
359.990114
 20
-385.151124
 30
-37.0
  0
VERTEX
  5
D36
  8
TEAM-NET
 10
358.678134
 20
-386.540586
 30
-37.0
  0
VERTEX
  5
D37
  8
TEAM-NET
 10
357.069633
 20
-387.673905
 30
-37.0
  0
VERTEX
  5
D38
  8
TEAM-NET
 10
355.219646
 20
-388.512306
 30
-37.0
  0
VERTEX
  5
D39
  8
TEAM-NET
 10
353.191469
 20
-389.027102
 30
-37.0
  0
VERTEX
  5
D3A
  8
TEAM-NET
 10
351.054497
 20
-389.200681
 30
-37.0
  0
SEQEND
  5
D3B
  8
TEAM-NET
  0
LINE
  5
1A4
  8
TEAM-NET
 10
-361.757576
 20
-379.955107
 30
37.0
 11
-464.922509
 21
167.99561
 31
37.0
  0
LINE
  5
1A5
  8
TEAM-NET
 10
-361.757576
 20
-379.955107
 30
37.0
 11
-464.922509
 21
167.99561
 31
37.0
  0
POLYLINE
  5
1A6
  8
TEAM-NET
 66
     1
 10
0.0
 20
0.0
 30
37.0
 70
   128
  0
VERTEX
  5
D3C
  8
TEAM-NET
 10
-464.922509
 20
167.99561
 30
37.0
  0
VERTEX
  5
D3D
  8
TEAM-NET
 10
-464.721567
 20
169.841577
 30
37.0
  0
VERTEX
  5
D3E
  8
TEAM-NET
 10
-464.125616
 20
171.593565
 30
37.0
  0
VERTEX
  5
D3F
  8
TEAM-NET
 10
-463.155046
 20
173.191628
 30
37.0
  0
VERTEX
  5
D40
  8
TEAM-NET
 10
-461.843067
 20
174.581089
 30
37.0
  0
VERTEX
  5
D41
  8
TEAM-NET
 10
-460.234566
 20
175.714408
 30
37.0
  0
VERTEX
  5
D42
  8
TEAM-NET
 10
-458.384578
 20
176.552809
 30
37.0
  0
VERTEX
  5
D43
  8
TEAM-NET
 10
-456.356401
 20
177.067606
 30
37.0
  0
VERTEX
  5
D44
  8
TEAM-NET
 10
-454.219429
 20
177.241184
 30
37.0
  0
SEQEND
  5
D45
  8
TEAM-NET
  0
POLYLINE
  5
1A7
  8
TEAM-NET
 66
     1
 10
0.0
 20
0.0
 30
-37.0
 70
   128
210
0.0
220
0.0
230
-1.0
  0
VERTEX
  5
D46
  8
TEAM-NET
 10
454.219429
 20
177.241184
 30
-37.0
  0
VERTEX
  5
D47
  8
TEAM-NET
 10
456.356401
 20
177.067606
 30
-37.0
  0
VERTEX
  5
D48
  8
TEAM-NET
 10
458.384578
 20
176.552809
 30
-37.0
  0
VERTEX
  5
D49
  8
TEAM-NET
 10
460.234566
 20
175.714408
 30
-37.0
  0
VERTEX
  5
D4A
  8
TEAM-NET
 10
461.843067
 20
174.581089
 30
-37.0
  0
VERTEX
  5
D4B
  8
TEAM-NET
 10
463.155046
 20
173.191628
 30
-37.0
  0
VERTEX
  5
D4C
  8
TEAM-NET
 10
464.125616
 20
171.593565
 30
-37.0
  0
VERTEX
  5
D4D
  8
TEAM-NET
 10
464.721567
 20
169.841577
 30
-37.0
  0
VERTEX
  5
D4E
  8
TEAM-NET
 10
464.922509
 20
167.99561
 30
-37.0
  0
SEQEND
  5
D4F
  8
TEAM-NET
  0
POLYLINE
  5
1A8
  8
TEAM-NET
 66
     1
 10
0.0
 20
0.0
 30
-143.707511
 70
   128
210
-0.110882
220
-0.110882
230
-0.987629
  0
VERTEX
  5
D50
  8
TEAM-NET
 10
342.03898
 20
-563.190247
 30
-143.707511
  0
VERTEX
  5
D51
  8
TEAM-NET
 10
337.529974
 20
-566.808878
 30
-143.707511
  0
VERTEX
  5
D52
  8
TEAM-NET
 10
332.413499
 20
-569.493836
 30
-143.707511
  0
VERTEX
  5
D53
  8
TEAM-NET
 10
326.879094
 20
-571.145655
 30
-143.707511
  0
VERTEX
  5
D54
  8
TEAM-NET
 10
321.13178
 20
-571.703146
 30
-143.707511
  0
VERTEX
  5
D55
  8
TEAM-NET
 10
315.384467
 20
-571.145655
 30
-143.707511
  0
VERTEX
  5
D56
  8
TEAM-NET
 10
309.850062
 20
-569.493836
 30
-143.707511
  0
VERTEX
  5
D57
  8
TEAM-NET
 10
304.733587
 20
-566.808878
 30
-143.707511
  0
VERTEX
  5
D58
  8
TEAM-NET
 10
300.224581
 20
-563.190247
 30
-143.707511
  0
SEQEND
  5
D59
  8
TEAM-NET
  0
POLYLINE
  5
1A9
  8
TEAM-NET
 66
     1
 10
0.0
 20
0.0
 30
-143.707511
 70
   128
210
-0.110882
220
-0.110882
230
-0.987629
  0
VERTEX
  5
D5A
  8
TEAM-NET
 10
342.03898
 20
-563.190247
 30
-143.707511
  0
VERTEX
  5
D5B
  8
TEAM-NET
 10
337.529974
 20
-566.808878
 30
-143.707511
  0
VERTEX
  5
D5C
  8
TEAM-NET
 10
332.413499
 20
-569.493836
 30
-143.707511
  0
VERTEX
  5
D5D
  8
TEAM-NET
 10
326.879094
 20
-571.145655
 30
-143.707511
  0
VERTEX
  5
D5E
  8
TEAM-NET
 10
321.13178
 20
-571.703146
 30
-143.707511
  0
VERTEX
  5
D5F
  8
TEAM-NET
 10
315.384467
 20
-571.145655
 30
-143.707511
  0
VERTEX
  5
D60
  8
TEAM-NET
 10
309.850062
 20
-569.493836
 30
-143.707511
  0
VERTEX
  5
D61
  8
TEAM-NET
 10
304.733587
 20
-566.808878
 30
-143.707511
  0
VERTEX
  5
D62
  8
TEAM-NET
 10
300.224581
 20
-563.190247
 30
-143.707511
  0
SEQEND
  5
D63
  8
TEAM-NET
  0
LINE
  5
1AA
  8
TEAM-NET
 10
696.952681
 20
-87.385436
 30
53.615197
 11
651.1016
 21
167.385436
 31
53.615197
210
-0.985575
220
0.0
230
0.16924
  0
LINE
  5
1AB
  8
TEAM-NET
 10
696.952681
 20
-87.385436
 30
53.615197
 11
651.1016
 21
167.385436
 31
53.615197
  0
POLYLINE
  5
1AC
  8
TEAM-NET
 66
     1
 10
0.0
 20
0.0
 30
-139.921006
 70
   128
210
-0.110882
220
0.110882
230
-0.987629
  0
VERTEX
  5
D64
  8
TEAM-NET
 10
-389.214733
 20
-539.342046
 30
-139.921006
  0
VERTEX
  5
D65
  8
TEAM-NET
 10
-393.72374
 20
-542.960677
 30
-139.921006
  0
VERTEX
  5
D66
  8
TEAM-NET
 10
-398.840215
 20
-545.645634
 30
-139.921006
  0
VERTEX
  5
D67
  8
TEAM-NET
 10
-404.37462
 20
-547.297454
 30
-139.921006
  0
VERTEX
  5
D68
  8
TEAM-NET
 10
-410.121933
 20
-547.854945
 30
-139.921006
  0
VERTEX
  5
D69
  8
TEAM-NET
 10
-415.869247
 20
-547.297454
 30
-139.921006
  0
VERTEX
  5
D6A
  8
TEAM-NET
 10
-421.403652
 20
-545.645634
 30
-139.921006
  0
VERTEX
  5
D6B
  8
TEAM-NET
 10
-426.520127
 20
-542.960677
 30
-139.921006
  0
VERTEX
  5
D6C
  8
TEAM-NET
 10
-431.029133
 20
-539.342046
 30
-139.921006
  0
SEQEND
  5
D6D
  8
TEAM-NET
  0
POLYLINE
  5
1AD
  8
TEAM-NET
 66
     1
 10
0.0
 20
0.0
 30
-139.921006
 70
   128
210
-0.110882
220
0.110882
230
-0.987629
  0
VERTEX
  5
D6E
  8
TEAM-NET
 10
-389.214733
 20
-539.342046
 30
-139.921006
  0
VERTEX
  5
D6F
  8
TEAM-NET
 10
-393.72374
 20
-542.960677
 30
-139.921006
  0
VERTEX
  5
D70
  8
TEAM-NET
 10
-398.840215
 20
-545.645634
 30
-139.921006
  0
VERTEX
  5
D71
  8
TEAM-NET
 10
-404.37462
 20
-547.297454
 30
-139.921006
  0
VERTEX
  5
D72
  8
TEAM-NET
 10
-410.121933
 20
-547.854945
 30
-139.921006
  0
VERTEX
  5
D73
  8
TEAM-NET
 10
-415.869247
 20
-547.297454
 30
-139.921006
  0
VERTEX
  5
D74
  8
TEAM-NET
 10
-421.403652
 20
-545.645634
 30
-139.921006
  0
VERTEX
  5
D75
  8
TEAM-NET
 10
-426.520127
 20
-542.960677
 30
-139.921006
  0
VERTEX
  5
D76
  8
TEAM-NET
 10
-431.029133
 20
-539.342046
 30
-139.921006
  0
SEQEND
  5
D77
  8
TEAM-NET
  0
POLYLINE
  5
1AE
  8
TEAM-NET
 66
     1
 10
0.0
 20
0.0
 30
37.0
 70
   128
  0
VERTEX
  5
D78
  8
TEAM-NET
 10
621.534355
 20
177.241184
 30
37.0
  0
VERTEX
  5
D79
  8
TEAM-NET
 10
623.471985
 20
177.053249
 30
37.0
  0
VERTEX
  5
D7A
  8
TEAM-NET
 10
625.327071
 20
176.496405
 30
37.0
  0
VERTEX
  5
D7B
  8
TEAM-NET
 10
627.03089
 20
175.59128
 30
37.0
  0
VERTEX
  5
D7C
  8
TEAM-NET
 10
628.520324
 20
174.371405
 30
37.0
  0
VERTEX
  5
D7D
  8
TEAM-NET
 10
629.740199
 20
172.881971
 30
37.0
  0
VERTEX
  5
D7E
  8
TEAM-NET
 10
630.645324
 20
171.178152
 30
37.0
  0
VERTEX
  5
D7F
  8
TEAM-NET
 10
631.202168
 20
169.323066
 30
37.0
  0
VERTEX
  5
D80
  8
TEAM-NET
 10
631.390103
 20
167.385436
 30
37.0
  0
SEQEND
  5
D81
  8
TEAM-NET
  0
POLYLINE
  5
1AF
  8
TEAM-NET
 66
     1
 10
0.0
 20
0.0
 30
83.624311
 70
   128
210
0.054908
220
0.054908
230
0.996981
  0
VERTEX
  5
D82
  8
TEAM-NET
 10
-300.224581
 20
-580.343529
 30
83.624311
  0
VERTEX
  5
D83
  8
TEAM-NET
 10
-304.733587
 20
-583.997325
 30
83.624311
  0
VERTEX
  5
D84
  8
TEAM-NET
 10
-309.850062
 20
-586.708374
 30
83.624311
  0
VERTEX
  5
D85
  8
TEAM-NET
 10
-315.384467
 20
-588.376246
 30
83.624311
  0
VERTEX
  5
D86
  8
TEAM-NET
 10
-321.13178
 20
-588.939154
 30
83.624311
  0
VERTEX
  5
D87
  8
TEAM-NET
 10
-326.879094
 20
-588.376246
 30
83.624311
  0
VERTEX
  5
D88
  8
TEAM-NET
 10
-332.413499
 20
-586.708374
 30
83.624311
  0
VERTEX
  5
D89
  8
TEAM-NET
 10
-337.529974
 20
-583.997325
 30
83.624311
  0
VERTEX
  5
D8A
  8
TEAM-NET
 10
-342.03898
 20
-580.343529
 30
83.624311
  0
SEQEND
  5
D8B
  8
TEAM-NET
  0
POLYLINE
  5
1B0
  8
TEAM-NET
 66
     1
 10
0.0
 20
0.0
 30
-37.0
 70
   128
210
0.0
220
0.0
230
-1.0
  0
VERTEX
  5
D8C
  8
TEAM-NET
 10
-631.390103
 20
167.385436
 30
-37.0
  0
VERTEX
  5
D8D
  8
TEAM-NET
 10
-631.202168
 20
169.323066
 30
-37.0
  0
VERTEX
  5
D8E
  8
TEAM-NET
 10
-630.645324
 20
171.178152
 30
-37.0
  0
VERTEX
  5
D8F
  8
TEAM-NET
 10
-629.740199
 20
172.881971
 30
-37.0
  0
VERTEX
  5
D90
  8
TEAM-NET
 10
-628.520324
 20
174.371405
 30
-37.0
  0
VERTEX
  5
D91
  8
TEAM-NET
 10
-627.03089
 20
175.59128
 30
-37.0
  0
VERTEX
  5
D92
  8
TEAM-NET
 10
-625.327071
 20
176.496405
 30
-37.0
  0
VERTEX
  5
D93
  8
TEAM-NET
 10
-623.471985
 20
177.053249
 30
-37.0
  0
VERTEX
  5
D94
  8
TEAM-NET
 10
-621.534355
 20
177.241184
 30
-37.0
  0
SEQEND
  5
D95
  8
TEAM-NET
  0
POLYLINE
  5
1B1
  8
TEAM-NET
 66
     1
 10
0.0
 20
0.0
 30
83.624311
 70
   128
210
0.054908
220
0.054908
230
0.996981
  0
VERTEX
  5
D96
  8
TEAM-NET
 10
-300.224581
 20
-580.343529
 30
83.624311
  0
VERTEX
  5
D97
  8
TEAM-NET
 10
-304.733587
 20
-583.997325
 30
83.624311
  0
VERTEX
  5
D98
  8
TEAM-NET
 10
-309.850062
 20
-586.708374
 30
83.624311
  0
VERTEX
  5
D99
  8
TEAM-NET
 10
-315.384467
 20
-588.376246
 30
83.624311
  0
VERTEX
  5
D9A
  8
TEAM-NET
 10
-321.13178
 20
-588.939154
 30
83.624311
  0
VERTEX
  5
D9B
  8
TEAM-NET
 10
-326.879094
 20
-588.376246
 30
83.624311
  0
VERTEX
  5
D9C
  8
TEAM-NET
 10
-332.413499
 20
-586.708374
 30
83.624311
  0
VERTEX
  5
D9D
  8
TEAM-NET
 10
-337.529974
 20
-583.997325
 30
83.624311
  0
VERTEX
  5
D9E
  8
TEAM-NET
 10
-342.03898
 20
-580.343529
 30
83.624311
  0
SEQEND
  5
D9F
  8
TEAM-NET
  0
LINE
  5
1B2
  8
TEAM-NET
 10
655.575476
 20
171.859312
 30
38.307599
 11
701.426557
 21
-91.859312
 31
38.307599
210
0.985575
220
0.0
230
-0.16924
  0
LINE
  5
1B3
  8
TEAM-NET
 10
631.390103
 20
167.385436
 30
37.0
 11
677.241184
 21
-87.385436
 31
37.0
  0
LINE
  5
1B4
  8
TEAM-NET
 10
655.575476
 20
171.859312
 30
38.307599
 11
701.426557
 21
-91.859312
 31
38.307599
  0
LINE
  5
1B5
  8
TEAM-NET
 10
631.390103
 20
167.385436
 30
37.0
 11
677.241184
 21
-87.385436
 31
37.0
  0
POLYLINE
  5
1B6
  8
TEAM-NET
 66
     1
 10
0.0
 20
0.0
 30
37.0
 70
   128
  0
VERTEX
  5
DA0
  8
TEAM-NET
 10
677.241184
 20
-87.385436
 30
37.0
  0
VERTEX
  5
DA1
  8
TEAM-NET
 10
677.053249
 20
-89.323066
 30
37.0
  0
VERTEX
  5
DA2
  8
TEAM-NET
 10
676.496405
 20
-91.178152
 30
37.0
  0
VERTEX
  5
DA3
  8
TEAM-NET
 10
675.59128
 20
-92.881971
 30
37.0
  0
VERTEX
  5
DA4
  8
TEAM-NET
 10
674.371405
 20
-94.371405
 30
37.0
  0
VERTEX
  5
DA5
  8
TEAM-NET
 10
672.881971
 20
-95.59128
 30
37.0
  0
VERTEX
  5
DA6
  8
TEAM-NET
 10
671.178152
 20
-96.496405
 30
37.0
  0
VERTEX
  5
DA7
  8
TEAM-NET
 10
669.323066
 20
-97.053249
 30
37.0
  0
VERTEX
  5
DA8
  8
TEAM-NET
 10
667.385436
 20
-97.241184
 30
37.0
  0
SEQEND
  5
DA9
  8
TEAM-NET
  0
POLYLINE
  5
1B7
  8
TEAM-NET
 66
     1
 10
0.0
 20
0.0
 30
81.749279
 70
   128
210
0.054908
220
-0.054908
230
0.996981
  0
VERTEX
  5
DAA
  8
TEAM-NET
 10
431.029133
 20
-556.269506
 30
81.749279
  0
VERTEX
  5
DAB
  8
TEAM-NET
 10
426.520127
 20
-559.923302
 30
81.749279
  0
VERTEX
  5
DAC
  8
TEAM-NET
 10
421.403652
 20
-562.634351
 30
81.749279
  0
VERTEX
  5
DAD
  8
TEAM-NET
 10
415.869247
 20
-564.302223
 30
81.749279
  0
VERTEX
  5
DAE
  8
TEAM-NET
 10
410.121933
 20
-564.865131
 30
81.749279
  0
VERTEX
  5
DAF
  8
TEAM-NET
 10
404.37462
 20
-564.302223
 30
81.749279
  0
VERTEX
  5
DB0
  8
TEAM-NET
 10
398.840215
 20
-562.634351
 30
81.749279
  0
VERTEX
  5
DB1
  8
TEAM-NET
 10
393.72374
 20
-559.923302
 30
81.749279
  0
VERTEX
  5
DB2
  8
TEAM-NET
 10
389.214733
 20
-556.269506
 30
81.749279
  0
SEQEND
  5
DB3
  8
TEAM-NET
  0
POLYLINE
  5
1B8
  8
TEAM-NET
 66
     1
 10
0.0
 20
0.0
 30
81.749279
 70
   128
210
0.054908
220
-0.054908
230
0.996981
  0
VERTEX
  5
DB4
  8
TEAM-NET
 10
431.029133
 20
-556.269506
 30
81.749279
  0
VERTEX
  5
DB5
  8
TEAM-NET
 10
426.520127
 20
-559.923302
 30
81.749279
  0
VERTEX
  5
DB6
  8
TEAM-NET
 10
421.403652
 20
-562.634351
 30
81.749279
  0
VERTEX
  5
DB7
  8
TEAM-NET
 10
415.869247
 20
-564.302223
 30
81.749279
  0
VERTEX
  5
DB8
  8
TEAM-NET
 10
410.121933
 20
-564.865131
 30
81.749279
  0
VERTEX
  5
DB9
  8
TEAM-NET
 10
404.37462
 20
-564.302223
 30
81.749279
  0
VERTEX
  5
DBA
  8
TEAM-NET
 10
398.840215
 20
-562.634351
 30
81.749279
  0
VERTEX
  5
DBB
  8
TEAM-NET
 10
393.72374
 20
-559.923302
 30
81.749279
  0
VERTEX
  5
DBC
  8
TEAM-NET
 10
389.214733
 20
-556.269506
 30
81.749279
  0
SEQEND
  5
DBD
  8
TEAM-NET
  0
POLYLINE
  5
1B9
  8
TEAM-NET
 66
     1
 10
0.0
 20
0.0
 30
-37.0
 70
   128
210
0.0
220
0.0
230
-1.0
  0
VERTEX
  5
DBE
  8
TEAM-NET
 10
-667.385436
 20
-97.241184
 30
-37.0
  0
VERTEX
  5
DBF
  8
TEAM-NET
 10
-669.323066
 20
-97.053249
 30
-37.0
  0
VERTEX
  5
DC0
  8
TEAM-NET
 10
-671.178152
 20
-96.496405
 30
-37.0
  0
VERTEX
  5
DC1
  8
TEAM-NET
 10
-672.881971
 20
-95.59128
 30
-37.0
  0
VERTEX
  5
DC2
  8
TEAM-NET
 10
-674.371405
 20
-94.371405
 30
-37.0
  0
VERTEX
  5
DC3
  8
TEAM-NET
 10
-675.59128
 20
-92.881971
 30
-37.0
  0
VERTEX
  5
DC4
  8
TEAM-NET
 10
-676.496405
 20
-91.178152
 30
-37.0
  0
VERTEX
  5
DC5
  8
TEAM-NET
 10
-677.053249
 20
-89.323066
 30
-37.0
  0
VERTEX
  5
DC6
  8
TEAM-NET
 10
-677.241184
 20
-87.385436
 30
-37.0
  0
SEQEND
  5
DC7
  8
TEAM-NET
  0
ARC
  5
1BA
  8
TEAM-KAN
 10
6.370676
 20
436.463825
 30
161.018603
 40
39.999375
210
0.305045
220
-0.936648
230
-0.172158
 50
34.151198
 51
124.151198
  0
ARC
  5
1BB
  8
TEAM-KAN
 10
6.370676
 20
436.463825
 30
158.03916
 40
37.168272
210
0.305045
220
-0.936648
230
-0.172158
 50
34.151198
 51
124.151198
  0
ARC
  5
1BC
  8
TEAM-KAN
 10
6.370676
 20
436.463825
 30
161.018603
 40
39.999375
210
0.305045
220
-0.936648
230
-0.172158
 50
34.151198
 51
124.151198
  0
ARC
  5
1BD
  8
TEAM-KAN
 10
6.370676
 20
436.463825
 30
158.03916
 40
37.168272
210
0.305045
220
-0.936648
230
-0.172158
 50
34.151198
 51
124.151198
  0
ARC
  5
1BE
  8
TEAM-KAN
 10
6.370676
 20
436.463825
 30
161.014371
 40
35.0
210
0.305045
220
-0.936648
230
-0.172158
 50
34.151198
 51
124.151198
  0
ARC
  5
1BF
  8
TEAM-KAN
 10
6.370676
 20
436.463825
 30
163.014371
 40
37.0
210
0.305045
220
-0.936648
230
-0.172158
 50
34.151198
 51
124.151198
  0
ARC
  5
1C0
  8
TEAM-KAN
 10
6.370676
 20
436.463825
 30
163.014371
 40
37.0
210
0.305045
220
-0.936648
230
-0.172158
 50
34.151198
 51
124.151198
  0
ARC
  5
1C1
  8
TEAM-KAN
 10
6.370676
 20
436.463825
 30
161.014371
 40
35.0
210
0.305045
220
-0.936648
230
-0.172158
 50
34.151198
 51
124.151198
  0
ARC
  5
1C2
  8
TEAM-KAN
 10
6.370676
 20
436.463825
 30
176.018603
 40
39.999375
210
0.305045
220
-0.936648
230
-0.172158
 50
304.151198
 51
124.151198
  0
ARC
  5
1C3
  8
TEAM-KAN
 10
6.370676
 20
436.463825
 30
158.03916
 40
37.168272
210
0.305045
220
-0.936648
230
-0.172158
 50
214.151198
 51
34.151198
  0
ARC
  5
1C4
  8
TEAM-KAN
 10
6.370676
 20
436.463825
 30
158.03916
 40
37.168272
210
0.305045
220
-0.936648
230
-0.172158
 50
214.151198
 51
34.151198
  0
ARC
  5
1C5
  8
TEAM-KAN
 10
6.370676
 20
436.463825
 30
176.018603
 40
37.0
210
0.305045
220
-0.936648
230
-0.172158
 50
304.151198
 51
124.151198
  0
ARC
  5
1C6
  8
TEAM-KAN
 10
6.370676
 20
436.463825
 30
176.018603
 40
39.999375
210
0.305045
220
-0.936648
230
-0.172158
 50
304.151198
 51
124.151198
  0
ARC
  5
1C7
  8
TEAM-KAN
 10
6.370676
 20
436.463825
 30
176.018603
 40
39.999375
210
0.305045
220
-0.936648
230
-0.172158
 50
124.151198
 51
304.151198
  0
ARC
  5
1C8
  8
TEAM-KAN
 10
6.370676
 20
436.463825
 30
176.018603
 40
37.0
210
0.305045
220
-0.936648
230
-0.172158
 50
304.151198
 51
124.151198
  0
ARC
  5
1C9
  8
TEAM-KAN
 10
6.370676
 20
436.463825
 30
161.014371
 40
35.0
210
0.305045
220
-0.936648
230
-0.172158
 50
214.151198
 51
34.151198
  0
ARC
  5
1CA
  8
TEAM-KAN
 10
6.370676
 20
436.463825
 30
161.014371
 40
35.0
210
0.305045
220
-0.936648
230
-0.172158
 50
214.151198
 51
34.151198
  0
ARC
  5
1CB
  8
TEAM-KAN
 10
6.370676
 20
436.463825
 30
161.018603
 40
39.999375
210
0.305045
220
-0.936648
230
-0.172158
 50
124.151198
 51
214.151198
  0
ARC
  5
1CC
  8
TEAM-KAN
 10
6.370676
 20
436.463825
 30
176.018603
 40
39.999375
210
0.305045
220
-0.936648
230
-0.172158
 50
124.151198
 51
304.151198
  0
ARC
  5
1CD
  8
TEAM-KAN
 10
6.370676
 20
436.463825
 30
161.018603
 40
39.999375
210
0.305045
220
-0.936648
230
-0.172158
 50
124.151198
 51
214.151198
  0
ARC
  5
1CE
  8
TEAM-KAN
 10
-6.370676
 20
436.463825
 30
-185.658522
 40
5.5
210
-0.305045
220
0.936648
230
0.172158
 50
235.848802
 51
325.848802
  0
ARC
  5
1CF
  8
TEAM-KAN
 10
248.121318
 20
179.137306
 30
357.623218
 40
2.0
210
-0.489665
220
-0.309309
230
0.815203
 50
252.707711
 51
342.707711
  0
ARC
  5
1D0
  8
TEAM-KAN
 10
248.121318
 20
179.137306
 30
357.623218
 40
2.0
210
-0.489665
220
-0.309309
230
0.815203
 50
252.707711
 51
342.707711
  0
ARC
  5
1D1
  8
TEAM-KAN
 10
6.370676
 20
436.463825
 30
185.658522
 40
5.5
210
0.305045
220
-0.936648
230
-0.172158
 50
214.151198
 51
304.151198
  0
LINE
  5
1D2
  8
TEAM-KAN
 10
89.022796
 20
-239.177814
 30
392.214897
 11
83.030447
 21
-220.778161
 31
395.59679
  0
ARC
  5
1D3
  8
TEAM-KAN
 10
6.370676
 20
436.463825
 30
164.014371
 40
7.5
210
0.305045
220
-0.936648
230
-0.172158
 50
214.151198
 51
304.151198
  0
LINE
  5
1D4
  8
TEAM-KAN
 10
89.022796
 20
-239.177814
 30
392.214897
 11
83.030447
 21
-220.778161
 31
395.59679
  0
ARC
  5
1D5
  8
TEAM-KAN
 10
6.370676
 20
436.463825
 30
164.014371
 40
7.5
210
0.305045
220
-0.936648
230
-0.172158
 50
214.151198
 51
304.151198
  0
ARC
  5
1D6
  8
TEAM-KAN
 10
6.370676
 20
436.463825
 30
161.014371
 40
10.5
210
0.305045
220
-0.936648
230
-0.172158
 50
214.151198
 51
34.151198
  0
ARC
  5
1D7
  8
TEAM-KAN
 10
6.370676
 20
436.463825
 30
161.014371
 40
10.5
210
0.305045
220
-0.936648
230
-0.172158
 50
214.151198
 51
34.151198
  0
ARC
  5
1D8
  8
TEAM-KAN
 10
-437.032124
 20
121.666717
 30
-357.623218
 40
225.494604
210
0.489665
220
0.309309
230
-0.815203
 50
8.890382
 51
18.364586
  0
ARC
  5
1D9
  8
TEAM-KAN
 10
-437.032124
 20
121.666717
 30
-357.623218
 40
225.494604
210
0.489665
220
0.309309
230
-0.815203
 50
8.890382
 51
18.364586
  0
ARC
  5
1DA
  8
TEAM-KAN
 10
-6.370676
 20
436.463825
 30
-185.658522
 40
5.5
210
-0.305045
220
0.936648
230
0.172158
 50
145.848802
 51
235.848802
  0
ARC
  5
1DB
  8
TEAM-KAN
 10
6.370676
 20
436.463825
 30
183.658522
 40
7.5
210
0.305045
220
-0.936648
230
-0.172158
 50
304.151198
 51
34.151198
  0
ARC
  5
1DC
  8
TEAM-KAN
 10
6.370676
 20
436.463825
 30
183.658522
 40
7.5
210
0.305045
220
-0.936648
230
-0.172158
 50
124.151198
 51
214.151198
  0
ARC
  5
1DD
  8
TEAM-KAN
 10
6.370676
 20
436.463825
 30
185.658522
 40
5.5
210
0.305045
220
-0.936648
230
-0.172158
 50
304.151198
 51
34.151198
  0
ARC
  5
1DE
  8
TEAM-KAN
 10
6.370676
 20
436.463825
 30
183.658522
 40
7.5
210
0.305045
220
-0.936648
230
-0.172158
 50
124.151198
 51
214.151198
  0
ARC
  5
1DF
  8
TEAM-KAN
 10
6.370676
 20
436.463825
 30
183.658522
 40
7.5
210
0.305045
220
-0.936648
230
-0.172158
 50
304.151198
 51
34.151198
  0
POLYLINE
  5
1E0
  8
TEAM-KAN
 66
     1
 10
0.0
 20
0.0
 30
187.934604
 70
   128
210
0.322806
220
-0.931211
230
-0.16924
  0
VERTEX
  5
DC8
  8
TEAM-KAN
 10
0.856071
 20
418.340704
 30
187.934604
  0
VERTEX
  5
DC9
  8
TEAM-KAN
 10
-2.359546
 20
418.643036
 30
187.934604
  0
VERTEX
  5
DCA
  8
TEAM-KAN
 10
-5.465658
 20
419.539737
 30
187.934604
  0
VERTEX
  5
DCB
  8
TEAM-KAN
 10
-8.356492
 20
421.000269
 30
187.934604
  0
VERTEX
  5
DCC
  8
TEAM-KAN
 10
-10.933603
 20
422.974897
 30
187.934604
  0
VERTEX
  5
DCD
  8
TEAM-KAN
 10
-13.109231
 20
425.396377
 30
187.934604
  0
VERTEX
  5
DCE
  8
TEAM-KAN
 10
-14.809287
 20
428.182249
 30
187.934604
  0
VERTEX
  5
DCF
  8
TEAM-KAN
 10
-15.975878
 20
431.237642
 30
187.934604
  0
VERTEX
  5
DD0
  8
TEAM-KAN
 10
-16.569277
 20
434.45851
 30
187.934604
  0
VERTEX
  5
DD1
  8
TEAM-KAN
 10
-16.569277
 20
437.735169
 30
187.934604
  0
VERTEX
  5
DD2
  8
TEAM-KAN
 10
-15.975878
 20
440.956036
 30
187.934604
  0
VERTEX
  5
DD3
  8
TEAM-KAN
 10
-14.809287
 20
444.01143
 30
187.934604
  0
VERTEX
  5
DD4
  8
TEAM-KAN
 10
-13.109231
 20
446.797301
 30
187.934604
  0
VERTEX
  5
DD5
  8
TEAM-KAN
 10
-10.933603
 20
449.218781
 30
187.934604
  0
VERTEX
  5
DD6
  8
TEAM-KAN
 10
-8.356492
 20
451.19341
 30
187.934604
  0
VERTEX
  5
DD7
  8
TEAM-KAN
 10
-5.465658
 20
452.653942
 30
187.934604
  0
VERTEX
  5
DD8
  8
TEAM-KAN
 10
-2.359546
 20
453.550642
 30
187.934604
  0
VERTEX
  5
DD9
  8
TEAM-KAN
 10
0.856071
 20
453.852974
 30
187.934604
  0
SEQEND
  5
DDA
  8
TEAM-KAN
  0
POLYLINE
  5
1E1
  8
TEAM-KAN
 66
     1
 10
0.0
 20
0.0
 30
-171.475885
 70
   128
210
-0.321099
220
0.926286
230
0.197204
  0
VERTEX
  5
DDB
  8
TEAM-KAN
 10
-0.856071
 20
458.315979
 30
-171.475885
  0
VERTEX
  5
DDC
  8
TEAM-KAN
 10
2.359546
 20
458.01204
 30
-171.475885
  0
VERTEX
  5
DDD
  8
TEAM-KAN
 10
5.465658
 20
457.110572
 30
-171.475885
  0
VERTEX
  5
DDE
  8
TEAM-KAN
 10
8.356492
 20
455.642274
 30
-171.475885
  0
VERTEX
  5
DDF
  8
TEAM-KAN
 10
10.933603
 20
453.657147
 30
-171.475885
  0
VERTEX
  5
DE0
  8
TEAM-KAN
 10
13.109231
 20
451.222793
 30
-171.475885
  0
VERTEX
  5
DE1
  8
TEAM-KAN
 10
14.809287
 20
448.422109
 30
-171.475885
  0
VERTEX
  5
DE2
  8
TEAM-KAN
 10
15.975878
 20
445.350471
 30
-171.475885
  0
VERTEX
  5
DE3
  8
TEAM-KAN
 10
16.569277
 20
442.112478
 30
-171.475885
  0
VERTEX
  5
DE4
  8
TEAM-KAN
 10
16.569277
 20
438.818398
 30
-171.475885
  0
VERTEX
  5
DE5
  8
TEAM-KAN
 10
15.975878
 20
435.580406
 30
-171.475885
  0
VERTEX
  5
DE6
  8
TEAM-KAN
 10
14.809287
 20
432.508767
 30
-171.475885
  0
VERTEX
  5
DE7
  8
TEAM-KAN
 10
13.109231
 20
429.708084
 30
-171.475885
  0
VERTEX
  5
DE8
  8
TEAM-KAN
 10
10.933603
 20
427.273729
 30
-171.475885
  0
VERTEX
  5
DE9
  8
TEAM-KAN
 10
8.356492
 20
425.288602
 30
-171.475885
  0
VERTEX
  5
DEA
  8
TEAM-KAN
 10
5.465658
 20
423.820304
 30
-171.475885
  0
VERTEX
  5
DEB
  8
TEAM-KAN
 10
2.359546
 20
422.918836
 30
-171.475885
  0
VERTEX
  5
DEC
  8
TEAM-KAN
 10
-0.856071
 20
422.614897
 30
-171.475885
  0
SEQEND
  5
DED
  8
TEAM-KAN
  0
POLYLINE
  5
1E2
  8
TEAM-KAN
 66
     1
 10
0.0
 20
0.0
 30
-171.475885
 70
   128
210
-0.321099
220
0.926286
230
0.197204
  0
VERTEX
  5
DEE
  8
TEAM-KAN
 10
-0.856071
 20
422.614897
 30
-171.475885
  0
VERTEX
  5
DEF
  8
TEAM-KAN
 10
-4.071687
 20
422.918836
 30
-171.475885
  0
VERTEX
  5
DF0
  8
TEAM-KAN
 10
-7.1778
 20
423.820304
 30
-171.475885
  0
VERTEX
  5
DF1
  8
TEAM-KAN
 10
-10.068634
 20
425.288602
 30
-171.475885
  0
VERTEX
  5
DF2
  8
TEAM-KAN
 10
-12.645745
 20
427.273729
 30
-171.475885
  0
VERTEX
  5
DF3
  8
TEAM-KAN
 10
-14.821372
 20
429.708084
 30
-171.475885
  0
VERTEX
  5
DF4
  8
TEAM-KAN
 10
-16.521428
 20
432.508767
 30
-171.475885
  0
VERTEX
  5
DF5
  8
TEAM-KAN
 10
-17.68802
 20
435.580406
 30
-171.475885
  0
VERTEX
  5
DF6
  8
TEAM-KAN
 10
-18.281419
 20
438.818398
 30
-171.475885
  0
VERTEX
  5
DF7
  8
TEAM-KAN
 10
-18.281419
 20
442.112478
 30
-171.475885
  0
VERTEX
  5
DF8
  8
TEAM-KAN
 10
-17.68802
 20
445.350471
 30
-171.475885
  0
VERTEX
  5
DF9
  8
TEAM-KAN
 10
-16.521428
 20
448.422109
 30
-171.475885
  0
VERTEX
  5
DFA
  8
TEAM-KAN
 10
-14.821372
 20
451.222793
 30
-171.475885
  0
VERTEX
  5
DFB
  8
TEAM-KAN
 10
-12.645745
 20
453.657147
 30
-171.475885
  0
VERTEX
  5
DFC
  8
TEAM-KAN
 10
-10.068634
 20
455.642274
 30
-171.475885
  0
VERTEX
  5
DFD
  8
TEAM-KAN
 10
-7.1778
 20
457.110572
 30
-171.475885
  0
VERTEX
  5
DFE
  8
TEAM-KAN
 10
-4.071687
 20
458.01204
 30
-171.475885
  0
VERTEX
  5
DFF
  8
TEAM-KAN
 10
-0.856071
 20
458.315979
 30
-171.475885
  0
SEQEND
  5
E00
  8
TEAM-KAN
  0
POLYLINE
  5
1E3
  8
TEAM-KAN
 66
     1
 10
0.0
 20
0.0
 30
-171.475885
 70
   128
210
-0.321099
220
0.926286
230
0.197204
  0
VERTEX
  5
E01
  8
TEAM-KAN
 10
-0.856071
 20
458.315979
 30
-171.475885
  0
VERTEX
  5
E02
  8
TEAM-KAN
 10
2.359546
 20
458.01204
 30
-171.475885
  0
VERTEX
  5
E03
  8
TEAM-KAN
 10
5.465658
 20
457.110572
 30
-171.475885
  0
VERTEX
  5
E04
  8
TEAM-KAN
 10
8.356492
 20
455.642274
 30
-171.475885
  0
VERTEX
  5
E05
  8
TEAM-KAN
 10
10.933603
 20
453.657147
 30
-171.475885
  0
VERTEX
  5
E06
  8
TEAM-KAN
 10
13.109231
 20
451.222793
 30
-171.475885
  0
VERTEX
  5
E07
  8
TEAM-KAN
 10
14.809287
 20
448.422109
 30
-171.475885
  0
VERTEX
  5
E08
  8
TEAM-KAN
 10
15.975878
 20
445.350471
 30
-171.475885
  0
VERTEX
  5
E09
  8
TEAM-KAN
 10
16.569277
 20
442.112478
 30
-171.475885
  0
VERTEX
  5
E0A
  8
TEAM-KAN
 10
16.569277
 20
438.818398
 30
-171.475885
  0
VERTEX
  5
E0B
  8
TEAM-KAN
 10
15.975878
 20
435.580406
 30
-171.475885
  0
VERTEX
  5
E0C
  8
TEAM-KAN
 10
14.809287
 20
432.508767
 30
-171.475885
  0
VERTEX
  5
E0D
  8
TEAM-KAN
 10
13.109231
 20
429.708084
 30
-171.475885
  0
VERTEX
  5
E0E
  8
TEAM-KAN
 10
10.933603
 20
427.273729
 30
-171.475885
  0
VERTEX
  5
E0F
  8
TEAM-KAN
 10
8.356492
 20
425.288602
 30
-171.475885
  0
VERTEX
  5
E10
  8
TEAM-KAN
 10
5.465658
 20
423.820304
 30
-171.475885
  0
VERTEX
  5
E11
  8
TEAM-KAN
 10
2.359546
 20
422.918836
 30
-171.475885
  0
VERTEX
  5
E12
  8
TEAM-KAN
 10
-0.856071
 20
422.614897
 30
-171.475885
  0
SEQEND
  5
E13
  8
TEAM-KAN
  0
POLYLINE
  5
1E4
  8
TEAM-KAN
 66
     1
 10
0.0
 20
0.0
 30
-171.475885
 70
   128
210
-0.321099
220
0.926286
230
0.197204
  0
VERTEX
  5
E14
  8
TEAM-KAN
 10
-0.856071
 20
422.614897
 30
-171.475885
  0
VERTEX
  5
E15
  8
TEAM-KAN
 10
-4.071687
 20
422.918836
 30
-171.475885
  0
VERTEX
  5
E16
  8
TEAM-KAN
 10
-7.1778
 20
423.820304
 30
-171.475885
  0
VERTEX
  5
E17
  8
TEAM-KAN
 10
-10.068634
 20
425.288602
 30
-171.475885
  0
VERTEX
  5
E18
  8
TEAM-KAN
 10
-12.645745
 20
427.273729
 30
-171.475885
  0
VERTEX
  5
E19
  8
TEAM-KAN
 10
-14.821372
 20
429.708084
 30
-171.475885
  0
VERTEX
  5
E1A
  8
TEAM-KAN
 10
-16.521428
 20
432.508767
 30
-171.475885
  0
VERTEX
  5
E1B
  8
TEAM-KAN
 10
-17.68802
 20
435.580406
 30
-171.475885
  0
VERTEX
  5
E1C
  8
TEAM-KAN
 10
-18.281419
 20
438.818398
 30
-171.475885
  0
VERTEX
  5
E1D
  8
TEAM-KAN
 10
-18.281419
 20
442.112478
 30
-171.475885
  0
VERTEX
  5
E1E
  8
TEAM-KAN
 10
-17.68802
 20
445.350471
 30
-171.475885
  0
VERTEX
  5
E1F
  8
TEAM-KAN
 10
-16.521428
 20
448.422109
 30
-171.475885
  0
VERTEX
  5
E20
  8
TEAM-KAN
 10
-14.821372
 20
451.222793
 30
-171.475885
  0
VERTEX
  5
E21
  8
TEAM-KAN
 10
-12.645745
 20
453.657147
 30
-171.475885
  0
VERTEX
  5
E22
  8
TEAM-KAN
 10
-10.068634
 20
455.642274
 30
-171.475885
  0
VERTEX
  5
E23
  8
TEAM-KAN
 10
-7.1778
 20
457.110572
 30
-171.475885
  0
VERTEX
  5
E24
  8
TEAM-KAN
 10
-4.071687
 20
458.01204
 30
-171.475885
  0
VERTEX
  5
E25
  8
TEAM-KAN
 10
-0.856071
 20
458.315979
 30
-171.475885
  0
SEQEND
  5
E26
  8
TEAM-KAN
  0
POLYLINE
  5
1E5
  8
TEAM-KAN
 66
     1
 10
0.0
 20
0.0
 30
187.934604
 70
   128
210
0.322806
220
-0.931211
230
-0.16924
  0
VERTEX
  5
E27
  8
TEAM-KAN
 10
0.856071
 20
453.852974
 30
187.934604
  0
VERTEX
  5
E28
  8
TEAM-KAN
 10
4.071687
 20
453.550642
 30
187.934604
  0
VERTEX
  5
E29
  8
TEAM-KAN
 10
7.1778
 20
452.653942
 30
187.934604
  0
VERTEX
  5
E2A
  8
TEAM-KAN
 10
10.068634
 20
451.19341
 30
187.934604
  0
VERTEX
  5
E2B
  8
TEAM-KAN
 10
12.645745
 20
449.218781
 30
187.934604
  0
VERTEX
  5
E2C
  8
TEAM-KAN
 10
14.821372
 20
446.797301
 30
187.934604
  0
VERTEX
  5
E2D
  8
TEAM-KAN
 10
16.521428
 20
444.01143
 30
187.934604
  0
VERTEX
  5
E2E
  8
TEAM-KAN
 10
17.68802
 20
440.956036
 30
187.934604
  0
VERTEX
  5
E2F
  8
TEAM-KAN
 10
18.281419
 20
437.735169
 30
187.934604
  0
VERTEX
  5
E30
  8
TEAM-KAN
 10
18.281419
 20
434.45851
 30
187.934604
  0
VERTEX
  5
E31
  8
TEAM-KAN
 10
17.68802
 20
431.237642
 30
187.934604
  0
VERTEX
  5
E32
  8
TEAM-KAN
 10
16.521428
 20
428.182249
 30
187.934604
  0
VERTEX
  5
E33
  8
TEAM-KAN
 10
14.821372
 20
425.396377
 30
187.934604
  0
VERTEX
  5
E34
  8
TEAM-KAN
 10
12.645745
 20
422.974897
 30
187.934604
  0
VERTEX
  5
E35
  8
TEAM-KAN
 10
10.068634
 20
421.000269
 30
187.934604
  0
VERTEX
  5
E36
  8
TEAM-KAN
 10
7.1778
 20
419.539737
 30
187.934604
  0
VERTEX
  5
E37
  8
TEAM-KAN
 10
4.071687
 20
418.643036
 30
187.934604
  0
VERTEX
  5
E38
  8
TEAM-KAN
 10
0.856071
 20
418.340704
 30
187.934604
  0
SEQEND
  5
E39
  8
TEAM-KAN
  0
POLYLINE
  5
1E6
  8
TEAM-KAN
 66
     1
 10
0.0
 20
0.0
 30
-187.934604
 70
   128
210
-0.322806
220
0.931211
230
0.16924
  0
VERTEX
  5
E3A
  8
TEAM-KAN
 10
-0.856071
 20
453.852974
 30
-187.934604
  0
VERTEX
  5
E3B
  8
TEAM-KAN
 10
2.359546
 20
453.550642
 30
-187.934604
  0
VERTEX
  5
E3C
  8
TEAM-KAN
 10
5.465658
 20
452.653942
 30
-187.934604
  0
VERTEX
  5
E3D
  8
TEAM-KAN
 10
8.356492
 20
451.19341
 30
-187.934604
  0
VERTEX
  5
E3E
  8
TEAM-KAN
 10
10.933603
 20
449.218781
 30
-187.934604
  0
VERTEX
  5
E3F
  8
TEAM-KAN
 10
13.109231
 20
446.797301
 30
-187.934604
  0
VERTEX
  5
E40
  8
TEAM-KAN
 10
14.809287
 20
444.01143
 30
-187.934604
  0
VERTEX
  5
E41
  8
TEAM-KAN
 10
15.975878
 20
440.956036
 30
-187.934604
  0
VERTEX
  5
E42
  8
TEAM-KAN
 10
16.569277
 20
437.735169
 30
-187.934604
  0
VERTEX
  5
E43
  8
TEAM-KAN
 10
16.569277
 20
434.45851
 30
-187.934604
  0
VERTEX
  5
E44
  8
TEAM-KAN
 10
15.975878
 20
431.237642
 30
-187.934604
  0
VERTEX
  5
E45
  8
TEAM-KAN
 10
14.809287
 20
428.182249
 30
-187.934604
  0
VERTEX
  5
E46
  8
TEAM-KAN
 10
13.109231
 20
425.396377
 30
-187.934604
  0
VERTEX
  5
E47
  8
TEAM-KAN
 10
10.933603
 20
422.974897
 30
-187.934604
  0
VERTEX
  5
E48
  8
TEAM-KAN
 10
8.356492
 20
421.000269
 30
-187.934604
  0
VERTEX
  5
E49
  8
TEAM-KAN
 10
5.465658
 20
419.539737
 30
-187.934604
  0
VERTEX
  5
E4A
  8
TEAM-KAN
 10
2.359546
 20
418.643036
 30
-187.934604
  0
VERTEX
  5
E4B
  8
TEAM-KAN
 10
-0.856071
 20
418.340704
 30
-187.934604
  0
SEQEND
  5
E4C
  8
TEAM-KAN
  0
POLYLINE
  5
1E7
  8
TEAM-KAN
 66
     1
 10
0.0
 20
0.0
 30
-187.934604
 70
   128
210
-0.322806
220
0.931211
230
0.16924
  0
VERTEX
  5
E4D
  8
TEAM-KAN
 10
-0.856071
 20
418.340704
 30
-187.934604
  0
VERTEX
  5
E4E
  8
TEAM-KAN
 10
-4.071687
 20
418.643036
 30
-187.934604
  0
VERTEX
  5
E4F
  8
TEAM-KAN
 10
-7.1778
 20
419.539737
 30
-187.934604
  0
VERTEX
  5
E50
  8
TEAM-KAN
 10
-10.068634
 20
421.000269
 30
-187.934604
  0
VERTEX
  5
E51
  8
TEAM-KAN
 10
-12.645745
 20
422.974897
 30
-187.934604
  0
VERTEX
  5
E52
  8
TEAM-KAN
 10
-14.821372
 20
425.396377
 30
-187.934604
  0
VERTEX
  5
E53
  8
TEAM-KAN
 10
-16.521428
 20
428.182249
 30
-187.934604
  0
VERTEX
  5
E54
  8
TEAM-KAN
 10
-17.68802
 20
431.237642
 30
-187.934604
  0
VERTEX
  5
E55
  8
TEAM-KAN
 10
-18.281419
 20
434.45851
 30
-187.934604
  0
VERTEX
  5
E56
  8
TEAM-KAN
 10
-18.281419
 20
437.735169
 30
-187.934604
  0
VERTEX
  5
E57
  8
TEAM-KAN
 10
-17.68802
 20
440.956036
 30
-187.934604
  0
VERTEX
  5
E58
  8
TEAM-KAN
 10
-16.521428
 20
444.01143
 30
-187.934604
  0
VERTEX
  5
E59
  8
TEAM-KAN
 10
-14.821372
 20
446.797301
 30
-187.934604
  0
VERTEX
  5
E5A
  8
TEAM-KAN
 10
-12.645745
 20
449.218781
 30
-187.934604
  0
VERTEX
  5
E5B
  8
TEAM-KAN
 10
-10.068634
 20
451.19341
 30
-187.934604
  0
VERTEX
  5
E5C
  8
TEAM-KAN
 10
-7.1778
 20
452.653942
 30
-187.934604
  0
VERTEX
  5
E5D
  8
TEAM-KAN
 10
-4.071687
 20
453.550642
 30
-187.934604
  0
VERTEX
  5
E5E
  8
TEAM-KAN
 10
-0.856071
 20
453.852974
 30
-187.934604
  0
SEQEND
  5
E5F
  8
TEAM-KAN
  0
ARC
  5
1E8
  8
TEAM-KAN
 10
6.370676
 20
436.463825
 30
161.018603
 40
39.999375
210
0.305045
220
-0.936648
230
-0.172158
 50
304.151198
 51
34.151198
  0
ARC
  5
1E9
  8
TEAM-KAN
 10
6.370676
 20
436.463825
 30
161.018603
 40
39.999375
210
0.305045
220
-0.936648
230
-0.172158
 50
304.151198
 51
34.151198
  0
ARC
  5
1EA
  8
TEAM-KAN
 10
6.370676
 20
436.463825
 30
161.014371
 40
35.0
210
0.305045
220
-0.936648
230
-0.172158
 50
124.151198
 51
214.151198
  0
ARC
  5
1EB
  8
TEAM-KAN
 10
6.370676
 20
436.463825
 30
163.014371
 40
37.0
210
0.305045
220
-0.936648
230
-0.172158
 50
124.151198
 51
214.151198
  0
ARC
  5
1EC
  8
TEAM-KAN
 10
6.370676
 20
436.463825
 30
163.014371
 40
37.0
210
0.305045
220
-0.936648
230
-0.172158
 50
124.151198
 51
214.151198
  0
ARC
  5
1ED
  8
TEAM-KAN
 10
6.370676
 20
436.463825
 30
176.018603
 40
37.0
210
0.305045
220
-0.936648
230
-0.172158
 50
124.151198
 51
304.151198
  0
ARC
  5
1EE
  8
TEAM-KAN
 10
6.370676
 20
436.463825
 30
176.018603
 40
37.0
210
0.305045
220
-0.936648
230
-0.172158
 50
124.151198
 51
304.151198
  0
ARC
  5
1EF
  8
TEAM-KAN
 10
6.370676
 20
436.463825
 30
163.014371
 40
37.0
210
0.305045
220
-0.936648
230
-0.172158
 50
304.151198
 51
34.151198
  0
ARC
  5
1F0
  8
TEAM-KAN
 10
6.370676
 20
436.463825
 30
163.014371
 40
37.0
210
0.305045
220
-0.936648
230
-0.172158
 50
304.151198
 51
34.151198
  0
ARC
  5
1F1
  8
TEAM-KAN
 10
6.370676
 20
436.463825
 30
161.014371
 40
35.0
210
0.305045
220
-0.936648
230
-0.172158
 50
124.151198
 51
214.151198
  0
ARC
  5
1F2
  8
TEAM-KAN
 10
6.370676
 20
436.463825
 30
158.03916
 40
37.168272
210
0.305045
220
-0.936648
230
-0.172158
 50
124.151198
 51
214.151198
  0
ARC
  5
1F3
  8
TEAM-KAN
 10
6.370676
 20
436.463825
 30
158.03916
 40
37.168272
210
0.305045
220
-0.936648
230
-0.172158
 50
124.151198
 51
214.151198
  0
POLYLINE
  5
1F4
  8
TEAM-KAN
 66
     1
 10
0.0
 20
0.0
 30
180.934604
 70
   129
210
0.322806
220
-0.931211
230
-0.16924
  0
VERTEX
  5
E60
  8
TEAM-KAN
 10
0.856071
 20
414.609927
 30
180.934604
  0
VERTEX
  5
E61
  8
TEAM-KAN
 10
-3.02358
 20
414.985811
 30
180.934604
  0
VERTEX
  5
E62
  8
TEAM-KAN
 10
-6.76301
 20
416.099877
 30
180.934604
  0
VERTEX
  5
E63
  8
TEAM-KAN
 10
-10.227066
 20
417.91186
 30
180.934604
  0
VERTEX
  5
E64
  8
TEAM-KAN
 10
-13.290549
 20
420.356271
 30
180.934604
  0
VERTEX
  5
E65
  8
TEAM-KAN
 10
-15.842736
 20
423.344762
 30
180.934604
  0
VERTEX
  5
E66
  8
TEAM-KAN
 10
-17.791385
 20
426.76932
 30
180.934604
  0
VERTEX
  5
E67
  8
TEAM-KAN
 10
-19.066066
 20
430.506175
 30
180.934604
  0
VERTEX
  5
E68
  8
TEAM-KAN
 10
-19.62071
 20
434.420265
 30
180.934604
  0
VERTEX
  5
E69
  8
TEAM-KAN
 10
-19.435269
 20
438.370126
 30
180.934604
  0
VERTEX
  5
E6A
  8
TEAM-KAN
 10
-18.516446
 20
442.212999
 30
180.934604
  0
VERTEX
  5
E6B
  8
TEAM-KAN
 10
-16.89745
 20
445.809993
 30
180.934604
  0
VERTEX
  5
E6C
  8
TEAM-KAN
 10
-14.636795
 20
449.031103
 30
180.934604
  0
VERTEX
  5
E6D
  8
TEAM-KAN
 10
-11.816188
 20
451.75991
 30
180.934604
  0
VERTEX
  5
E6E
  8
TEAM-KAN
 10
-8.537573
 20
453.897787
 30
180.934604
  0
VERTEX
  5
E6F
  8
TEAM-KAN
 10
-4.919447
 20
455.367467
 30
180.934604
  0
VERTEX
  5
E70
  8
TEAM-KAN
 10
-1.092578
 20
456.11583
 30
180.934604
  0
VERTEX
  5
E71
  8
TEAM-KAN
 10
2.80472
 20
456.11583
 30
180.934604
  0
VERTEX
  5
E72
  8
TEAM-KAN
 10
6.631588
 20
455.367467
 30
180.934604
  0
VERTEX
  5
E73
  8
TEAM-KAN
 10
10.249715
 20
453.897787
 30
180.934604
  0
VERTEX
  5
E74
  8
TEAM-KAN
 10
13.52833
 20
451.75991
 30
180.934604
  0
VERTEX
  5
E75
  8
TEAM-KAN
 10
16.348937
 20
449.031103
 30
180.934604
  0
VERTEX
  5
E76
  8
TEAM-KAN
 10
18.609592
 20
445.809993
 30
180.934604
  0
VERTEX
  5
E77
  8
TEAM-KAN
 10
20.228588
 20
442.212999
 30
180.934604
  0
VERTEX
  5
E78
  8
TEAM-KAN
 10
21.14741
 20
438.370126
 30
180.934604
  0
VERTEX
  5
E79
  8
TEAM-KAN
 10
21.332851
 20
434.420265
 30
180.934604
  0
VERTEX
  5
E7A
  8
TEAM-KAN
 10
20.778208
 20
430.506175
 30
180.934604
  0
VERTEX
  5
E7B
  8
TEAM-KAN
 10
19.503527
 20
426.76932
 30
180.934604
  0
VERTEX
  5
E7C
  8
TEAM-KAN
 10
17.554878
 20
423.344762
 30
180.934604
  0
VERTEX
  5
E7D
  8
TEAM-KAN
 10
15.002691
 20
420.356271
 30
180.934604
  0
VERTEX
  5
E7E
  8
TEAM-KAN
 10
11.939208
 20
417.91186
 30
180.934604
  0
VERTEX
  5
E7F
  8
TEAM-KAN
 10
8.475151
 20
416.099877
 30
180.934604
  0
VERTEX
  5
E80
  8
TEAM-KAN
 10
4.735721
 20
414.985811
 30
180.934604
  0
SEQEND
  5
E81
  8
TEAM-KAN
  0
POLYLINE
  5
1F5
  8
TEAM-KAN
 66
     1
 10
0.0
 20
0.0
 30
180.934604
 70
   129
210
0.322806
220
-0.931211
230
-0.16924
  0
VERTEX
  5
E82
  8
TEAM-KAN
 10
0.856071
 20
414.609927
 30
180.934604
  0
VERTEX
  5
E83
  8
TEAM-KAN
 10
-3.02358
 20
414.985811
 30
180.934604
  0
VERTEX
  5
E84
  8
TEAM-KAN
 10
-6.76301
 20
416.099877
 30
180.934604
  0
VERTEX
  5
E85
  8
TEAM-KAN
 10
-10.227066
 20
417.91186
 30
180.934604
  0
VERTEX
  5
E86
  8
TEAM-KAN
 10
-13.290549
 20
420.356271
 30
180.934604
  0
VERTEX
  5
E87
  8
TEAM-KAN
 10
-15.842736
 20
423.344762
 30
180.934604
  0
VERTEX
  5
E88
  8
TEAM-KAN
 10
-17.791385
 20
426.76932
 30
180.934604
  0
VERTEX
  5
E89
  8
TEAM-KAN
 10
-19.066066
 20
430.506175
 30
180.934604
  0
VERTEX
  5
E8A
  8
TEAM-KAN
 10
-19.62071
 20
434.420265
 30
180.934604
  0
VERTEX
  5
E8B
  8
TEAM-KAN
 10
-19.435269
 20
438.370126
 30
180.934604
  0
VERTEX
  5
E8C
  8
TEAM-KAN
 10
-18.516446
 20
442.212999
 30
180.934604
  0
VERTEX
  5
E8D
  8
TEAM-KAN
 10
-16.89745
 20
445.809993
 30
180.934604
  0
VERTEX
  5
E8E
  8
TEAM-KAN
 10
-14.636795
 20
449.031103
 30
180.934604
  0
VERTEX
  5
E8F
  8
TEAM-KAN
 10
-11.816188
 20
451.75991
 30
180.934604
  0
VERTEX
  5
E90
  8
TEAM-KAN
 10
-8.537573
 20
453.897787
 30
180.934604
  0
VERTEX
  5
E91
  8
TEAM-KAN
 10
-4.919447
 20
455.367467
 30
180.934604
  0
VERTEX
  5
E92
  8
TEAM-KAN
 10
-1.092578
 20
456.11583
 30
180.934604
  0
VERTEX
  5
E93
  8
TEAM-KAN
 10
2.80472
 20
456.11583
 30
180.934604
  0
VERTEX
  5
E94
  8
TEAM-KAN
 10
6.631588
 20
455.367467
 30
180.934604
  0
VERTEX
  5
E95
  8
TEAM-KAN
 10
10.249715
 20
453.897787
 30
180.934604
  0
VERTEX
  5
E96
  8
TEAM-KAN
 10
13.52833
 20
451.75991
 30
180.934604
  0
VERTEX
  5
E97
  8
TEAM-KAN
 10
16.348937
 20
449.031103
 30
180.934604
  0
VERTEX
  5
E98
  8
TEAM-KAN
 10
18.609592
 20
445.809993
 30
180.934604
  0
VERTEX
  5
E99
  8
TEAM-KAN
 10
20.228588
 20
442.212999
 30
180.934604
  0
VERTEX
  5
E9A
  8
TEAM-KAN
 10
21.14741
 20
438.370126
 30
180.934604
  0
VERTEX
  5
E9B
  8
TEAM-KAN
 10
21.332851
 20
434.420265
 30
180.934604
  0
VERTEX
  5
E9C
  8
TEAM-KAN
 10
20.778208
 20
430.506175
 30
180.934604
  0
VERTEX
  5
E9D
  8
TEAM-KAN
 10
19.503527
 20
426.76932
 30
180.934604
  0
VERTEX
  5
E9E
  8
TEAM-KAN
 10
17.554878
 20
423.344762
 30
180.934604
  0
VERTEX
  5
E9F
  8
TEAM-KAN
 10
15.002691
 20
420.356271
 30
180.934604
  0
VERTEX
  5
EA0
  8
TEAM-KAN
 10
11.939208
 20
417.91186
 30
180.934604
  0
VERTEX
  5
EA1
  8
TEAM-KAN
 10
8.475151
 20
416.099877
 30
180.934604
  0
VERTEX
  5
EA2
  8
TEAM-KAN
 10
4.735721
 20
414.985811
 30
180.934604
  0
SEQEND
  5
EA3
  8
TEAM-KAN
  0
ARC
  5
1F6
  8
TEAM-KAN
 10
6.370676
 20
436.463825
 30
161.018603
 40
39.999375
210
0.305045
220
-0.936648
230
-0.172158
 50
214.151198
 51
304.151198
  0
ARC
  5
1F7
  8
TEAM-KAN
 10
6.370676
 20
436.463825
 30
161.018603
 40
39.999375
210
0.305045
220
-0.936648
230
-0.172158
 50
214.151198
 51
304.151198
  0
ARC
  5
1F8
  8
TEAM-KAN
 10
6.370676
 20
436.463825
 30
163.014371
 40
37.0
210
0.305045
220
-0.936648
230
-0.172158
 50
214.151198
 51
304.151198
  0
ARC
  5
1F9
  8
TEAM-KAN
 10
6.370676
 20
436.463825
 30
163.014371
 40
37.0
210
0.305045
220
-0.936648
230
-0.172158
 50
214.151198
 51
304.151198
  0
LINE
  5
1FA
  8
TEAM-KAN
 10
102.606091
 20
-221.969558
 30
367.036578
 11
98.030417
 21
-207.919839
 31
369.618944
  0
LINE
  5
1FB
  8
TEAM-KAN
 10
101.137401
 20
-222.897291
 30
369.481678
 11
97.170526
 21
-210.716904
 31
371.720457
  0
LINE
  5
1FC
  8
TEAM-KAN
 10
101.137401
 20
-222.897291
 30
369.481678
 11
97.170526
 21
-210.716904
 31
371.720457
  0
LINE
  5
1FD
  8
TEAM-KAN
 10
102.606091
 20
-221.969558
 30
367.036578
 11
98.030417
 21
-207.919839
 31
369.618944
  0
ARC
  5
1FE
  8
TEAM-KAN
 10
6.370676
 20
436.463825
 30
183.658522
 40
7.5
210
0.305045
220
-0.936648
230
-0.172158
 50
214.151198
 51
304.151198
  0
ARC
  5
1FF
  8
TEAM-KAN
 10
6.370676
 20
436.463825
 30
183.658522
 40
7.5
210
0.305045
220
-0.936648
230
-0.172158
 50
214.151198
 51
304.151198
  0
LINE
  5
200
  8
TEAM-KAN
 10
84.664555
 20
-241.621101
 30
380.5
 11
83.166527
 21
-237.299688
 31
380.5
  0
LINE
  5
201
  8
TEAM-KAN
 10
84.664555
 20
-241.621101
 30
380.5
 11
83.166527
 21
-237.299688
 31
380.5
  0
ARC
  5
202
  8
TEAM-KAN
 10
-219.641498
 20
157.107081
 30
-357.623218
 40
2.0
210
0.489665
220
0.309309
230
-0.815203
 50
287.292289
 51
17.292289
  0
ARC
  5
203
  8
TEAM-KAN
 10
-219.641498
 20
157.107081
 30
-357.623218
 40
2.0
210
0.489665
220
0.309309
230
-0.815203
 50
287.292289
 51
17.292289
  0
ARC
  5
204
  8
TEAM-KAN
 10
-217.539985
 20
156.00052
 30
-357.623218
 40
3.333382
210
0.489665
220
0.309309
230
-0.815203
 50
292.769364
 51
8.890382
  0
ARC
  5
205
  8
TEAM-KAN
 10
-217.539985
 20
156.00052
 30
-357.623218
 40
3.333382
210
0.489665
220
0.309309
230
-0.815203
 50
292.769364
 51
8.890382
  0
ARC
  5
206
  8
TEAM-KAN
 10
439.540831
 20
129.72507
 30
357.623218
 40
225.494604
210
-0.489665
220
-0.309309
230
0.815203
 50
154.305804
 51
163.780009
  0
ARC
  5
207
  8
TEAM-KAN
 10
439.540831
 20
129.72507
 30
357.623218
 40
225.494604
210
-0.489665
220
-0.309309
230
0.815203
 50
154.305804
 51
163.780009
  0
ARC
  5
208
  8
TEAM-KAN
 10
6.370676
 20
436.463825
 30
164.014371
 40
7.5
210
0.305045
220
-0.936648
230
-0.172158
 50
34.151198
 51
124.151198
  0
ARC
  5
209
  8
TEAM-KAN
 10
6.370676
 20
436.463825
 30
161.014371
 40
10.5
210
0.305045
220
-0.936648
230
-0.172158
 50
34.151198
 51
124.151198
  0
ARC
  5
20A
  8
TEAM-KAN
 10
6.370676
 20
436.463825
 30
164.014371
 40
7.5
210
0.305045
220
-0.936648
230
-0.172158
 50
34.151198
 51
124.151198
  0
ARC
  5
20B
  8
TEAM-KAN
 10
6.370676
 20
436.463825
 30
161.014371
 40
10.5
210
0.305045
220
-0.936648
230
-0.172158
 50
34.151198
 51
124.151198
  0
ARC
  5
20C
  8
TEAM-KAN
 10
-251.391028
 20
189.640115
 30
-357.623218
 40
2.0
210
0.489665
220
0.309309
230
-0.815203
 50
107.292289
 51
197.292289
  0
ARC
  5
20D
  8
TEAM-KAN
 10
6.370676
 20
436.463825
 30
183.658522
 40
7.5
210
0.305045
220
-0.936648
230
-0.172158
 50
34.151198
 51
124.151198
  0
ARC
  5
20E
  8
TEAM-KAN
 10
-251.391028
 20
189.640115
 30
-357.623218
 40
2.0
210
0.489665
220
0.309309
230
-0.815203
 50
107.292289
 51
197.292289
  0
LINE
  5
20F
  8
TEAM-KAN
 10
81.677817
 20
-243.817445
 30
404.442943
 11
75.685469
 21
-225.417792
 31
407.824836
  0
ARC
  5
210
  8
TEAM-KAN
 10
234.121009
 20
200.253272
 30
357.623218
 40
3.0
210
-0.489665
220
-0.309309
230
0.815203
 50
162.707711
 51
252.707711
  0
ARC
  5
211
  8
TEAM-KAN
 10
6.370676
 20
436.463825
 30
183.658522
 40
7.5
210
0.305045
220
-0.936648
230
-0.172158
 50
34.151198
 51
124.151198
  0
LINE
  5
212
  8
TEAM-KAN
 10
81.677817
 20
-243.817445
 30
404.442943
 11
75.685469
 21
-225.417792
 31
407.824836
  0
ARC
  5
213
  8
TEAM-KAN
 10
234.121009
 20
200.253272
 30
357.623218
 40
3.0
210
-0.489665
220
-0.309309
230
0.815203
 50
162.707711
 51
252.707711
  0
ARC
  5
214
  8
TEAM-KAN
 10
-227.878835
 20
180.202455
 30
-357.623218
 40
3.0
210
0.489665
220
0.309309
230
-0.815203
 50
17.292289
 51
107.292289
  0
ARC
  5
215
  8
TEAM-KAN
 10
-227.878835
 20
180.202455
 30
-357.623218
 40
3.0
210
0.489665
220
0.309309
230
-0.815203
 50
17.292289
 51
107.292289
  0
ARC
  5
216
  8
TEAM-KAN
 10
6.370676
 20
436.463825
 30
161.014371
 40
10.5
210
0.305045
220
-0.936648
230
-0.172158
 50
124.151198
 51
214.151198
  0
ARC
  5
217
  8
TEAM-KAN
 10
6.370676
 20
436.463825
 30
161.014371
 40
10.5
210
0.305045
220
-0.936648
230
-0.172158
 50
124.151198
 51
214.151198
  0
ARC
  5
218
  8
TEAM-KAN
 10
-6.370676
 20
436.463825
 30
-185.658522
 40
5.5
210
-0.305045
220
0.936648
230
0.172158
 50
325.848802
 51
145.848802
  0
ARC
  5
219
  8
TEAM-KAN
 10
6.370676
 20
436.463825
 30
185.658522
 40
5.5
210
0.305045
220
-0.936648
230
-0.172158
 50
34.151198
 51
214.151198
  0
ARC
  5
21A
  8
TEAM-KAN
 10
6.370676
 20
436.463825
 30
164.014371
 40
7.5
210
0.305045
220
-0.936648
230
-0.172158
 50
124.151198
 51
214.151198
  0
ARC
  5
21B
  8
TEAM-KAN
 10
6.370676
 20
436.463825
 30
164.014371
 40
7.5
210
0.305045
220
-0.936648
230
-0.172158
 50
124.151198
 51
214.151198
  0
ARC
  5
21C
  8
TEAM-KAN
 10
6.370676
 20
436.463825
 30
164.014371
 40
7.5
210
0.305045
220
-0.936648
230
-0.172158
 50
304.151198
 51
34.151198
  0
ARC
  5
21D
  8
TEAM-KAN
 10
6.370676
 20
436.463825
 30
164.014371
 40
7.5
210
0.305045
220
-0.936648
230
-0.172158
 50
304.151198
 51
34.151198
  0
ARC
  5
21E
  8
TEAM-KAN
 10
239.3467
 20
226.047023
 30
357.623218
 40
3.333382
210
-0.489665
220
-0.309309
230
0.815203
 50
78.184786
 51
154.305804
  0
ARC
  5
21F
  8
TEAM-KAN
 10
240.448744
 20
223.943138
 30
357.623218
 40
2.0
210
-0.489665
220
-0.309309
230
0.815203
 50
72.707711
 51
162.707711
  0
ARC
  5
220
  8
TEAM-KAN
 10
240.448744
 20
223.943138
 30
357.623218
 40
2.0
210
-0.489665
220
-0.309309
230
0.815203
 50
72.707711
 51
162.707711
  0
ARC
  5
221
  8
TEAM-KAN
 10
239.3467
 20
226.047023
 30
357.623218
 40
3.333382
210
-0.489665
220
-0.309309
230
0.815203
 50
78.184786
 51
154.305804
  0
LINE
  5
222
  8
TEAM-KAN
 10
64.902175
 20
-245.78614
 30
429.806705
 11
60.9353
 21
-233.605753
 31
432.045484
  0
LINE
  5
223
  8
TEAM-KAN
 10
64.902175
 20
-245.78614
 30
429.806705
 11
60.9353
 21
-233.605753
 31
432.045484
  0
LINE
  5
224
  8
TEAM-KAN
 10
63.433485
 20
-246.713873
 30
432.251805
 11
58.857811
 21
-232.664155
 31
434.834171
  0
LINE
  5
225
  8
TEAM-KAN
 10
63.433485
 20
-246.713873
 30
432.251805
 11
58.857811
 21
-232.664155
 31
434.834171
  0
LINE
  5
226
  8
TEAM-KAN
 10
86.63305
 20
-247.299688
 30
415.5
 11
85.472478
 21
-243.951746
 31
415.5
  0
LINE
  5
227
  8
TEAM-KAN
 10
86.63305
 20
-247.299688
 30
415.5
 11
85.472478
 21
-243.951746
 31
415.5
  0
LINE
  5
228
  8
TEAM-NET
 10
-578.456551
 20
-504.357825
 30
475.0
 11
738.745852
 21
-195.212121
 31
475.0
  0
LINE
  5
229
  8
TEAM-NET
 10
746.846896
 20
-196.414141
 30
475.0
 11
-590.261838
 21
-505.559845
 31
475.0
  0
LINE
  5
22A
  8
TEAM-NET
 10
746.846896
 20
-196.414141
 30
475.0
 11
-590.261838
 21
-505.559845
 31
475.0
  0
LINE
  5
22B
  8
TEAM-NET
 10
746.846896
 20
-196.414141
 30
468.0
 11
-590.261838
 21
-505.559845
 31
468.0
210
0.0
220
0.0
230
-1.0
  0
LINE
  5
22C
  8
TEAM-NET
 10
746.846896
 20
-196.414141
 30
475.0
 11
-590.261838
 21
-505.559845
 31
475.0
210
0.0
220
-0.985575
230
-0.16924
  0
LINE
  5
22D
  8
TEAM-NET
 10
746.846896
 20
-196.414141
 30
468.0
 11
-590.261838
 21
-505.559845
 31
468.0
210
0.0
220
1.0
230
0.0
  0
LINE
  5
22E
  8
TEAM-NET
 10
746.846896
 20
-196.414141
 30
475.0
 11
-590.261838
 21
-505.559845
 31
475.0
210
0.0
220
1.0
230
0.0
  0
LINE
  5
22F
  8
TEAM-NET
 10
-578.456551
 20
-504.357825
 30
475.0
 11
738.745852
 21
-195.212121
 31
475.0
  0
LINE
  5
230
  8
TEAM-NET
 10
-843.0
 20
343.0
 30
468.0
 11
-843.0
 21
-646.618026
 31
468.0
210
0.0
220
0.0
230
-1.0
  0
LINE
  5
231
  8
TEAM-NET
 10
-843.0
 20
343.0
 30
468.0
 11
-843.0
 21
-646.618026
 31
468.0
210
1.0
220
0.0
230
0.0
  0
LINE
  5
232
  8
TEAM-NET
 10
-850.0
 20
-300.0
 30
468.0
 11
-850.0
 21
-646.618026
 31
468.0
  0
LINE
  5
233
  8
TEAM-NET
 10
-843.0
 20
-646.618026
 30
475.0
 11
-843.0
 21
-300.0
 31
475.0
  0
LINE
  5
234
  8
TEAM-NET
 10
-850.0
 20
-300.0
 30
468.0
 11
-850.0
 21
-646.618026
 31
468.0
210
-1.0
220
0.0
230
0.0
  0
LINE
  5
235
  8
TEAM-NET
 10
-843.0
 20
-646.618026
 30
475.0
 11
-843.0
 21
-300.0
 31
475.0
  0
LINE
  5
236
  8
TEAM-NET
 10
843.0
 20
-263.0
 30
475.0
 11
-843.0
 21
-646.618026
 31
475.0
  0
LINE
  5
237
  8
TEAM-NET
 10
-843.0
 20
-646.618026
 30
468.0
 11
843.0
 21
-263.0
 31
468.0
210
0.0
220
0.0
230
-1.0
  0
LINE
  5
238
  8
TEAM-NET
 10
-843.0
 20
-646.618026
 30
468.0
 11
843.0
 21
-263.0
 31
468.0
210
0.0
220
1.0
230
0.0
  0
LINE
  5
239
  8
TEAM-NET
 10
-843.0
 20
-653.618026
 30
468.0
 11
843.0
 21
-270.0
 31
468.0
210
0.0
220
-1.0
230
0.0
  0
LINE
  5
23A
  8
TEAM-NET
 10
843.0
 20
-263.0
 30
475.0
 11
-843.0
 21
-646.618026
 31
475.0
  0
LINE
  5
23B
  8
TEAM-NET
 10
-843.0
 20
-653.618026
 30
468.0
 11
843.0
 21
-270.0
 31
468.0
  0
POLYLINE
  5
23C
  8
TEAM-NET
 66
     1
 10
0.0
 20
0.0
 30
-475.0
 70
   128
210
0.0
220
0.0
230
-1.0
  0
VERTEX
  5
EA4
  8
TEAM-NET
 10
614.148966
 20
-485.348469
 30
-475.0
  0
VERTEX
  5
EA5
  8
TEAM-NET
 10
610.390029
 20
-490.771575
 30
-475.0
  0
VERTEX
  5
EA6
  8
TEAM-NET
 10
605.528353
 20
-495.456622
 30
-475.0
  0
VERTEX
  5
EA7
  8
TEAM-NET
 10
599.713724
 20
-499.259265
 30
-475.0
  0
VERTEX
  5
EA8
  8
TEAM-NET
 10
593.12529
 20
-502.062346
 30
-475.0
  0
VERTEX
  5
EA9
  8
TEAM-NET
 10
585.966041
 20
-503.779501
 30
-475.0
  0
VERTEX
  5
EAA
  8
TEAM-NET
 10
578.456551
 20
-504.357825
 30
-475.0
  0
SEQEND
  5
EAB
  8
TEAM-NET
  0
POLYLINE
  5
23D
  8
TEAM-NET
 66
     1
 10
0.0
 20
0.0
 30
475.0
 70
   128
  0
VERTEX
  5
EAC
  8
TEAM-NET
 10
-590.261838
 20
-505.559845
 30
475.0
  0
VERTEX
  5
EAD
  8
TEAM-NET
 10
-597.043507
 20
-504.975948
 30
475.0
  0
VERTEX
  5
EAE
  8
TEAM-NET
 10
-603.444978
 20
-503.246659
 30
475.0
  0
VERTEX
  5
EAF
  8
TEAM-NET
 10
-609.220659
 20
-500.438321
 30
475.0
  0
VERTEX
  5
EB0
  8
TEAM-NET
 10
-614.148966
 20
-496.658676
 30
475.0
  0
SEQEND
  5
EB1
  8
TEAM-NET
  0
POLYLINE
  5
23E
  8
TEAM-NET
 66
     1
 10
0.0
 20
0.0
 30
468.0
 70
   128
  0
VERTEX
  5
EB2
  8
TEAM-NET
 10
-590.261838
 20
-505.559845
 30
468.0
  0
VERTEX
  5
EB3
  8
TEAM-NET
 10
-596.672754
 20
-505.03911
 30
468.0
  0
VERTEX
  5
EB4
  8
TEAM-NET
 10
-602.757285
 20
-503.49472
 30
468.0
  0
VERTEX
  5
EB5
  8
TEAM-NET
 10
-608.307247
 20
-500.979518
 30
468.0
  0
VERTEX
  5
EB6
  8
TEAM-NET
 10
-613.13275
 20
-497.57956
 30
468.0
  0
VERTEX
  5
EB7
  8
TEAM-NET
 10
-617.06869
 20
-493.411176
 30
468.0
  0
VERTEX
  5
EB8
  8
TEAM-NET
 10
-619.980398
 20
-488.616987
 30
468.0
  0
VERTEX
  5
EB9
  8
TEAM-NET
 10
-621.76825
 20
-483.361025
 30
468.0
  0
VERTEX
  5
EBA
  8
TEAM-NET
 10
-622.371076
 20
-477.823124
 30
468.0
  0
SEQEND
  5
EBB
  8
TEAM-NET
  0
POLYLINE
  5
23F
  8
TEAM-NET
 66
     1
 10
0.0
 20
0.0
 30
475.0
 70
   128
  0
VERTEX
  5
EBC
  8
TEAM-NET
 10
-590.261838
 20
-505.559845
 30
475.0
  0
VERTEX
  5
EBD
  8
TEAM-NET
 10
-597.043507
 20
-504.975948
 30
475.0
  0
VERTEX
  5
EBE
  8
TEAM-NET
 10
-603.444978
 20
-503.246659
 30
475.0
  0
VERTEX
  5
EBF
  8
TEAM-NET
 10
-609.220659
 20
-500.438321
 30
475.0
  0
VERTEX
  5
EC0
  8
TEAM-NET
 10
-614.148966
 20
-496.658676
 30
475.0
  0
SEQEND
  5
EC1
  8
TEAM-NET
  0
POLYLINE
  5
240
  8
TEAM-NET
 66
     1
 10
0.0
 20
0.0
 30
468.0
 70
   128
  0
VERTEX
  5
EC2
  8
TEAM-NET
 10
-590.261838
 20
-505.559845
 30
468.0
  0
VERTEX
  5
EC3
  8
TEAM-NET
 10
-596.672754
 20
-505.03911
 30
468.0
  0
VERTEX
  5
EC4
  8
TEAM-NET
 10
-602.757285
 20
-503.49472
 30
468.0
  0
VERTEX
  5
EC5
  8
TEAM-NET
 10
-608.307247
 20
-500.979518
 30
468.0
  0
VERTEX
  5
EC6
  8
TEAM-NET
 10
-613.13275
 20
-497.57956
 30
468.0
  0
VERTEX
  5
EC7
  8
TEAM-NET
 10
-617.06869
 20
-493.411176
 30
468.0
  0
VERTEX
  5
EC8
  8
TEAM-NET
 10
-619.980398
 20
-488.616987
 30
468.0
  0
VERTEX
  5
EC9
  8
TEAM-NET
 10
-621.76825
 20
-483.361025
 30
468.0
  0
VERTEX
  5
ECA
  8
TEAM-NET
 10
-622.371076
 20
-477.823124
 30
468.0
  0
SEQEND
  5
ECB
  8
TEAM-NET
  0
POLYLINE
  5
241
  8
TEAM-NET
 66
     1
 10
0.0
 20
0.0
 30
-475.0
 70
   128
210
0.0
220
0.0
230
-1.0
  0
VERTEX
  5
ECC
  8
TEAM-NET
 10
614.148966
 20
-496.658676
 30
-475.0
  0
VERTEX
  5
ECD
  8
TEAM-NET
 10
609.220659
 20
-500.438321
 30
-475.0
  0
VERTEX
  5
ECE
  8
TEAM-NET
 10
603.444978
 20
-503.246659
 30
-475.0
  0
VERTEX
  5
ECF
  8
TEAM-NET
 10
597.043507
 20
-504.975948
 30
-475.0
  0
VERTEX
  5
ED0
  8
TEAM-NET
 10
590.261838
 20
-505.559845
 30
-475.0
  0
SEQEND
  5
ED1
  8
TEAM-NET
  0
POLYLINE
  5
242
  8
TEAM-NET
 66
     1
 10
0.0
 20
0.0
 30
-475.0
 70
   128
210
0.0
220
0.0
230
-1.0
  0
VERTEX
  5
ED2
  8
TEAM-NET
 10
614.148966
 20
-496.658676
 30
-475.0
  0
VERTEX
  5
ED3
  8
TEAM-NET
 10
609.220659
 20
-500.438321
 30
-475.0
  0
VERTEX
  5
ED4
  8
TEAM-NET
 10
603.444978
 20
-503.246659
 30
-475.0
  0
VERTEX
  5
ED5
  8
TEAM-NET
 10
597.043507
 20
-504.975948
 30
-475.0
  0
VERTEX
  5
ED6
  8
TEAM-NET
 10
590.261838
 20
-505.559845
 30
-475.0
  0
SEQEND
  5
ED7
  8
TEAM-NET
  0
POLYLINE
  5
243
  8
TEAM-NET
 66
     1
 10
0.0
 20
0.0
 30
-475.0
 70
   128
210
0.0
220
0.0
230
-1.0
  0
VERTEX
  5
ED8
  8
TEAM-NET
 10
614.148966
 20
-485.348469
 30
-475.0
  0
VERTEX
  5
ED9
  8
TEAM-NET
 10
610.390029
 20
-490.771575
 30
-475.0
  0
VERTEX
  5
EDA
  8
TEAM-NET
 10
605.528353
 20
-495.456622
 30
-475.0
  0
VERTEX
  5
EDB
  8
TEAM-NET
 10
599.713724
 20
-499.259265
 30
-475.0
  0
VERTEX
  5
EDC
  8
TEAM-NET
 10
593.12529
 20
-502.062346
 30
-475.0
  0
VERTEX
  5
EDD
  8
TEAM-NET
 10
585.966041
 20
-503.779501
 30
-475.0
  0
VERTEX
  5
EDE
  8
TEAM-NET
 10
578.456551
 20
-504.357825
 30
-475.0
  0
SEQEND
  5
EDF
  8
TEAM-NET
  0
ARC
  5
244
  8
TEAM-NET
 10
-504.357825
 20
468.0
 30
-578.456551
 40
7.0
210
1.0
220
0.0
230
0.0
 50
9.743641
 51
90.0
  0
ARC
  5
245
  8
TEAM-NET
 10
-504.357825
 20
468.0
 30
-578.456551
 40
7.0
210
1.0
220
0.0
230
0.0
 50
9.743641
 51
90.0
  0
LINE
  5
246
  8
TEAM-NET
 10
-850.0
 20
343.0
 30
440.0
 11
-850.0
 21
-646.618026
 31
440.0
210
0.0
220
0.0
230
-1.0
  0
LINE
  5
247
  8
TEAM-NET
 10
-843.0
 20
343.0
 30
440.0
 11
-843.0
 21
-646.618026
 31
440.0
210
0.0
220
0.0
230
-1.0
  0
LINE
  5
248
  8
TEAM-NET
 10
-850.0
 20
343.0
 30
440.0
 11
-850.0
 21
-646.618026
 31
440.0
210
-1.0
220
0.0
230
0.0
  0
LINE
  5
249
  8
TEAM-NET
 10
-843.0
 20
343.0
 30
440.0
 11
-843.0
 21
-646.618026
 31
440.0
210
1.0
220
0.0
230
0.0
  0
LINE
  5
24A
  8
TEAM-NET
 10
-843.0
 20
-653.618026
 30
440.0
 11
843.0
 21
-270.0
 31
440.0
210
0.0
220
0.0
230
-1.0
  0
LINE
  5
24B
  8
TEAM-NET
 10
-843.0
 20
-646.618026
 30
440.0
 11
843.0
 21
-263.0
 31
440.0
210
0.0
220
0.0
230
-1.0
  0
LINE
  5
24C
  8
TEAM-NET
 10
-843.0
 20
-646.618026
 30
440.0
 11
843.0
 21
-263.0
 31
440.0
210
0.0
220
1.0
230
0.0
  0
LINE
  5
24D
  8
TEAM-NET
 10
-843.0
 20
-653.618026
 30
440.0
 11
843.0
 21
-270.0
 31
440.0
210
0.0
220
-1.0
230
0.0
  0
LINE
  5
24E
  8
TEAM-NET
 10
-843.0
 20
-653.618026
 30
440.0
 11
-843.0
 21
-653.618026
 31
468.0
  0
LINE
  5
24F
  8
TEAM-NET
 10
-850.0
 20
-646.618026
 30
468.0
 11
-850.0
 21
-646.618026
 31
440.0
  0
LINE
  5
250
  8
TEAM-NET
 10
-843.0
 20
-646.618026
 30
440.0
 11
-843.0
 21
-646.618026
 31
468.0
210
1.0
220
0.0
230
0.0
  0
LINE
  5
251
  8
TEAM-NET
 10
-843.0
 20
-653.618026
 30
440.0
 11
-843.0
 21
-653.618026
 31
468.0
210
0.0
220
-1.0
230
0.0
  0
LINE
  5
252
  8
TEAM-NET
 10
-843.0
 20
-646.618026
 30
440.0
 11
-843.0
 21
-646.618026
 31
468.0
210
0.0
220
1.0
230
0.0
  0
LINE
  5
253
  8
TEAM-NET
 10
-850.0
 20
-646.618026
 30
468.0
 11
-850.0
 21
-646.618026
 31
440.0
210
-1.0
220
0.0
230
0.0
  0
ARC
  5
254
  8
TEAM-NET
 10
-843.0
 20
-646.618026
 30
440.0
 40
7.0
 50
180.0
 51
270.0
  0
ARC
  5
255
  8
TEAM-NET
 10
843.0
 20
-646.618026
 30
-440.0
 40
7.0
210
0.0
220
0.0
230
-1.0
 50
270.0
 51
0.0
  0
LINE
  5
256
  8
TEAM-NET
 10
-590.261838
 20
-505.559845
 30
475.0
 11
-590.261838
 21
-505.559845
 31
468.0
  0
LINE
  5
257
  8
TEAM-NET
 10
-590.261838
 20
-505.559845
 30
475.0
 11
-590.261838
 21
-505.559845
 31
468.0
210
0.0
220
1.0
230
0.0
  0
ARC
  5
258
  8
TEAM-NET
 10
843.0
 20
468.0
 30
-646.618026
 40
7.0
210
0.0
220
1.0
230
0.0
 50
0.0
 51
90.0
  0
ARC
  5
259
  8
TEAM-NET
 10
-646.618026
 20
468.0
 30
-843.0
 40
7.0
210
1.0
220
0.0
230
0.0
 50
90.0
 51
180.0
  0
ARC
  5
25A
  8
TEAM-NET
 10
-843.0
 20
-646.618026
 30
468.0
 40
7.0
 50
180.0
 51
270.0
  0
ARC
  5
25B
  8
TEAM-NET
 10
843.0
 20
468.0
 30
-646.618026
 40
7.0
210
0.0
220
1.0
230
0.0
 50
0.0
 51
90.0
  0
ARC
  5
25C
  8
TEAM-NET
 10
-843.0
 20
-646.618026
 30
468.0
 40
7.0
 50
180.0
 51
270.0
  0
ARC
  5
25D
  8
TEAM-NET
 10
-646.618026
 20
468.0
 30
-843.0
 40
7.0
210
1.0
220
0.0
230
0.0
 50
90.0
 51
180.0
  0
LINE
  5
25E
  8
TEAM-NET
 10
843.0
 20
-263.0
 30
440.0
 11
843.0
 21
-263.0
 31
468.0
210
0.0
220
1.0
230
0.0
  0
LINE
  5
25F
  8
TEAM-NET
 10
843.0
 20
-270.0
 30
468.0
 11
843.0
 21
-270.0
 31
440.0
210
0.0
220
-1.0
230
0.0
  0
LINE
  5
260
  8
TEAM-NET
 10
843.0
 20
-263.0
 30
440.0
 11
843.0
 21
-263.0
 31
468.0
210
-1.0
220
0.0
230
0.0
  0
LINE
  5
261
  8
TEAM-NET
 10
843.0
 20
-270.0
 30
468.0
 11
843.0
 21
-270.0
 31
440.0
  0
LINE
  5
262
  8
TEAM-NET
 10
850.0
 20
-263.0
 30
440.0
 11
850.0
 21
-263.0
 31
468.0
  0
LINE
  5
263
  8
TEAM-NET
 10
850.0
 20
-263.0
 30
440.0
 11
850.0
 21
-263.0
 31
468.0
210
1.0
220
0.0
230
0.0
  0
LINE
  5
264
  8
TEAM-NET
 10
-843.0
 20
343.0
 30
440.0
 11
-843.0
 21
343.0
 31
468.0
210
0.0
220
-1.0
230
0.0
  0
LINE
  5
265
  8
TEAM-NET
 10
-843.0
 20
350.0
 30
468.0
 11
-843.0
 21
350.0
 31
440.0
210
0.0
220
1.0
230
0.0
  0
LINE
  5
266
  8
TEAM-NET
 10
-850.0
 20
343.0
 30
440.0
 11
-850.0
 21
343.0
 31
468.0
210
-1.0
220
0.0
230
0.0
  0
LINE
  5
267
  8
TEAM-NET
 10
-843.0
 20
343.0
 30
440.0
 11
-843.0
 21
343.0
 31
468.0
210
1.0
220
0.0
230
0.0
  0
LINE
  5
268
  8
TEAM-NET
 10
-843.0
 20
350.0
 30
468.0
 11
-843.0
 21
350.0
 31
440.0
  0
LINE
  5
269
  8
TEAM-NET
 10
-850.0
 20
343.0
 30
440.0
 11
-850.0
 21
343.0
 31
468.0
  0
LINE
  5
26A
  8
TEAM-NET
 10
847.949747
 20
347.949747
 30
440.0
 11
847.949747
 21
347.949747
 31
468.0
1001
ACAD
1000
R13OBJECT
1002
{
1005
0
1002
}
  0
LINE
  5
26B
  8
TEAM-NET
 10
850.0
 20
343.0
 30
468.0
 11
850.0
 21
343.0
 31
440.0
1001
ACAD
1000
R13OBJECT
1002
{
1005
0
1002
}
  0
LINE
  5
26C
  8
TEAM-NET
 10
843.0
 20
350.0
 30
440.0
 11
843.0
 21
350.0
 31
468.0
1001
ACAD
1000
R13OBJECT
1002
{
1005
0
1002
}
  0
LINE
  5
26D
  8
TEAM-NET
 10
850.0
 20
343.0
 30
468.0
 11
850.0
 21
343.0
 31
440.0
210
1.0
220
0.0
230
0.0
  0
LINE
  5
26E
  8
TEAM-NET
 10
843.0
 20
343.0
 30
440.0
 11
843.0
 21
343.0
 31
468.0
210
-1.0
220
0.0
230
0.0
  0
LINE
  5
26F
  8
TEAM-NET
 10
843.0
 20
350.0
 30
440.0
 11
843.0
 21
350.0
 31
468.0
210
0.0
220
1.0
230
0.0
  0
LINE
  5
270
  8
TEAM-NET
 10
843.0
 20
343.0
 30
440.0
 11
843.0
 21
343.0
 31
468.0
210
0.0
220
-1.0
230
0.0
  0
LINE
  5
271
  8
TEAM-NET
 10
843.0
 20
350.0
 30
440.0
 11
-843.0
 21
350.0
 31
440.0
210
0.0
220
0.0
230
-1.0
  0
LINE
  5
272
  8
TEAM-NET
 10
843.0
 20
343.0
 30
440.0
 11
-843.0
 21
343.0
 31
440.0
210
0.0
220
0.0
230
-1.0
  0
LINE
  5
273
  8
TEAM-NET
 10
843.0
 20
343.0
 30
440.0
 11
-843.0
 21
343.0
 31
440.0
210
0.0
220
-1.0
230
0.0
  0
LINE
  5
274
  8
TEAM-NET
 10
843.0
 20
350.0
 30
440.0
 11
-843.0
 21
350.0
 31
440.0
210
0.0
220
1.0
230
0.0
  0
ARC
  5
275
  8
TEAM-NET
 10
843.0
 20
343.0
 30
-440.0
 40
7.0
210
0.0
220
0.0
230
-1.0
 50
0.0
 51
90.0
  0
ARC
  5
276
  8
TEAM-NET
 10
-843.0
 20
343.0
 30
440.0
 40
7.0
 50
90.0
 51
180.0
  0
LINE
  5
277
  8
TEAM-NET
 10
850.0
 20
-263.0
 30
440.0
 11
850.0
 21
343.0
 31
440.0
210
1.0
220
0.0
230
0.0
  0
LINE
  5
278
  8
TEAM-NET
 10
843.0
 20
-263.0
 30
440.0
 11
843.0
 21
343.0
 31
440.0
210
-1.0
220
0.0
230
0.0
  0
LINE
  5
279
  8
TEAM-NET
 10
843.0
 20
-263.0
 30
440.0
 11
843.0
 21
343.0
 31
440.0
210
0.0
220
0.0
230
-1.0
  0
LINE
  5
27A
  8
TEAM-NET
 10
850.0
 20
-263.0
 30
440.0
 11
850.0
 21
343.0
 31
440.0
210
0.0
220
0.0
230
-1.0
  0
ARC
  5
27B
  8
TEAM-NET
 10
-843.0
 20
-263.0
 30
-440.0
 40
7.0
210
0.0
220
0.0
230
-1.0
 50
180.0
 51
270.0
  0
ARC
  5
27C
  8
TEAM-NET
 10
843.0
 20
-263.0
 30
440.0
 40
7.0
 50
270.0
 51
0.0
  0
ARC
  5
27D
  8
TEAM-NET
 10
-843.0
 20
343.0
 30
-440.0
 40
7.0
210
0.0
220
0.0
230
-1.0
 50
90.0
 51
180.0
  0
ARC
  5
27E
  8
TEAM-NET
 10
-843.0
 20
343.0
 30
-440.0
 40
7.0
210
0.0
220
0.0
230
-1.0
 50
90.0
 51
180.0
1001
ACAD
1000
R13OBJECT
1002
{
1005
0
1002
}
  0
LINE
  5
27F
  8
TEAM-NET
 10
738.745852
 20
-188.313097
 30
469.184681
 11
-578.456551
 21
-497.458801
 31
469.184681
210
-0.0
220
0.985575
230
0.16924
  0
LINE
  5
280
  8
TEAM-NET
 10
738.745852
 20
-188.313097
 30
469.184681
 11
-578.456551
 21
-497.458801
 31
469.184681
  0
LINE
  5
281
  8
TEAM-NET
 10
-722.082681
 20
276.414141
 30
468.0
 11
689.533045
 21
270.685406
 31
468.0
210
0.0
220
0.0
230
-1.0
  0
LINE
  5
282
  8
TEAM-NET
 10
-722.082681
 20
276.414141
 30
475.0
 11
689.533045
 21
270.685406
 31
475.0
  0
LINE
  5
283
  8
TEAM-NET
 10
681.432001
 20
269.483386
 30
475.0
 11
-710.277394
 21
275.212121
 31
475.0
  0
LINE
  5
284
  8
TEAM-NET
 10
-710.277394
 20
268.313097
 30
469.184681
 11
681.432001
 21
262.584362
 31
469.184681
  0
LINE
  5
285
  8
TEAM-NET
 10
-722.082681
 20
276.414141
 30
475.0
 11
689.533045
 21
270.685406
 31
475.0
  0
LINE
  5
286
  8
TEAM-NET
 10
681.432001
 20
269.483386
 30
475.0
 11
-710.277394
 21
275.212121
 31
475.0
  0
LINE
  5
287
  8
TEAM-NET
 10
-722.082681
 20
276.414141
 30
475.0
 11
689.533045
 21
270.685406
 31
475.0
210
0.0
220
-1.0
230
0.0
  0
LINE
  5
288
  8
TEAM-NET
 10
-722.082681
 20
276.414141
 30
468.0
 11
689.533045
 21
270.685406
 31
468.0
210
0.0
220
-1.0
230
0.0
  0
LINE
  5
289
  8
TEAM-NET
 10
-710.277394
 20
268.313097
 30
469.184681
 11
681.432001
 21
262.584362
 31
469.184681
210
0.0
220
-0.985575
230
0.16924
  0
LINE
  5
28A
  8
TEAM-NET
 10
-722.082681
 20
276.414141
 30
475.0
 11
689.533045
 21
270.685406
 31
475.0
210
0.0
220
0.985575
230
-0.16924
  0
LINE
  5
28B
  8
TEAM-NET
 10
843.0
 20
343.0
 30
468.0
 11
-843.0
 21
343.0
 31
468.0
210
0.0
220
-1.0
230
0.0
  0
LINE
  5
28C
  8
TEAM-NET
 10
843.0
 20
350.0
 30
468.0
 11
-843.0
 21
350.0
 31
468.0
210
0.0
220
1.0
230
0.0
  0
LINE
  5
28D
  8
TEAM-NET
 10
843.0
 20
350.0
 30
468.0
 11
-843.0
 21
350.0
 31
468.0
  0
LINE
  5
28E
  8
TEAM-NET
 10
-843.0
 20
343.0
 30
475.0
 11
843.0
 21
343.0
 31
475.0
  0
LINE
  5
28F
  8
TEAM-NET
 10
-843.0
 20
343.0
 30
475.0
 11
843.0
 21
343.0
 31
475.0
  0
LINE
  5
290
  8
TEAM-NET
 10
843.0
 20
343.0
 30
468.0
 11
-843.0
 21
343.0
 31
468.0
210
0.0
220
0.0
230
-1.0
  0
POLYLINE
  5
291
  8
TEAM-NET
 66
     1
 10
0.0
 20
0.0
 30
398.706988
 70
   128
210
0.095087
220
0.0265
230
0.995116
  0
VERTEX
  5
EE0
  8
TEAM-NET
 10
-323.906321
 20
733.709028
 30
398.706988
  0
VERTEX
  5
EE1
  8
TEAM-NET
 10
-321.683637
 20
740.185354
 30
398.706988
  0
VERTEX
  5
EE2
  8
TEAM-NET
 10
-318.562498
 20
746.029461
 30
398.706988
  0
VERTEX
  5
EE3
  8
TEAM-NET
 10
-314.649692
 20
751.041393
 30
398.706988
  0
VERTEX
  5
EE4
  8
TEAM-NET
 10
-310.079096
 20
755.049667
 30
398.706988
  0
VERTEX
  5
EE5
  8
TEAM-NET
 10
-305.007093
 20
757.917142
 30
398.706988
  0
VERTEX
  5
EE6
  8
TEAM-NET
 10
-299.60722
 20
759.545706
 30
398.706988
  0
VERTEX
  5
EE7
  8
TEAM-NET
 10
-294.064234
 20
759.879637
 30
398.706988
  0
VERTEX
  5
EE8
  8
TEAM-NET
 10
-288.567788
 20
758.907512
 30
398.706988
  0
SEQEND
  5
EE9
  8
TEAM-NET
  0
POLYLINE
  5
292
  8
TEAM-NET
 66
     1
 10
0.0
 20
0.0
 30
273.689508
 70
   128
210
-0.851363
220
0.0
230
-0.524577
  0
VERTEX
  5
EEA
  8
TEAM-NET
 10
470.149202
 20
722.65692
 30
273.689508
  0
VERTEX
  5
EEB
  8
TEAM-NET
 10
477.119937
 20
725.346217
 30
273.689508
  0
VERTEX
  5
EEC
  8
TEAM-NET
 10
485.348469
 20
726.565899
 30
273.689508
  0
SEQEND
  5
EED
  8
TEAM-NET
  0
POLYLINE
  5
293
  8
TEAM-NET
 66
     1
 10
0.0
 20
0.0
 30
273.689508
 70
   128
210
-0.851363
220
0.0
230
-0.524577
  0
VERTEX
  5
EEE
  8
TEAM-NET
 10
470.149202
 20
722.65692
 30
273.689508
  0
VERTEX
  5
EEF
  8
TEAM-NET
 10
477.119937
 20
725.346217
 30
273.689508
  0
VERTEX
  5
EF0
  8
TEAM-NET
 10
485.348469
 20
726.565899
 30
273.689508
  0
SEQEND
  5
EF1
  8
TEAM-NET
  0
POLYLINE
  5
294
  8
TEAM-NET
 66
     1
 10
0.0
 20
0.0
 30
398.706988
 70
   128
210
0.095087
220
0.0265
230
0.995116
  0
VERTEX
  5
EF2
  8
TEAM-NET
 10
-323.906321
 20
733.709028
 30
398.706988
  0
VERTEX
  5
EF3
  8
TEAM-NET
 10
-321.683637
 20
740.185354
 30
398.706988
  0
VERTEX
  5
EF4
  8
TEAM-NET
 10
-318.562498
 20
746.029461
 30
398.706988
  0
VERTEX
  5
EF5
  8
TEAM-NET
 10
-314.649692
 20
751.041393
 30
398.706988
  0
VERTEX
  5
EF6
  8
TEAM-NET
 10
-310.079096
 20
755.049667
 30
398.706988
  0
VERTEX
  5
EF7
  8
TEAM-NET
 10
-305.007093
 20
757.917142
 30
398.706988
  0
VERTEX
  5
EF8
  8
TEAM-NET
 10
-299.60722
 20
759.545706
 30
398.706988
  0
VERTEX
  5
EF9
  8
TEAM-NET
 10
-294.064234
 20
759.879637
 30
398.706988
  0
VERTEX
  5
EFA
  8
TEAM-NET
 10
-288.567788
 20
758.907512
 30
398.706988
  0
SEQEND
  5
EFB
  8
TEAM-NET
  0
LINE
  5
295
  8
TEAM-NET
 10
-622.371076
 20
-477.823124
 30
468.0
 11
-754.191919
 21
248.67742
 31
468.0
210
0.0
220
0.0
230
-1.0
  0
LINE
  5
296
  8
TEAM-NET
 10
-622.371076
 20
-477.823124
 30
475.0
 11
-754.191919
 21
248.67742
 31
475.0
210
-0.851363
220
-0.0
230
-0.524577
  0
LINE
  5
297
  8
TEAM-NET
 10
-622.371076
 20
-477.823124
 30
475.0
 11
-754.191919
 21
248.67742
 31
475.0
210
1.0
220
0.0
230
0.0
  0
LINE
  5
298
  8
TEAM-NET
 10
-622.371076
 20
-477.823124
 30
468.0
 11
-754.191919
 21
248.67742
 31
468.0
210
1.0
220
0.0
230
0.0
  0
POLYLINE
  5
299
  8
TEAM-NET
 66
     1
 10
0.0
 20
0.0
 30
475.0
 70
   128
  0
VERTEX
  5
EFC
  8
TEAM-NET
 10
-614.148966
 20
-496.658676
 30
475.0
  0
VERTEX
  5
EFD
  8
TEAM-NET
 10
-617.662921
 20
-492.602425
 30
475.0
  0
VERTEX
  5
EFE
  8
TEAM-NET
 10
-620.251821
 20
-488.016472
 30
475.0
  0
VERTEX
  5
EFF
  8
TEAM-NET
 10
-621.837218
 20
-483.039773
 30
475.0
  0
VERTEX
  5
F00
  8
TEAM-NET
 10
-622.371076
 20
-477.823124
 30
475.0
  0
SEQEND
  5
F01
  8
TEAM-NET
  0
POLYLINE
  5
29A
  8
TEAM-NET
 66
     1
 10
0.0
 20
0.0
 30
475.0
 70
   128
  0
VERTEX
  5
F02
  8
TEAM-NET
 10
-614.148966
 20
-496.658676
 30
475.0
  0
VERTEX
  5
F03
  8
TEAM-NET
 10
-617.662921
 20
-492.602425
 30
475.0
  0
VERTEX
  5
F04
  8
TEAM-NET
 10
-620.251821
 20
-488.016472
 30
475.0
  0
VERTEX
  5
F05
  8
TEAM-NET
 10
-621.837218
 20
-483.039773
 30
475.0
  0
VERTEX
  5
F06
  8
TEAM-NET
 10
-622.371076
 20
-477.823124
 30
475.0
  0
SEQEND
  5
F07
  8
TEAM-NET
  0
LINE
  5
29B
  8
TEAM-NET
 10
-622.371076
 20
-477.823124
 30
475.0
 11
-622.371076
 21
-477.823124
 31
468.0
210
1.0
220
0.0
230
0.0
  0
LINE
  5
29C
  8
TEAM-NET
 10
-622.371076
 20
-477.823124
 30
475.0
 11
-622.371076
 21
-477.823124
 31
468.0
  0
LINE
  5
29D
  8
TEAM-NET
 10
-614.148966
 20
-485.348469
 30
475.0
 11
-614.148966
 21
-496.658676
 31
475.0
210
0.851363
220
0.0
230
0.524577
  0
LINE
  5
29E
  8
TEAM-NET
 10
-614.148966
 20
-485.348469
 30
475.0
 11
-614.148966
 21
-496.658676
 31
475.0
  0
POLYLINE
  5
29F
  8
TEAM-NET
 66
     1
 10
0.0
 20
0.0
 30
475.0
 70
   128
  0
VERTEX
  5
F08
  8
TEAM-NET
 10
-754.191919
 20
248.67742
 30
475.0
  0
VERTEX
  5
F09
  8
TEAM-NET
 10
-753.658061
 20
253.894069
 30
475.0
  0
VERTEX
  5
F0A
  8
TEAM-NET
 10
-752.072664
 20
258.870768
 30
475.0
  0
VERTEX
  5
F0B
  8
TEAM-NET
 10
-749.483764
 20
263.456722
 30
475.0
  0
VERTEX
  5
F0C
  8
TEAM-NET
 10
-745.969809
 20
267.512972
 30
475.0
  0
SEQEND
  5
F0D
  8
TEAM-NET
  0
POLYLINE
  5
2A0
  8
TEAM-NET
 66
     1
 10
0.0
 20
0.0
 30
475.0
 70
   128
  0
VERTEX
  5
F0E
  8
TEAM-NET
 10
-745.969809
 20
267.512972
 30
475.0
  0
VERTEX
  5
F0F
  8
TEAM-NET
 10
-741.041502
 20
271.292617
 30
475.0
  0
VERTEX
  5
F10
  8
TEAM-NET
 10
-735.265821
 20
274.100955
 30
475.0
  0
VERTEX
  5
F11
  8
TEAM-NET
 10
-728.86435
 20
275.830245
 30
475.0
  0
VERTEX
  5
F12
  8
TEAM-NET
 10
-722.082681
 20
276.414141
 30
475.0
  0
SEQEND
  5
F13
  8
TEAM-NET
  0
POLYLINE
  5
2A1
  8
TEAM-NET
 66
     1
 10
0.0
 20
0.0
 30
468.0
 70
   128
  0
VERTEX
  5
F14
  8
TEAM-NET
 10
-754.191919
 20
248.67742
 30
468.0
  0
VERTEX
  5
F15
  8
TEAM-NET
 10
-753.589093
 20
254.215322
 30
468.0
  0
VERTEX
  5
F16
  8
TEAM-NET
 10
-751.80124
 20
259.471283
 30
468.0
  0
VERTEX
  5
F17
  8
TEAM-NET
 10
-748.889532
 20
264.265472
 30
468.0
  0
VERTEX
  5
F18
  8
TEAM-NET
 10
-744.953593
 20
268.433856
 30
468.0
  0
VERTEX
  5
F19
  8
TEAM-NET
 10
-740.12809
 20
271.833814
 30
468.0
  0
VERTEX
  5
F1A
  8
TEAM-NET
 10
-734.578128
 20
274.349016
 30
468.0
  0
VERTEX
  5
F1B
  8
TEAM-NET
 10
-728.493597
 20
275.893406
 30
468.0
  0
VERTEX
  5
F1C
  8
TEAM-NET
 10
-722.082681
 20
276.414141
 30
468.0
  0
SEQEND
  5
F1D
  8
TEAM-NET
  0
POLYLINE
  5
2A2
  8
TEAM-NET
 66
     1
 10
0.0
 20
0.0
 30
392.244813
 70
   128
210
0.095087
220
-0.0265
230
0.995116
  0
VERTEX
  5
F1E
  8
TEAM-NET
 10
32.445329
 20
824.053611
 30
392.244813
  0
VERTEX
  5
F1F
  8
TEAM-NET
 10
37.941775
 20
825.025736
 30
392.244813
  0
VERTEX
  5
F20
  8
TEAM-NET
 10
43.484761
 20
824.691805
 30
392.244813
  0
VERTEX
  5
F21
  8
TEAM-NET
 10
48.884634
 20
823.063241
 30
392.244813
  0
VERTEX
  5
F22
  8
TEAM-NET
 10
53.956637
 20
820.195766
 30
392.244813
  0
VERTEX
  5
F23
  8
TEAM-NET
 10
58.527233
 20
816.187492
 30
392.244813
  0
VERTEX
  5
F24
  8
TEAM-NET
 10
62.440039
 20
811.17556
 30
392.244813
  0
VERTEX
  5
F25
  8
TEAM-NET
 10
65.561178
 20
805.331453
 30
392.244813
  0
VERTEX
  5
F26
  8
TEAM-NET
 10
67.783861
 20
798.855127
 30
392.244813
  0
SEQEND
  5
F27
  8
TEAM-NET
  0
POLYLINE
  5
2A3
  8
TEAM-NET
 66
     1
 10
0.0
 20
0.0
 30
475.0
 70
   128
  0
VERTEX
  5
F28
  8
TEAM-NET
 10
-745.969809
 20
267.512972
 30
475.0
  0
VERTEX
  5
F29
  8
TEAM-NET
 10
-741.041502
 20
271.292617
 30
475.0
  0
VERTEX
  5
F2A
  8
TEAM-NET
 10
-735.265821
 20
274.100955
 30
475.0
  0
VERTEX
  5
F2B
  8
TEAM-NET
 10
-728.86435
 20
275.830245
 30
475.0
  0
VERTEX
  5
F2C
  8
TEAM-NET
 10
-722.082681
 20
276.414141
 30
475.0
  0
SEQEND
  5
F2D
  8
TEAM-NET
  0
POLYLINE
  5
2A4
  8
TEAM-NET
 66
     1
 10
0.0
 20
0.0
 30
475.0
 70
   128
  0
VERTEX
  5
F2E
  8
TEAM-NET
 10
-754.191919
 20
248.67742
 30
475.0
  0
VERTEX
  5
F2F
  8
TEAM-NET
 10
-753.658061
 20
253.894069
 30
475.0
  0
VERTEX
  5
F30
  8
TEAM-NET
 10
-752.072664
 20
258.870768
 30
475.0
  0
VERTEX
  5
F31
  8
TEAM-NET
 10
-749.483764
 20
263.456722
 30
475.0
  0
VERTEX
  5
F32
  8
TEAM-NET
 10
-745.969809
 20
267.512972
 30
475.0
  0
SEQEND
  5
F33
  8
TEAM-NET
  0
POLYLINE
  5
2A5
  8
TEAM-NET
 66
     1
 10
0.0
 20
0.0
 30
385.916887
 70
   128
210
-0.851363
220
-0.0
230
-0.524577
  0
VERTEX
  5
F34
  8
TEAM-NET
 10
-256.202765
 20
795.7161
 30
385.916887
  0
VERTEX
  5
F35
  8
TEAM-NET
 10
-248.400197
 20
794.6159
 30
385.916887
  0
VERTEX
  5
F36
  8
TEAM-NET
 10
-241.003499
 20
791.807121
 30
385.916887
  0
SEQEND
  5
F37
  8
TEAM-NET
  0
POLYLINE
  5
2A6
  8
TEAM-NET
 66
     1
 10
0.0
 20
0.0
 30
468.0
 70
   128
  0
VERTEX
  5
F38
  8
TEAM-NET
 10
-754.191919
 20
248.67742
 30
468.0
  0
VERTEX
  5
F39
  8
TEAM-NET
 10
-753.589093
 20
254.215322
 30
468.0
  0
VERTEX
  5
F3A
  8
TEAM-NET
 10
-751.80124
 20
259.471283
 30
468.0
  0
VERTEX
  5
F3B
  8
TEAM-NET
 10
-748.889532
 20
264.265472
 30
468.0
  0
VERTEX
  5
F3C
  8
TEAM-NET
 10
-744.953593
 20
268.433856
 30
468.0
  0
VERTEX
  5
F3D
  8
TEAM-NET
 10
-740.12809
 20
271.833814
 30
468.0
  0
VERTEX
  5
F3E
  8
TEAM-NET
 10
-734.578128
 20
274.349016
 30
468.0
  0
VERTEX
  5
F3F
  8
TEAM-NET
 10
-728.493597
 20
275.893406
 30
468.0
  0
VERTEX
  5
F40
  8
TEAM-NET
 10
-722.082681
 20
276.414141
 30
468.0
  0
SEQEND
  5
F41
  8
TEAM-NET
  0
POLYLINE
  5
2A7
  8
TEAM-NET
 66
     1
 10
0.0
 20
0.0
 30
-475.0
 70
   128
210
0.0
220
0.0
230
-1.0
  0
VERTEX
  5
F42
  8
TEAM-NET
 10
722.082681
 20
276.414141
 30
-475.0
  0
VERTEX
  5
F43
  8
TEAM-NET
 10
728.86435
 20
275.830245
 30
-475.0
  0
VERTEX
  5
F44
  8
TEAM-NET
 10
735.265821
 20
274.100955
 30
-475.0
  0
VERTEX
  5
F45
  8
TEAM-NET
 10
741.041502
 20
271.292617
 30
-475.0
  0
VERTEX
  5
F46
  8
TEAM-NET
 10
745.969809
 20
267.512972
 30
-475.0
  0
SEQEND
  5
F47
  8
TEAM-NET
  0
POLYLINE
  5
2A8
  8
TEAM-NET
 66
     1
 10
0.0
 20
0.0
 30
-475.0
 70
   128
210
0.0
220
0.0
230
-1.0
  0
VERTEX
  5
F48
  8
TEAM-NET
 10
722.082681
 20
276.414141
 30
-475.0
  0
VERTEX
  5
F49
  8
TEAM-NET
 10
728.86435
 20
275.830245
 30
-475.0
  0
VERTEX
  5
F4A
  8
TEAM-NET
 10
735.265821
 20
274.100955
 30
-475.0
  0
VERTEX
  5
F4B
  8
TEAM-NET
 10
741.041502
 20
271.292617
 30
-475.0
  0
VERTEX
  5
F4C
  8
TEAM-NET
 10
745.969809
 20
267.512972
 30
-475.0
  0
SEQEND
  5
F4D
  8
TEAM-NET
  0
POLYLINE
  5
2A9
  8
TEAM-NET
 66
     1
 10
0.0
 20
0.0
 30
-475.0
 70
   128
210
0.0
220
0.0
230
-1.0
  0
VERTEX
  5
F4E
  8
TEAM-NET
 10
710.277394
 20
275.212121
 30
-475.0
  0
VERTEX
  5
F4F
  8
TEAM-NET
 10
717.786884
 20
274.633797
 30
-475.0
  0
VERTEX
  5
F50
  8
TEAM-NET
 10
724.946133
 20
272.916642
 30
-475.0
  0
VERTEX
  5
F51
  8
TEAM-NET
 10
731.534567
 20
270.113562
 30
-475.0
  0
VERTEX
  5
F52
  8
TEAM-NET
 10
737.349195
 20
266.310918
 30
-475.0
  0
VERTEX
  5
F53
  8
TEAM-NET
 10
742.210872
 20
261.625871
 30
-475.0
  0
VERTEX
  5
F54
  8
TEAM-NET
 10
745.969809
 20
256.202765
 30
-475.0
  0
SEQEND
  5
F55
  8
TEAM-NET
  0
POLYLINE
  5
2AA
  8
TEAM-NET
 66
     1
 10
0.0
 20
0.0
 30
-475.0
 70
   128
210
0.0
220
0.0
230
-1.0
  0
VERTEX
  5
F56
  8
TEAM-NET
 10
710.277394
 20
275.212121
 30
-475.0
  0
VERTEX
  5
F57
  8
TEAM-NET
 10
717.786884
 20
274.633797
 30
-475.0
  0
VERTEX
  5
F58
  8
TEAM-NET
 10
724.946133
 20
272.916642
 30
-475.0
  0
VERTEX
  5
F59
  8
TEAM-NET
 10
731.534567
 20
270.113562
 30
-475.0
  0
VERTEX
  5
F5A
  8
TEAM-NET
 10
737.349195
 20
266.310918
 30
-475.0
  0
VERTEX
  5
F5B
  8
TEAM-NET
 10
742.210872
 20
261.625871
 30
-475.0
  0
VERTEX
  5
F5C
  8
TEAM-NET
 10
745.969809
 20
256.202765
 30
-475.0
  0
SEQEND
  5
F5D
  8
TEAM-NET
  0
POLYLINE
  5
2AB
  8
TEAM-NET
 66
     1
 10
0.0
 20
0.0
 30
392.244813
 70
   128
210
0.095087
220
-0.0265
230
0.995116
  0
VERTEX
  5
F5E
  8
TEAM-NET
 10
32.445329
 20
824.053611
 30
392.244813
  0
VERTEX
  5
F5F
  8
TEAM-NET
 10
37.941775
 20
825.025736
 30
392.244813
  0
VERTEX
  5
F60
  8
TEAM-NET
 10
43.484761
 20
824.691805
 30
392.244813
  0
VERTEX
  5
F61
  8
TEAM-NET
 10
48.884634
 20
823.063241
 30
392.244813
  0
VERTEX
  5
F62
  8
TEAM-NET
 10
53.956637
 20
820.195766
 30
392.244813
  0
VERTEX
  5
F63
  8
TEAM-NET
 10
58.527233
 20
816.187492
 30
392.244813
  0
VERTEX
  5
F64
  8
TEAM-NET
 10
62.440039
 20
811.17556
 30
392.244813
  0
VERTEX
  5
F65
  8
TEAM-NET
 10
65.561178
 20
805.331453
 30
392.244813
  0
VERTEX
  5
F66
  8
TEAM-NET
 10
67.783861
 20
798.855127
 30
392.244813
  0
SEQEND
  5
F67
  8
TEAM-NET
  0
POLYLINE
  5
2AC
  8
TEAM-NET
 66
     1
 10
0.0
 20
0.0
 30
385.916887
 70
   128
210
-0.851363
220
-0.0
230
-0.524577
  0
VERTEX
  5
F68
  8
TEAM-NET
 10
-256.202765
 20
795.7161
 30
385.916887
  0
VERTEX
  5
F69
  8
TEAM-NET
 10
-248.400197
 20
794.6159
 30
385.916887
  0
VERTEX
  5
F6A
  8
TEAM-NET
 10
-241.003499
 20
791.807121
 30
385.916887
  0
SEQEND
  5
F6B
  8
TEAM-NET
  0
LINE
  5
2AD
  8
TEAM-NET
 10
-722.082681
 20
276.414141
 30
475.0
 11
-722.082681
 21
276.414141
 31
468.0
210
0.0
220
-1.0
230
0.0
  0
ARC
  5
2AE
  8
TEAM-NET
 10
343.0
 20
468.0
 30
-843.0
 40
7.0
210
1.0
220
0.0
230
0.0
 50
0.0
 51
90.0
  0
LINE
  5
2AF
  8
TEAM-NET
 10
-745.969809
 20
267.512972
 30
475.0
 11
-745.969809
 21
256.202765
 31
475.0
  0
ARC
  5
2B0
  8
TEAM-NET
 10
275.212121
 20
468.0
 30
-710.277394
 40
7.0
210
1.0
220
0.0
230
0.0
 50
90.0
 51
170.256359
  0
LINE
  5
2B1
  8
TEAM-NET
 10
-843.0
 20
300.0
 30
475.0
 11
-843.0
 21
343.0
 31
475.0
  0
LINE
  5
2B2
  8
TEAM-NET
 10
-745.969809
 20
267.512972
 30
475.0
 11
-745.969809
 21
256.202765
 31
475.0
210
0.851363
220
0.0
230
0.524577
  0
LINE
  5
2B3
  8
TEAM-NET
 10
-850.0
 20
343.0
 30
468.0
 11
-850.0
 21
300.0
 31
468.0
210
-1.0
220
0.0
230
0.0
  0
LINE
  5
2B4
  8
TEAM-NET
 10
-754.191919
 20
248.67742
 30
475.0
 11
-754.191919
 21
248.67742
 31
468.0
210
1.0
220
0.0
230
0.0
  0
ARC
  5
2B5
  8
TEAM-NET
 10
275.212121
 20
468.0
 30
-710.277394
 40
7.0
210
1.0
220
0.0
230
0.0
 50
90.0
 51
170.256359
  0
ARC
  5
2B6
  8
TEAM-NET
 10
-843.0
 20
343.0
 30
468.0
 40
7.0
 50
90.0
 51
180.0
  0
LINE
  5
2B7
  8
TEAM-NET
 10
-722.082681
 20
276.414141
 30
475.0
 11
-722.082681
 21
276.414141
 31
468.0
  0
LINE
  5
2B8
  8
TEAM-NET
 10
-754.191919
 20
248.67742
 30
475.0
 11
-754.191919
 21
248.67742
 31
468.0
  0
ARC
  5
2B9
  8
TEAM-NET
 10
343.0
 20
468.0
 30
-843.0
 40
7.0
210
1.0
220
0.0
230
0.0
 50
0.0
 51
90.0
  0
ARC
  5
2BA
  8
TEAM-NET
 10
-843.0
 20
343.0
 30
468.0
 40
7.0
 50
90.0
 51
180.0
  0
ARC
  5
2BB
  8
TEAM-NET
 10
-843.0
 20
468.0
 30
-343.0
 40
7.0
210
0.0
220
-1.0
230
0.0
 50
90.0
 51
180.0
  0
ARC
  5
2BC
  8
TEAM-NET
 10
-843.0
 20
468.0
 30
-343.0
 40
7.0
210
0.0
220
-1.0
230
0.0
 50
90.0
 51
180.0
  0
LINE
  5
2BD
  8
TEAM-NET
 10
-850.0
 20
343.0
 30
468.0
 11
-850.0
 21
300.0
 31
468.0
  0
LINE
  5
2BE
  8
TEAM-NET
 10
-843.0
 20
300.0
 30
475.0
 11
-843.0
 21
343.0
 31
475.0
  0
LINE
  5
2BF
  8
TEAM-NET
 10
-850.0
 20
246.0
 30
468.0
 11
-850.0
 21
-300.0
 31
468.0
210
-1.0
220
0.0
230
0.0
  0
LINE
  5
2C0
  8
TEAM-NET
 10
-843.0
 20
-300.0
 30
475.0
 11
-843.0
 21
300.0
 31
475.0
  0
LINE
  5
2C1
  8
TEAM-NET
 10
-843.0
 20
-300.0
 30
475.0
 11
-843.0
 21
300.0
 31
475.0
  0
LINE
  5
2C2
  8
TEAM-NET
 10
-850.0
 20
300.0
 30
468.0
 11
-850.0
 21
-300.0
 31
468.0
  0
POLYLINE
  5
2C3
  8
TEAM-NET
 66
     1
 10
0.0
 20
0.0
 30
-475.0
 70
   128
210
0.0
220
0.0
230
-1.0
  0
VERTEX
  5
F6C
  8
TEAM-NET
 10
-717.89827
 20
233.017116
 30
-475.0
  0
VERTEX
  5
F6D
  8
TEAM-NET
 10
-717.202909
 20
240.186349
 30
-475.0
  0
VERTEX
  5
F6E
  8
TEAM-NET
 10
-715.142586
 20
247.050165
 30
-475.0
  0
VERTEX
  5
F6F
  8
TEAM-NET
 10
-711.793626
 20
253.354296
 30
-475.0
  0
VERTEX
  5
F70
  8
TEAM-NET
 10
-707.280089
 20
258.865205
 30
-475.0
  0
VERTEX
  5
F71
  8
TEAM-NET
 10
-701.76918
 20
263.378741
 30
-475.0
  0
VERTEX
  5
F72
  8
TEAM-NET
 10
-695.46505
 20
266.727702
 30
-475.0
  0
VERTEX
  5
F73
  8
TEAM-NET
 10
-688.601234
 20
268.788025
 30
-475.0
  0
VERTEX
  5
F74
  8
TEAM-NET
 10
-681.432001
 20
269.483386
 30
-475.0
  0
SEQEND
  5
F75
  8
TEAM-NET
  0
POLYLINE
  5
2C4
  8
TEAM-NET
 66
     1
 10
0.0
 20
0.0
 30
433.320941
 70
   128
210
-0.037299
220
-0.037299
230
0.998608
  0
VERTEX
  5
F76
  8
TEAM-NET
 10
296.170006
 20
691.339767
 30
433.320941
  0
VERTEX
  5
F77
  8
TEAM-NET
 10
300.679012
 20
695.104902
 30
433.320941
  0
VERTEX
  5
F78
  8
TEAM-NET
 10
305.795487
 20
697.898563
 30
433.320941
  0
VERTEX
  5
F79
  8
TEAM-NET
 10
311.329892
 20
699.617259
 30
433.320941
  0
VERTEX
  5
F7A
  8
TEAM-NET
 10
317.077206
 20
700.19732
 30
433.320941
  0
VERTEX
  5
F7B
  8
TEAM-NET
 10
322.824519
 20
699.617259
 30
433.320941
  0
VERTEX
  5
F7C
  8
TEAM-NET
 10
328.358924
 20
697.898563
 30
433.320941
  0
VERTEX
  5
F7D
  8
TEAM-NET
 10
333.475399
 20
695.104902
 30
433.320941
  0
VERTEX
  5
F7E
  8
TEAM-NET
 10
337.984405
 20
691.339767
 30
433.320941
  0
SEQEND
  5
F7F
  8
TEAM-NET
  0
POLYLINE
  5
2C5
  8
TEAM-NET
 66
     1
 10
0.0
 20
0.0
 30
475.0
 70
   128
  0
VERTEX
  5
F80
  8
TEAM-NET
 10
689.533045
 20
270.685406
 30
475.0
  0
VERTEX
  5
F81
  8
TEAM-NET
 10
695.345936
 20
270.1216
 30
475.0
  0
VERTEX
  5
F82
  8
TEAM-NET
 10
700.911193
 20
268.451068
 30
475.0
  0
VERTEX
  5
F83
  8
TEAM-NET
 10
706.02265
 20
265.735694
 30
475.0
  0
VERTEX
  5
F84
  8
TEAM-NET
 10
710.490954
 20
262.07607
 30
475.0
  0
VERTEX
  5
F85
  8
TEAM-NET
 10
714.150579
 20
257.607766
 30
475.0
  0
VERTEX
  5
F86
  8
TEAM-NET
 10
716.865952
 20
252.496308
 30
475.0
  0
VERTEX
  5
F87
  8
TEAM-NET
 10
718.536484
 20
246.931052
 30
475.0
  0
VERTEX
  5
F88
  8
TEAM-NET
 10
719.10029
 20
241.11816
 30
475.0
  0
SEQEND
  5
F89
  8
TEAM-NET
  0
POLYLINE
  5
2C6
  8
TEAM-NET
 66
     1
 10
0.0
 20
0.0
 30
468.0
 70
   128
  0
VERTEX
  5
F8A
  8
TEAM-NET
 10
689.533045
 20
270.685406
 30
468.0
  0
VERTEX
  5
F8B
  8
TEAM-NET
 10
695.345936
 20
270.1216
 30
468.0
  0
VERTEX
  5
F8C
  8
TEAM-NET
 10
700.911193
 20
268.451068
 30
468.0
  0
VERTEX
  5
F8D
  8
TEAM-NET
 10
706.02265
 20
265.735694
 30
468.0
  0
VERTEX
  5
F8E
  8
TEAM-NET
 10
710.490954
 20
262.07607
 30
468.0
  0
VERTEX
  5
F8F
  8
TEAM-NET
 10
714.150579
 20
257.607766
 30
468.0
  0
VERTEX
  5
F90
  8
TEAM-NET
 10
716.865952
 20
252.496308
 30
468.0
  0
VERTEX
  5
F91
  8
TEAM-NET
 10
718.536484
 20
246.931052
 30
468.0
  0
VERTEX
  5
F92
  8
TEAM-NET
 10
719.10029
 20
241.11816
 30
468.0
  0
SEQEND
  5
F93
  8
TEAM-NET
  0
POLYLINE
  5
2C7
  8
TEAM-NET
 66
     1
 10
0.0
 20
0.0
 30
468.0
 70
   128
  0
VERTEX
  5
F94
  8
TEAM-NET
 10
689.533045
 20
270.685406
 30
468.0
  0
VERTEX
  5
F95
  8
TEAM-NET
 10
695.345936
 20
270.1216
 30
468.0
  0
VERTEX
  5
F96
  8
TEAM-NET
 10
700.911193
 20
268.451068
 30
468.0
  0
VERTEX
  5
F97
  8
TEAM-NET
 10
706.02265
 20
265.735694
 30
468.0
  0
VERTEX
  5
F98
  8
TEAM-NET
 10
710.490954
 20
262.07607
 30
468.0
  0
VERTEX
  5
F99
  8
TEAM-NET
 10
714.150579
 20
257.607766
 30
468.0
  0
VERTEX
  5
F9A
  8
TEAM-NET
 10
716.865952
 20
252.496308
 30
468.0
  0
VERTEX
  5
F9B
  8
TEAM-NET
 10
718.536484
 20
246.931052
 30
468.0
  0
VERTEX
  5
F9C
  8
TEAM-NET
 10
719.10029
 20
241.11816
 30
468.0
  0
SEQEND
  5
F9D
  8
TEAM-NET
  0
POLYLINE
  5
2C8
  8
TEAM-NET
 66
     1
 10
0.0
 20
0.0
 30
-475.0
 70
   128
210
0.0
220
0.0
230
-1.0
  0
VERTEX
  5
F9E
  8
TEAM-NET
 10
-719.10029
 20
241.11816
 30
-475.0
  0
VERTEX
  5
F9F
  8
TEAM-NET
 10
-718.536484
 20
246.931052
 30
-475.0
  0
VERTEX
  5
FA0
  8
TEAM-NET
 10
-716.865952
 20
252.496308
 30
-475.0
  0
VERTEX
  5
FA1
  8
TEAM-NET
 10
-714.150579
 20
257.607766
 30
-475.0
  0
VERTEX
  5
FA2
  8
TEAM-NET
 10
-710.490954
 20
262.07607
 30
-475.0
  0
VERTEX
  5
FA3
  8
TEAM-NET
 10
-706.02265
 20
265.735694
 30
-475.0
  0
VERTEX
  5
FA4
  8
TEAM-NET
 10
-700.911193
 20
268.451068
 30
-475.0
  0
VERTEX
  5
FA5
  8
TEAM-NET
 10
-695.345936
 20
270.1216
 30
-475.0
  0
VERTEX
  5
FA6
  8
TEAM-NET
 10
-689.533045
 20
270.685406
 30
-475.0
  0
SEQEND
  5
FA7
  8
TEAM-NET
  0
POLYLINE
  5
2C9
  8
TEAM-NET
 66
     1
 10
0.0
 20
0.0
 30
-475.0
 70
   128
210
0.0
220
0.0
230
-1.0
  0
VERTEX
  5
FA8
  8
TEAM-NET
 10
-719.10029
 20
241.11816
 30
-475.0
  0
VERTEX
  5
FA9
  8
TEAM-NET
 10
-718.536484
 20
246.931052
 30
-475.0
  0
VERTEX
  5
FAA
  8
TEAM-NET
 10
-716.865952
 20
252.496308
 30
-475.0
  0
VERTEX
  5
FAB
  8
TEAM-NET
 10
-714.150579
 20
257.607766
 30
-475.0
  0
VERTEX
  5
FAC
  8
TEAM-NET
 10
-710.490954
 20
262.07607
 30
-475.0
  0
VERTEX
  5
FAD
  8
TEAM-NET
 10
-706.02265
 20
265.735694
 30
-475.0
  0
VERTEX
  5
FAE
  8
TEAM-NET
 10
-700.911193
 20
268.451068
 30
-475.0
  0
VERTEX
  5
FAF
  8
TEAM-NET
 10
-695.345936
 20
270.1216
 30
-475.0
  0
VERTEX
  5
FB0
  8
TEAM-NET
 10
-689.533045
 20
270.685406
 30
-475.0
  0
SEQEND
  5
FB1
  8
TEAM-NET
  0
POLYLINE
  5
2CA
  8
TEAM-NET
 66
     1
 10
0.0
 20
0.0
 30
-475.0
 70
   128
210
0.0
220
0.0
230
-1.0
  0
VERTEX
  5
FB2
  8
TEAM-NET
 10
-717.89827
 20
233.017116
 30
-475.0
  0
VERTEX
  5
FB3
  8
TEAM-NET
 10
-717.202909
 20
240.186349
 30
-475.0
  0
VERTEX
  5
FB4
  8
TEAM-NET
 10
-715.142586
 20
247.050165
 30
-475.0
  0
VERTEX
  5
FB5
  8
TEAM-NET
 10
-711.793626
 20
253.354296
 30
-475.0
  0
VERTEX
  5
FB6
  8
TEAM-NET
 10
-707.280089
 20
258.865205
 30
-475.0
  0
VERTEX
  5
FB7
  8
TEAM-NET
 10
-701.76918
 20
263.378741
 30
-475.0
  0
VERTEX
  5
FB8
  8
TEAM-NET
 10
-695.46505
 20
266.727702
 30
-475.0
  0
VERTEX
  5
FB9
  8
TEAM-NET
 10
-688.601234
 20
268.788025
 30
-475.0
  0
VERTEX
  5
FBA
  8
TEAM-NET
 10
-681.432001
 20
269.483386
 30
-475.0
  0
SEQEND
  5
FBB
  8
TEAM-NET
  0
POLYLINE
  5
2CB
  8
TEAM-NET
 66
     1
 10
0.0
 20
0.0
 30
433.320941
 70
   128
210
-0.037299
220
-0.037299
230
0.998608
  0
VERTEX
  5
FBC
  8
TEAM-NET
 10
296.170006
 20
691.339767
 30
433.320941
  0
VERTEX
  5
FBD
  8
TEAM-NET
 10
300.679012
 20
695.104902
 30
433.320941
  0
VERTEX
  5
FBE
  8
TEAM-NET
 10
305.795487
 20
697.898563
 30
433.320941
  0
VERTEX
  5
FBF
  8
TEAM-NET
 10
311.329892
 20
699.617259
 30
433.320941
  0
VERTEX
  5
FC0
  8
TEAM-NET
 10
317.077206
 20
700.19732
 30
433.320941
  0
VERTEX
  5
FC1
  8
TEAM-NET
 10
322.824519
 20
699.617259
 30
433.320941
  0
VERTEX
  5
FC2
  8
TEAM-NET
 10
328.358924
 20
697.898563
 30
433.320941
  0
VERTEX
  5
FC3
  8
TEAM-NET
 10
333.475399
 20
695.104902
 30
433.320941
  0
VERTEX
  5
FC4
  8
TEAM-NET
 10
337.984405
 20
691.339767
 30
433.320941
  0
SEQEND
  5
FC5
  8
TEAM-NET
  0
POLYLINE
  5
2CC
  8
TEAM-NET
 66
     1
 10
0.0
 20
0.0
 30
475.0
 70
   128
  0
VERTEX
  5
FC6
  8
TEAM-NET
 10
689.533045
 20
270.685406
 30
475.0
  0
VERTEX
  5
FC7
  8
TEAM-NET
 10
695.345936
 20
270.1216
 30
475.0
  0
VERTEX
  5
FC8
  8
TEAM-NET
 10
700.911193
 20
268.451068
 30
475.0
  0
VERTEX
  5
FC9
  8
TEAM-NET
 10
706.02265
 20
265.735694
 30
475.0
  0
VERTEX
  5
FCA
  8
TEAM-NET
 10
710.490954
 20
262.07607
 30
475.0
  0
VERTEX
  5
FCB
  8
TEAM-NET
 10
714.150579
 20
257.607766
 30
475.0
  0
VERTEX
  5
FCC
  8
TEAM-NET
 10
716.865952
 20
252.496308
 30
475.0
  0
VERTEX
  5
FCD
  8
TEAM-NET
 10
718.536484
 20
246.931052
 30
475.0
  0
VERTEX
  5
FCE
  8
TEAM-NET
 10
719.10029
 20
241.11816
 30
475.0
  0
SEQEND
  5
FCF
  8
TEAM-NET
  0
LINE
  5
2CD
  8
TEAM-NET
 10
689.533045
 20
270.685406
 30
475.0
 11
689.533045
 21
270.685406
 31
468.0
210
0.0
220
-1.0
230
0.0
  0
ARC
  5
2CE
  8
TEAM-NET
 10
269.483386
 20
468.0
 30
681.432001
 40
7.0
210
1.0
220
0.0
230
0.0
 50
90.0
 51
170.256359
  0
LINE
  5
2CF
  8
TEAM-NET
 10
719.10029
 20
241.11816
 30
475.0
 11
719.10029
 21
241.11816
 31
468.0
210
-1.0
220
0.0
230
0.0
  0
LINE
  5
2D0
  8
TEAM-NET
 10
719.10029
 20
241.11816
 30
475.0
 11
719.10029
 21
241.11816
 31
468.0
  0
LINE
  5
2D1
  8
TEAM-NET
 10
689.533045
 20
270.685406
 30
475.0
 11
689.533045
 21
270.685406
 31
468.0
  0
ARC
  5
2D2
  8
TEAM-NET
 10
269.483386
 20
468.0
 30
681.432001
 40
7.0
210
1.0
220
0.0
230
0.0
 50
90.0
 51
170.256359
  0
ARC
  5
2D3
  8
TEAM-NET
 10
717.89827
 20
468.0
 30
-233.017116
 40
7.0
210
0.0
220
-1.0
230
0.0
 50
90.0
 51
170.256359
  0
ARC
  5
2D4
  8
TEAM-NET
 10
717.89827
 20
468.0
 30
-233.017116
 40
7.0
210
0.0
220
-1.0
230
0.0
 50
90.0
 51
170.256359
  0
LINE
  5
2D5
  8
TEAM-NET
 10
710.999246
 20
233.017116
 30
469.184681
 11
768.313097
 21
-158.745852
 31
469.184681
210
-0.985575
220
0.0
230
0.16924
  0
LINE
  5
2D6
  8
TEAM-NET
 10
719.10029
 20
241.11816
 30
475.0
 11
776.414141
 21
-166.846896
 31
475.0
210
0.985575
220
0.0
230
-0.16924
  0
LINE
  5
2D7
  8
TEAM-NET
 10
775.212121
 20
-158.745852
 30
475.0
 11
717.89827
 21
233.017116
 31
475.0
  0
LINE
  5
2D8
  8
TEAM-NET
 10
719.10029
 20
241.11816
 30
475.0
 11
776.414141
 21
-166.846896
 31
475.0
  0
LINE
  5
2D9
  8
TEAM-NET
 10
719.10029
 20
241.11816
 30
475.0
 11
776.414141
 21
-166.846896
 31
475.0
  0
LINE
  5
2DA
  8
TEAM-NET
 10
719.10029
 20
241.11816
 30
468.0
 11
776.414141
 21
-166.846896
 31
468.0
210
0.0
220
0.0
230
-1.0
  0
LINE
  5
2DB
  8
TEAM-NET
 10
719.10029
 20
241.11816
 30
468.0
 11
776.414141
 21
-166.846896
 31
468.0
210
-1.0
220
0.0
230
0.0
  0
LINE
  5
2DC
  8
TEAM-NET
 10
719.10029
 20
241.11816
 30
475.0
 11
776.414141
 21
-166.846896
 31
475.0
210
-1.0
220
0.0
230
0.0
  0
LINE
  5
2DD
  8
TEAM-NET
 10
710.999246
 20
233.017116
 30
469.184681
 11
768.313097
 21
-158.745852
 31
469.184681
  0
LINE
  5
2DE
  8
TEAM-NET
 10
775.212121
 20
-158.745852
 30
475.0
 11
717.89827
 21
233.017116
 31
475.0
  0
POLYLINE
  5
2DF
  8
TEAM-NET
 66
     1
 10
0.0
 20
0.0
 30
-475.0
 70
   128
210
0.0
220
0.0
230
-1.0
  0
VERTEX
  5
FD0
  8
TEAM-NET
 10
-738.745852
 20
-195.212121
 30
-475.0
  0
VERTEX
  5
FD1
  8
TEAM-NET
 10
-745.915085
 20
-194.51676
 30
-475.0
  0
VERTEX
  5
FD2
  8
TEAM-NET
 10
-752.778901
 20
-192.456438
 30
-475.0
  0
VERTEX
  5
FD3
  8
TEAM-NET
 10
-759.083032
 20
-189.107477
 30
-475.0
  0
VERTEX
  5
FD4
  8
TEAM-NET
 10
-764.593941
 20
-184.593941
 30
-475.0
  0
VERTEX
  5
FD5
  8
TEAM-NET
 10
-769.107477
 20
-179.083032
 30
-475.0
  0
VERTEX
  5
FD6
  8
TEAM-NET
 10
-772.456438
 20
-172.778901
 30
-475.0
  0
VERTEX
  5
FD7
  8
TEAM-NET
 10
-774.51676
 20
-165.915085
 30
-475.0
  0
VERTEX
  5
FD8
  8
TEAM-NET
 10
-775.212121
 20
-158.745852
 30
-475.0
  0
SEQEND
  5
FD9
  8
TEAM-NET
  0
POLYLINE
  5
2E0
  8
TEAM-NET
 66
     1
 10
0.0
 20
0.0
 30
433.95343
 70
   128
210
-0.037299
220
0.037299
230
0.998608
  0
VERTEX
  5
FDA
  8
TEAM-NET
 10
-431.029133
 20
679.365758
 30
433.95343
  0
VERTEX
  5
FDB
  8
TEAM-NET
 10
-426.520127
 20
683.130894
 30
433.95343
  0
VERTEX
  5
FDC
  8
TEAM-NET
 10
-421.403652
 20
685.924555
 30
433.95343
  0
VERTEX
  5
FDD
  8
TEAM-NET
 10
-415.869247
 20
687.64325
 30
433.95343
  0
VERTEX
  5
FDE
  8
TEAM-NET
 10
-410.121933
 20
688.223312
 30
433.95343
  0
VERTEX
  5
FDF
  8
TEAM-NET
 10
-404.37462
 20
687.64325
 30
433.95343
  0
VERTEX
  5
FE0
  8
TEAM-NET
 10
-398.840215
 20
685.924555
 30
433.95343
  0
VERTEX
  5
FE1
  8
TEAM-NET
 10
-393.72374
 20
683.130894
 30
433.95343
  0
VERTEX
  5
FE2
  8
TEAM-NET
 10
-389.214733
 20
679.365758
 30
433.95343
  0
SEQEND
  5
FE3
  8
TEAM-NET
  0
POLYLINE
  5
2E1
  8
TEAM-NET
 66
     1
 10
0.0
 20
0.0
 30
475.0
 70
   128
  0
VERTEX
  5
FE4
  8
TEAM-NET
 10
776.414141
 20
-166.846896
 30
475.0
  0
VERTEX
  5
FE5
  8
TEAM-NET
 10
775.850335
 20
-172.659788
 30
475.0
  0
VERTEX
  5
FE6
  8
TEAM-NET
 10
774.179803
 20
-178.225044
 30
475.0
  0
VERTEX
  5
FE7
  8
TEAM-NET
 10
771.46443
 20
-183.336501
 30
475.0
  0
VERTEX
  5
FE8
  8
TEAM-NET
 10
767.804806
 20
-187.804806
 30
475.0
  0
VERTEX
  5
FE9
  8
TEAM-NET
 10
763.336501
 20
-191.46443
 30
475.0
  0
VERTEX
  5
FEA
  8
TEAM-NET
 10
758.225044
 20
-194.179803
 30
475.0
  0
VERTEX
  5
FEB
  8
TEAM-NET
 10
752.659788
 20
-195.850335
 30
475.0
  0
VERTEX
  5
FEC
  8
TEAM-NET
 10
746.846896
 20
-196.414141
 30
475.0
  0
SEQEND
  5
FED
  8
TEAM-NET
  0
POLYLINE
  5
2E2
  8
TEAM-NET
 66
     1
 10
0.0
 20
0.0
 30
468.0
 70
   128
  0
VERTEX
  5
FEE
  8
TEAM-NET
 10
776.414141
 20
-166.846896
 30
468.0
  0
VERTEX
  5
FEF
  8
TEAM-NET
 10
775.850335
 20
-172.659788
 30
468.0
  0
VERTEX
  5
FF0
  8
TEAM-NET
 10
774.179803
 20
-178.225044
 30
468.0
  0
VERTEX
  5
FF1
  8
TEAM-NET
 10
771.46443
 20
-183.336501
 30
468.0
  0
VERTEX
  5
FF2
  8
TEAM-NET
 10
767.804806
 20
-187.804806
 30
468.0
  0
VERTEX
  5
FF3
  8
TEAM-NET
 10
763.336501
 20
-191.46443
 30
468.0
  0
VERTEX
  5
FF4
  8
TEAM-NET
 10
758.225044
 20
-194.179803
 30
468.0
  0
VERTEX
  5
FF5
  8
TEAM-NET
 10
752.659788
 20
-195.850335
 30
468.0
  0
VERTEX
  5
FF6
  8
TEAM-NET
 10
746.846896
 20
-196.414141
 30
468.0
  0
SEQEND
  5
FF7
  8
TEAM-NET
  0
POLYLINE
  5
2E3
  8
TEAM-NET
 66
     1
 10
0.0
 20
0.0
 30
475.0
 70
   128
  0
VERTEX
  5
FF8
  8
TEAM-NET
 10
776.414141
 20
-166.846896
 30
475.0
  0
VERTEX
  5
FF9
  8
TEAM-NET
 10
775.850335
 20
-172.659788
 30
475.0
  0
VERTEX
  5
FFA
  8
TEAM-NET
 10
774.179803
 20
-178.225044
 30
475.0
  0
VERTEX
  5
FFB
  8
TEAM-NET
 10
771.46443
 20
-183.336501
 30
475.0
  0
VERTEX
  5
FFC
  8
TEAM-NET
 10
767.804806
 20
-187.804806
 30
475.0
  0
VERTEX
  5
FFD
  8
TEAM-NET
 10
763.336501
 20
-191.46443
 30
475.0
  0
VERTEX
  5
FFE
  8
TEAM-NET
 10
758.225044
 20
-194.179803
 30
475.0
  0
VERTEX
  5
FFF
  8
TEAM-NET
 10
752.659788
 20
-195.850335
 30
475.0
  0
VERTEX
  5
1000
  8
TEAM-NET
 10
746.846896
 20
-196.414141
 30
475.0
  0
SEQEND
  5
1001
  8
TEAM-NET
  0
POLYLINE
  5
2E4
  8
TEAM-NET
 66
     1
 10
0.0
 20
0.0
 30
433.95343
 70
   128
210
-0.037299
220
0.037299
230
0.998608
  0
VERTEX
  5
1002
  8
TEAM-NET
 10
-431.029133
 20
679.365758
 30
433.95343
  0
VERTEX
  5
1003
  8
TEAM-NET
 10
-426.520127
 20
683.130894
 30
433.95343
  0
VERTEX
  5
1004
  8
TEAM-NET
 10
-421.403652
 20
685.924555
 30
433.95343
  0
VERTEX
  5
1005
  8
TEAM-NET
 10
-415.869247
 20
687.64325
 30
433.95343
  0
VERTEX
  5
1006
  8
TEAM-NET
 10
-410.121933
 20
688.223312
 30
433.95343
  0
VERTEX
  5
1007
  8
TEAM-NET
 10
-404.37462
 20
687.64325
 30
433.95343
  0
VERTEX
  5
1008
  8
TEAM-NET
 10
-398.840215
 20
685.924555
 30
433.95343
  0
VERTEX
  5
1009
  8
TEAM-NET
 10
-393.72374
 20
683.130894
 30
433.95343
  0
VERTEX
  5
100A
  8
TEAM-NET
 10
-389.214733
 20
679.365758
 30
433.95343
  0
SEQEND
  5
100B
  8
TEAM-NET
  0
POLYLINE
  5
2E5
  8
TEAM-NET
 66
     1
 10
0.0
 20
0.0
 30
468.0
 70
   128
  0
VERTEX
  5
100C
  8
TEAM-NET
 10
776.414141
 20
-166.846896
 30
468.0
  0
VERTEX
  5
100D
  8
TEAM-NET
 10
775.850335
 20
-172.659788
 30
468.0
  0
VERTEX
  5
100E
  8
TEAM-NET
 10
774.179803
 20
-178.225044
 30
468.0
  0
VERTEX
  5
100F
  8
TEAM-NET
 10
771.46443
 20
-183.336501
 30
468.0
  0
VERTEX
  5
1010
  8
TEAM-NET
 10
767.804806
 20
-187.804806
 30
468.0
  0
VERTEX
  5
1011
  8
TEAM-NET
 10
763.336501
 20
-191.46443
 30
468.0
  0
VERTEX
  5
1012
  8
TEAM-NET
 10
758.225044
 20
-194.179803
 30
468.0
  0
VERTEX
  5
1013
  8
TEAM-NET
 10
752.659788
 20
-195.850335
 30
468.0
  0
VERTEX
  5
1014
  8
TEAM-NET
 10
746.846896
 20
-196.414141
 30
468.0
  0
SEQEND
  5
1015
  8
TEAM-NET
  0
POLYLINE
  5
2E6
  8
TEAM-NET
 66
     1
 10
0.0
 20
0.0
 30
-475.0
 70
   128
210
0.0
220
0.0
230
-1.0
  0
VERTEX
  5
1016
  8
TEAM-NET
 10
-746.846896
 20
-196.414141
 30
-475.0
  0
VERTEX
  5
1017
  8
TEAM-NET
 10
-752.659788
 20
-195.850335
 30
-475.0
  0
VERTEX
  5
1018
  8
TEAM-NET
 10
-758.225044
 20
-194.179803
 30
-475.0
  0
VERTEX
  5
1019
  8
TEAM-NET
 10
-763.336501
 20
-191.46443
 30
-475.0
  0
VERTEX
  5
101A
  8
TEAM-NET
 10
-767.804806
 20
-187.804806
 30
-475.0
  0
VERTEX
  5
101B
  8
TEAM-NET
 10
-771.46443
 20
-183.336501
 30
-475.0
  0
VERTEX
  5
101C
  8
TEAM-NET
 10
-774.179803
 20
-178.225044
 30
-475.0
  0
VERTEX
  5
101D
  8
TEAM-NET
 10
-775.850335
 20
-172.659788
 30
-475.0
  0
VERTEX
  5
101E
  8
TEAM-NET
 10
-776.414141
 20
-166.846896
 30
-475.0
  0
SEQEND
  5
101F
  8
TEAM-NET
  0
POLYLINE
  5
2E7
  8
TEAM-NET
 66
     1
 10
0.0
 20
0.0
 30
-475.0
 70
   128
210
0.0
220
0.0
230
-1.0
  0
VERTEX
  5
1020
  8
TEAM-NET
 10
-746.846896
 20
-196.414141
 30
-475.0
  0
VERTEX
  5
1021
  8
TEAM-NET
 10
-752.659788
 20
-195.850335
 30
-475.0
  0
VERTEX
  5
1022
  8
TEAM-NET
 10
-758.225044
 20
-194.179803
 30
-475.0
  0
VERTEX
  5
1023
  8
TEAM-NET
 10
-763.336501
 20
-191.46443
 30
-475.0
  0
VERTEX
  5
1024
  8
TEAM-NET
 10
-767.804806
 20
-187.804806
 30
-475.0
  0
VERTEX
  5
1025
  8
TEAM-NET
 10
-771.46443
 20
-183.336501
 30
-475.0
  0
VERTEX
  5
1026
  8
TEAM-NET
 10
-774.179803
 20
-178.225044
 30
-475.0
  0
VERTEX
  5
1027
  8
TEAM-NET
 10
-775.850335
 20
-172.659788
 30
-475.0
  0
VERTEX
  5
1028
  8
TEAM-NET
 10
-776.414141
 20
-166.846896
 30
-475.0
  0
SEQEND
  5
1029
  8
TEAM-NET
  0
POLYLINE
  5
2E8
  8
TEAM-NET
 66
     1
 10
0.0
 20
0.0
 30
-475.0
 70
   128
210
0.0
220
0.0
230
-1.0
  0
VERTEX
  5
102A
  8
TEAM-NET
 10
-738.745852
 20
-195.212121
 30
-475.0
  0
VERTEX
  5
102B
  8
TEAM-NET
 10
-745.915085
 20
-194.51676
 30
-475.0
  0
VERTEX
  5
102C
  8
TEAM-NET
 10
-752.778901
 20
-192.456438
 30
-475.0
  0
VERTEX
  5
102D
  8
TEAM-NET
 10
-759.083032
 20
-189.107477
 30
-475.0
  0
VERTEX
  5
102E
  8
TEAM-NET
 10
-764.593941
 20
-184.593941
 30
-475.0
  0
VERTEX
  5
102F
  8
TEAM-NET
 10
-769.107477
 20
-179.083032
 30
-475.0
  0
VERTEX
  5
1030
  8
TEAM-NET
 10
-772.456438
 20
-172.778901
 30
-475.0
  0
VERTEX
  5
1031
  8
TEAM-NET
 10
-774.51676
 20
-165.915085
 30
-475.0
  0
VERTEX
  5
1032
  8
TEAM-NET
 10
-775.212121
 20
-158.745852
 30
-475.0
  0
SEQEND
  5
1033
  8
TEAM-NET
  0
LINE
  5
2E9
  8
TEAM-NET
 10
850.0
 20
-263.0
 30
468.0
 11
850.0
 21
343.0
 31
468.0
  0
LINE
  5
2EA
  8
TEAM-NET
 10
843.0
 20
343.0
 30
475.0
 11
843.0
 21
-263.0
 31
475.0
  0
LINE
  5
2EB
  8
TEAM-NET
 10
850.0
 20
-263.0
 30
468.0
 11
850.0
 21
343.0
 31
468.0
210
1.0
220
0.0
230
0.0
  0
LINE
  5
2EC
  8
TEAM-NET
 10
843.0
 20
-263.0
 30
468.0
 11
843.0
 21
343.0
 31
468.0
210
-1.0
220
0.0
230
0.0
  0
LINE
  5
2ED
  8
TEAM-NET
 10
843.0
 20
-263.0
 30
468.0
 11
843.0
 21
343.0
 31
468.0
210
0.0
220
0.0
230
-1.0
  0
LINE
  5
2EE
  8
TEAM-NET
 10
843.0
 20
343.0
 30
475.0
 11
843.0
 21
-263.0
 31
475.0
  0
LINE
  5
2EF
  8
TEAM-NET
 10
776.414141
 20
-166.846896
 30
475.0
 11
776.414141
 21
-166.846896
 31
468.0
210
-1.0
220
0.0
230
0.0
  0
ARC
  5
2F0
  8
TEAM-NET
 10
775.212121
 20
468.0
 30
158.745852
 40
7.0
210
0.0
220
-1.0
230
0.0
 50
90.0
 51
170.256359
  0
LINE
  5
2F1
  8
TEAM-NET
 10
746.846896
 20
-196.414141
 30
475.0
 11
746.846896
 21
-196.414141
 31
468.0
210
0.0
220
1.0
230
0.0
  0
ARC
  5
2F2
  8
TEAM-NET
 10
263.0
 20
468.0
 30
-843.0
 40
7.0
210
-1.0
220
0.0
230
0.0
 50
0.0
 51
90.0
  0
ARC
  5
2F3
  8
TEAM-NET
 10
195.212121
 20
468.0
 30
-738.745852
 40
7.0
210
-1.0
220
0.0
230
0.0
 50
90.0
 51
170.256359
  0
ARC
  5
2F4
  8
TEAM-NET
 10
843.0
 20
-263.0
 30
468.0
 40
7.0
 50
270.0
 51
0.0
  0
LINE
  5
2F5
  8
TEAM-NET
 10
746.846896
 20
-196.414141
 30
475.0
 11
746.846896
 21
-196.414141
 31
468.0
  0
LINE
  5
2F6
  8
TEAM-NET
 10
776.414141
 20
-166.846896
 30
475.0
 11
776.414141
 21
-166.846896
 31
468.0
  0
ARC
  5
2F7
  8
TEAM-NET
 10
263.0
 20
468.0
 30
-843.0
 40
7.0
210
-1.0
220
0.0
230
0.0
 50
0.0
 51
90.0
  0
ARC
  5
2F8
  8
TEAM-NET
 10
843.0
 20
-263.0
 30
468.0
 40
7.0
 50
270.0
 51
0.0
  0
ARC
  5
2F9
  8
TEAM-NET
 10
-843.0
 20
468.0
 30
-263.0
 40
7.0
210
0.0
220
1.0
230
0.0
 50
90.0
 51
180.0
  0
ARC
  5
2FA
  8
TEAM-NET
 10
-843.0
 20
468.0
 30
-263.0
 40
7.0
210
0.0
220
1.0
230
0.0
 50
90.0
 51
180.0
  0
ARC
  5
2FB
  8
TEAM-NET
 10
775.212121
 20
468.0
 30
158.745852
 40
7.0
210
0.0
220
-1.0
230
0.0
 50
90.0
 51
170.256359
  0
ARC
  5
2FC
  8
TEAM-NET
 10
195.212121
 20
468.0
 30
-738.745852
 40
7.0
210
-1.0
220
0.0
230
0.0
 50
90.0
 51
170.256359
  0
ARC
  5
2FD
  8
TEAM-NET
 10
-843.0
 20
343.0
 30
-472.949747
 40
4.949747
210
0.0
220
0.0
230
-1.0
 50
90.0
 51
180.0
1001
ACAD
1000
R13OBJECT
1002
{
1005
0
1002
}
  0
ARC
  5
2FE
  8
TEAM-NET
 10
-843.0
 20
343.0
 30
-468.0
 40
7.0
210
0.0
220
0.0
230
-1.0
 50
90.0
 51
180.0
1001
ACAD
1000
R13OBJECT
1002
{
1005
0
1002
}
  0
ARC
  5
2FF
  8
TEAM-NET
 10
343.0
 20
468.0
 30
843.0
 40
7.0
210
1.0
220
0.0
230
0.0
 50
0.0
 51
90.0
1001
ACAD
1000
R13OBJECT
1002
{
1005
0
1002
}
  0
ARC
  5
300
  8
TEAM-NET
 10
-843.0
 20
468.0
 30
343.0
 40
7.0
210
0.0
220
1.0
230
0.0
 50
90.0
 51
180.0
  0
ARC
  5
301
  8
TEAM-NET
 10
843.0
 20
468.0
 30
-343.0
 40
7.0
210
0.0
220
-1.0
230
0.0
 50
0.0
 51
90.0
  0
ARC
  5
302
  8
TEAM-NET
 10
-343.0
 20
468.0
 30
-843.0
 40
7.0
210
-1.0
220
0.0
230
0.0
 50
90.0
 51
180.0
  0
ARC
  5
303
  8
TEAM-NET
 10
-843.0
 20
343.0
 30
-468.0
 40
7.0
210
0.0
220
0.0
230
-1.0
 50
90.0
 51
180.0
  0
TEXT
  5
304
  8
TEAM-TXT
 10
-538.257609
 20
293.014342
 30
580.0
 40
30.0
  1
team 121927
 41
0.8
 51
15.0
  7
TEAM
  0
ENDSEC
  0
EOF
