  0
SECTION
  2
HEADER
  9
$ACADVER
  1
AC1009
  9
$INSBASE
 10
0.0
 20
0.0
 30
0.0
  9
$EXTMIN
 10
-450.020595
 20
-543.208129
 30
-0.000958
  9
$EXTMAX
 10
543.271164
 20
450.06431
 30
105.002886
  9
$LIMMIN
 10
-450.020595
 20
-543.208129
  9
$LIMMAX
 10
543.271164
 20
450.06431
  9
$ORTHOMODE
 70
     1
  9
$REGENMODE
 70
     1
  9
$FILLMODE
 70
     1
  9
$QTEXTMODE
 70
     0
  9
$MIRRTEXT
 70
     0
  9
$DRAGMODE
 70
     2
  9
$LTSCALE
 40
25.0
  9
$OSMODE
 70
     0
  9
$ATTMODE
 70
     1
  9
$TEXTSIZE
 40
200.0
  9
$TRACEWID
 40
1.0
  9
$TEXTSTYLE
  7
STANDARD
  9
$CLAYER
  8
TEAM-MAS
  9
$CELTYPE
  6
BYLAYER
  9
$CECOLOR
 62
   256
  9
$DIMSCALE
 40
0.0
  9
$DIMASZ
 40
20.0
  9
$DIMEXO
 40
10.0
  9
$DIMDLI
 40
1.0
  9
$DIMRND
 40
0.0
  9
$DIMDLE
 40
0.0
  9
$DIMEXE
 40
1.0
  9
$DIMTP
 40
0.0
  9
$DIMTM
 40
0.0
  9
$DIMTXT
 40
35.0
  9
$DIMCEN
 40
1.0
  9
$DIMTSZ
 40
0.0
  9
$DIMTOL
 70
     0
  9
$DIMLIM
 70
     0
  9
$DIMTIH
 70
     0
  9
$DIMTOH
 70
     0
  9
$DIMSE1
 70
     0
  9
$DIMSE2
 70
     0
  9
$DIMTAD
 70
     0
  9
$DIMZIN
 70
     0
  9
$DIMBLK
  1

  9
$DIMASO
 70
     1
  9
$DIMSHO
 70
     0
  9
$DIMPOST
  1

  9
$DIMAPOST
  1

  9
$DIMALT
 70
     0
  9
$DIMALTD
 70
     2
  9
$DIMALTF
 40
25.4
  9
$DIMLFAC
 40
1.0
  9
$DIMTOFL
 70
     0
  9
$DIMTVP
 40
0.0
  9
$DIMTIX
 70
     0
  9
$DIMSOXD
 70
     0
  9
$DIMSAH
 70
     0
  9
$DIMBLK1
  1

  9
$DIMBLK2
  1

  9
$DIMSTYLE
  2
TEAM
  9
$DIMCLRD
 70
     9
  9
$DIMCLRE
 70
     9
  9
$DIMCLRT
 70
    11
  9
$DIMTFAC
 40
1.0
  9
$DIMGAP
 40
15.0
  9
$LUNITS
 70
     2
  9
$LUPREC
 70
     1
  9
$SKETCHINC
 40
1.0
  9
$FILLETRAD
 40
50.0
  9
$AUNITS
 70
     0
  9
$AUPREC
 70
     0
  9
$MENU
  1
ROPLANS
  9
$ELEVATION
 40
0.0
  9
$PELEVATION
 40
0.0
  9
$THICKNESS
 40
0.0
  9
$LIMCHECK
 70
     0
  9
$BLIPMODE
 70
     1
  9
$CHAMFERA
 40
0.0
  9
$CHAMFERB
 40
0.0
  9
$SKPOLY
 70
     0
  9
$TDCREATE
 40
2450392.957851
  9
$TDUPDATE
 40
2455493.972203
  9
$TDINDWG
 40
1.964307
  9
$TDUSRTIMER
 40
1.964307
  9
$USRTIMER
 70
     1
  9
$ANGBASE
 50
0.0
  9
$ANGDIR
 70
     0
  9
$PDMODE
 70
     0
  9
$PDSIZE
 40
0.0
  9
$PLINEWID
 40
0.0
  9
$COORDS
 70
     2
  9
$SPLFRAME
 70
     0
  9
$SPLINETYPE
 70
     6
  9
$SPLINESEGS
 70
     8
  9
$ATTDIA
 70
     0
  9
$ATTREQ
 70
     0
  9
$HANDLING
 70
     1
  9
$HANDSEED
  5
3A6
  9
$SURFTAB1
 70
    24
  9
$SURFTAB2
 70
    24
  9
$SURFTYPE
 70
     6
  9
$SURFU
 70
     6
  9
$SURFV
 70
     6
  9
$UCSNAME
  2

  9
$UCSORG
 10
0.0
 20
0.0
 30
0.0
  9
$UCSXDIR
 10
1.0
 20
0.0
 30
0.0
  9
$UCSYDIR
 10
0.0
 20
1.0
 30
0.0
  9
$PUCSNAME
  2

  9
$PUCSORG
 10
0.0
 20
0.0
 30
0.0
  9
$PUCSXDIR
 10
1.0
 20
0.0
 30
0.0
  9
$PUCSYDIR
 10
0.0
 20
1.0
 30
0.0
  9
$USERI1
 70
     0
  9
$USERI2
 70
     0
  9
$USERI3
 70
     0
  9
$USERI4
 70
     0
  9
$USERI5
 70
     0
  9
$USERR1
 40
0.0
  9
$USERR2
 40
0.0
  9
$USERR3
 40
0.0
  9
$USERR4
 40
0.0
  9
$USERR5
 40
0.0
  9
$WORLDVIEW
 70
     1
  9
$SHADEDGE
 70
     0
  9
$SHADEDIF
 70
    70
  9
$TILEMODE
 70
     1
  9
$MAXACTVP
 70
    16
  9
$PLIMCHECK
 70
     0
  9
$PEXTMIN
 10
-0.805942
 20
0.005011
 30
0.0
  9
$PEXTMAX
 10
20.250094
 20
11.356329
 30
0.0
  9
$PLIMMIN
 10
0.0
 20
0.0
  9
$PLIMMAX
 10
12.0
 20
9.0
  9
$UNITMODE
 70
     0
  9
$VISRETAIN
 70
     0
  9
$PLINEGEN
 70
     0
  9
$PSLTSCALE
 70
     0
  0
ENDSEC
  0
SECTION
  2
TABLES
  0
TABLE
  2
VPORT
 70
     2
  0
VPORT
  2
*ACTIVE
 70
     0
 10
0.0
 20
0.0
 11
1.0
 21
1.0
 12
46.625284
 22
-46.57191
 13
0.0
 23
0.0
 14
1.0
 24
1.0
 15
50.0
 25
50.0
 16
0.0
 26
0.0
 36
1.0
 17
0.0
 27
0.0
 37
0.0
 40
999.372372
 41
1.865779
 42
50.0
 43
0.0
 44
0.0
 50
0.0
 51
0.0
 71
     0
 72
   100
 73
     1
 74
     1
 75
     0
 76
     0
 77
     0
 78
     0
  0
ENDTAB
  0
TABLE
  2
LTYPE
 70
     2
  0
LTYPE
  2
CONTINUOUS
 70
     0
  3
Solid Line
 72
    65
 73
     0
 40
0.0
  0
LTYPE
  2
31
 70
     0
  3

 72
    65
 73
     4
 40
2.1
 49
1.5
 49
-0.3
 49
0.0
 49
-0.3
  0
ENDTAB
  0
TABLE
  2
LAYER
 70
     9
  0
LAYER
  2
0
 70
     0
 62
     7
  6
CONTINUOUS
  0
LAYER
  2
TEAM-BODY
 70
     0
 62
     2
  6
CONTINUOUS
  0
LAYER
  2
TEAM-AXE
 70
     0
 62
    10
  6
31
  0
LAYER
  2
TEAM-MAS
 70
     0
 62
     9
  6
CONTINUOUS
  0
LAYER
  2
TEAM-TXT
 70
     0
 62
    11
  6
CONTINUOUS
  0
LAYER
  2
TEAM-DET1
 70
     0
 62
     4
  6
CONTINUOUS
  0
LAYER
  2
TEAM-KAN
 70
     0
 62
     6
  6
CONTINUOUS
  0
LAYER
  2
TEAM-NET
 70
     0
 62
    15
  6
CONTINUOUS
  0
LAYER
  2
TEAM-INSP
 70
     0
 62
     5
  6
CONTINUOUS
  0
ENDTAB
  0
TABLE
  2
STYLE
 70
     2
  0
STYLE
  2
STANDARD
 70
     0
 40
0.0
 41
1.0
 50
0.0
 71
     0
 42
200.0
  3
txt
  4

  0
STYLE
  2
TEAM
 70
     0
 40
0.0
 41
0.8
 50
15.0
 71
     0
 42
7.0
  3
ROMANS.shx
  4

  0
ENDTAB
  0
TABLE
  2
VIEW
 70
     0
  0
ENDTAB
  0
TABLE
  2
UCS
 70
     0
  0
ENDTAB
  0
TABLE
  2
APPID
 70
     1
  0
APPID
  2
ACAD
 70
     0
  0
ENDTAB
  0
TABLE
  2
DIMSTYLE
 70
     1
  0
DIMSTYLE
  2
TEAM
 70
     0
  3

  4

  5

  6

  7

 40
0.0
 41
20.0
 42
10.0
 43
1.0
 44
1.0
 45
0.0
 46
0.0
 47
0.0
 48
0.0
140
35.0
141
1.0
142
0.0
143
25.4
144
1.0
145
0.0
146
1.0
147
15.0
 71
     0
 72
     0
 73
     0
 74
     0
 75
     0
 76
     0
 77
     0
 78
     0
170
     0
171
     2
172
     0
173
     0
174
     0
175
     0
176
     9
177
     9
178
    11
  0
ENDTAB
  0
ENDSEC
  0
SECTION
  2
BLOCKS
  0
BLOCK
  8
0
  2
$MODEL_SPACE
 70
     0
 10
0.0
 20
0.0
 30
0.0
  3
$MODEL_SPACE
  1

  0
ENDBLK
  5
37A
  8
0
  0
BLOCK
 67
     1
  8
0
  2
$PAPER_SPACE
 70
     0
 10
0.0
 20
0.0
 30
0.0
  3
$PAPER_SPACE
  1

  0
ENDBLK
  5
378
 67
     1
  8
0
  0
ENDSEC
  0
SECTION
  2
ENTITIES
  0
CIRCLE
  5
20
  8
TEAM-INSP
 10
0.0
 20
0.0
 30
0.0
 40
7.1
  0
POLYLINE
  5
22
  8
TEAM-NET
 66
     1
 10
0.0
 20
0.0
 30
0.0
 70
    16
 71
     2
 72
    33
  0
VERTEX
  5
23
  8
TEAM-NET
 10
373.973818
 20
372.075205
 30
105.0
 70
    64
  0
VERTEX
  5
24
  8
TEAM-NET
 10
393.604671
 20
334.399736
 30
105.0
 70
    64
  0
VERTEX
  5
25
  8
TEAM-NET
 10
395.0
 20
291.417143
 30
105.0
 70
    64
  0
VERTEX
  5
26
  8
TEAM-NET
 10
395.0
 20
248.34458
 30
105.0
 70
    64
  0
VERTEX
  5
27
  8
TEAM-NET
 10
395.0
 20
205.272017
 30
105.0
 70
    64
  0
VERTEX
  5
28
  8
TEAM-NET
 10
395.0
 20
162.199455
 30
105.0
 70
    64
  0
VERTEX
  5
29
  8
TEAM-NET
 10
395.0
 20
119.126892
 30
105.0
 70
    64
  0
VERTEX
  5
2A
  8
TEAM-NET
 10
395.0
 20
76.054329
 30
105.0
 70
    64
  0
VERTEX
  5
2B
  8
TEAM-NET
 10
395.0
 20
32.981767
 30
105.0
 70
    64
  0
VERTEX
  5
2C
  8
TEAM-NET
 10
394.871116
 20
-10.089698
 30
105.0
 70
    64
  0
VERTEX
  5
2D
  8
TEAM-NET
 10
391.427748
 20
-53.002998
 30
105.0
 70
    64
  0
VERTEX
  5
2E
  8
TEAM-NET
 10
383.334643
 20
-95.286679
 30
105.0
 70
    64
  0
VERTEX
  5
2F
  8
TEAM-NET
 10
370.687938
 20
-136.438458
 30
105.0
 70
    64
  0
VERTEX
  5
30
  8
TEAM-NET
 10
353.637861
 20
-175.969495
 30
105.0
 70
    64
  0
VERTEX
  5
31
  8
TEAM-NET
 10
332.38695
 20
-213.410205
 30
105.0
 70
    64
  0
VERTEX
  5
32
  8
TEAM-NET
 10
307.187641
 20
-248.315834
 30
105.0
 70
    64
  0
VERTEX
  5
33
  8
TEAM-NET
 10
278.339276
 20
-280.271739
 30
105.0
 70
    64
  0
VERTEX
  5
34
  8
TEAM-NET
 10
246.184542
 20
-308.898319
 30
105.0
 70
    64
  0
VERTEX
  5
35
  8
TEAM-NET
 10
211.105402
 20
-333.855522
 30
105.0
 70
    64
  0
VERTEX
  5
36
  8
TEAM-NET
 10
173.518558
 20
-354.846883
 30
105.0
 70
    64
  0
VERTEX
  5
37
  8
TEAM-NET
 10
133.870502
 20
-371.623047
 30
105.0
 70
    64
  0
VERTEX
  5
38
  8
TEAM-NET
 10
92.632209
 20
-383.984731
 30
105.0
 70
    64
  0
VERTEX
  5
39
  8
TEAM-NET
 10
50.293546
 20
-391.785093
 30
105.0
 70
    64
  0
VERTEX
  5
3A
  8
TEAM-NET
 10
7.35745
 20
-394.931472
 30
105.0
 70
    64
  0
VERTEX
  5
3B
  8
TEAM-NET
 10
-35.714687
 20
-395.0
 30
105.0
 70
    64
  0
VERTEX
  5
3C
  8
TEAM-NET
 10
-78.78725
 20
-395.0
 30
105.0
 70
    64
  0
VERTEX
  5
3D
  8
TEAM-NET
 10
-121.859813
 20
-395.0
 30
105.0
 70
    64
  0
VERTEX
  5
3E
  8
TEAM-NET
 10
-164.932375
 20
-395.0
 30
105.0
 70
    64
  0
VERTEX
  5
3F
  8
TEAM-NET
 10
-208.004938
 20
-395.0
 30
105.0
 70
    64
  0
VERTEX
  5
40
  8
TEAM-NET
 10
-251.077501
 20
-395.0
 30
105.0
 70
    64
  0
VERTEX
  5
41
  8
TEAM-NET
 10
-294.150063
 20
-395.0
 30
105.0
 70
    64
  0
VERTEX
  5
42
  8
TEAM-NET
 10
-337.07166
 20
-393.031215
 30
105.0
 70
    64
  0
VERTEX
  5
43
  8
TEAM-NET
 10
-374.00695
 20
-372.040844
 30
105.0
 70
    64
  0
VERTEX
  5
44
  8
TEAM-NET
 10
345.182178
 20
344.307569
 30
50.0
 70
    64
  0
VERTEX
  5
45
  8
TEAM-NET
 10
355.0
 20
307.725157
 30
50.0
 70
    64
  0
VERTEX
  5
46
  8
TEAM-NET
 10
355.0
 20
268.579854
 30
50.0
 70
    64
  0
VERTEX
  5
47
  8
TEAM-NET
 10
355.0
 20
229.43455
 30
50.0
 70
    64
  0
VERTEX
  5
48
  8
TEAM-NET
 10
355.0
 20
190.289246
 30
50.0
 70
    64
  0
VERTEX
  5
49
  8
TEAM-NET
 10
355.0
 20
151.143943
 30
50.0
 70
    64
  0
VERTEX
  5
4A
  8
TEAM-NET
 10
355.0
 20
111.998639
 30
50.0
 70
    64
  0
VERTEX
  5
4B
  8
TEAM-NET
 10
355.0
 20
72.853336
 30
50.0
 70
    64
  0
VERTEX
  5
4C
  8
TEAM-NET
 10
355.0
 20
33.708032
 30
50.0
 70
    64
  0
VERTEX
  5
4D
  8
TEAM-NET
 10
354.958361
 20
-5.437059
 30
50.0
 70
    64
  0
VERTEX
  5
4E
  8
TEAM-NET
 10
352.204232
 20
-44.465478
 30
50.0
 70
    64
  0
VERTEX
  5
4F
  8
TEAM-NET
 10
345.171942
 20
-82.953784
 30
50.0
 70
    64
  0
VERTEX
  5
50
  8
TEAM-NET
 10
333.946912
 20
-120.434465
 30
50.0
 70
    64
  0
VERTEX
  5
51
  8
TEAM-NET
 10
318.665488
 20
-156.45225
 30
50.0
 70
    64
  0
VERTEX
  5
52
  8
TEAM-NET
 10
299.513294
 20
-190.569638
 30
50.0
 70
    64
  0
VERTEX
  5
53
  8
TEAM-NET
 10
276.722965
 20
-222.372212
 30
50.0
 70
    64
  0
VERTEX
  5
54
  8
TEAM-NET
 10
250.571333
 20
-251.47367
 30
50.0
 70
    64
  0
VERTEX
  5
55
  8
TEAM-NET
 10
221.376057
 20
-277.520524
 30
50.0
 70
    64
  0
VERTEX
  5
56
  8
TEAM-NET
 10
189.491766
 20
-300.196387
 30
50.0
 70
    64
  0
VERTEX
  5
57
  8
TEAM-NET
 10
155.305753
 20
-319.225818
 30
50.0
 70
    64
  0
VERTEX
  5
58
  8
TEAM-NET
 10
119.23327
 20
-334.377672
 30
50.0
 70
    64
  0
VERTEX
  5
59
  8
TEAM-NET
 10
81.712481
 20
-345.467901
 30
50.0
 70
    64
  0
VERTEX
  5
5A
  8
TEAM-NET
 10
43.199146
 20
-352.361794
 30
50.0
 70
    64
  0
VERTEX
  5
5B
  8
TEAM-NET
 10
4.161078
 20
-354.975612
 30
50.0
 70
    64
  0
VERTEX
  5
5C
  8
TEAM-NET
 10
-34.98413
 20
-355.0
 30
50.0
 70
    64
  0
VERTEX
  5
5D
  8
TEAM-NET
 10
-74.129433
 20
-355.0
 30
50.0
 70
    64
  0
VERTEX
  5
5E
  8
TEAM-NET
 10
-113.274737
 20
-355.0
 30
50.0
 70
    64
  0
VERTEX
  5
5F
  8
TEAM-NET
 10
-152.420041
 20
-355.0
 30
50.0
 70
    64
  0
VERTEX
  5
60
  8
TEAM-NET
 10
-191.565344
 20
-355.0
 30
50.0
 70
    64
  0
VERTEX
  5
61
  8
TEAM-NET
 10
-230.710648
 20
-355.0
 30
50.0
 70
    64
  0
VERTEX
  5
62
  8
TEAM-NET
 10
-269.855952
 20
-355.0
 30
50.0
 70
    64
  0
VERTEX
  5
63
  8
TEAM-NET
 10
-309.001255
 20
-355.0
 30
50.0
 70
    64
  0
VERTEX
  5
64
  8
TEAM-NET
 10
-345.209351
 20
-344.279387
 30
50.0
 70
    64
  0
SEQEND
  5
66
  8
TEAM-NET
  0
POLYLINE
  5
67
  8
TEAM-NET
 66
     1
 10
0.0
 20
0.0
 30
0.0
 70
    16
 71
     2
 72
    33
  0
VERTEX
  5
68
  8
TEAM-NET
 10
373.960966
 20
372.088522
 30
105.0
 70
    64
  0
VERTEX
  5
69
  8
TEAM-NET
 10
332.805534
 20
393.898703
 30
105.0
 70
    64
  0
VERTEX
  5
6A
  8
TEAM-NET
 10
285.508218
 20
395.0
 30
105.0
 70
    64
  0
VERTEX
  5
6B
  8
TEAM-NET
 10
238.147852
 20
395.0
 30
105.0
 70
    64
  0
VERTEX
  5
6C
  8
TEAM-NET
 10
190.787487
 20
395.0
 30
105.0
 70
    64
  0
VERTEX
  5
6D
  8
TEAM-NET
 10
143.427122
 20
395.0
 30
105.0
 70
    64
  0
VERTEX
  5
6E
  8
TEAM-NET
 10
96.066756
 20
395.0
 30
105.0
 70
    64
  0
VERTEX
  5
6F
  8
TEAM-NET
 10
48.706391
 20
395.0
 30
105.0
 70
    64
  0
VERTEX
  5
70
  8
TEAM-NET
 10
1.346025
 20
395.0
 30
105.0
 70
    64
  0
VERTEX
  5
71
  8
TEAM-NET
 10
-46.01434
 20
395.0
 30
105.0
 70
    64
  0
VERTEX
  5
72
  8
TEAM-NET
 10
-93.374705
 20
395.0
 30
105.0
 70
    64
  0
VERTEX
  5
73
  8
TEAM-NET
 10
-140.735071
 20
395.0
 30
105.0
 70
    64
  0
VERTEX
  5
74
  8
TEAM-NET
 10
-188.095436
 20
395.0
 30
105.0
 70
    64
  0
VERTEX
  5
75
  8
TEAM-NET
 10
-235.455802
 20
395.0
 30
105.0
 70
    64
  0
VERTEX
  5
76
  8
TEAM-NET
 10
-282.816167
 20
395.0
 30
105.0
 70
    64
  0
VERTEX
  5
77
  8
TEAM-NET
 10
-330.145334
 20
394.310647
 30
105.0
 70
    64
  0
VERTEX
  5
78
  8
TEAM-NET
 10
-372.056944
 20
373.991431
 30
105.0
 70
    64
  0
VERTEX
  5
79
  8
TEAM-NET
 10
-393.891199
 20
332.848766
 30
105.0
 70
    64
  0
VERTEX
  5
7A
  8
TEAM-NET
 10
-395.0
 20
285.552096
 30
105.0
 70
    64
  0
VERTEX
  5
7B
  8
TEAM-NET
 10
-395.0
 20
238.19173
 30
105.0
 70
    64
  0
VERTEX
  5
7C
  8
TEAM-NET
 10
-395.0
 20
190.831365
 30
105.0
 70
    64
  0
VERTEX
  5
7D
  8
TEAM-NET
 10
-395.0
 20
143.471
 30
105.0
 70
    64
  0
VERTEX
  5
7E
  8
TEAM-NET
 10
-395.0
 20
96.110634
 30
105.0
 70
    64
  0
VERTEX
  5
7F
  8
TEAM-NET
 10
-395.0
 20
48.750269
 30
105.0
 70
    64
  0
VERTEX
  5
80
  8
TEAM-NET
 10
-395.0
 20
1.389903
 30
105.0
 70
    64
  0
VERTEX
  5
81
  8
TEAM-NET
 10
-395.0
 20
-45.970462
 30
105.0
 70
    64
  0
VERTEX
  5
82
  8
TEAM-NET
 10
-395.0
 20
-93.330827
 30
105.0
 70
    64
  0
VERTEX
  5
83
  8
TEAM-NET
 10
-395.0
 20
-140.691193
 30
105.0
 70
    64
  0
VERTEX
  5
84
  8
TEAM-NET
 10
-395.0
 20
-188.051558
 30
105.0
 70
    64
  0
VERTEX
  5
85
  8
TEAM-NET
 10
-395.0
 20
-235.411924
 30
105.0
 70
    64
  0
VERTEX
  5
86
  8
TEAM-NET
 10
-395.0
 20
-282.772289
 30
105.0
 70
    64
  0
VERTEX
  5
87
  8
TEAM-NET
 10
-394.316569
 20
-330.101858
 30
105.0
 70
    64
  0
VERTEX
  5
88
  8
TEAM-NET
 10
-374.021877
 20
-372.025348
 30
105.0
 70
    64
  0
VERTEX
  5
89
  8
TEAM-NET
 10
345.174518
 20
344.315502
 30
50.0
 70
    64
  0
VERTEX
  5
8A
  8
TEAM-NET
 10
304.662154
 20
355.0
 30
50.0
 70
    64
  0
VERTEX
  5
8B
  8
TEAM-NET
 10
261.227926
 20
355.0
 30
50.0
 70
    64
  0
VERTEX
  5
8C
  8
TEAM-NET
 10
217.793697
 20
355.0
 30
50.0
 70
    64
  0
VERTEX
  5
8D
  8
TEAM-NET
 10
174.359469
 20
355.0
 30
50.0
 70
    64
  0
VERTEX
  5
8E
  8
TEAM-NET
 10
130.92524
 20
355.0
 30
50.0
 70
    64
  0
VERTEX
  5
8F
  8
TEAM-NET
 10
87.491012
 20
355.0
 30
50.0
 70
    64
  0
VERTEX
  5
90
  8
TEAM-NET
 10
44.056783
 20
355.0
 30
50.0
 70
    64
  0
VERTEX
  5
91
  8
TEAM-NET
 10
0.622555
 20
355.0
 30
50.0
 70
    64
  0
VERTEX
  5
92
  8
TEAM-NET
 10
-42.811674
 20
355.0
 30
50.0
 70
    64
  0
VERTEX
  5
93
  8
TEAM-NET
 10
-86.245902
 20
355.0
 30
50.0
 70
    64
  0
VERTEX
  5
94
  8
TEAM-NET
 10
-129.680131
 20
355.0
 30
50.0
 70
    64
  0
VERTEX
  5
95
  8
TEAM-NET
 10
-173.114359
 20
355.0
 30
50.0
 70
    64
  0
VERTEX
  5
96
  8
TEAM-NET
 10
-216.548588
 20
355.0
 30
50.0
 70
    64
  0
VERTEX
  5
97
  8
TEAM-NET
 10
-259.982816
 20
355.0
 30
50.0
 70
    64
  0
VERTEX
  5
98
  8
TEAM-NET
 10
-303.417045
 20
355.0
 30
50.0
 70
    64
  0
VERTEX
  5
99
  8
TEAM-NET
 10
-344.29376
 20
345.1955
 30
50.0
 70
    64
  0
VERTEX
  5
9A
  8
TEAM-NET
 10
-355.0
 20
304.69237
 30
50.0
 70
    64
  0
VERTEX
  5
9B
  8
TEAM-NET
 10
-355.0
 20
261.258141
 30
50.0
 70
    64
  0
VERTEX
  5
9C
  8
TEAM-NET
 10
-355.0
 20
217.823913
 30
50.0
 70
    64
  0
VERTEX
  5
9D
  8
TEAM-NET
 10
-355.0
 20
174.389684
 30
50.0
 70
    64
  0
VERTEX
  5
9E
  8
TEAM-NET
 10
-355.0
 20
130.955456
 30
50.0
 70
    64
  0
VERTEX
  5
9F
  8
TEAM-NET
 10
-355.0
 20
87.521227
 30
50.0
 70
    64
  0
VERTEX
  5
A0
  8
TEAM-NET
 10
-355.0
 20
44.086999
 30
50.0
 70
    64
  0
VERTEX
  5
A1
  8
TEAM-NET
 10
-355.0
 20
0.65277
 30
50.0
 70
    64
  0
VERTEX
  5
A2
  8
TEAM-NET
 10
-355.0
 20
-42.781458
 30
50.0
 70
    64
  0
VERTEX
  5
A3
  8
TEAM-NET
 10
-355.0
 20
-86.215687
 30
50.0
 70
    64
  0
VERTEX
  5
A4
  8
TEAM-NET
 10
-355.0
 20
-129.649915
 30
50.0
 70
    64
  0
VERTEX
  5
A5
  8
TEAM-NET
 10
-355.0
 20
-173.084144
 30
50.0
 70
    64
  0
VERTEX
  5
A6
  8
TEAM-NET
 10
-355.0
 20
-216.518372
 30
50.0
 70
    64
  0
VERTEX
  5
A7
  8
TEAM-NET
 10
-355.0
 20
-259.952601
 30
50.0
 70
    64
  0
VERTEX
  5
A8
  8
TEAM-NET
 10
-355.0
 20
-303.386829
 30
50.0
 70
    64
  0
VERTEX
  5
A9
  8
TEAM-NET
 10
-345.216464
 20
-344.271999
 30
50.0
 70
    64
  0
SEQEND
  5
AA
  8
TEAM-NET
  0
CIRCLE
  5
AB
  8
TEAM-KAN
 39
10.0
 10
260.0
 20
260.0
 30
40.0
 40
35.0
  0
CIRCLE
  5
AD
  8
TEAM-KAN
 39
10.0
 10
260.0
 20
260.0
 30
40.0
 40
45.0
  0
LINE
  5
AE
  8
TEAM-AXE
 10
260.0
 20
260.0
 30
40.0
 11
195.0
 21
260.0
 31
40.0
  0
LINE
  5
B1
  8
TEAM-AXE
 10
260.0
 20
260.0
 30
40.0
 11
260.0
 21
325.0
 31
40.0
  0
LINE
  5
B2
  8
TEAM-AXE
 10
260.0
 20
260.0
 30
40.0
 11
325.0
 21
260.0
 31
40.0
  0
LINE
  5
B3
  8
TEAM-AXE
 10
260.0
 20
260.0
 30
40.0
 11
260.0
 21
189.43763
 31
40.0
  0
POLYLINE
  5
B4
  8
TEAM-NET
 66
     1
 10
0.0
 20
0.0
 30
0.0
 70
    16
 71
     2
 72
    33
  0
VERTEX
  5
B5
  8
TEAM-NET
 10
345.174518
 20
344.315502
 30
50.0
 70
    64
  0
VERTEX
  5
B6
  8
TEAM-NET
 10
304.662154
 20
355.0
 30
50.0
 70
    64
  0
VERTEX
  5
B7
  8
TEAM-NET
 10
261.227926
 20
355.0
 30
50.0
 70
    64
  0
VERTEX
  5
B8
  8
TEAM-NET
 10
217.793697
 20
355.0
 30
50.0
 70
    64
  0
VERTEX
  5
B9
  8
TEAM-NET
 10
174.359469
 20
355.0
 30
50.0
 70
    64
  0
VERTEX
  5
BA
  8
TEAM-NET
 10
130.92524
 20
355.0
 30
50.0
 70
    64
  0
VERTEX
  5
BB
  8
TEAM-NET
 10
87.491012
 20
355.0
 30
50.0
 70
    64
  0
VERTEX
  5
BC
  8
TEAM-NET
 10
44.056783
 20
355.0
 30
50.0
 70
    64
  0
VERTEX
  5
BD
  8
TEAM-NET
 10
0.622555
 20
355.0
 30
50.0
 70
    64
  0
VERTEX
  5
BE
  8
TEAM-NET
 10
-42.811674
 20
355.0
 30
50.0
 70
    64
  0
VERTEX
  5
BF
  8
TEAM-NET
 10
-86.245902
 20
355.0
 30
50.0
 70
    64
  0
VERTEX
  5
C0
  8
TEAM-NET
 10
-129.680131
 20
355.0
 30
50.0
 70
    64
  0
VERTEX
  5
C1
  8
TEAM-NET
 10
-173.114359
 20
355.0
 30
50.0
 70
    64
  0
VERTEX
  5
C2
  8
TEAM-NET
 10
-216.548588
 20
355.0
 30
50.0
 70
    64
  0
VERTEX
  5
C3
  8
TEAM-NET
 10
-259.982816
 20
355.0
 30
50.0
 70
    64
  0
VERTEX
  5
C4
  8
TEAM-NET
 10
-303.417045
 20
355.0
 30
50.0
 70
    64
  0
VERTEX
  5
C5
  8
TEAM-NET
 10
-344.29376
 20
345.1955
 30
50.0
 70
    64
  0
VERTEX
  5
C6
  8
TEAM-NET
 10
-355.0
 20
304.69237
 30
50.0
 70
    64
  0
VERTEX
  5
C7
  8
TEAM-NET
 10
-355.0
 20
261.258141
 30
50.0
 70
    64
  0
VERTEX
  5
C8
  8
TEAM-NET
 10
-355.0
 20
217.823913
 30
50.0
 70
    64
  0
VERTEX
  5
C9
  8
TEAM-NET
 10
-355.0
 20
174.389684
 30
50.0
 70
    64
  0
VERTEX
  5
CA
  8
TEAM-NET
 10
-355.0
 20
130.955456
 30
50.0
 70
    64
  0
VERTEX
  5
CB
  8
TEAM-NET
 10
-355.0
 20
87.521227
 30
50.0
 70
    64
  0
VERTEX
  5
CC
  8
TEAM-NET
 10
-355.0
 20
44.086999
 30
50.0
 70
    64
  0
VERTEX
  5
CD
  8
TEAM-NET
 10
-355.0
 20
0.65277
 30
50.0
 70
    64
  0
VERTEX
  5
CE
  8
TEAM-NET
 10
-355.0
 20
-42.781458
 30
50.0
 70
    64
  0
VERTEX
  5
CF
  8
TEAM-NET
 10
-355.0
 20
-86.215687
 30
50.0
 70
    64
  0
VERTEX
  5
D0
  8
TEAM-NET
 10
-355.0
 20
-129.649915
 30
50.0
 70
    64
  0
VERTEX
  5
D1
  8
TEAM-NET
 10
-355.0
 20
-173.084144
 30
50.0
 70
    64
  0
VERTEX
  5
D2
  8
TEAM-NET
 10
-355.0
 20
-216.518372
 30
50.0
 70
    64
  0
VERTEX
  5
D3
  8
TEAM-NET
 10
-355.0
 20
-259.952601
 30
50.0
 70
    64
  0
VERTEX
  5
D4
  8
TEAM-NET
 10
-355.0
 20
-303.386829
 30
50.0
 70
    64
  0
VERTEX
  5
D5
  8
TEAM-NET
 10
-345.216464
 20
-344.271999
 30
50.0
 70
    64
  0
VERTEX
  5
D6
  8
TEAM-NET
 10
345.182178
 20
344.307569
 30
50.0
 70
    64
  0
VERTEX
  5
D7
  8
TEAM-NET
 10
355.0
 20
307.725157
 30
50.0
 70
    64
  0
VERTEX
  5
D8
  8
TEAM-NET
 10
355.0
 20
268.579854
 30
50.0
 70
    64
  0
VERTEX
  5
D9
  8
TEAM-NET
 10
355.0
 20
229.43455
 30
50.0
 70
    64
  0
VERTEX
  5
DA
  8
TEAM-NET
 10
355.0
 20
190.289246
 30
50.0
 70
    64
  0
VERTEX
  5
DB
  8
TEAM-NET
 10
355.0
 20
151.143943
 30
50.0
 70
    64
  0
VERTEX
  5
DC
  8
TEAM-NET
 10
355.0
 20
111.998639
 30
50.0
 70
    64
  0
VERTEX
  5
DD
  8
TEAM-NET
 10
355.0
 20
72.853336
 30
50.0
 70
    64
  0
VERTEX
  5
DE
  8
TEAM-NET
 10
355.0
 20
33.708032
 30
50.0
 70
    64
  0
VERTEX
  5
DF
  8
TEAM-NET
 10
354.958361
 20
-5.437059
 30
50.0
 70
    64
  0
VERTEX
  5
E0
  8
TEAM-NET
 10
352.204232
 20
-44.465478
 30
50.0
 70
    64
  0
VERTEX
  5
E1
  8
TEAM-NET
 10
345.171942
 20
-82.953784
 30
50.0
 70
    64
  0
VERTEX
  5
E2
  8
TEAM-NET
 10
333.946912
 20
-120.434465
 30
50.0
 70
    64
  0
VERTEX
  5
E3
  8
TEAM-NET
 10
318.665488
 20
-156.45225
 30
50.0
 70
    64
  0
VERTEX
  5
E4
  8
TEAM-NET
 10
299.513294
 20
-190.569638
 30
50.0
 70
    64
  0
VERTEX
  5
E5
  8
TEAM-NET
 10
276.722965
 20
-222.372212
 30
50.0
 70
    64
  0
VERTEX
  5
E6
  8
TEAM-NET
 10
250.571333
 20
-251.47367
 30
50.0
 70
    64
  0
VERTEX
  5
E7
  8
TEAM-NET
 10
221.376057
 20
-277.520524
 30
50.0
 70
    64
  0
VERTEX
  5
E8
  8
TEAM-NET
 10
189.491766
 20
-300.196387
 30
50.0
 70
    64
  0
VERTEX
  5
E9
  8
TEAM-NET
 10
155.305753
 20
-319.225818
 30
50.0
 70
    64
  0
VERTEX
  5
EA
  8
TEAM-NET
 10
119.23327
 20
-334.377672
 30
50.0
 70
    64
  0
VERTEX
  5
EB
  8
TEAM-NET
 10
81.712481
 20
-345.467901
 30
50.0
 70
    64
  0
VERTEX
  5
EC
  8
TEAM-NET
 10
43.199146
 20
-352.361794
 30
50.0
 70
    64
  0
VERTEX
  5
ED
  8
TEAM-NET
 10
4.161078
 20
-354.975612
 30
50.0
 70
    64
  0
VERTEX
  5
EE
  8
TEAM-NET
 10
-34.98413
 20
-355.0
 30
50.0
 70
    64
  0
VERTEX
  5
EF
  8
TEAM-NET
 10
-74.129433
 20
-355.0
 30
50.0
 70
    64
  0
VERTEX
  5
F0
  8
TEAM-NET
 10
-113.274737
 20
-355.0
 30
50.0
 70
    64
  0
VERTEX
  5
F1
  8
TEAM-NET
 10
-152.420041
 20
-355.0
 30
50.0
 70
    64
  0
VERTEX
  5
F2
  8
TEAM-NET
 10
-191.565344
 20
-355.0
 30
50.0
 70
    64
  0
VERTEX
  5
F3
  8
TEAM-NET
 10
-230.710648
 20
-355.0
 30
50.0
 70
    64
  0
VERTEX
  5
F4
  8
TEAM-NET
 10
-269.855952
 20
-355.0
 30
50.0
 70
    64
  0
VERTEX
  5
F5
  8
TEAM-NET
 10
-309.001255
 20
-355.0
 30
50.0
 70
    64
  0
VERTEX
  5
F6
  8
TEAM-NET
 10
-345.209351
 20
-344.279387
 30
50.0
 70
    64
  0
SEQEND
  5
F7
  8
TEAM-NET
  0
POLYLINE
  5
F8
  8
TEAM-BODY
 66
     1
 10
0.0
 20
0.0
 30
50.0
  0
VERTEX
  5
380
  8
TEAM-BODY
 10
-345.209351
 20
-344.279387
 30
50.0
 42
0.2038
  0
VERTEX
  5
381
  8
TEAM-BODY
 10
-320.0
 20
-355.0
 30
50.0
  0
VERTEX
  5
382
  8
TEAM-BODY
 10
0.0
 20
-355.0
 30
50.0
 42
0.414214
  0
VERTEX
  5
383
  8
TEAM-BODY
 10
355.0
 20
0.0
 30
50.0
  0
VERTEX
  5
384
  8
TEAM-BODY
 10
355.0
 20
320.0
 30
50.0
 42
0.194324
  0
VERTEX
  5
385
  8
TEAM-BODY
 10
345.182178
 20
344.307569
 30
50.0
 42
0.194324
  0
SEQEND
  5
386
  8
TEAM-BODY
  0
POLYLINE
  5
FA
  8
TEAM-BODY
 66
     1
 10
0.0
 20
0.0
 30
50.0
  0
VERTEX
  5
387
  8
TEAM-BODY
 10
345.174518
 20
344.315502
 30
50.0
 42
0.203427
  0
VERTEX
  5
388
  8
TEAM-BODY
 10
320.0
 20
355.0
 30
50.0
  0
VERTEX
  5
389
  8
TEAM-BODY
 10
-320.0
 20
355.0
 30
50.0
 42
0.414214
  0
VERTEX
  5
38A
  8
TEAM-BODY
 10
-355.0
 20
320.0
 30
50.0
  0
VERTEX
  5
38B
  8
TEAM-BODY
 10
-355.0
 20
-320.0
 30
50.0
 42
0.193958
  0
VERTEX
  5
38C
  8
TEAM-BODY
 10
-345.216464
 20
-344.271999
 30
50.0
  0
SEQEND
  5
38D
  8
TEAM-BODY
  0
POLYLINE
  5
FB
  8
TEAM-NET
 66
     1
 10
0.0
 20
0.0
 30
0.0
 70
    16
 71
     2
 72
    65
  0
VERTEX
  5
FC
  8
TEAM-NET
 10
450.0
 20
450.0
 30
105.0
 70
    64
  0
VERTEX
  5
FD
  8
TEAM-NET
 10
450.0
 20
424.892838
 30
105.0
 70
    64
  0
VERTEX
  5
FE
  8
TEAM-NET
 10
450.0
 20
399.785677
 30
105.0
 70
    64
  0
VERTEX
  5
FF
  8
TEAM-NET
 10
450.0
 20
374.678515
 30
105.0
 70
    64
  0
VERTEX
  5
100
  8
TEAM-NET
 10
450.0
 20
349.571353
 30
105.0
 70
    64
  0
VERTEX
  5
101
  8
TEAM-NET
 10
450.0
 20
324.464192
 30
105.0
 70
    64
  0
VERTEX
  5
102
  8
TEAM-NET
 10
450.0
 20
299.35703
 30
105.0
 70
    64
  0
VERTEX
  5
103
  8
TEAM-NET
 10
450.0
 20
274.249868
 30
105.0
 70
    64
  0
VERTEX
  5
104
  8
TEAM-NET
 10
450.0
 20
249.142707
 30
105.0
 70
    64
  0
VERTEX
  5
105
  8
TEAM-NET
 10
450.0
 20
224.035545
 30
105.0
 70
    64
  0
VERTEX
  5
106
  8
TEAM-NET
 10
450.0
 20
198.928383
 30
105.0
 70
    64
  0
VERTEX
  5
107
  8
TEAM-NET
 10
450.0
 20
173.821222
 30
105.0
 70
    64
  0
VERTEX
  5
108
  8
TEAM-NET
 10
450.0
 20
148.71406
 30
105.0
 70
    64
  0
VERTEX
  5
109
  8
TEAM-NET
 10
450.0
 20
123.606898
 30
105.0
 70
    64
  0
VERTEX
  5
10A
  8
TEAM-NET
 10
450.0
 20
98.499737
 30
105.0
 70
    64
  0
VERTEX
  5
10B
  8
TEAM-NET
 10
450.0
 20
73.392575
 30
105.0
 70
    64
  0
VERTEX
  5
10C
  8
TEAM-NET
 10
450.0
 20
48.285413
 30
105.0
 70
    64
  0
VERTEX
  5
10D
  8
TEAM-NET
 10
450.0
 20
23.178252
 30
105.0
 70
    64
  0
VERTEX
  5
10E
  8
TEAM-NET
 10
449.995866
 20
-1.928904
 30
105.0
 70
    64
  0
VERTEX
  5
10F
  8
TEAM-NET
 10
449.188079
 20
-27.01981
 30
105.0
 70
    64
  0
VERTEX
  5
110
  8
TEAM-NET
 10
446.98236
 20
-52.026626
 30
105.0
 70
    64
  0
VERTEX
  5
111
  8
TEAM-NET
 10
443.385575
 20
-76.871529
 30
105.0
 70
    64
  0
VERTEX
  5
112
  8
TEAM-NET
 10
438.408917
 20
-101.477198
 30
105.0
 70
    64
  0
VERTEX
  5
113
  8
TEAM-NET
 10
432.067874
 20
-125.767056
 30
105.0
 70
    64
  0
VERTEX
  5
114
  8
TEAM-NET
 10
424.38218
 20
-149.665512
 30
105.0
 70
    64
  0
VERTEX
  5
115
  8
TEAM-NET
 10
415.375754
 20
-173.098189
 30
105.0
 70
    64
  0
VERTEX
  5
116
  8
TEAM-NET
 10
405.076625
 20
-195.992162
 30
105.0
 70
    64
  0
VERTEX
  5
117
  8
TEAM-NET
 10
393.516846
 20
-218.276182
 30
105.0
 70
    64
  0
VERTEX
  5
118
  8
TEAM-NET
 10
380.732392
 20
-239.880899
 30
105.0
 70
    64
  0
VERTEX
  5
119
  8
TEAM-NET
 10
366.763049
 20
-260.739076
 30
105.0
 70
    64
  0
VERTEX
  5
11A
  8
TEAM-NET
 10
351.652293
 20
-280.785799
 30
105.0
 70
    64
  0
VERTEX
  5
11B
  8
TEAM-NET
 10
335.44715
 20
-299.95868
 30
105.0
 70
    64
  0
VERTEX
  5
11C
  8
TEAM-NET
 10
318.198052
 20
-318.198052
 30
105.0
 70
    64
  0
VERTEX
  5
11D
  8
TEAM-NET
 10
299.95868
 20
-335.44715
 30
105.0
 70
    64
  0
VERTEX
  5
11E
  8
TEAM-NET
 10
280.785799
 20
-351.652293
 30
105.0
 70
    64
  0
VERTEX
  5
11F
  8
TEAM-NET
 10
260.739076
 20
-366.763049
 30
105.0
 70
    64
  0
VERTEX
  5
120
  8
TEAM-NET
 10
239.880899
 20
-380.732392
 30
105.0
 70
    64
  0
VERTEX
  5
121
  8
TEAM-NET
 10
218.276182
 20
-393.516846
 30
105.0
 70
    64
  0
VERTEX
  5
122
  8
TEAM-NET
 10
195.992162
 20
-405.076625
 30
105.0
 70
    64
  0
VERTEX
  5
123
  8
TEAM-NET
 10
173.098189
 20
-415.375754
 30
105.0
 70
    64
  0
VERTEX
  5
124
  8
TEAM-NET
 10
149.665512
 20
-424.38218
 30
105.0
 70
    64
  0
VERTEX
  5
125
  8
TEAM-NET
 10
125.767056
 20
-432.067874
 30
105.0
 70
    64
  0
VERTEX
  5
126
  8
TEAM-NET
 10
101.477198
 20
-438.408917
 30
105.0
 70
    64
  0
VERTEX
  5
127
  8
TEAM-NET
 10
76.871529
 20
-443.385575
 30
105.0
 70
    64
  0
VERTEX
  5
128
  8
TEAM-NET
 10
52.026626
 20
-446.98236
 30
105.0
 70
    64
  0
VERTEX
  5
129
  8
TEAM-NET
 10
27.01981
 20
-449.188079
 30
105.0
 70
    64
  0
VERTEX
  5
12A
  8
TEAM-NET
 10
1.928904
 20
-449.995866
 30
105.0
 70
    64
  0
VERTEX
  5
12B
  8
TEAM-NET
 10
-23.178252
 20
-450.0
 30
105.0
 70
    64
  0
VERTEX
  5
12C
  8
TEAM-NET
 10
-48.285413
 20
-450.0
 30
105.0
 70
    64
  0
VERTEX
  5
12D
  8
TEAM-NET
 10
-73.392575
 20
-450.0
 30
105.0
 70
    64
  0
VERTEX
  5
12E
  8
TEAM-NET
 10
-98.499737
 20
-450.0
 30
105.0
 70
    64
  0
VERTEX
  5
12F
  8
TEAM-NET
 10
-123.606898
 20
-450.0
 30
105.0
 70
    64
  0
VERTEX
  5
130
  8
TEAM-NET
 10
-148.71406
 20
-450.0
 30
105.0
 70
    64
  0
VERTEX
  5
131
  8
TEAM-NET
 10
-173.821222
 20
-450.0
 30
105.0
 70
    64
  0
VERTEX
  5
132
  8
TEAM-NET
 10
-198.928383
 20
-450.0
 30
105.0
 70
    64
  0
VERTEX
  5
133
  8
TEAM-NET
 10
-224.035545
 20
-450.0
 30
105.0
 70
    64
  0
VERTEX
  5
134
  8
TEAM-NET
 10
-249.142707
 20
-450.0
 30
105.0
 70
    64
  0
VERTEX
  5
135
  8
TEAM-NET
 10
-274.249868
 20
-450.0
 30
105.0
 70
    64
  0
VERTEX
  5
136
  8
TEAM-NET
 10
-299.35703
 20
-450.0
 30
105.0
 70
    64
  0
VERTEX
  5
137
  8
TEAM-NET
 10
-324.464192
 20
-450.0
 30
105.0
 70
    64
  0
VERTEX
  5
138
  8
TEAM-NET
 10
-349.571353
 20
-450.0
 30
105.0
 70
    64
  0
VERTEX
  5
139
  8
TEAM-NET
 10
-374.678515
 20
-450.0
 30
105.0
 70
    64
  0
VERTEX
  5
13A
  8
TEAM-NET
 10
-399.785677
 20
-450.0
 30
105.0
 70
    64
  0
VERTEX
  5
13B
  8
TEAM-NET
 10
-424.892838
 20
-450.0
 30
105.0
 70
    64
  0
VERTEX
  5
13C
  8
TEAM-NET
 10
-450.0
 20
-450.0
 30
105.0
 70
    64
  0
VERTEX
  5
13D
  8
TEAM-NET
 10
373.973818
 20
372.075205
 30
105.0
 70
    64
  0
VERTEX
  5
13E
  8
TEAM-NET
 10
386.512615
 20
354.656486
 30
105.0
 70
    64
  0
VERTEX
  5
13F
  8
TEAM-NET
 10
393.604671
 20
334.399736
 30
105.0
 70
    64
  0
VERTEX
  5
140
  8
TEAM-NET
 10
395.0
 20
312.953424
 30
105.0
 70
    64
  0
VERTEX
  5
141
  8
TEAM-NET
 10
395.0
 20
291.417143
 30
105.0
 70
    64
  0
VERTEX
  5
142
  8
TEAM-NET
 10
395.0
 20
269.880861
 30
105.0
 70
    64
  0
VERTEX
  5
143
  8
TEAM-NET
 10
395.0
 20
248.34458
 30
105.0
 70
    64
  0
VERTEX
  5
144
  8
TEAM-NET
 10
395.0
 20
226.808299
 30
105.0
 70
    64
  0
VERTEX
  5
145
  8
TEAM-NET
 10
395.0
 20
205.272017
 30
105.0
 70
    64
  0
VERTEX
  5
146
  8
TEAM-NET
 10
395.0
 20
183.735736
 30
105.0
 70
    64
  0
VERTEX
  5
147
  8
TEAM-NET
 10
395.0
 20
162.199455
 30
105.0
 70
    64
  0
VERTEX
  5
148
  8
TEAM-NET
 10
395.0
 20
140.663173
 30
105.0
 70
    64
  0
VERTEX
  5
149
  8
TEAM-NET
 10
395.0
 20
119.126892
 30
105.0
 70
    64
  0
VERTEX
  5
14A
  8
TEAM-NET
 10
395.0
 20
97.590611
 30
105.0
 70
    64
  0
VERTEX
  5
14B
  8
TEAM-NET
 10
395.0
 20
76.054329
 30
105.0
 70
    64
  0
VERTEX
  5
14C
  8
TEAM-NET
 10
395.0
 20
54.518048
 30
105.0
 70
    64
  0
VERTEX
  5
14D
  8
TEAM-NET
 10
395.0
 20
32.981767
 30
105.0
 70
    64
  0
VERTEX
  5
14E
  8
TEAM-NET
 10
395.0
 20
11.445485
 30
105.0
 70
    64
  0
VERTEX
  5
14F
  8
TEAM-NET
 10
394.871116
 20
-10.089698
 30
105.0
 70
    64
  0
VERTEX
  5
150
  8
TEAM-NET
 10
393.734509
 20
-31.593295
 30
105.0
 70
    64
  0
VERTEX
  5
151
  8
TEAM-NET
 10
391.427748
 20
-53.002998
 30
105.0
 70
    64
  0
VERTEX
  5
152
  8
TEAM-NET
 10
387.957689
 20
-74.255179
 30
105.0
 70
    64
  0
VERTEX
  5
153
  8
TEAM-NET
 10
383.334643
 20
-95.286679
 30
105.0
 70
    64
  0
VERTEX
  5
154
  8
TEAM-NET
 10
377.572351
 20
-116.034993
 30
105.0
 70
    64
  0
VERTEX
  5
155
  8
TEAM-NET
 10
370.687938
 20
-136.438458
 30
105.0
 70
    64
  0
VERTEX
  5
156
  8
TEAM-NET
 10
362.701863
 20
-156.436436
 30
105.0
 70
    64
  0
VERTEX
  5
157
  8
TEAM-NET
 10
353.637861
 20
-175.969495
 30
105.0
 70
    64
  0
VERTEX
  5
158
  8
TEAM-NET
 10
343.52287
 20
-194.979584
 30
105.0
 70
    64
  0
VERTEX
  5
159
  8
TEAM-NET
 10
332.38695
 20
-213.410205
 30
105.0
 70
    64
  0
VERTEX
  5
15A
  8
TEAM-NET
 10
320.263196
 20
-231.206585
 30
105.0
 70
    64
  0
VERTEX
  5
15B
  8
TEAM-NET
 10
307.187641
 20
-248.315834
 30
105.0
 70
    64
  0
VERTEX
  5
15C
  8
TEAM-NET
 10
293.199143
 20
-264.687103
 30
105.0
 70
    64
  0
VERTEX
  5
15D
  8
TEAM-NET
 10
278.339276
 20
-280.271739
 30
105.0
 70
    64
  0
VERTEX
  5
15E
  8
TEAM-NET
 10
262.652202
 20
-295.023424
 30
105.0
 70
    64
  0
VERTEX
  5
15F
  8
TEAM-NET
 10
246.184542
 20
-308.898319
 30
105.0
 70
    64
  0
VERTEX
  5
160
  8
TEAM-NET
 10
228.985236
 20
-321.855187
 30
105.0
 70
    64
  0
VERTEX
  5
161
  8
TEAM-NET
 10
211.105402
 20
-333.855522
 30
105.0
 70
    64
  0
VERTEX
  5
162
  8
TEAM-NET
 10
192.598175
 20
-344.863659
 30
105.0
 70
    64
  0
VERTEX
  5
163
  8
TEAM-NET
 10
173.518558
 20
-354.846883
 30
105.0
 70
    64
  0
VERTEX
  5
164
  8
TEAM-NET
 10
153.923255
 20
-363.775524
 30
105.0
 70
    64
  0
VERTEX
  5
165
  8
TEAM-NET
 10
133.870502
 20
-371.623047
 30
105.0
 70
    64
  0
VERTEX
  5
166
  8
TEAM-NET
 10
113.419894
 20
-378.366129
 30
105.0
 70
    64
  0
VERTEX
  5
167
  8
TEAM-NET
 10
92.632209
 20
-383.984731
 30
105.0
 70
    64
  0
VERTEX
  5
168
  8
TEAM-NET
 10
71.569227
 20
-388.462155
 30
105.0
 70
    64
  0
VERTEX
  5
169
  8
TEAM-NET
 10
50.293546
 20
-391.785093
 30
105.0
 70
    64
  0
VERTEX
  5
16A
  8
TEAM-NET
 10
28.868395
 20
-393.943671
 30
105.0
 70
    64
  0
VERTEX
  5
16B
  8
TEAM-NET
 10
7.35745
 20
-394.931472
 30
105.0
 70
    64
  0
VERTEX
  5
16C
  8
TEAM-NET
 10
-14.178406
 20
-395.0
 30
105.0
 70
    64
  0
VERTEX
  5
16D
  8
TEAM-NET
 10
-35.714687
 20
-395.0
 30
105.0
 70
    64
  0
VERTEX
  5
16E
  8
TEAM-NET
 10
-57.250969
 20
-395.0
 30
105.0
 70
    64
  0
VERTEX
  5
16F
  8
TEAM-NET
 10
-78.78725
 20
-395.0
 30
105.0
 70
    64
  0
VERTEX
  5
170
  8
TEAM-NET
 10
-100.323531
 20
-395.0
 30
105.0
 70
    64
  0
VERTEX
  5
171
  8
TEAM-NET
 10
-121.859813
 20
-395.0
 30
105.0
 70
    64
  0
VERTEX
  5
172
  8
TEAM-NET
 10
-143.396094
 20
-395.0
 30
105.0
 70
    64
  0
VERTEX
  5
173
  8
TEAM-NET
 10
-164.932375
 20
-395.0
 30
105.0
 70
    64
  0
VERTEX
  5
174
  8
TEAM-NET
 10
-186.468657
 20
-395.0
 30
105.0
 70
    64
  0
VERTEX
  5
175
  8
TEAM-NET
 10
-208.004938
 20
-395.0
 30
105.0
 70
    64
  0
VERTEX
  5
176
  8
TEAM-NET
 10
-229.541219
 20
-395.0
 30
105.0
 70
    64
  0
VERTEX
  5
177
  8
TEAM-NET
 10
-251.077501
 20
-395.0
 30
105.0
 70
    64
  0
VERTEX
  5
178
  8
TEAM-NET
 10
-272.613782
 20
-395.0
 30
105.0
 70
    64
  0
VERTEX
  5
179
  8
TEAM-NET
 10
-294.150063
 20
-395.0
 30
105.0
 70
    64
  0
VERTEX
  5
17A
  8
TEAM-NET
 10
-315.686345
 20
-395.0
 30
105.0
 70
    64
  0
VERTEX
  5
17B
  8
TEAM-NET
 10
-337.07166
 20
-393.031215
 30
105.0
 70
    64
  0
VERTEX
  5
17C
  8
TEAM-NET
 10
-357.056593
 20
-385.205896
 30
105.0
 70
    64
  0
VERTEX
  5
17D
  8
TEAM-NET
 10
-374.00695
 20
-372.040844
 30
105.0
 70
    64
  0
SEQEND
  5
17E
  8
TEAM-NET
  0
POLYLINE
  5
17F
  8
TEAM-NET
 66
     1
 10
0.0
 20
0.0
 30
0.0
 70
    16
 71
     2
 72
    65
  0
VERTEX
  5
180
  8
TEAM-NET
 10
450.0
 20
450.0
 30
105.0
 70
    64
  0
VERTEX
  5
181
  8
TEAM-NET
 10
421.875
 20
450.0
 30
105.0
 70
    64
  0
VERTEX
  5
182
  8
TEAM-NET
 10
393.75
 20
450.0
 30
105.0
 70
    64
  0
VERTEX
  5
183
  8
TEAM-NET
 10
365.625
 20
450.0
 30
105.0
 70
    64
  0
VERTEX
  5
184
  8
TEAM-NET
 10
337.5
 20
450.0
 30
105.0
 70
    64
  0
VERTEX
  5
185
  8
TEAM-NET
 10
309.375
 20
450.0
 30
105.0
 70
    64
  0
VERTEX
  5
186
  8
TEAM-NET
 10
281.25
 20
450.0
 30
105.0
 70
    64
  0
VERTEX
  5
187
  8
TEAM-NET
 10
253.125
 20
450.0
 30
105.0
 70
    64
  0
VERTEX
  5
188
  8
TEAM-NET
 10
225.0
 20
450.0
 30
105.0
 70
    64
  0
VERTEX
  5
189
  8
TEAM-NET
 10
196.875
 20
450.0
 30
105.0
 70
    64
  0
VERTEX
  5
18A
  8
TEAM-NET
 10
168.75
 20
450.0
 30
105.0
 70
    64
  0
VERTEX
  5
18B
  8
TEAM-NET
 10
140.625
 20
450.0
 30
105.0
 70
    64
  0
VERTEX
  5
18C
  8
TEAM-NET
 10
112.5
 20
450.0
 30
105.0
 70
    64
  0
VERTEX
  5
18D
  8
TEAM-NET
 10
84.375
 20
450.0
 30
105.0
 70
    64
  0
VERTEX
  5
18E
  8
TEAM-NET
 10
56.25
 20
450.0
 30
105.0
 70
    64
  0
VERTEX
  5
18F
  8
TEAM-NET
 10
28.125
 20
450.0
 30
105.0
 70
    64
  0
VERTEX
  5
190
  8
TEAM-NET
 10
0.0
 20
450.0
 30
105.0
 70
    64
  0
VERTEX
  5
191
  8
TEAM-NET
 10
-28.125
 20
450.0
 30
105.0
 70
    64
  0
VERTEX
  5
192
  8
TEAM-NET
 10
-56.25
 20
450.0
 30
105.0
 70
    64
  0
VERTEX
  5
193
  8
TEAM-NET
 10
-84.375
 20
450.0
 30
105.0
 70
    64
  0
VERTEX
  5
194
  8
TEAM-NET
 10
-112.5
 20
450.0
 30
105.0
 70
    64
  0
VERTEX
  5
195
  8
TEAM-NET
 10
-140.625
 20
450.0
 30
105.0
 70
    64
  0
VERTEX
  5
196
  8
TEAM-NET
 10
-168.75
 20
450.0
 30
105.0
 70
    64
  0
VERTEX
  5
197
  8
TEAM-NET
 10
-196.875
 20
450.0
 30
105.0
 70
    64
  0
VERTEX
  5
198
  8
TEAM-NET
 10
-225.0
 20
450.0
 30
105.0
 70
    64
  0
VERTEX
  5
199
  8
TEAM-NET
 10
-253.125
 20
450.0
 30
105.0
 70
    64
  0
VERTEX
  5
19A
  8
TEAM-NET
 10
-281.25
 20
450.0
 30
105.0
 70
    64
  0
VERTEX
  5
19B
  8
TEAM-NET
 10
-309.375
 20
450.0
 30
105.0
 70
    64
  0
VERTEX
  5
19C
  8
TEAM-NET
 10
-337.5
 20
450.0
 30
105.0
 70
    64
  0
VERTEX
  5
19D
  8
TEAM-NET
 10
-365.625
 20
450.0
 30
105.0
 70
    64
  0
VERTEX
  5
19E
  8
TEAM-NET
 10
-393.75
 20
450.0
 30
105.0
 70
    64
  0
VERTEX
  5
19F
  8
TEAM-NET
 10
-421.875
 20
450.0
 30
105.0
 70
    64
  0
VERTEX
  5
1A0
  8
TEAM-NET
 10
-450.0
 20
450.0
 30
105.0
 70
    64
  0
VERTEX
  5
1A1
  8
TEAM-NET
 10
-450.0
 20
421.875
 30
105.0
 70
    64
  0
VERTEX
  5
1A2
  8
TEAM-NET
 10
-450.0
 20
393.75
 30
105.0
 70
    64
  0
VERTEX
  5
1A3
  8
TEAM-NET
 10
-450.0
 20
365.625
 30
105.0
 70
    64
  0
VERTEX
  5
1A4
  8
TEAM-NET
 10
-450.0
 20
337.5
 30
105.0
 70
    64
  0
VERTEX
  5
1A5
  8
TEAM-NET
 10
-450.0
 20
309.375
 30
105.0
 70
    64
  0
VERTEX
  5
1A6
  8
TEAM-NET
 10
-450.0
 20
281.25
 30
105.0
 70
    64
  0
VERTEX
  5
1A7
  8
TEAM-NET
 10
-450.0
 20
253.125
 30
105.0
 70
    64
  0
VERTEX
  5
1A8
  8
TEAM-NET
 10
-450.0
 20
225.0
 30
105.0
 70
    64
  0
VERTEX
  5
1A9
  8
TEAM-NET
 10
-450.0
 20
196.875
 30
105.0
 70
    64
  0
VERTEX
  5
1AA
  8
TEAM-NET
 10
-450.0
 20
168.75
 30
105.0
 70
    64
  0
VERTEX
  5
1AB
  8
TEAM-NET
 10
-450.0
 20
140.625
 30
105.0
 70
    64
  0
VERTEX
  5
1AC
  8
TEAM-NET
 10
-450.0
 20
112.5
 30
105.0
 70
    64
  0
VERTEX
  5
1AD
  8
TEAM-NET
 10
-450.0
 20
84.375
 30
105.0
 70
    64
  0
VERTEX
  5
1AE
  8
TEAM-NET
 10
-450.0
 20
56.25
 30
105.0
 70
    64
  0
VERTEX
  5
1AF
  8
TEAM-NET
 10
-450.0
 20
28.125
 30
105.0
 70
    64
  0
VERTEX
  5
1B0
  8
TEAM-NET
 10
-450.0
 20
0.0
 30
105.0
 70
    64
  0
VERTEX
  5
1B1
  8
TEAM-NET
 10
-450.0
 20
-28.125
 30
105.0
 70
    64
  0
VERTEX
  5
1B2
  8
TEAM-NET
 10
-450.0
 20
-56.25
 30
105.0
 70
    64
  0
VERTEX
  5
1B3
  8
TEAM-NET
 10
-450.0
 20
-84.375
 30
105.0
 70
    64
  0
VERTEX
  5
1B4
  8
TEAM-NET
 10
-450.0
 20
-112.5
 30
105.0
 70
    64
  0
VERTEX
  5
1B5
  8
TEAM-NET
 10
-450.0
 20
-140.625
 30
105.0
 70
    64
  0
VERTEX
  5
1B6
  8
TEAM-NET
 10
-450.0
 20
-168.75
 30
105.0
 70
    64
  0
VERTEX
  5
1B7
  8
TEAM-NET
 10
-450.0
 20
-196.875
 30
105.0
 70
    64
  0
VERTEX
  5
1B8
  8
TEAM-NET
 10
-450.0
 20
-225.0
 30
105.0
 70
    64
  0
VERTEX
  5
1B9
  8
TEAM-NET
 10
-450.0
 20
-253.125
 30
105.0
 70
    64
  0
VERTEX
  5
1BA
  8
TEAM-NET
 10
-450.0
 20
-281.25
 30
105.0
 70
    64
  0
VERTEX
  5
1BB
  8
TEAM-NET
 10
-450.0
 20
-309.375
 30
105.0
 70
    64
  0
VERTEX
  5
1BC
  8
TEAM-NET
 10
-450.0
 20
-337.5
 30
105.0
 70
    64
  0
VERTEX
  5
1BD
  8
TEAM-NET
 10
-450.0
 20
-365.625
 30
105.0
 70
    64
  0
VERTEX
  5
1BE
  8
TEAM-NET
 10
-450.0
 20
-393.75
 30
105.0
 70
    64
  0
VERTEX
  5
1BF
  8
TEAM-NET
 10
-450.0
 20
-421.875
 30
105.0
 70
    64
  0
VERTEX
  5
1C0
  8
TEAM-NET
 10
-450.0
 20
-450.0
 30
105.0
 70
    64
  0
VERTEX
  5
1C1
  8
TEAM-NET
 10
373.960966
 20
372.088522
 30
105.0
 70
    64
  0
VERTEX
  5
1C2
  8
TEAM-NET
 10
355.119259
 20
386.269432
 30
105.0
 70
    64
  0
VERTEX
  5
1C3
  8
TEAM-NET
 10
332.805534
 20
393.898703
 30
105.0
 70
    64
  0
VERTEX
  5
1C4
  8
TEAM-NET
 10
309.1884
 20
395.0
 30
105.0
 70
    64
  0
VERTEX
  5
1C5
  8
TEAM-NET
 10
285.508218
 20
395.0
 30
105.0
 70
    64
  0
VERTEX
  5
1C6
  8
TEAM-NET
 10
261.828035
 20
395.0
 30
105.0
 70
    64
  0
VERTEX
  5
1C7
  8
TEAM-NET
 10
238.147852
 20
395.0
 30
105.0
 70
    64
  0
VERTEX
  5
1C8
  8
TEAM-NET
 10
214.46767
 20
395.0
 30
105.0
 70
    64
  0
VERTEX
  5
1C9
  8
TEAM-NET
 10
190.787487
 20
395.0
 30
105.0
 70
    64
  0
VERTEX
  5
1CA
  8
TEAM-NET
 10
167.107304
 20
395.0
 30
105.0
 70
    64
  0
VERTEX
  5
1CB
  8
TEAM-NET
 10
143.427122
 20
395.0
 30
105.0
 70
    64
  0
VERTEX
  5
1CC
  8
TEAM-NET
 10
119.746939
 20
395.0
 30
105.0
 70
    64
  0
VERTEX
  5
1CD
  8
TEAM-NET
 10
96.066756
 20
395.0
 30
105.0
 70
    64
  0
VERTEX
  5
1CE
  8
TEAM-NET
 10
72.386573
 20
395.0
 30
105.0
 70
    64
  0
VERTEX
  5
1CF
  8
TEAM-NET
 10
48.706391
 20
395.0
 30
105.0
 70
    64
  0
VERTEX
  5
1D0
  8
TEAM-NET
 10
25.026208
 20
395.0
 30
105.0
 70
    64
  0
VERTEX
  5
1D1
  8
TEAM-NET
 10
1.346025
 20
395.0
 30
105.0
 70
    64
  0
VERTEX
  5
1D2
  8
TEAM-NET
 10
-22.334157
 20
395.0
 30
105.0
 70
    64
  0
VERTEX
  5
1D3
  8
TEAM-NET
 10
-46.01434
 20
395.0
 30
105.0
 70
    64
  0
VERTEX
  5
1D4
  8
TEAM-NET
 10
-69.694523
 20
395.0
 30
105.0
 70
    64
  0
VERTEX
  5
1D5
  8
TEAM-NET
 10
-93.374705
 20
395.0
 30
105.0
 70
    64
  0
VERTEX
  5
1D6
  8
TEAM-NET
 10
-117.054888
 20
395.0
 30
105.0
 70
    64
  0
VERTEX
  5
1D7
  8
TEAM-NET
 10
-140.735071
 20
395.0
 30
105.0
 70
    64
  0
VERTEX
  5
1D8
  8
TEAM-NET
 10
-164.415254
 20
395.0
 30
105.0
 70
    64
  0
VERTEX
  5
1D9
  8
TEAM-NET
 10
-188.095436
 20
395.0
 30
105.0
 70
    64
  0
VERTEX
  5
1DA
  8
TEAM-NET
 10
-211.775619
 20
395.0
 30
105.0
 70
    64
  0
VERTEX
  5
1DB
  8
TEAM-NET
 10
-235.455802
 20
395.0
 30
105.0
 70
    64
  0
VERTEX
  5
1DC
  8
TEAM-NET
 10
-259.135984
 20
395.0
 30
105.0
 70
    64
  0
VERTEX
  5
1DD
  8
TEAM-NET
 10
-282.816167
 20
395.0
 30
105.0
 70
    64
  0
VERTEX
  5
1DE
  8
TEAM-NET
 10
-306.49635
 20
395.0
 30
105.0
 70
    64
  0
VERTEX
  5
1DF
  8
TEAM-NET
 10
-330.145334
 20
394.310647
 30
105.0
 70
    64
  0
VERTEX
  5
1E0
  8
TEAM-NET
 10
-352.718473
 20
387.487047
 30
105.0
 70
    64
  0
VERTEX
  5
1E1
  8
TEAM-NET
 10
-372.056944
 20
373.991431
 30
105.0
 70
    64
  0
VERTEX
  5
1E2
  8
TEAM-NET
 10
-386.248875
 20
355.158024
 30
105.0
 70
    64
  0
VERTEX
  5
1E3
  8
TEAM-NET
 10
-393.891199
 20
332.848766
 30
105.0
 70
    64
  0
VERTEX
  5
1E4
  8
TEAM-NET
 10
-395.0
 20
309.232279
 30
105.0
 70
    64
  0
VERTEX
  5
1E5
  8
TEAM-NET
 10
-395.0
 20
285.552096
 30
105.0
 70
    64
  0
VERTEX
  5
1E6
  8
TEAM-NET
 10
-395.0
 20
261.871913
 30
105.0
 70
    64
  0
VERTEX
  5
1E7
  8
TEAM-NET
 10
-395.0
 20
238.19173
 30
105.0
 70
    64
  0
VERTEX
  5
1E8
  8
TEAM-NET
 10
-395.0
 20
214.511548
 30
105.0
 70
    64
  0
VERTEX
  5
1E9
  8
TEAM-NET
 10
-395.0
 20
190.831365
 30
105.0
 70
    64
  0
VERTEX
  5
1EA
  8
TEAM-NET
 10
-395.0
 20
167.151182
 30
105.0
 70
    64
  0
VERTEX
  5
1EB
  8
TEAM-NET
 10
-395.0
 20
143.471
 30
105.0
 70
    64
  0
VERTEX
  5
1EC
  8
TEAM-NET
 10
-395.0
 20
119.790817
 30
105.0
 70
    64
  0
VERTEX
  5
1ED
  8
TEAM-NET
 10
-395.0
 20
96.110634
 30
105.0
 70
    64
  0
VERTEX
  5
1EE
  8
TEAM-NET
 10
-395.0
 20
72.430452
 30
105.0
 70
    64
  0
VERTEX
  5
1EF
  8
TEAM-NET
 10
-395.0
 20
48.750269
 30
105.0
 70
    64
  0
VERTEX
  5
1F0
  8
TEAM-NET
 10
-395.0
 20
25.070086
 30
105.0
 70
    64
  0
VERTEX
  5
1F1
  8
TEAM-NET
 10
-395.0
 20
1.389903
 30
105.0
 70
    64
  0
VERTEX
  5
1F2
  8
TEAM-NET
 10
-395.0
 20
-22.290279
 30
105.0
 70
    64
  0
VERTEX
  5
1F3
  8
TEAM-NET
 10
-395.0
 20
-45.970462
 30
105.0
 70
    64
  0
VERTEX
  5
1F4
  8
TEAM-NET
 10
-395.0
 20
-69.650645
 30
105.0
 70
    64
  0
VERTEX
  5
1F5
  8
TEAM-NET
 10
-395.0
 20
-93.330827
 30
105.0
 70
    64
  0
VERTEX
  5
1F6
  8
TEAM-NET
 10
-395.0
 20
-117.01101
 30
105.0
 70
    64
  0
VERTEX
  5
1F7
  8
TEAM-NET
 10
-395.0
 20
-140.691193
 30
105.0
 70
    64
  0
VERTEX
  5
1F8
  8
TEAM-NET
 10
-395.0
 20
-164.371375
 30
105.0
 70
    64
  0
VERTEX
  5
1F9
  8
TEAM-NET
 10
-395.0
 20
-188.051558
 30
105.0
 70
    64
  0
VERTEX
  5
1FA
  8
TEAM-NET
 10
-395.0
 20
-211.731741
 30
105.0
 70
    64
  0
VERTEX
  5
1FB
  8
TEAM-NET
 10
-395.0
 20
-235.411924
 30
105.0
 70
    64
  0
VERTEX
  5
1FC
  8
TEAM-NET
 10
-395.0
 20
-259.092106
 30
105.0
 70
    64
  0
VERTEX
  5
1FD
  8
TEAM-NET
 10
-395.0
 20
-282.772289
 30
105.0
 70
    64
  0
VERTEX
  5
1FE
  8
TEAM-NET
 10
-395.0
 20
-306.452472
 30
105.0
 70
    64
  0
VERTEX
  5
1FF
  8
TEAM-NET
 10
-394.316569
 20
-330.101858
 30
105.0
 70
    64
  0
VERTEX
  5
200
  8
TEAM-NET
 10
-387.506177
 20
-352.678985
 30
105.0
 70
    64
  0
VERTEX
  5
201
  8
TEAM-NET
 10
-374.021877
 20
-372.025348
 30
105.0
 70
    64
  0
SEQEND
  5
202
  8
TEAM-NET
  0
POLYLINE
  5
203
  8
TEAM-DET1
 66
     1
 10
0.0
 20
0.0
 30
105.0
  0
VERTEX
  5
38E
  8
TEAM-DET1
 10
-374.00695
 20
-372.040844
 30
105.0
 42
0.203735
  0
VERTEX
  5
38F
  8
TEAM-DET1
 10
-320.0
 20
-395.0
 30
105.0
  0
VERTEX
  5
390
  8
TEAM-DET1
 10
0.0
 20
-395.0
 30
105.0
 42
0.414214
  0
VERTEX
  5
391
  8
TEAM-DET1
 10
395.0
 20
0.0
 30
105.0
  0
VERTEX
  5
392
  8
TEAM-DET1
 10
395.0
 20
320.0
 30
105.0
 42
0.194264
  0
VERTEX
  5
393
  8
TEAM-DET1
 10
373.973818
 20
372.075205
 30
105.0
 42
0.194264
  0
SEQEND
  5
394
  8
TEAM-DET1
  0
POLYLINE
  5
205
  8
TEAM-DET1
 66
     1
 10
0.0
 20
0.0
 30
105.0
  0
VERTEX
  5
395
  8
TEAM-DET1
 10
373.960966
 20
372.088522
 30
105.0
 42
0.203505
  0
VERTEX
  5
396
  8
TEAM-DET1
 10
320.0
 20
395.0
 30
105.0
  0
VERTEX
  5
397
  8
TEAM-DET1
 10
-320.0
 20
395.0
 30
105.0
 42
0.414214
  0
VERTEX
  5
398
  8
TEAM-DET1
 10
-395.0
 20
320.0
 30
105.0
  0
VERTEX
  5
399
  8
TEAM-DET1
 10
-395.0
 20
-320.0
 30
105.0
 42
0.194025
  0
VERTEX
  5
39A
  8
TEAM-DET1
 10
-374.021877
 20
-372.025348
 30
105.0
  0
SEQEND
  5
39B
  8
TEAM-DET1
  0
TEXT
  5
206
  8
TEAM-TXT
 10
-332.443796
 20
297.777543
 30
105.0
 40
30.0
  1
team 141165
 41
0.8
 51
15.0
  7
TEAM
  0
POLYLINE
  5
209
  8
TEAM-BODY
 66
     1
 10
0.0
 20
0.0
 30
105.0
 39
-10.0
  0
VERTEX
  5
39C
  8
TEAM-BODY
 10
-450.0
 20
-450.0
 30
105.0
  0
VERTEX
  5
39D
  8
TEAM-BODY
 10
0.0
 20
-450.0
 30
105.0
 42
0.414214
  0
VERTEX
  5
39E
  8
TEAM-BODY
 10
450.0
 20
0.0
 30
105.0
  0
VERTEX
  5
39F
  8
TEAM-BODY
 10
450.0
 20
450.0
 30
105.0
  0
SEQEND
  5
3A0
  8
TEAM-BODY
  0
POLYLINE
  5
20A
  8
TEAM-BODY
 66
     1
 10
0.0
 20
0.0
 30
105.0
 39
-10.0
  0
VERTEX
  5
3A1
  8
TEAM-BODY
 10
450.0
 20
450.0
 30
105.0
  0
VERTEX
  5
3A2
  8
TEAM-BODY
 10
-450.0
 20
450.0
 30
105.0
  0
VERTEX
  5
3A3
  8
TEAM-BODY
 10
-450.0
 20
-450.0
 30
105.0
  0
SEQEND
  5
3A4
  8
TEAM-BODY
  0
ENDSEC
  0
EOF
