  0
SECTION
  2
HEADER
  9
$ACADVER
  1
AC1009
  9
$INSBASE
 10
0.0
 20
0.0
 30
0.0
  9
$EXTMIN
 10
-450.000186
 20
-400.044226
 30
-0.004715
  9
$EXTMAX
 10
450.021865
 20
400.027157
 30
200.012058
  9
$LIMMIN
 10
-450.000186
 20
-400.044226
  9
$LIMMAX
 10
450.021865
 20
400.027157
  9
$ORTHOMODE
 70
     1
  9
$REGENMODE
 70
     1
  9
$FILLMODE
 70
     1
  9
$QTEXTMODE
 70
     0
  9
$MIRRTEXT
 70
     0
  9
$DRAGMODE
 70
     2
  9
$LTSCALE
 40
25.0
  9
$OSMODE
 70
     0
  9
$ATTMODE
 70
     1
  9
$TEXTSIZE
 40
200.0
  9
$TRACEWID
 40
1.0
  9
$TEXTSTYLE
  7
STANDARD
  9
$CLAYER
  8
TEAM-MAS
  9
$CELTYPE
  6
BYLAYER
  9
$CECOLOR
 62
   256
  9
$DIMSCALE
 40
0.0
  9
$DIMASZ
 40
20.0
  9
$DIMEXO
 40
10.0
  9
$DIMDLI
 40
1.0
  9
$DIMRND
 40
0.0
  9
$DIMDLE
 40
0.0
  9
$DIMEXE
 40
1.0
  9
$DIMTP
 40
0.0
  9
$DIMTM
 40
0.0
  9
$DIMTXT
 40
35.0
  9
$DIMCEN
 40
1.0
  9
$DIMTSZ
 40
0.0
  9
$DIMTOL
 70
     0
  9
$DIMLIM
 70
     0
  9
$DIMTIH
 70
     0
  9
$DIMTOH
 70
     0
  9
$DIMSE1
 70
     0
  9
$DIMSE2
 70
     0
  9
$DIMTAD
 70
     0
  9
$DIMZIN
 70
     0
  9
$DIMBLK
  1

  9
$DIMASO
 70
     1
  9
$DIMSHO
 70
     0
  9
$DIMPOST
  1

  9
$DIMAPOST
  1

  9
$DIMALT
 70
     0
  9
$DIMALTD
 70
     2
  9
$DIMALTF
 40
25.4
  9
$DIMLFAC
 40
1.0
  9
$DIMTOFL
 70
     0
  9
$DIMTVP
 40
0.0
  9
$DIMTIX
 70
     0
  9
$DIMSOXD
 70
     0
  9
$DIMSAH
 70
     0
  9
$DIMBLK1
  1

  9
$DIMBLK2
  1

  9
$DIMSTYLE
  2
TEAM
  9
$DIMCLRD
 70
     9
  9
$DIMCLRE
 70
     9
  9
$DIMCLRT
 70
    11
  9
$DIMTFAC
 40
1.0
  9
$DIMGAP
 40
15.0
  9
$LUNITS
 70
     2
  9
$LUPREC
 70
     1
  9
$SKETCHINC
 40
1.0
  9
$FILLETRAD
 40
50.0
  9
$AUNITS
 70
     0
  9
$AUPREC
 70
     0
  9
$MENU
  1
ROPLANS
  9
$ELEVATION
 40
0.0
  9
$PELEVATION
 40
0.0
  9
$THICKNESS
 40
0.0
  9
$LIMCHECK
 70
     0
  9
$BLIPMODE
 70
     1
  9
$CHAMFERA
 40
0.0
  9
$CHAMFERB
 40
0.0
  9
$SKPOLY
 70
     0
  9
$TDCREATE
 40
2450392.957851
  9
$TDUPDATE
 40
2455493.97462
  9
$TDINDWG
 40
1.964495
  9
$TDUSRTIMER
 40
1.964495
  9
$USRTIMER
 70
     1
  9
$ANGBASE
 50
0.0
  9
$ANGDIR
 70
     0
  9
$PDMODE
 70
     0
  9
$PDSIZE
 40
0.0
  9
$PLINEWID
 40
0.0
  9
$COORDS
 70
     2
  9
$SPLFRAME
 70
     0
  9
$SPLINETYPE
 70
     6
  9
$SPLINESEGS
 70
     8
  9
$ATTDIA
 70
     0
  9
$ATTREQ
 70
     0
  9
$HANDLING
 70
     1
  9
$HANDSEED
  5
45F
  9
$SURFTAB1
 70
    24
  9
$SURFTAB2
 70
    24
  9
$SURFTYPE
 70
     6
  9
$SURFU
 70
     6
  9
$SURFV
 70
     6
  9
$UCSNAME
  2

  9
$UCSORG
 10
0.0
 20
0.0
 30
0.0
  9
$UCSXDIR
 10
1.0
 20
0.0
 30
0.0
  9
$UCSYDIR
 10
0.0
 20
1.0
 30
0.0
  9
$PUCSNAME
  2

  9
$PUCSORG
 10
0.0
 20
0.0
 30
0.0
  9
$PUCSXDIR
 10
1.0
 20
0.0
 30
0.0
  9
$PUCSYDIR
 10
0.0
 20
1.0
 30
0.0
  9
$USERI1
 70
     0
  9
$USERI2
 70
     0
  9
$USERI3
 70
     0
  9
$USERI4
 70
     0
  9
$USERI5
 70
     0
  9
$USERR1
 40
0.0
  9
$USERR2
 40
0.0
  9
$USERR3
 40
0.0
  9
$USERR4
 40
0.0
  9
$USERR5
 40
0.0
  9
$WORLDVIEW
 70
     1
  9
$SHADEDGE
 70
     0
  9
$SHADEDIF
 70
    70
  9
$TILEMODE
 70
     1
  9
$MAXACTVP
 70
    16
  9
$PLIMCHECK
 70
     0
  9
$PEXTMIN
 10
-0.805942
 20
0.005011
 30
0.0
  9
$PEXTMAX
 10
20.250094
 20
11.356329
 30
0.0
  9
$PLIMMIN
 10
0.0
 20
0.0
  9
$PLIMMAX
 10
12.0
 20
9.0
  9
$UNITMODE
 70
     0
  9
$VISRETAIN
 70
     0
  9
$PLINEGEN
 70
     0
  9
$PSLTSCALE
 70
     0
  0
ENDSEC
  0
SECTION
  2
TABLES
  0
TABLE
  2
VPORT
 70
     2
  0
VPORT
  2
*ACTIVE
 70
     0
 10
0.0
 20
0.0
 11
1.0
 21
1.0
 12
0.010839
 22
-0.008534
 13
0.0
 23
0.0
 14
1.0
 24
1.0
 15
50.0
 25
50.0
 16
0.0
 26
0.0
 36
1.0
 17
0.0
 27
0.0
 37
0.0
 40
804.98482
 41
1.865779
 42
50.0
 43
0.0
 44
0.0
 50
0.0
 51
0.0
 71
     0
 72
   100
 73
     1
 74
     1
 75
     0
 76
     0
 77
     0
 78
     0
  0
ENDTAB
  0
TABLE
  2
LTYPE
 70
     2
  0
LTYPE
  2
CONTINUOUS
 70
     0
  3
Solid Line
 72
    65
 73
     0
 40
0.0
  0
LTYPE
  2
31
 70
     0
  3

 72
    65
 73
     4
 40
2.1
 49
1.5
 49
-0.3
 49
0.0
 49
-0.3
  0
ENDTAB
  0
TABLE
  2
LAYER
 70
     9
  0
LAYER
  2
0
 70
     0
 62
     7
  6
CONTINUOUS
  0
LAYER
  2
TEAM-BODY
 70
     0
 62
     2
  6
CONTINUOUS
  0
LAYER
  2
TEAM-AXE
 70
     0
 62
    10
  6
31
  0
LAYER
  2
TEAM-MAS
 70
     0
 62
     9
  6
CONTINUOUS
  0
LAYER
  2
TEAM-TXT
 70
     0
 62
    11
  6
CONTINUOUS
  0
LAYER
  2
TEAM-DET1
 70
     0
 62
     4
  6
CONTINUOUS
  0
LAYER
  2
TEAM-KAN
 70
     0
 62
     6
  6
CONTINUOUS
  0
LAYER
  2
TEAM-NET
 70
     0
 62
    15
  6
CONTINUOUS
  0
LAYER
  2
TEAM-INSP
 70
     0
 62
     5
  6
CONTINUOUS
  0
ENDTAB
  0
TABLE
  2
STYLE
 70
     2
  0
STYLE
  2
STANDARD
 70
     0
 40
0.0
 41
1.0
 50
0.0
 71
     0
 42
200.0
  3
txt
  4

  0
STYLE
  2
TEAM
 70
     0
 40
0.0
 41
0.8
 50
15.0
 71
     0
 42
7.0
  3
ROMANS.shx
  4

  0
ENDTAB
  0
TABLE
  2
VIEW
 70
     0
  0
ENDTAB
  0
TABLE
  2
UCS
 70
     0
  0
ENDTAB
  0
TABLE
  2
APPID
 70
     1
  0
APPID
  2
ACAD
 70
     0
  0
ENDTAB
  0
TABLE
  2
DIMSTYLE
 70
     1
  0
DIMSTYLE
  2
TEAM
 70
     0
  3

  4

  5

  6

  7

 40
0.0
 41
20.0
 42
10.0
 43
1.0
 44
1.0
 45
0.0
 46
0.0
 47
0.0
 48
0.0
140
35.0
141
1.0
142
0.0
143
25.4
144
1.0
145
0.0
146
1.0
147
15.0
 71
     0
 72
     0
 73
     0
 74
     0
 75
     0
 76
     0
 77
     0
 78
     0
170
     0
171
     2
172
     0
173
     0
174
     0
175
     0
176
     9
177
     9
178
    11
  0
ENDTAB
  0
ENDSEC
  0
SECTION
  2
BLOCKS
  0
BLOCK
  8
0
  2
$MODEL_SPACE
 70
     0
 10
0.0
 20
0.0
 30
0.0
  3
$MODEL_SPACE
  1

  0
ENDBLK
  5
434
  8
0
  0
BLOCK
 67
     1
  8
0
  2
$PAPER_SPACE
 70
     0
 10
0.0
 20
0.0
 30
0.0
  3
$PAPER_SPACE
  1

  0
ENDBLK
  5
432
 67
     1
  8
0
  0
ENDSEC
  0
SECTION
  2
ENTITIES
  0
CIRCLE
  5
20
  8
TEAM-KAN
 39
10.0
 10
250.0
 20
-200.0
 30
135.0
 40
45.0
  0
CIRCLE
  5
22
  8
TEAM-KAN
 39
10.0
 10
250.0
 20
-200.0
 30
135.0
 40
35.0
  0
CIRCLE
  5
23
  8
TEAM-INSP
 10
0.0
 20
0.0
 30
0.0
 40
7.1
  0
LINE
  5
25
  8
TEAM-AXE
 10
250.0
 20
-200.0
 30
135.0
 11
250.0
 21
-135.0
 31
135.0
  0
LINE
  5
28
  8
TEAM-AXE
 10
250.0
 20
-200.0
 30
135.0
 11
250.0
 21
-265.0
 31
135.0
  0
LINE
  5
29
  8
TEAM-AXE
 10
250.0
 20
-200.0
 30
135.0
 11
185.0
 21
-200.0
 31
135.0
  0
LINE
  5
2A
  8
TEAM-AXE
 10
250.0
 20
-200.0
 30
135.0
 11
315.0
 21
-200.0
 31
135.0
  0
POLYLINE
  5
2B
  8
TEAM-NET
 66
     1
 10
0.0
 20
0.0
 30
0.0
 70
    16
 71
     2
 72
    65
  0
VERTEX
  5
2C
  8
TEAM-NET
 10
357.584116
 20
307.77073
 30
145.0
 70
    64
  0
VERTEX
  5
2D
  8
TEAM-NET
 10
338.589093
 20
315.0
 30
145.0
 70
    64
  0
VERTEX
  5
2E
  8
TEAM-NET
 10
317.675189
 20
315.0
 30
145.0
 70
    64
  0
VERTEX
  5
2F
  8
TEAM-NET
 10
296.761284
 20
315.0
 30
145.0
 70
    64
  0
VERTEX
  5
30
  8
TEAM-NET
 10
275.84738
 20
315.0
 30
145.0
 70
    64
  0
VERTEX
  5
31
  8
TEAM-NET
 10
254.933476
 20
315.0
 30
145.0
 70
    64
  0
VERTEX
  5
32
  8
TEAM-NET
 10
234.019571
 20
315.0
 30
145.0
 70
    64
  0
VERTEX
  5
33
  8
TEAM-NET
 10
213.105667
 20
315.0
 30
145.0
 70
    64
  0
VERTEX
  5
34
  8
TEAM-NET
 10
192.191762
 20
315.0
 30
145.0
 70
    64
  0
VERTEX
  5
35
  8
TEAM-NET
 10
171.277858
 20
315.0
 30
145.0
 70
    64
  0
VERTEX
  5
36
  8
TEAM-NET
 10
150.363954
 20
315.0
 30
145.0
 70
    64
  0
VERTEX
  5
37
  8
TEAM-NET
 10
129.450049
 20
315.0
 30
145.0
 70
    64
  0
VERTEX
  5
38
  8
TEAM-NET
 10
108.536145
 20
315.0
 30
145.0
 70
    64
  0
VERTEX
  5
39
  8
TEAM-NET
 10
87.622241
 20
315.0
 30
145.0
 70
    64
  0
VERTEX
  5
3A
  8
TEAM-NET
 10
66.708336
 20
315.0
 30
145.0
 70
    64
  0
VERTEX
  5
3B
  8
TEAM-NET
 10
45.794432
 20
315.0
 30
145.0
 70
    64
  0
VERTEX
  5
3C
  8
TEAM-NET
 10
24.880528
 20
315.0
 30
145.0
 70
    64
  0
VERTEX
  5
3D
  8
TEAM-NET
 10
3.966623
 20
315.0
 30
145.0
 70
    64
  0
VERTEX
  5
3E
  8
TEAM-NET
 10
-16.947281
 20
315.0
 30
145.0
 70
    64
  0
VERTEX
  5
3F
  8
TEAM-NET
 10
-37.861185
 20
315.0
 30
145.0
 70
    64
  0
VERTEX
  5
40
  8
TEAM-NET
 10
-58.77509
 20
315.0
 30
145.0
 70
    64
  0
VERTEX
  5
41
  8
TEAM-NET
 10
-79.688994
 20
315.0
 30
145.0
 70
    64
  0
VERTEX
  5
42
  8
TEAM-NET
 10
-100.602898
 20
315.0
 30
145.0
 70
    64
  0
VERTEX
  5
43
  8
TEAM-NET
 10
-121.516803
 20
315.0
 30
145.0
 70
    64
  0
VERTEX
  5
44
  8
TEAM-NET
 10
-142.430707
 20
315.0
 30
145.0
 70
    64
  0
VERTEX
  5
45
  8
TEAM-NET
 10
-163.344612
 20
315.0
 30
145.0
 70
    64
  0
VERTEX
  5
46
  8
TEAM-NET
 10
-184.258516
 20
315.0
 30
145.0
 70
    64
  0
VERTEX
  5
47
  8
TEAM-NET
 10
-205.17242
 20
315.0
 30
145.0
 70
    64
  0
VERTEX
  5
48
  8
TEAM-NET
 10
-226.086325
 20
315.0
 30
145.0
 70
    64
  0
VERTEX
  5
49
  8
TEAM-NET
 10
-247.000229
 20
315.0
 30
145.0
 70
    64
  0
VERTEX
  5
4A
  8
TEAM-NET
 10
-267.914133
 20
315.0
 30
145.0
 70
    64
  0
VERTEX
  5
4B
  8
TEAM-NET
 10
-288.828038
 20
315.0
 30
145.0
 70
    64
  0
VERTEX
  5
4C
  8
TEAM-NET
 10
-309.741942
 20
315.0
 30
145.0
 70
    64
  0
VERTEX
  5
4D
  8
TEAM-NET
 10
-330.655846
 20
315.0
 30
145.0
 70
    64
  0
VERTEX
  5
4E
  8
TEAM-NET
 10
-351.16116
 20
312.37026
 30
145.0
 70
    64
  0
VERTEX
  5
4F
  8
TEAM-NET
 10
-364.084577
 20
296.703219
 30
145.0
 70
    64
  0
VERTEX
  5
50
  8
TEAM-NET
 10
-365.0
 20
275.872349
 30
145.0
 70
    64
  0
VERTEX
  5
51
  8
TEAM-NET
 10
-365.0
 20
254.958444
 30
145.0
 70
    64
  0
VERTEX
  5
52
  8
TEAM-NET
 10
-365.0
 20
234.04454
 30
145.0
 70
    64
  0
VERTEX
  5
53
  8
TEAM-NET
 10
-365.0
 20
213.130636
 30
145.0
 70
    64
  0
VERTEX
  5
54
  8
TEAM-NET
 10
-365.0
 20
192.216731
 30
145.0
 70
    64
  0
VERTEX
  5
55
  8
TEAM-NET
 10
-365.0
 20
171.302827
 30
145.0
 70
    64
  0
VERTEX
  5
56
  8
TEAM-NET
 10
-365.0
 20
150.388923
 30
145.0
 70
    64
  0
VERTEX
  5
57
  8
TEAM-NET
 10
-365.0
 20
129.475018
 30
145.0
 70
    64
  0
VERTEX
  5
58
  8
TEAM-NET
 10
-365.0
 20
108.561114
 30
145.0
 70
    64
  0
VERTEX
  5
59
  8
TEAM-NET
 10
-365.0
 20
87.64721
 30
145.0
 70
    64
  0
VERTEX
  5
5A
  8
TEAM-NET
 10
-365.0
 20
66.733305
 30
145.0
 70
    64
  0
VERTEX
  5
5B
  8
TEAM-NET
 10
-365.0
 20
45.819401
 30
145.0
 70
    64
  0
VERTEX
  5
5C
  8
TEAM-NET
 10
-365.0
 20
24.905496
 30
145.0
 70
    64
  0
VERTEX
  5
5D
  8
TEAM-NET
 10
-365.0
 20
3.991592
 30
145.0
 70
    64
  0
VERTEX
  5
5E
  8
TEAM-NET
 10
-365.0
 20
-16.922312
 30
145.0
 70
    64
  0
VERTEX
  5
5F
  8
TEAM-NET
 10
-365.0
 20
-37.836217
 30
145.0
 70
    64
  0
VERTEX
  5
60
  8
TEAM-NET
 10
-365.0
 20
-58.750121
 30
145.0
 70
    64
  0
VERTEX
  5
61
  8
TEAM-NET
 10
-365.0
 20
-79.664025
 30
145.0
 70
    64
  0
VERTEX
  5
62
  8
TEAM-NET
 10
-365.0
 20
-100.57793
 30
145.0
 70
    64
  0
VERTEX
  5
63
  8
TEAM-NET
 10
-365.0
 20
-121.491834
 30
145.0
 70
    64
  0
VERTEX
  5
64
  8
TEAM-NET
 10
-365.0
 20
-142.405738
 30
145.0
 70
    64
  0
VERTEX
  5
65
  8
TEAM-NET
 10
-365.0
 20
-163.319643
 30
145.0
 70
    64
  0
VERTEX
  5
66
  8
TEAM-NET
 10
-365.0
 20
-184.233547
 30
145.0
 70
    64
  0
VERTEX
  5
67
  8
TEAM-NET
 10
-365.0
 20
-205.147451
 30
145.0
 70
    64
  0
VERTEX
  5
68
  8
TEAM-NET
 10
-365.0
 20
-226.061356
 30
145.0
 70
    64
  0
VERTEX
  5
69
  8
TEAM-NET
 10
-365.0
 20
-246.97526
 30
145.0
 70
    64
  0
VERTEX
  5
6A
  8
TEAM-NET
 10
-365.0
 20
-267.889165
 30
145.0
 70
    64
  0
VERTEX
  5
6B
  8
TEAM-NET
 10
-365.0
 20
-288.803069
 30
145.0
 70
    64
  0
VERTEX
  5
6C
  8
TEAM-NET
 10
-357.619578
 20
-307.735571
 30
145.0
 70
    64
  0
VERTEX
  5
6D
  8
TEAM-NET
 10
371.663561
 20
321.975285
 30
200.0
 70
    64
  0
VERTEX
  5
6E
  8
TEAM-NET
 10
353.037376
 20
333.070022
 30
200.0
 70
    64
  0
VERTEX
  5
6F
  8
TEAM-NET
 10
331.33154
 20
335.0
 30
200.0
 70
    64
  0
VERTEX
  5
70
  8
TEAM-NET
 10
309.436063
 20
335.0
 30
200.0
 70
    64
  0
VERTEX
  5
71
  8
TEAM-NET
 10
287.540586
 20
335.0
 30
200.0
 70
    64
  0
VERTEX
  5
72
  8
TEAM-NET
 10
265.645109
 20
335.0
 30
200.0
 70
    64
  0
VERTEX
  5
73
  8
TEAM-NET
 10
243.749631
 20
335.0
 30
200.0
 70
    64
  0
VERTEX
  5
74
  8
TEAM-NET
 10
221.854154
 20
335.0
 30
200.0
 70
    64
  0
VERTEX
  5
75
  8
TEAM-NET
 10
199.958677
 20
335.0
 30
200.0
 70
    64
  0
VERTEX
  5
76
  8
TEAM-NET
 10
178.0632
 20
335.0
 30
200.0
 70
    64
  0
VERTEX
  5
77
  8
TEAM-NET
 10
156.167723
 20
335.0
 30
200.0
 70
    64
  0
VERTEX
  5
78
  8
TEAM-NET
 10
134.272246
 20
335.0
 30
200.0
 70
    64
  0
VERTEX
  5
79
  8
TEAM-NET
 10
112.376769
 20
335.0
 30
200.0
 70
    64
  0
VERTEX
  5
7A
  8
TEAM-NET
 10
90.481292
 20
335.0
 30
200.0
 70
    64
  0
VERTEX
  5
7B
  8
TEAM-NET
 10
68.585814
 20
335.0
 30
200.0
 70
    64
  0
VERTEX
  5
7C
  8
TEAM-NET
 10
46.690337
 20
335.0
 30
200.0
 70
    64
  0
VERTEX
  5
7D
  8
TEAM-NET
 10
24.79486
 20
335.0
 30
200.0
 70
    64
  0
VERTEX
  5
7E
  8
TEAM-NET
 10
2.899383
 20
335.0
 30
200.0
 70
    64
  0
VERTEX
  5
7F
  8
TEAM-NET
 10
-18.996094
 20
335.0
 30
200.0
 70
    64
  0
VERTEX
  5
80
  8
TEAM-NET
 10
-40.891571
 20
335.0
 30
200.0
 70
    64
  0
VERTEX
  5
81
  8
TEAM-NET
 10
-62.787048
 20
335.0
 30
200.0
 70
    64
  0
VERTEX
  5
82
  8
TEAM-NET
 10
-84.682526
 20
335.0
 30
200.0
 70
    64
  0
VERTEX
  5
83
  8
TEAM-NET
 10
-106.578003
 20
335.0
 30
200.0
 70
    64
  0
VERTEX
  5
84
  8
TEAM-NET
 10
-128.47348
 20
335.0
 30
200.0
 70
    64
  0
VERTEX
  5
85
  8
TEAM-NET
 10
-150.368957
 20
335.0
 30
200.0
 70
    64
  0
VERTEX
  5
86
  8
TEAM-NET
 10
-172.264434
 20
335.0
 30
200.0
 70
    64
  0
VERTEX
  5
87
  8
TEAM-NET
 10
-194.159911
 20
335.0
 30
200.0
 70
    64
  0
VERTEX
  5
88
  8
TEAM-NET
 10
-216.055388
 20
335.0
 30
200.0
 70
    64
  0
VERTEX
  5
89
  8
TEAM-NET
 10
-237.950865
 20
335.0
 30
200.0
 70
    64
  0
VERTEX
  5
8A
  8
TEAM-NET
 10
-259.846343
 20
335.0
 30
200.0
 70
    64
  0
VERTEX
  5
8B
  8
TEAM-NET
 10
-281.74182
 20
335.0
 30
200.0
 70
    64
  0
VERTEX
  5
8C
  8
TEAM-NET
 10
-303.637297
 20
335.0
 30
200.0
 70
    64
  0
VERTEX
  5
8D
  8
TEAM-NET
 10
-325.532774
 20
335.0
 30
200.0
 70
    64
  0
VERTEX
  5
8E
  8
TEAM-NET
 10
-347.394562
 20
334.388292
 30
200.0
 70
    64
  0
VERTEX
  5
8F
  8
TEAM-NET
 10
-367.292046
 20
325.779104
 30
200.0
 70
    64
  0
VERTEX
  5
90
  8
TEAM-NET
 10
-380.854702
 20
308.865135
 30
200.0
 70
    64
  0
VERTEX
  5
91
  8
TEAM-NET
 10
-385.0
 20
287.571152
 30
200.0
 70
    64
  0
VERTEX
  5
92
  8
TEAM-NET
 10
-385.0
 20
265.675675
 30
200.0
 70
    64
  0
VERTEX
  5
93
  8
TEAM-NET
 10
-385.0
 20
243.780198
 30
200.0
 70
    64
  0
VERTEX
  5
94
  8
TEAM-NET
 10
-385.0
 20
221.884721
 30
200.0
 70
    64
  0
VERTEX
  5
95
  8
TEAM-NET
 10
-385.0
 20
199.989244
 30
200.0
 70
    64
  0
VERTEX
  5
96
  8
TEAM-NET
 10
-385.0
 20
178.093766
 30
200.0
 70
    64
  0
VERTEX
  5
97
  8
TEAM-NET
 10
-385.0
 20
156.198289
 30
200.0
 70
    64
  0
VERTEX
  5
98
  8
TEAM-NET
 10
-385.0
 20
134.302812
 30
200.0
 70
    64
  0
VERTEX
  5
99
  8
TEAM-NET
 10
-385.0
 20
112.407335
 30
200.0
 70
    64
  0
VERTEX
  5
9A
  8
TEAM-NET
 10
-385.0
 20
90.511858
 30
200.0
 70
    64
  0
VERTEX
  5
9B
  8
TEAM-NET
 10
-385.0
 20
68.616381
 30
200.0
 70
    64
  0
VERTEX
  5
9C
  8
TEAM-NET
 10
-385.0
 20
46.720904
 30
200.0
 70
    64
  0
VERTEX
  5
9D
  8
TEAM-NET
 10
-385.0
 20
24.825427
 30
200.0
 70
    64
  0
VERTEX
  5
9E
  8
TEAM-NET
 10
-385.0
 20
2.929949
 30
200.0
 70
    64
  0
VERTEX
  5
9F
  8
TEAM-NET
 10
-385.0
 20
-18.965528
 30
200.0
 70
    64
  0
VERTEX
  5
A0
  8
TEAM-NET
 10
-385.0
 20
-40.861005
 30
200.0
 70
    64
  0
VERTEX
  5
A1
  8
TEAM-NET
 10
-385.0
 20
-62.756482
 30
200.0
 70
    64
  0
VERTEX
  5
A2
  8
TEAM-NET
 10
-385.0
 20
-84.651959
 30
200.0
 70
    64
  0
VERTEX
  5
A3
  8
TEAM-NET
 10
-385.0
 20
-106.547436
 30
200.0
 70
    64
  0
VERTEX
  5
A4
  8
TEAM-NET
 10
-385.0
 20
-128.442913
 30
200.0
 70
    64
  0
VERTEX
  5
A5
  8
TEAM-NET
 10
-385.0
 20
-150.338391
 30
200.0
 70
    64
  0
VERTEX
  5
A6
  8
TEAM-NET
 10
-385.0
 20
-172.233868
 30
200.0
 70
    64
  0
VERTEX
  5
A7
  8
TEAM-NET
 10
-385.0
 20
-194.129345
 30
200.0
 70
    64
  0
VERTEX
  5
A8
  8
TEAM-NET
 10
-385.0
 20
-216.024822
 30
200.0
 70
    64
  0
VERTEX
  5
A9
  8
TEAM-NET
 10
-385.0
 20
-237.920299
 30
200.0
 70
    64
  0
VERTEX
  5
AA
  8
TEAM-NET
 10
-385.0
 20
-259.815776
 30
200.0
 70
    64
  0
VERTEX
  5
AB
  8
TEAM-NET
 10
-385.0
 20
-281.711253
 30
200.0
 70
    64
  0
VERTEX
  5
AC
  8
TEAM-NET
 10
-382.95848
 20
-303.400335
 30
200.0
 70
    64
  0
VERTEX
  5
AD
  8
TEAM-NET
 10
-371.706971
 20
-321.932241
 30
200.0
 70
    64
  0
SEQEND
  5
AF
  8
TEAM-NET
  0
POLYLINE
  5
B0
  8
TEAM-NET
 66
     1
 10
0.0
 20
0.0
 30
0.0
 70
    16
 71
     2
 72
    65
  0
VERTEX
  5
B1
  8
TEAM-NET
 10
357.590644
 20
307.764269
 30
145.0
 70
    64
  0
VERTEX
  5
B2
  8
TEAM-NET
 10
365.0
 20
288.842503
 30
145.0
 70
    64
  0
VERTEX
  5
B3
  8
TEAM-NET
 10
365.0
 20
267.92728
 30
145.0
 70
    64
  0
VERTEX
  5
B4
  8
TEAM-NET
 10
365.0
 20
247.012057
 30
145.0
 70
    64
  0
VERTEX
  5
B5
  8
TEAM-NET
 10
365.0
 20
226.096834
 30
145.0
 70
    64
  0
VERTEX
  5
B6
  8
TEAM-NET
 10
365.0
 20
205.181611
 30
145.0
 70
    64
  0
VERTEX
  5
B7
  8
TEAM-NET
 10
365.0
 20
184.266388
 30
145.0
 70
    64
  0
VERTEX
  5
B8
  8
TEAM-NET
 10
365.0
 20
163.351165
 30
145.0
 70
    64
  0
VERTEX
  5
B9
  8
TEAM-NET
 10
365.0
 20
142.435942
 30
145.0
 70
    64
  0
VERTEX
  5
BA
  8
TEAM-NET
 10
365.0
 20
121.520719
 30
145.0
 70
    64
  0
VERTEX
  5
BB
  8
TEAM-NET
 10
365.0
 20
100.605496
 30
145.0
 70
    64
  0
VERTEX
  5
BC
  8
TEAM-NET
 10
365.0
 20
79.690272
 30
145.0
 70
    64
  0
VERTEX
  5
BD
  8
TEAM-NET
 10
365.0
 20
58.775049
 30
145.0
 70
    64
  0
VERTEX
  5
BE
  8
TEAM-NET
 10
365.0
 20
37.859826
 30
145.0
 70
    64
  0
VERTEX
  5
BF
  8
TEAM-NET
 10
365.0
 20
16.944603
 30
145.0
 70
    64
  0
VERTEX
  5
C0
  8
TEAM-NET
 10
365.0
 20
-3.97062
 30
145.0
 70
    64
  0
VERTEX
  5
C1
  8
TEAM-NET
 10
365.0
 20
-24.885843
 30
145.0
 70
    64
  0
VERTEX
  5
C2
  8
TEAM-NET
 10
365.0
 20
-45.801066
 30
145.0
 70
    64
  0
VERTEX
  5
C3
  8
TEAM-NET
 10
365.0
 20
-66.716289
 30
145.0
 70
    64
  0
VERTEX
  5
C4
  8
TEAM-NET
 10
365.0
 20
-87.631512
 30
145.0
 70
    64
  0
VERTEX
  5
C5
  8
TEAM-NET
 10
365.0
 20
-108.546735
 30
145.0
 70
    64
  0
VERTEX
  5
C6
  8
TEAM-NET
 10
365.0
 20
-129.461958
 30
145.0
 70
    64
  0
VERTEX
  5
C7
  8
TEAM-NET
 10
365.0
 20
-150.377181
 30
145.0
 70
    64
  0
VERTEX
  5
C8
  8
TEAM-NET
 10
365.0
 20
-171.292405
 30
145.0
 70
    64
  0
VERTEX
  5
C9
  8
TEAM-NET
 10
365.0
 20
-192.207628
 30
145.0
 70
    64
  0
VERTEX
  5
CA
  8
TEAM-NET
 10
365.0
 20
-213.122851
 30
145.0
 70
    64
  0
VERTEX
  5
CB
  8
TEAM-NET
 10
365.0
 20
-234.038074
 30
145.0
 70
    64
  0
VERTEX
  5
CC
  8
TEAM-NET
 10
365.0
 20
-254.953297
 30
145.0
 70
    64
  0
VERTEX
  5
CD
  8
TEAM-NET
 10
365.0
 20
-275.86852
 30
145.0
 70
    64
  0
VERTEX
  5
CE
  8
TEAM-NET
 10
364.08525
 20
-296.7008
 30
145.0
 70
    64
  0
VERTEX
  5
CF
  8
TEAM-NET
 10
351.162226
 20
-312.369728
 30
145.0
 70
    64
  0
VERTEX
  5
D0
  8
TEAM-NET
 10
330.655719
 20
-315.0
 30
145.0
 70
    64
  0
VERTEX
  5
D1
  8
TEAM-NET
 10
309.740496
 20
-315.0
 30
145.0
 70
    64
  0
VERTEX
  5
D2
  8
TEAM-NET
 10
288.825273
 20
-315.0
 30
145.0
 70
    64
  0
VERTEX
  5
D3
  8
TEAM-NET
 10
267.91005
 20
-315.0
 30
145.0
 70
    64
  0
VERTEX
  5
D4
  8
TEAM-NET
 10
246.994827
 20
-315.0
 30
145.0
 70
    64
  0
VERTEX
  5
D5
  8
TEAM-NET
 10
226.079604
 20
-315.0
 30
145.0
 70
    64
  0
VERTEX
  5
D6
  8
TEAM-NET
 10
205.164381
 20
-315.0
 30
145.0
 70
    64
  0
VERTEX
  5
D7
  8
TEAM-NET
 10
184.249157
 20
-315.0
 30
145.0
 70
    64
  0
VERTEX
  5
D8
  8
TEAM-NET
 10
163.333934
 20
-315.0
 30
145.0
 70
    64
  0
VERTEX
  5
D9
  8
TEAM-NET
 10
142.418711
 20
-315.0
 30
145.0
 70
    64
  0
VERTEX
  5
DA
  8
TEAM-NET
 10
121.503488
 20
-315.0
 30
145.0
 70
    64
  0
VERTEX
  5
DB
  8
TEAM-NET
 10
100.588265
 20
-315.0
 30
145.0
 70
    64
  0
VERTEX
  5
DC
  8
TEAM-NET
 10
79.673042
 20
-315.0
 30
145.0
 70
    64
  0
VERTEX
  5
DD
  8
TEAM-NET
 10
58.757819
 20
-315.0
 30
145.0
 70
    64
  0
VERTEX
  5
DE
  8
TEAM-NET
 10
37.842596
 20
-315.0
 30
145.0
 70
    64
  0
VERTEX
  5
DF
  8
TEAM-NET
 10
16.927373
 20
-315.0
 30
145.0
 70
    64
  0
VERTEX
  5
E0
  8
TEAM-NET
 10
-3.98785
 20
-315.0
 30
145.0
 70
    64
  0
VERTEX
  5
E1
  8
TEAM-NET
 10
-24.903073
 20
-315.0
 30
145.0
 70
    64
  0
VERTEX
  5
E2
  8
TEAM-NET
 10
-45.818296
 20
-315.0
 30
145.0
 70
    64
  0
VERTEX
  5
E3
  8
TEAM-NET
 10
-66.73352
 20
-315.0
 30
145.0
 70
    64
  0
VERTEX
  5
E4
  8
TEAM-NET
 10
-87.648743
 20
-315.0
 30
145.0
 70
    64
  0
VERTEX
  5
E5
  8
TEAM-NET
 10
-108.563966
 20
-315.0
 30
145.0
 70
    64
  0
VERTEX
  5
E6
  8
TEAM-NET
 10
-129.479189
 20
-315.0
 30
145.0
 70
    64
  0
VERTEX
  5
E7
  8
TEAM-NET
 10
-150.394412
 20
-315.0
 30
145.0
 70
    64
  0
VERTEX
  5
E8
  8
TEAM-NET
 10
-171.309635
 20
-315.0
 30
145.0
 70
    64
  0
VERTEX
  5
E9
  8
TEAM-NET
 10
-192.224858
 20
-315.0
 30
145.0
 70
    64
  0
VERTEX
  5
EA
  8
TEAM-NET
 10
-213.140081
 20
-315.0
 30
145.0
 70
    64
  0
VERTEX
  5
EB
  8
TEAM-NET
 10
-234.055304
 20
-315.0
 30
145.0
 70
    64
  0
VERTEX
  5
EC
  8
TEAM-NET
 10
-254.970527
 20
-315.0
 30
145.0
 70
    64
  0
VERTEX
  5
ED
  8
TEAM-NET
 10
-275.88575
 20
-315.0
 30
145.0
 70
    64
  0
VERTEX
  5
EE
  8
TEAM-NET
 10
-296.800973
 20
-315.0
 30
145.0
 70
    64
  0
VERTEX
  5
EF
  8
TEAM-NET
 10
-317.716196
 20
-315.0
 30
145.0
 70
    64
  0
VERTEX
  5
F0
  8
TEAM-NET
 10
-338.63142
 20
-315.0
 30
145.0
 70
    64
  0
VERTEX
  5
F1
  8
TEAM-NET
 10
-357.615114
 20
-307.740005
 30
145.0
 70
    64
  0
VERTEX
  5
F2
  8
TEAM-NET
 10
371.666887
 20
321.971992
 30
200.0
 70
    64
  0
VERTEX
  5
F3
  8
TEAM-NET
 10
382.942159
 20
303.452544
 30
200.0
 70
    64
  0
VERTEX
  5
F4
  8
TEAM-NET
 10
385.0
 20
281.764201
 30
200.0
 70
    64
  0
VERTEX
  5
F5
  8
TEAM-NET
 10
385.0
 20
259.866972
 30
200.0
 70
    64
  0
VERTEX
  5
F6
  8
TEAM-NET
 10
385.0
 20
237.969743
 30
200.0
 70
    64
  0
VERTEX
  5
F7
  8
TEAM-NET
 10
385.0
 20
216.072513
 30
200.0
 70
    64
  0
VERTEX
  5
F8
  8
TEAM-NET
 10
385.0
 20
194.175284
 30
200.0
 70
    64
  0
VERTEX
  5
F9
  8
TEAM-NET
 10
385.0
 20
172.278054
 30
200.0
 70
    64
  0
VERTEX
  5
FA
  8
TEAM-NET
 10
385.0
 20
150.380825
 30
200.0
 70
    64
  0
VERTEX
  5
FB
  8
TEAM-NET
 10
385.0
 20
128.483595
 30
200.0
 70
    64
  0
VERTEX
  5
FC
  8
TEAM-NET
 10
385.0
 20
106.586366
 30
200.0
 70
    64
  0
VERTEX
  5
FD
  8
TEAM-NET
 10
385.0
 20
84.689137
 30
200.0
 70
    64
  0
VERTEX
  5
FE
  8
TEAM-NET
 10
385.0
 20
62.791907
 30
200.0
 70
    64
  0
VERTEX
  5
FF
  8
TEAM-NET
 10
385.0
 20
40.894678
 30
200.0
 70
    64
  0
VERTEX
  5
100
  8
TEAM-NET
 10
385.0
 20
18.997448
 30
200.0
 70
    64
  0
VERTEX
  5
101
  8
TEAM-NET
 10
385.0
 20
-2.899781
 30
200.0
 70
    64
  0
VERTEX
  5
102
  8
TEAM-NET
 10
385.0
 20
-24.79701
 30
200.0
 70
    64
  0
VERTEX
  5
103
  8
TEAM-NET
 10
385.0
 20
-46.69424
 30
200.0
 70
    64
  0
VERTEX
  5
104
  8
TEAM-NET
 10
385.0
 20
-68.591469
 30
200.0
 70
    64
  0
VERTEX
  5
105
  8
TEAM-NET
 10
385.0
 20
-90.488699
 30
200.0
 70
    64
  0
VERTEX
  5
106
  8
TEAM-NET
 10
385.0
 20
-112.385928
 30
200.0
 70
    64
  0
VERTEX
  5
107
  8
TEAM-NET
 10
385.0
 20
-134.283157
 30
200.0
 70
    64
  0
VERTEX
  5
108
  8
TEAM-NET
 10
385.0
 20
-156.180387
 30
200.0
 70
    64
  0
VERTEX
  5
109
  8
TEAM-NET
 10
385.0
 20
-178.077616
 30
200.0
 70
    64
  0
VERTEX
  5
10A
  8
TEAM-NET
 10
385.0
 20
-199.974846
 30
200.0
 70
    64
  0
VERTEX
  5
10B
  8
TEAM-NET
 10
385.0
 20
-221.872075
 30
200.0
 70
    64
  0
VERTEX
  5
10C
  8
TEAM-NET
 10
385.0
 20
-243.769305
 30
200.0
 70
    64
  0
VERTEX
  5
10D
  8
TEAM-NET
 10
385.0
 20
-265.666534
 30
200.0
 70
    64
  0
VERTEX
  5
10E
  8
TEAM-NET
 10
385.0
 20
-287.563763
 30
200.0
 70
    64
  0
VERTEX
  5
10F
  8
TEAM-NET
 10
380.857065
 20
-308.860018
 30
200.0
 70
    64
  0
VERTEX
  5
110
  8
TEAM-NET
 10
367.295134
 20
-325.776748
 30
200.0
 70
    64
  0
VERTEX
  5
111
  8
TEAM-NET
 10
347.396665
 20
-334.387941
 30
200.0
 70
    64
  0
VERTEX
  5
112
  8
TEAM-NET
 10
325.533154
 20
-335.0
 30
200.0
 70
    64
  0
VERTEX
  5
113
  8
TEAM-NET
 10
303.635924
 20
-335.0
 30
200.0
 70
    64
  0
VERTEX
  5
114
  8
TEAM-NET
 10
281.738695
 20
-335.0
 30
200.0
 70
    64
  0
VERTEX
  5
115
  8
TEAM-NET
 10
259.841465
 20
-335.0
 30
200.0
 70
    64
  0
VERTEX
  5
116
  8
TEAM-NET
 10
237.944236
 20
-335.0
 30
200.0
 70
    64
  0
VERTEX
  5
117
  8
TEAM-NET
 10
216.047007
 20
-335.0
 30
200.0
 70
    64
  0
VERTEX
  5
118
  8
TEAM-NET
 10
194.149777
 20
-335.0
 30
200.0
 70
    64
  0
VERTEX
  5
119
  8
TEAM-NET
 10
172.252548
 20
-335.0
 30
200.0
 70
    64
  0
VERTEX
  5
11A
  8
TEAM-NET
 10
150.355318
 20
-335.0
 30
200.0
 70
    64
  0
VERTEX
  5
11B
  8
TEAM-NET
 10
128.458089
 20
-335.0
 30
200.0
 70
    64
  0
VERTEX
  5
11C
  8
TEAM-NET
 10
106.56086
 20
-335.0
 30
200.0
 70
    64
  0
VERTEX
  5
11D
  8
TEAM-NET
 10
84.66363
 20
-335.0
 30
200.0
 70
    64
  0
VERTEX
  5
11E
  8
TEAM-NET
 10
62.766401
 20
-335.0
 30
200.0
 70
    64
  0
VERTEX
  5
11F
  8
TEAM-NET
 10
40.869171
 20
-335.0
 30
200.0
 70
    64
  0
VERTEX
  5
120
  8
TEAM-NET
 10
18.971942
 20
-335.0
 30
200.0
 70
    64
  0
VERTEX
  5
121
  8
TEAM-NET
 10
-2.925288
 20
-335.0
 30
200.0
 70
    64
  0
VERTEX
  5
122
  8
TEAM-NET
 10
-24.822517
 20
-335.0
 30
200.0
 70
    64
  0
VERTEX
  5
123
  8
TEAM-NET
 10
-46.719746
 20
-335.0
 30
200.0
 70
    64
  0
VERTEX
  5
124
  8
TEAM-NET
 10
-68.616976
 20
-335.0
 30
200.0
 70
    64
  0
VERTEX
  5
125
  8
TEAM-NET
 10
-90.514205
 20
-335.0
 30
200.0
 70
    64
  0
VERTEX
  5
126
  8
TEAM-NET
 10
-112.411435
 20
-335.0
 30
200.0
 70
    64
  0
VERTEX
  5
127
  8
TEAM-NET
 10
-134.308664
 20
-335.0
 30
200.0
 70
    64
  0
VERTEX
  5
128
  8
TEAM-NET
 10
-156.205893
 20
-335.0
 30
200.0
 70
    64
  0
VERTEX
  5
129
  8
TEAM-NET
 10
-178.103123
 20
-335.0
 30
200.0
 70
    64
  0
VERTEX
  5
12A
  8
TEAM-NET
 10
-200.000352
 20
-335.0
 30
200.0
 70
    64
  0
VERTEX
  5
12B
  8
TEAM-NET
 10
-221.897582
 20
-335.0
 30
200.0
 70
    64
  0
VERTEX
  5
12C
  8
TEAM-NET
 10
-243.794811
 20
-335.0
 30
200.0
 70
    64
  0
VERTEX
  5
12D
  8
TEAM-NET
 10
-265.692041
 20
-335.0
 30
200.0
 70
    64
  0
VERTEX
  5
12E
  8
TEAM-NET
 10
-287.58927
 20
-335.0
 30
200.0
 70
    64
  0
VERTEX
  5
12F
  8
TEAM-NET
 10
-309.486499
 20
-335.0
 30
200.0
 70
    64
  0
VERTEX
  5
130
  8
TEAM-NET
 10
-331.383729
 20
-335.0
 30
200.0
 70
    64
  0
VERTEX
  5
131
  8
TEAM-NET
 10
-353.088994
 20
-333.054364
 30
200.0
 70
    64
  0
VERTEX
  5
132
  8
TEAM-NET
 10
-371.703111
 20
-321.936073
 30
200.0
 70
    64
  0
SEQEND
  5
133
  8
TEAM-NET
  0
POLYLINE
  5
134
  8
TEAM-NET
 66
     1
 10
0.0
 20
0.0
 30
0.0
 70
    16
 71
     2
 72
    65
  0
VERTEX
  5
135
  8
TEAM-NET
 10
357.590644
 20
307.764269
 30
145.0
 70
    64
  0
VERTEX
  5
136
  8
TEAM-NET
 10
365.0
 20
288.842503
 30
145.0
 70
    64
  0
VERTEX
  5
137
  8
TEAM-NET
 10
365.0
 20
267.92728
 30
145.0
 70
    64
  0
VERTEX
  5
138
  8
TEAM-NET
 10
365.0
 20
247.012057
 30
145.0
 70
    64
  0
VERTEX
  5
139
  8
TEAM-NET
 10
365.0
 20
226.096834
 30
145.0
 70
    64
  0
VERTEX
  5
13A
  8
TEAM-NET
 10
365.0
 20
205.181611
 30
145.0
 70
    64
  0
VERTEX
  5
13B
  8
TEAM-NET
 10
365.0
 20
184.266388
 30
145.0
 70
    64
  0
VERTEX
  5
13C
  8
TEAM-NET
 10
365.0
 20
163.351165
 30
145.0
 70
    64
  0
VERTEX
  5
13D
  8
TEAM-NET
 10
365.0
 20
142.435942
 30
145.0
 70
    64
  0
VERTEX
  5
13E
  8
TEAM-NET
 10
365.0
 20
121.520719
 30
145.0
 70
    64
  0
VERTEX
  5
13F
  8
TEAM-NET
 10
365.0
 20
100.605496
 30
145.0
 70
    64
  0
VERTEX
  5
140
  8
TEAM-NET
 10
365.0
 20
79.690272
 30
145.0
 70
    64
  0
VERTEX
  5
141
  8
TEAM-NET
 10
365.0
 20
58.775049
 30
145.0
 70
    64
  0
VERTEX
  5
142
  8
TEAM-NET
 10
365.0
 20
37.859826
 30
145.0
 70
    64
  0
VERTEX
  5
143
  8
TEAM-NET
 10
365.0
 20
16.944603
 30
145.0
 70
    64
  0
VERTEX
  5
144
  8
TEAM-NET
 10
365.0
 20
-3.97062
 30
145.0
 70
    64
  0
VERTEX
  5
145
  8
TEAM-NET
 10
365.0
 20
-24.885843
 30
145.0
 70
    64
  0
VERTEX
  5
146
  8
TEAM-NET
 10
365.0
 20
-45.801066
 30
145.0
 70
    64
  0
VERTEX
  5
147
  8
TEAM-NET
 10
365.0
 20
-66.716289
 30
145.0
 70
    64
  0
VERTEX
  5
148
  8
TEAM-NET
 10
365.0
 20
-87.631512
 30
145.0
 70
    64
  0
VERTEX
  5
149
  8
TEAM-NET
 10
365.0
 20
-108.546735
 30
145.0
 70
    64
  0
VERTEX
  5
14A
  8
TEAM-NET
 10
365.0
 20
-129.461958
 30
145.0
 70
    64
  0
VERTEX
  5
14B
  8
TEAM-NET
 10
365.0
 20
-150.377181
 30
145.0
 70
    64
  0
VERTEX
  5
14C
  8
TEAM-NET
 10
365.0
 20
-171.292405
 30
145.0
 70
    64
  0
VERTEX
  5
14D
  8
TEAM-NET
 10
365.0
 20
-192.207628
 30
145.0
 70
    64
  0
VERTEX
  5
14E
  8
TEAM-NET
 10
365.0
 20
-213.122851
 30
145.0
 70
    64
  0
VERTEX
  5
14F
  8
TEAM-NET
 10
365.0
 20
-234.038074
 30
145.0
 70
    64
  0
VERTEX
  5
150
  8
TEAM-NET
 10
365.0
 20
-254.953297
 30
145.0
 70
    64
  0
VERTEX
  5
151
  8
TEAM-NET
 10
365.0
 20
-275.86852
 30
145.0
 70
    64
  0
VERTEX
  5
152
  8
TEAM-NET
 10
364.08525
 20
-296.7008
 30
145.0
 70
    64
  0
VERTEX
  5
153
  8
TEAM-NET
 10
351.162226
 20
-312.369728
 30
145.0
 70
    64
  0
VERTEX
  5
154
  8
TEAM-NET
 10
330.655719
 20
-315.0
 30
145.0
 70
    64
  0
VERTEX
  5
155
  8
TEAM-NET
 10
309.740496
 20
-315.0
 30
145.0
 70
    64
  0
VERTEX
  5
156
  8
TEAM-NET
 10
288.825273
 20
-315.0
 30
145.0
 70
    64
  0
VERTEX
  5
157
  8
TEAM-NET
 10
267.91005
 20
-315.0
 30
145.0
 70
    64
  0
VERTEX
  5
158
  8
TEAM-NET
 10
246.994827
 20
-315.0
 30
145.0
 70
    64
  0
VERTEX
  5
159
  8
TEAM-NET
 10
226.079604
 20
-315.0
 30
145.0
 70
    64
  0
VERTEX
  5
15A
  8
TEAM-NET
 10
205.164381
 20
-315.0
 30
145.0
 70
    64
  0
VERTEX
  5
15B
  8
TEAM-NET
 10
184.249157
 20
-315.0
 30
145.0
 70
    64
  0
VERTEX
  5
15C
  8
TEAM-NET
 10
163.333934
 20
-315.0
 30
145.0
 70
    64
  0
VERTEX
  5
15D
  8
TEAM-NET
 10
142.418711
 20
-315.0
 30
145.0
 70
    64
  0
VERTEX
  5
15E
  8
TEAM-NET
 10
121.503488
 20
-315.0
 30
145.0
 70
    64
  0
VERTEX
  5
15F
  8
TEAM-NET
 10
100.588265
 20
-315.0
 30
145.0
 70
    64
  0
VERTEX
  5
160
  8
TEAM-NET
 10
79.673042
 20
-315.0
 30
145.0
 70
    64
  0
VERTEX
  5
161
  8
TEAM-NET
 10
58.757819
 20
-315.0
 30
145.0
 70
    64
  0
VERTEX
  5
162
  8
TEAM-NET
 10
37.842596
 20
-315.0
 30
145.0
 70
    64
  0
VERTEX
  5
163
  8
TEAM-NET
 10
16.927373
 20
-315.0
 30
145.0
 70
    64
  0
VERTEX
  5
164
  8
TEAM-NET
 10
-3.98785
 20
-315.0
 30
145.0
 70
    64
  0
VERTEX
  5
165
  8
TEAM-NET
 10
-24.903073
 20
-315.0
 30
145.0
 70
    64
  0
VERTEX
  5
166
  8
TEAM-NET
 10
-45.818296
 20
-315.0
 30
145.0
 70
    64
  0
VERTEX
  5
167
  8
TEAM-NET
 10
-66.73352
 20
-315.0
 30
145.0
 70
    64
  0
VERTEX
  5
168
  8
TEAM-NET
 10
-87.648743
 20
-315.0
 30
145.0
 70
    64
  0
VERTEX
  5
169
  8
TEAM-NET
 10
-108.563966
 20
-315.0
 30
145.0
 70
    64
  0
VERTEX
  5
16A
  8
TEAM-NET
 10
-129.479189
 20
-315.0
 30
145.0
 70
    64
  0
VERTEX
  5
16B
  8
TEAM-NET
 10
-150.394412
 20
-315.0
 30
145.0
 70
    64
  0
VERTEX
  5
16C
  8
TEAM-NET
 10
-171.309635
 20
-315.0
 30
145.0
 70
    64
  0
VERTEX
  5
16D
  8
TEAM-NET
 10
-192.224858
 20
-315.0
 30
145.0
 70
    64
  0
VERTEX
  5
16E
  8
TEAM-NET
 10
-213.140081
 20
-315.0
 30
145.0
 70
    64
  0
VERTEX
  5
16F
  8
TEAM-NET
 10
-234.055304
 20
-315.0
 30
145.0
 70
    64
  0
VERTEX
  5
170
  8
TEAM-NET
 10
-254.970527
 20
-315.0
 30
145.0
 70
    64
  0
VERTEX
  5
171
  8
TEAM-NET
 10
-275.88575
 20
-315.0
 30
145.0
 70
    64
  0
VERTEX
  5
172
  8
TEAM-NET
 10
-296.800973
 20
-315.0
 30
145.0
 70
    64
  0
VERTEX
  5
173
  8
TEAM-NET
 10
-317.716196
 20
-315.0
 30
145.0
 70
    64
  0
VERTEX
  5
174
  8
TEAM-NET
 10
-338.63142
 20
-315.0
 30
145.0
 70
    64
  0
VERTEX
  5
175
  8
TEAM-NET
 10
-357.615114
 20
-307.740005
 30
145.0
 70
    64
  0
VERTEX
  5
176
  8
TEAM-NET
 10
357.584116
 20
307.77073
 30
145.0
 70
    64
  0
VERTEX
  5
177
  8
TEAM-NET
 10
338.589093
 20
315.0
 30
145.0
 70
    64
  0
VERTEX
  5
178
  8
TEAM-NET
 10
317.675189
 20
315.0
 30
145.0
 70
    64
  0
VERTEX
  5
179
  8
TEAM-NET
 10
296.761284
 20
315.0
 30
145.0
 70
    64
  0
VERTEX
  5
17A
  8
TEAM-NET
 10
275.84738
 20
315.0
 30
145.0
 70
    64
  0
VERTEX
  5
17B
  8
TEAM-NET
 10
254.933476
 20
315.0
 30
145.0
 70
    64
  0
VERTEX
  5
17C
  8
TEAM-NET
 10
234.019571
 20
315.0
 30
145.0
 70
    64
  0
VERTEX
  5
17D
  8
TEAM-NET
 10
213.105667
 20
315.0
 30
145.0
 70
    64
  0
VERTEX
  5
17E
  8
TEAM-NET
 10
192.191762
 20
315.0
 30
145.0
 70
    64
  0
VERTEX
  5
17F
  8
TEAM-NET
 10
171.277858
 20
315.0
 30
145.0
 70
    64
  0
VERTEX
  5
180
  8
TEAM-NET
 10
150.363954
 20
315.0
 30
145.0
 70
    64
  0
VERTEX
  5
181
  8
TEAM-NET
 10
129.450049
 20
315.0
 30
145.0
 70
    64
  0
VERTEX
  5
182
  8
TEAM-NET
 10
108.536145
 20
315.0
 30
145.0
 70
    64
  0
VERTEX
  5
183
  8
TEAM-NET
 10
87.622241
 20
315.0
 30
145.0
 70
    64
  0
VERTEX
  5
184
  8
TEAM-NET
 10
66.708336
 20
315.0
 30
145.0
 70
    64
  0
VERTEX
  5
185
  8
TEAM-NET
 10
45.794432
 20
315.0
 30
145.0
 70
    64
  0
VERTEX
  5
186
  8
TEAM-NET
 10
24.880528
 20
315.0
 30
145.0
 70
    64
  0
VERTEX
  5
187
  8
TEAM-NET
 10
3.966623
 20
315.0
 30
145.0
 70
    64
  0
VERTEX
  5
188
  8
TEAM-NET
 10
-16.947281
 20
315.0
 30
145.0
 70
    64
  0
VERTEX
  5
189
  8
TEAM-NET
 10
-37.861185
 20
315.0
 30
145.0
 70
    64
  0
VERTEX
  5
18A
  8
TEAM-NET
 10
-58.77509
 20
315.0
 30
145.0
 70
    64
  0
VERTEX
  5
18B
  8
TEAM-NET
 10
-79.688994
 20
315.0
 30
145.0
 70
    64
  0
VERTEX
  5
18C
  8
TEAM-NET
 10
-100.602898
 20
315.0
 30
145.0
 70
    64
  0
VERTEX
  5
18D
  8
TEAM-NET
 10
-121.516803
 20
315.0
 30
145.0
 70
    64
  0
VERTEX
  5
18E
  8
TEAM-NET
 10
-142.430707
 20
315.0
 30
145.0
 70
    64
  0
VERTEX
  5
18F
  8
TEAM-NET
 10
-163.344612
 20
315.0
 30
145.0
 70
    64
  0
VERTEX
  5
190
  8
TEAM-NET
 10
-184.258516
 20
315.0
 30
145.0
 70
    64
  0
VERTEX
  5
191
  8
TEAM-NET
 10
-205.17242
 20
315.0
 30
145.0
 70
    64
  0
VERTEX
  5
192
  8
TEAM-NET
 10
-226.086325
 20
315.0
 30
145.0
 70
    64
  0
VERTEX
  5
193
  8
TEAM-NET
 10
-247.000229
 20
315.0
 30
145.0
 70
    64
  0
VERTEX
  5
194
  8
TEAM-NET
 10
-267.914133
 20
315.0
 30
145.0
 70
    64
  0
VERTEX
  5
195
  8
TEAM-NET
 10
-288.828038
 20
315.0
 30
145.0
 70
    64
  0
VERTEX
  5
196
  8
TEAM-NET
 10
-309.741942
 20
315.0
 30
145.0
 70
    64
  0
VERTEX
  5
197
  8
TEAM-NET
 10
-330.655846
 20
315.0
 30
145.0
 70
    64
  0
VERTEX
  5
198
  8
TEAM-NET
 10
-351.16116
 20
312.37026
 30
145.0
 70
    64
  0
VERTEX
  5
199
  8
TEAM-NET
 10
-364.084577
 20
296.703219
 30
145.0
 70
    64
  0
VERTEX
  5
19A
  8
TEAM-NET
 10
-365.0
 20
275.872349
 30
145.0
 70
    64
  0
VERTEX
  5
19B
  8
TEAM-NET
 10
-365.0
 20
254.958444
 30
145.0
 70
    64
  0
VERTEX
  5
19C
  8
TEAM-NET
 10
-365.0
 20
234.04454
 30
145.0
 70
    64
  0
VERTEX
  5
19D
  8
TEAM-NET
 10
-365.0
 20
213.130636
 30
145.0
 70
    64
  0
VERTEX
  5
19E
  8
TEAM-NET
 10
-365.0
 20
192.216731
 30
145.0
 70
    64
  0
VERTEX
  5
19F
  8
TEAM-NET
 10
-365.0
 20
171.302827
 30
145.0
 70
    64
  0
VERTEX
  5
1A0
  8
TEAM-NET
 10
-365.0
 20
150.388923
 30
145.0
 70
    64
  0
VERTEX
  5
1A1
  8
TEAM-NET
 10
-365.0
 20
129.475018
 30
145.0
 70
    64
  0
VERTEX
  5
1A2
  8
TEAM-NET
 10
-365.0
 20
108.561114
 30
145.0
 70
    64
  0
VERTEX
  5
1A3
  8
TEAM-NET
 10
-365.0
 20
87.64721
 30
145.0
 70
    64
  0
VERTEX
  5
1A4
  8
TEAM-NET
 10
-365.0
 20
66.733305
 30
145.0
 70
    64
  0
VERTEX
  5
1A5
  8
TEAM-NET
 10
-365.0
 20
45.819401
 30
145.0
 70
    64
  0
VERTEX
  5
1A6
  8
TEAM-NET
 10
-365.0
 20
24.905496
 30
145.0
 70
    64
  0
VERTEX
  5
1A7
  8
TEAM-NET
 10
-365.0
 20
3.991592
 30
145.0
 70
    64
  0
VERTEX
  5
1A8
  8
TEAM-NET
 10
-365.0
 20
-16.922312
 30
145.0
 70
    64
  0
VERTEX
  5
1A9
  8
TEAM-NET
 10
-365.0
 20
-37.836217
 30
145.0
 70
    64
  0
VERTEX
  5
1AA
  8
TEAM-NET
 10
-365.0
 20
-58.750121
 30
145.0
 70
    64
  0
VERTEX
  5
1AB
  8
TEAM-NET
 10
-365.0
 20
-79.664025
 30
145.0
 70
    64
  0
VERTEX
  5
1AC
  8
TEAM-NET
 10
-365.0
 20
-100.57793
 30
145.0
 70
    64
  0
VERTEX
  5
1AD
  8
TEAM-NET
 10
-365.0
 20
-121.491834
 30
145.0
 70
    64
  0
VERTEX
  5
1AE
  8
TEAM-NET
 10
-365.0
 20
-142.405738
 30
145.0
 70
    64
  0
VERTEX
  5
1AF
  8
TEAM-NET
 10
-365.0
 20
-163.319643
 30
145.0
 70
    64
  0
VERTEX
  5
1B0
  8
TEAM-NET
 10
-365.0
 20
-184.233547
 30
145.0
 70
    64
  0
VERTEX
  5
1B1
  8
TEAM-NET
 10
-365.0
 20
-205.147451
 30
145.0
 70
    64
  0
VERTEX
  5
1B2
  8
TEAM-NET
 10
-365.0
 20
-226.061356
 30
145.0
 70
    64
  0
VERTEX
  5
1B3
  8
TEAM-NET
 10
-365.0
 20
-246.97526
 30
145.0
 70
    64
  0
VERTEX
  5
1B4
  8
TEAM-NET
 10
-365.0
 20
-267.889165
 30
145.0
 70
    64
  0
VERTEX
  5
1B5
  8
TEAM-NET
 10
-365.0
 20
-288.803069
 30
145.0
 70
    64
  0
VERTEX
  5
1B6
  8
TEAM-NET
 10
-357.619578
 20
-307.735571
 30
145.0
 70
    64
  0
SEQEND
  5
1B7
  8
TEAM-NET
  0
POLYLINE
  5
1B8
  8
TEAM-BODY
 66
     1
 10
0.0
 20
0.0
 30
145.0
  0
VERTEX
  5
43A
  8
TEAM-BODY
 10
-357.615114
 20
-307.740005
 30
145.0
 42
0.197994
  0
VERTEX
  5
43B
  8
TEAM-BODY
 10
-340.0
 20
-315.0
 30
145.0
  0
VERTEX
  5
43C
  8
TEAM-BODY
 10
340.0
 20
-315.0
 30
145.0
 42
0.414214
  0
VERTEX
  5
43D
  8
TEAM-BODY
 10
365.0
 20
-290.0
 30
145.0
  0
VERTEX
  5
43E
  8
TEAM-BODY
 10
365.0
 20
290.0
 30
145.0
 42
0.200189
  0
VERTEX
  5
43F
  8
TEAM-BODY
 10
357.590644
 20
307.764269
 30
145.0
 42
0.200189
  0
SEQEND
  5
440
  8
TEAM-BODY
  0
POLYLINE
  5
1BA
  8
TEAM-BODY
 66
     1
 10
0.0
 20
0.0
 30
145.0
  0
VERTEX
  5
441
  8
TEAM-BODY
 10
357.584116
 20
307.77073
 30
145.0
 42
0.197541
  0
VERTEX
  5
442
  8
TEAM-BODY
 10
340.0
 20
315.0
 30
145.0
  0
VERTEX
  5
443
  8
TEAM-BODY
 10
-340.0
 20
315.0
 30
145.0
 42
0.414214
  0
VERTEX
  5
444
  8
TEAM-BODY
 10
-365.0
 20
290.0
 30
145.0
  0
VERTEX
  5
445
  8
TEAM-BODY
 10
-365.0
 20
-290.0
 30
145.0
 42
0.199765
  0
VERTEX
  5
446
  8
TEAM-BODY
 10
-357.619578
 20
-307.735571
 30
145.0
 42
0.199765
  0
SEQEND
  5
447
  8
TEAM-BODY
  0
POLYLINE
  5
1BB
  8
TEAM-BODY
 66
     1
 10
0.0
 20
0.0
 30
200.0
 39
-10.0
  0
VERTEX
  5
448
  8
TEAM-BODY
 10
-450.0
 20
-400.0
 30
200.0
  0
VERTEX
  5
449
  8
TEAM-BODY
 10
450.0
 20
-400.0
 30
200.0
  0
VERTEX
  5
44A
  8
TEAM-BODY
 10
450.0
 20
400.0
 30
200.0
  0
SEQEND
  5
44B
  8
TEAM-BODY
  0
POLYLINE
  5
1BC
  8
TEAM-BODY
 66
     1
 10
0.0
 20
0.0
 30
200.0
 39
-10.0
  0
VERTEX
  5
44C
  8
TEAM-BODY
 10
450.0
 20
400.0
 30
200.0
  0
VERTEX
  5
44D
  8
TEAM-BODY
 10
-450.0
 20
400.0
 30
200.0
  0
VERTEX
  5
44E
  8
TEAM-BODY
 10
-450.0
 20
-400.0
 30
200.0
  0
SEQEND
  5
44F
  8
TEAM-BODY
  0
POLYLINE
  5
1BD
  8
TEAM-DET1
 66
     1
 10
0.0
 20
0.0
 30
200.0
  0
VERTEX
  5
450
  8
TEAM-DET1
 10
371.663561
 20
321.975285
 30
200.0
 42
0.19764
  0
VERTEX
  5
451
  8
TEAM-DET1
 10
340.0
 20
335.0
 30
200.0
  0
VERTEX
  5
452
  8
TEAM-DET1
 10
-340.0
 20
335.0
 30
200.0
 42
0.414214
  0
VERTEX
  5
453
  8
TEAM-DET1
 10
-385.0
 20
290.0
 30
200.0
  0
VERTEX
  5
454
  8
TEAM-DET1
 10
-385.0
 20
-290.0
 30
200.0
 42
0.199832
  0
VERTEX
  5
455
  8
TEAM-DET1
 10
-371.706971
 20
-321.932241
 30
200.0
 42
0.199832
  0
SEQEND
  5
456
  8
TEAM-DET1
  0
POLYLINE
  5
1BF
  8
TEAM-DET1
 66
     1
 10
0.0
 20
0.0
 30
200.0
  0
VERTEX
  5
457
  8
TEAM-DET1
 10
-371.703111
 20
-321.936073
 30
200.0
 42
0.197961
  0
VERTEX
  5
458
  8
TEAM-DET1
 10
-340.0
 20
-335.0
 30
200.0
  0
VERTEX
  5
459
  8
TEAM-DET1
 10
340.0
 20
-335.0
 30
200.0
 42
0.414214
  0
VERTEX
  5
45A
  8
TEAM-DET1
 10
385.0
 20
-290.0
 30
200.0
  0
VERTEX
  5
45B
  8
TEAM-DET1
 10
385.0
 20
290.0
 30
200.0
 42
0.200159
  0
VERTEX
  5
45C
  8
TEAM-DET1
 10
371.666887
 20
321.971992
 30
200.0
 42
0.200159
  0
SEQEND
  5
45D
  8
TEAM-DET1
  0
TEXT
  5
1C0
  8
TEAM-TXT
 10
-347.983158
 20
268.94467
 30
200.0
 40
30.0
  1
team 141298
 41
0.8
 51
15.0
  7
TEAM
  0
POLYLINE
  5
1C3
  8
TEAM-NET
 66
     1
 10
0.0
 20
0.0
 30
0.0
 70
    16
 71
     2
 72
    65
  0
VERTEX
  5
1C4
  8
TEAM-NET
 10
371.666887
 20
321.971992
 30
200.0
 70
    64
  0
VERTEX
  5
1C5
  8
TEAM-NET
 10
382.942159
 20
303.452544
 30
200.0
 70
    64
  0
VERTEX
  5
1C6
  8
TEAM-NET
 10
385.0
 20
281.764201
 30
200.0
 70
    64
  0
VERTEX
  5
1C7
  8
TEAM-NET
 10
385.0
 20
259.866972
 30
200.0
 70
    64
  0
VERTEX
  5
1C8
  8
TEAM-NET
 10
385.0
 20
237.969743
 30
200.0
 70
    64
  0
VERTEX
  5
1C9
  8
TEAM-NET
 10
385.0
 20
216.072513
 30
200.0
 70
    64
  0
VERTEX
  5
1CA
  8
TEAM-NET
 10
385.0
 20
194.175284
 30
200.0
 70
    64
  0
VERTEX
  5
1CB
  8
TEAM-NET
 10
385.0
 20
172.278054
 30
200.0
 70
    64
  0
VERTEX
  5
1CC
  8
TEAM-NET
 10
385.0
 20
150.380825
 30
200.0
 70
    64
  0
VERTEX
  5
1CD
  8
TEAM-NET
 10
385.0
 20
128.483595
 30
200.0
 70
    64
  0
VERTEX
  5
1CE
  8
TEAM-NET
 10
385.0
 20
106.586366
 30
200.0
 70
    64
  0
VERTEX
  5
1CF
  8
TEAM-NET
 10
385.0
 20
84.689137
 30
200.0
 70
    64
  0
VERTEX
  5
1D0
  8
TEAM-NET
 10
385.0
 20
62.791907
 30
200.0
 70
    64
  0
VERTEX
  5
1D1
  8
TEAM-NET
 10
385.0
 20
40.894678
 30
200.0
 70
    64
  0
VERTEX
  5
1D2
  8
TEAM-NET
 10
385.0
 20
18.997448
 30
200.0
 70
    64
  0
VERTEX
  5
1D3
  8
TEAM-NET
 10
385.0
 20
-2.899781
 30
200.0
 70
    64
  0
VERTEX
  5
1D4
  8
TEAM-NET
 10
385.0
 20
-24.79701
 30
200.0
 70
    64
  0
VERTEX
  5
1D5
  8
TEAM-NET
 10
385.0
 20
-46.69424
 30
200.0
 70
    64
  0
VERTEX
  5
1D6
  8
TEAM-NET
 10
385.0
 20
-68.591469
 30
200.0
 70
    64
  0
VERTEX
  5
1D7
  8
TEAM-NET
 10
385.0
 20
-90.488699
 30
200.0
 70
    64
  0
VERTEX
  5
1D8
  8
TEAM-NET
 10
385.0
 20
-112.385928
 30
200.0
 70
    64
  0
VERTEX
  5
1D9
  8
TEAM-NET
 10
385.0
 20
-134.283157
 30
200.0
 70
    64
  0
VERTEX
  5
1DA
  8
TEAM-NET
 10
385.0
 20
-156.180387
 30
200.0
 70
    64
  0
VERTEX
  5
1DB
  8
TEAM-NET
 10
385.0
 20
-178.077616
 30
200.0
 70
    64
  0
VERTEX
  5
1DC
  8
TEAM-NET
 10
385.0
 20
-199.974846
 30
200.0
 70
    64
  0
VERTEX
  5
1DD
  8
TEAM-NET
 10
385.0
 20
-221.872075
 30
200.0
 70
    64
  0
VERTEX
  5
1DE
  8
TEAM-NET
 10
385.0
 20
-243.769305
 30
200.0
 70
    64
  0
VERTEX
  5
1DF
  8
TEAM-NET
 10
385.0
 20
-265.666534
 30
200.0
 70
    64
  0
VERTEX
  5
1E0
  8
TEAM-NET
 10
385.0
 20
-287.563763
 30
200.0
 70
    64
  0
VERTEX
  5
1E1
  8
TEAM-NET
 10
380.857065
 20
-308.860018
 30
200.0
 70
    64
  0
VERTEX
  5
1E2
  8
TEAM-NET
 10
367.295134
 20
-325.776748
 30
200.0
 70
    64
  0
VERTEX
  5
1E3
  8
TEAM-NET
 10
347.396665
 20
-334.387941
 30
200.0
 70
    64
  0
VERTEX
  5
1E4
  8
TEAM-NET
 10
325.533154
 20
-335.0
 30
200.0
 70
    64
  0
VERTEX
  5
1E5
  8
TEAM-NET
 10
303.635924
 20
-335.0
 30
200.0
 70
    64
  0
VERTEX
  5
1E6
  8
TEAM-NET
 10
281.738695
 20
-335.0
 30
200.0
 70
    64
  0
VERTEX
  5
1E7
  8
TEAM-NET
 10
259.841465
 20
-335.0
 30
200.0
 70
    64
  0
VERTEX
  5
1E8
  8
TEAM-NET
 10
237.944236
 20
-335.0
 30
200.0
 70
    64
  0
VERTEX
  5
1E9
  8
TEAM-NET
 10
216.047007
 20
-335.0
 30
200.0
 70
    64
  0
VERTEX
  5
1EA
  8
TEAM-NET
 10
194.149777
 20
-335.0
 30
200.0
 70
    64
  0
VERTEX
  5
1EB
  8
TEAM-NET
 10
172.252548
 20
-335.0
 30
200.0
 70
    64
  0
VERTEX
  5
1EC
  8
TEAM-NET
 10
150.355318
 20
-335.0
 30
200.0
 70
    64
  0
VERTEX
  5
1ED
  8
TEAM-NET
 10
128.458089
 20
-335.0
 30
200.0
 70
    64
  0
VERTEX
  5
1EE
  8
TEAM-NET
 10
106.56086
 20
-335.0
 30
200.0
 70
    64
  0
VERTEX
  5
1EF
  8
TEAM-NET
 10
84.66363
 20
-335.0
 30
200.0
 70
    64
  0
VERTEX
  5
1F0
  8
TEAM-NET
 10
62.766401
 20
-335.0
 30
200.0
 70
    64
  0
VERTEX
  5
1F1
  8
TEAM-NET
 10
40.869171
 20
-335.0
 30
200.0
 70
    64
  0
VERTEX
  5
1F2
  8
TEAM-NET
 10
18.971942
 20
-335.0
 30
200.0
 70
    64
  0
VERTEX
  5
1F3
  8
TEAM-NET
 10
-2.925288
 20
-335.0
 30
200.0
 70
    64
  0
VERTEX
  5
1F4
  8
TEAM-NET
 10
-24.822517
 20
-335.0
 30
200.0
 70
    64
  0
VERTEX
  5
1F5
  8
TEAM-NET
 10
-46.719746
 20
-335.0
 30
200.0
 70
    64
  0
VERTEX
  5
1F6
  8
TEAM-NET
 10
-68.616976
 20
-335.0
 30
200.0
 70
    64
  0
VERTEX
  5
1F7
  8
TEAM-NET
 10
-90.514205
 20
-335.0
 30
200.0
 70
    64
  0
VERTEX
  5
1F8
  8
TEAM-NET
 10
-112.411435
 20
-335.0
 30
200.0
 70
    64
  0
VERTEX
  5
1F9
  8
TEAM-NET
 10
-134.308664
 20
-335.0
 30
200.0
 70
    64
  0
VERTEX
  5
1FA
  8
TEAM-NET
 10
-156.205893
 20
-335.0
 30
200.0
 70
    64
  0
VERTEX
  5
1FB
  8
TEAM-NET
 10
-178.103123
 20
-335.0
 30
200.0
 70
    64
  0
VERTEX
  5
1FC
  8
TEAM-NET
 10
-200.000352
 20
-335.0
 30
200.0
 70
    64
  0
VERTEX
  5
1FD
  8
TEAM-NET
 10
-221.897582
 20
-335.0
 30
200.0
 70
    64
  0
VERTEX
  5
1FE
  8
TEAM-NET
 10
-243.794811
 20
-335.0
 30
200.0
 70
    64
  0
VERTEX
  5
1FF
  8
TEAM-NET
 10
-265.692041
 20
-335.0
 30
200.0
 70
    64
  0
VERTEX
  5
200
  8
TEAM-NET
 10
-287.58927
 20
-335.0
 30
200.0
 70
    64
  0
VERTEX
  5
201
  8
TEAM-NET
 10
-309.486499
 20
-335.0
 30
200.0
 70
    64
  0
VERTEX
  5
202
  8
TEAM-NET
 10
-331.383729
 20
-335.0
 30
200.0
 70
    64
  0
VERTEX
  5
203
  8
TEAM-NET
 10
-353.088994
 20
-333.054364
 30
200.0
 70
    64
  0
VERTEX
  5
204
  8
TEAM-NET
 10
-371.703111
 20
-321.936073
 30
200.0
 70
    64
  0
VERTEX
  5
205
  8
TEAM-NET
 10
450.0
 20
400.0
 30
200.0
 70
    64
  0
VERTEX
  5
206
  8
TEAM-NET
 10
450.0
 20
373.4375
 30
200.0
 70
    64
  0
VERTEX
  5
207
  8
TEAM-NET
 10
450.0
 20
346.875
 30
200.0
 70
    64
  0
VERTEX
  5
208
  8
TEAM-NET
 10
450.0
 20
320.3125
 30
200.0
 70
    64
  0
VERTEX
  5
209
  8
TEAM-NET
 10
450.0
 20
293.75
 30
200.0
 70
    64
  0
VERTEX
  5
20A
  8
TEAM-NET
 10
450.0
 20
267.1875
 30
200.0
 70
    64
  0
VERTEX
  5
20B
  8
TEAM-NET
 10
450.0
 20
240.625
 30
200.0
 70
    64
  0
VERTEX
  5
20C
  8
TEAM-NET
 10
450.0
 20
214.0625
 30
200.0
 70
    64
  0
VERTEX
  5
20D
  8
TEAM-NET
 10
450.0
 20
187.5
 30
200.0
 70
    64
  0
VERTEX
  5
20E
  8
TEAM-NET
 10
450.0
 20
160.9375
 30
200.0
 70
    64
  0
VERTEX
  5
20F
  8
TEAM-NET
 10
450.0
 20
134.375
 30
200.0
 70
    64
  0
VERTEX
  5
210
  8
TEAM-NET
 10
450.0
 20
107.8125
 30
200.0
 70
    64
  0
VERTEX
  5
211
  8
TEAM-NET
 10
450.0
 20
81.25
 30
200.0
 70
    64
  0
VERTEX
  5
212
  8
TEAM-NET
 10
450.0
 20
54.6875
 30
200.0
 70
    64
  0
VERTEX
  5
213
  8
TEAM-NET
 10
450.0
 20
28.125
 30
200.0
 70
    64
  0
VERTEX
  5
214
  8
TEAM-NET
 10
450.0
 20
1.5625
 30
200.0
 70
    64
  0
VERTEX
  5
215
  8
TEAM-NET
 10
450.0
 20
-25.0
 30
200.0
 70
    64
  0
VERTEX
  5
216
  8
TEAM-NET
 10
450.0
 20
-51.5625
 30
200.0
 70
    64
  0
VERTEX
  5
217
  8
TEAM-NET
 10
450.0
 20
-78.125
 30
200.0
 70
    64
  0
VERTEX
  5
218
  8
TEAM-NET
 10
450.0
 20
-104.6875
 30
200.0
 70
    64
  0
VERTEX
  5
219
  8
TEAM-NET
 10
450.0
 20
-131.25
 30
200.0
 70
    64
  0
VERTEX
  5
21A
  8
TEAM-NET
 10
450.0
 20
-157.8125
 30
200.0
 70
    64
  0
VERTEX
  5
21B
  8
TEAM-NET
 10
450.0
 20
-184.375
 30
200.0
 70
    64
  0
VERTEX
  5
21C
  8
TEAM-NET
 10
450.0
 20
-210.9375
 30
200.0
 70
    64
  0
VERTEX
  5
21D
  8
TEAM-NET
 10
450.0
 20
-237.5
 30
200.0
 70
    64
  0
VERTEX
  5
21E
  8
TEAM-NET
 10
450.0
 20
-264.0625
 30
200.0
 70
    64
  0
VERTEX
  5
21F
  8
TEAM-NET
 10
450.0
 20
-290.625
 30
200.0
 70
    64
  0
VERTEX
  5
220
  8
TEAM-NET
 10
450.0
 20
-317.1875
 30
200.0
 70
    64
  0
VERTEX
  5
221
  8
TEAM-NET
 10
450.0
 20
-343.75
 30
200.0
 70
    64
  0
VERTEX
  5
222
  8
TEAM-NET
 10
450.0
 20
-370.3125
 30
200.0
 70
    64
  0
VERTEX
  5
223
  8
TEAM-NET
 10
450.0
 20
-396.875
 30
200.0
 70
    64
  0
VERTEX
  5
224
  8
TEAM-NET
 10
426.5625
 20
-400.0
 30
200.0
 70
    64
  0
VERTEX
  5
225
  8
TEAM-NET
 10
400.0
 20
-400.0
 30
200.0
 70
    64
  0
VERTEX
  5
226
  8
TEAM-NET
 10
373.4375
 20
-400.0
 30
200.0
 70
    64
  0
VERTEX
  5
227
  8
TEAM-NET
 10
346.875
 20
-400.0
 30
200.0
 70
    64
  0
VERTEX
  5
228
  8
TEAM-NET
 10
320.3125
 20
-400.0
 30
200.0
 70
    64
  0
VERTEX
  5
229
  8
TEAM-NET
 10
293.75
 20
-400.0
 30
200.0
 70
    64
  0
VERTEX
  5
22A
  8
TEAM-NET
 10
267.1875
 20
-400.0
 30
200.0
 70
    64
  0
VERTEX
  5
22B
  8
TEAM-NET
 10
240.625
 20
-400.0
 30
200.0
 70
    64
  0
VERTEX
  5
22C
  8
TEAM-NET
 10
214.0625
 20
-400.0
 30
200.0
 70
    64
  0
VERTEX
  5
22D
  8
TEAM-NET
 10
187.5
 20
-400.0
 30
200.0
 70
    64
  0
VERTEX
  5
22E
  8
TEAM-NET
 10
160.9375
 20
-400.0
 30
200.0
 70
    64
  0
VERTEX
  5
22F
  8
TEAM-NET
 10
134.375
 20
-400.0
 30
200.0
 70
    64
  0
VERTEX
  5
230
  8
TEAM-NET
 10
107.8125
 20
-400.0
 30
200.0
 70
    64
  0
VERTEX
  5
231
  8
TEAM-NET
 10
81.25
 20
-400.0
 30
200.0
 70
    64
  0
VERTEX
  5
232
  8
TEAM-NET
 10
54.6875
 20
-400.0
 30
200.0
 70
    64
  0
VERTEX
  5
233
  8
TEAM-NET
 10
28.125
 20
-400.0
 30
200.0
 70
    64
  0
VERTEX
  5
234
  8
TEAM-NET
 10
1.5625
 20
-400.0
 30
200.0
 70
    64
  0
VERTEX
  5
235
  8
TEAM-NET
 10
-25.0
 20
-400.0
 30
200.0
 70
    64
  0
VERTEX
  5
236
  8
TEAM-NET
 10
-51.5625
 20
-400.0
 30
200.0
 70
    64
  0
VERTEX
  5
237
  8
TEAM-NET
 10
-78.125
 20
-400.0
 30
200.0
 70
    64
  0
VERTEX
  5
238
  8
TEAM-NET
 10
-104.6875
 20
-400.0
 30
200.0
 70
    64
  0
VERTEX
  5
239
  8
TEAM-NET
 10
-131.25
 20
-400.0
 30
200.0
 70
    64
  0
VERTEX
  5
23A
  8
TEAM-NET
 10
-157.8125
 20
-400.0
 30
200.0
 70
    64
  0
VERTEX
  5
23B
  8
TEAM-NET
 10
-184.375
 20
-400.0
 30
200.0
 70
    64
  0
VERTEX
  5
23C
  8
TEAM-NET
 10
-210.9375
 20
-400.0
 30
200.0
 70
    64
  0
VERTEX
  5
23D
  8
TEAM-NET
 10
-237.5
 20
-400.0
 30
200.0
 70
    64
  0
VERTEX
  5
23E
  8
TEAM-NET
 10
-264.0625
 20
-400.0
 30
200.0
 70
    64
  0
VERTEX
  5
23F
  8
TEAM-NET
 10
-290.625
 20
-400.0
 30
200.0
 70
    64
  0
VERTEX
  5
240
  8
TEAM-NET
 10
-317.1875
 20
-400.0
 30
200.0
 70
    64
  0
VERTEX
  5
241
  8
TEAM-NET
 10
-343.75
 20
-400.0
 30
200.0
 70
    64
  0
VERTEX
  5
242
  8
TEAM-NET
 10
-370.3125
 20
-400.0
 30
200.0
 70
    64
  0
VERTEX
  5
243
  8
TEAM-NET
 10
-396.875
 20
-400.0
 30
200.0
 70
    64
  0
VERTEX
  5
244
  8
TEAM-NET
 10
-423.4375
 20
-400.0
 30
200.0
 70
    64
  0
VERTEX
  5
245
  8
TEAM-NET
 10
-450.0
 20
-400.0
 30
200.0
 70
    64
  0
SEQEND
  5
246
  8
TEAM-NET
  0
POLYLINE
  5
247
  8
TEAM-NET
 66
     1
 10
0.0
 20
0.0
 30
0.0
 70
    16
 71
     2
 72
    65
  0
VERTEX
  5
248
  8
TEAM-NET
 10
371.663561
 20
321.975285
 30
200.0
 70
    64
  0
VERTEX
  5
249
  8
TEAM-NET
 10
353.037376
 20
333.070022
 30
200.0
 70
    64
  0
VERTEX
  5
24A
  8
TEAM-NET
 10
331.33154
 20
335.0
 30
200.0
 70
    64
  0
VERTEX
  5
24B
  8
TEAM-NET
 10
309.436063
 20
335.0
 30
200.0
 70
    64
  0
VERTEX
  5
24C
  8
TEAM-NET
 10
287.540586
 20
335.0
 30
200.0
 70
    64
  0
VERTEX
  5
24D
  8
TEAM-NET
 10
265.645109
 20
335.0
 30
200.0
 70
    64
  0
VERTEX
  5
24E
  8
TEAM-NET
 10
243.749631
 20
335.0
 30
200.0
 70
    64
  0
VERTEX
  5
24F
  8
TEAM-NET
 10
221.854154
 20
335.0
 30
200.0
 70
    64
  0
VERTEX
  5
250
  8
TEAM-NET
 10
199.958677
 20
335.0
 30
200.0
 70
    64
  0
VERTEX
  5
251
  8
TEAM-NET
 10
178.0632
 20
335.0
 30
200.0
 70
    64
  0
VERTEX
  5
252
  8
TEAM-NET
 10
156.167723
 20
335.0
 30
200.0
 70
    64
  0
VERTEX
  5
253
  8
TEAM-NET
 10
134.272246
 20
335.0
 30
200.0
 70
    64
  0
VERTEX
  5
254
  8
TEAM-NET
 10
112.376769
 20
335.0
 30
200.0
 70
    64
  0
VERTEX
  5
255
  8
TEAM-NET
 10
90.481292
 20
335.0
 30
200.0
 70
    64
  0
VERTEX
  5
256
  8
TEAM-NET
 10
68.585814
 20
335.0
 30
200.0
 70
    64
  0
VERTEX
  5
257
  8
TEAM-NET
 10
46.690337
 20
335.0
 30
200.0
 70
    64
  0
VERTEX
  5
258
  8
TEAM-NET
 10
24.79486
 20
335.0
 30
200.0
 70
    64
  0
VERTEX
  5
259
  8
TEAM-NET
 10
2.899383
 20
335.0
 30
200.0
 70
    64
  0
VERTEX
  5
25A
  8
TEAM-NET
 10
-18.996094
 20
335.0
 30
200.0
 70
    64
  0
VERTEX
  5
25B
  8
TEAM-NET
 10
-40.891571
 20
335.0
 30
200.0
 70
    64
  0
VERTEX
  5
25C
  8
TEAM-NET
 10
-62.787048
 20
335.0
 30
200.0
 70
    64
  0
VERTEX
  5
25D
  8
TEAM-NET
 10
-84.682526
 20
335.0
 30
200.0
 70
    64
  0
VERTEX
  5
25E
  8
TEAM-NET
 10
-106.578003
 20
335.0
 30
200.0
 70
    64
  0
VERTEX
  5
25F
  8
TEAM-NET
 10
-128.47348
 20
335.0
 30
200.0
 70
    64
  0
VERTEX
  5
260
  8
TEAM-NET
 10
-150.368957
 20
335.0
 30
200.0
 70
    64
  0
VERTEX
  5
261
  8
TEAM-NET
 10
-172.264434
 20
335.0
 30
200.0
 70
    64
  0
VERTEX
  5
262
  8
TEAM-NET
 10
-194.159911
 20
335.0
 30
200.0
 70
    64
  0
VERTEX
  5
263
  8
TEAM-NET
 10
-216.055388
 20
335.0
 30
200.0
 70
    64
  0
VERTEX
  5
264
  8
TEAM-NET
 10
-237.950865
 20
335.0
 30
200.0
 70
    64
  0
VERTEX
  5
265
  8
TEAM-NET
 10
-259.846343
 20
335.0
 30
200.0
 70
    64
  0
VERTEX
  5
266
  8
TEAM-NET
 10
-281.74182
 20
335.0
 30
200.0
 70
    64
  0
VERTEX
  5
267
  8
TEAM-NET
 10
-303.637297
 20
335.0
 30
200.0
 70
    64
  0
VERTEX
  5
268
  8
TEAM-NET
 10
-325.532774
 20
335.0
 30
200.0
 70
    64
  0
VERTEX
  5
269
  8
TEAM-NET
 10
-347.394562
 20
334.388292
 30
200.0
 70
    64
  0
VERTEX
  5
26A
  8
TEAM-NET
 10
-367.292046
 20
325.779104
 30
200.0
 70
    64
  0
VERTEX
  5
26B
  8
TEAM-NET
 10
-380.854702
 20
308.865135
 30
200.0
 70
    64
  0
VERTEX
  5
26C
  8
TEAM-NET
 10
-385.0
 20
287.571152
 30
200.0
 70
    64
  0
VERTEX
  5
26D
  8
TEAM-NET
 10
-385.0
 20
265.675675
 30
200.0
 70
    64
  0
VERTEX
  5
26E
  8
TEAM-NET
 10
-385.0
 20
243.780198
 30
200.0
 70
    64
  0
VERTEX
  5
26F
  8
TEAM-NET
 10
-385.0
 20
221.884721
 30
200.0
 70
    64
  0
VERTEX
  5
270
  8
TEAM-NET
 10
-385.0
 20
199.989244
 30
200.0
 70
    64
  0
VERTEX
  5
271
  8
TEAM-NET
 10
-385.0
 20
178.093766
 30
200.0
 70
    64
  0
VERTEX
  5
272
  8
TEAM-NET
 10
-385.0
 20
156.198289
 30
200.0
 70
    64
  0
VERTEX
  5
273
  8
TEAM-NET
 10
-385.0
 20
134.302812
 30
200.0
 70
    64
  0
VERTEX
  5
274
  8
TEAM-NET
 10
-385.0
 20
112.407335
 30
200.0
 70
    64
  0
VERTEX
  5
275
  8
TEAM-NET
 10
-385.0
 20
90.511858
 30
200.0
 70
    64
  0
VERTEX
  5
276
  8
TEAM-NET
 10
-385.0
 20
68.616381
 30
200.0
 70
    64
  0
VERTEX
  5
277
  8
TEAM-NET
 10
-385.0
 20
46.720904
 30
200.0
 70
    64
  0
VERTEX
  5
278
  8
TEAM-NET
 10
-385.0
 20
24.825427
 30
200.0
 70
    64
  0
VERTEX
  5
279
  8
TEAM-NET
 10
-385.0
 20
2.929949
 30
200.0
 70
    64
  0
VERTEX
  5
27A
  8
TEAM-NET
 10
-385.0
 20
-18.965528
 30
200.0
 70
    64
  0
VERTEX
  5
27B
  8
TEAM-NET
 10
-385.0
 20
-40.861005
 30
200.0
 70
    64
  0
VERTEX
  5
27C
  8
TEAM-NET
 10
-385.0
 20
-62.756482
 30
200.0
 70
    64
  0
VERTEX
  5
27D
  8
TEAM-NET
 10
-385.0
 20
-84.651959
 30
200.0
 70
    64
  0
VERTEX
  5
27E
  8
TEAM-NET
 10
-385.0
 20
-106.547436
 30
200.0
 70
    64
  0
VERTEX
  5
27F
  8
TEAM-NET
 10
-385.0
 20
-128.442913
 30
200.0
 70
    64
  0
VERTEX
  5
280
  8
TEAM-NET
 10
-385.0
 20
-150.338391
 30
200.0
 70
    64
  0
VERTEX
  5
281
  8
TEAM-NET
 10
-385.0
 20
-172.233868
 30
200.0
 70
    64
  0
VERTEX
  5
282
  8
TEAM-NET
 10
-385.0
 20
-194.129345
 30
200.0
 70
    64
  0
VERTEX
  5
283
  8
TEAM-NET
 10
-385.0
 20
-216.024822
 30
200.0
 70
    64
  0
VERTEX
  5
284
  8
TEAM-NET
 10
-385.0
 20
-237.920299
 30
200.0
 70
    64
  0
VERTEX
  5
285
  8
TEAM-NET
 10
-385.0
 20
-259.815776
 30
200.0
 70
    64
  0
VERTEX
  5
286
  8
TEAM-NET
 10
-385.0
 20
-281.711253
 30
200.0
 70
    64
  0
VERTEX
  5
287
  8
TEAM-NET
 10
-382.95848
 20
-303.400335
 30
200.0
 70
    64
  0
VERTEX
  5
288
  8
TEAM-NET
 10
-371.706971
 20
-321.932241
 30
200.0
 70
    64
  0
VERTEX
  5
289
  8
TEAM-NET
 10
450.0
 20
400.0
 30
200.0
 70
    64
  0
VERTEX
  5
28A
  8
TEAM-NET
 10
423.4375
 20
400.0
 30
200.0
 70
    64
  0
VERTEX
  5
28B
  8
TEAM-NET
 10
396.875
 20
400.0
 30
200.0
 70
    64
  0
VERTEX
  5
28C
  8
TEAM-NET
 10
370.3125
 20
400.0
 30
200.0
 70
    64
  0
VERTEX
  5
28D
  8
TEAM-NET
 10
343.75
 20
400.0
 30
200.0
 70
    64
  0
VERTEX
  5
28E
  8
TEAM-NET
 10
317.1875
 20
400.0
 30
200.0
 70
    64
  0
VERTEX
  5
28F
  8
TEAM-NET
 10
290.625
 20
400.0
 30
200.0
 70
    64
  0
VERTEX
  5
290
  8
TEAM-NET
 10
264.0625
 20
400.0
 30
200.0
 70
    64
  0
VERTEX
  5
291
  8
TEAM-NET
 10
237.5
 20
400.0
 30
200.0
 70
    64
  0
VERTEX
  5
292
  8
TEAM-NET
 10
210.9375
 20
400.0
 30
200.0
 70
    64
  0
VERTEX
  5
293
  8
TEAM-NET
 10
184.375
 20
400.0
 30
200.0
 70
    64
  0
VERTEX
  5
294
  8
TEAM-NET
 10
157.8125
 20
400.0
 30
200.0
 70
    64
  0
VERTEX
  5
295
  8
TEAM-NET
 10
131.25
 20
400.0
 30
200.0
 70
    64
  0
VERTEX
  5
296
  8
TEAM-NET
 10
104.6875
 20
400.0
 30
200.0
 70
    64
  0
VERTEX
  5
297
  8
TEAM-NET
 10
78.125
 20
400.0
 30
200.0
 70
    64
  0
VERTEX
  5
298
  8
TEAM-NET
 10
51.5625
 20
400.0
 30
200.0
 70
    64
  0
VERTEX
  5
299
  8
TEAM-NET
 10
25.0
 20
400.0
 30
200.0
 70
    64
  0
VERTEX
  5
29A
  8
TEAM-NET
 10
-1.5625
 20
400.0
 30
200.0
 70
    64
  0
VERTEX
  5
29B
  8
TEAM-NET
 10
-28.125
 20
400.0
 30
200.0
 70
    64
  0
VERTEX
  5
29C
  8
TEAM-NET
 10
-54.6875
 20
400.0
 30
200.0
 70
    64
  0
VERTEX
  5
29D
  8
TEAM-NET
 10
-81.25
 20
400.0
 30
200.0
 70
    64
  0
VERTEX
  5
29E
  8
TEAM-NET
 10
-107.8125
 20
400.0
 30
200.0
 70
    64
  0
VERTEX
  5
29F
  8
TEAM-NET
 10
-134.375
 20
400.0
 30
200.0
 70
    64
  0
VERTEX
  5
2A0
  8
TEAM-NET
 10
-160.9375
 20
400.0
 30
200.0
 70
    64
  0
VERTEX
  5
2A1
  8
TEAM-NET
 10
-187.5
 20
400.0
 30
200.0
 70
    64
  0
VERTEX
  5
2A2
  8
TEAM-NET
 10
-214.0625
 20
400.0
 30
200.0
 70
    64
  0
VERTEX
  5
2A3
  8
TEAM-NET
 10
-240.625
 20
400.0
 30
200.0
 70
    64
  0
VERTEX
  5
2A4
  8
TEAM-NET
 10
-267.1875
 20
400.0
 30
200.0
 70
    64
  0
VERTEX
  5
2A5
  8
TEAM-NET
 10
-293.75
 20
400.0
 30
200.0
 70
    64
  0
VERTEX
  5
2A6
  8
TEAM-NET
 10
-320.3125
 20
400.0
 30
200.0
 70
    64
  0
VERTEX
  5
2A7
  8
TEAM-NET
 10
-346.875
 20
400.0
 30
200.0
 70
    64
  0
VERTEX
  5
2A8
  8
TEAM-NET
 10
-373.4375
 20
400.0
 30
200.0
 70
    64
  0
VERTEX
  5
2A9
  8
TEAM-NET
 10
-400.0
 20
400.0
 30
200.0
 70
    64
  0
VERTEX
  5
2AA
  8
TEAM-NET
 10
-426.5625
 20
400.0
 30
200.0
 70
    64
  0
VERTEX
  5
2AB
  8
TEAM-NET
 10
-450.0
 20
396.875
 30
200.0
 70
    64
  0
VERTEX
  5
2AC
  8
TEAM-NET
 10
-450.0
 20
370.3125
 30
200.0
 70
    64
  0
VERTEX
  5
2AD
  8
TEAM-NET
 10
-450.0
 20
343.75
 30
200.0
 70
    64
  0
VERTEX
  5
2AE
  8
TEAM-NET
 10
-450.0
 20
317.1875
 30
200.0
 70
    64
  0
VERTEX
  5
2AF
  8
TEAM-NET
 10
-450.0
 20
290.625
 30
200.0
 70
    64
  0
VERTEX
  5
2B0
  8
TEAM-NET
 10
-450.0
 20
264.0625
 30
200.0
 70
    64
  0
VERTEX
  5
2B1
  8
TEAM-NET
 10
-450.0
 20
237.5
 30
200.0
 70
    64
  0
VERTEX
  5
2B2
  8
TEAM-NET
 10
-450.0
 20
210.9375
 30
200.0
 70
    64
  0
VERTEX
  5
2B3
  8
TEAM-NET
 10
-450.0
 20
184.375
 30
200.0
 70
    64
  0
VERTEX
  5
2B4
  8
TEAM-NET
 10
-450.0
 20
157.8125
 30
200.0
 70
    64
  0
VERTEX
  5
2B5
  8
TEAM-NET
 10
-450.0
 20
131.25
 30
200.0
 70
    64
  0
VERTEX
  5
2B6
  8
TEAM-NET
 10
-450.0
 20
104.6875
 30
200.0
 70
    64
  0
VERTEX
  5
2B7
  8
TEAM-NET
 10
-450.0
 20
78.125
 30
200.0
 70
    64
  0
VERTEX
  5
2B8
  8
TEAM-NET
 10
-450.0
 20
51.5625
 30
200.0
 70
    64
  0
VERTEX
  5
2B9
  8
TEAM-NET
 10
-450.0
 20
25.0
 30
200.0
 70
    64
  0
VERTEX
  5
2BA
  8
TEAM-NET
 10
-450.0
 20
-1.5625
 30
200.0
 70
    64
  0
VERTEX
  5
2BB
  8
TEAM-NET
 10
-450.0
 20
-28.125
 30
200.0
 70
    64
  0
VERTEX
  5
2BC
  8
TEAM-NET
 10
-450.0
 20
-54.6875
 30
200.0
 70
    64
  0
VERTEX
  5
2BD
  8
TEAM-NET
 10
-450.0
 20
-81.25
 30
200.0
 70
    64
  0
VERTEX
  5
2BE
  8
TEAM-NET
 10
-450.0
 20
-107.8125
 30
200.0
 70
    64
  0
VERTEX
  5
2BF
  8
TEAM-NET
 10
-450.0
 20
-134.375
 30
200.0
 70
    64
  0
VERTEX
  5
2C0
  8
TEAM-NET
 10
-450.0
 20
-160.9375
 30
200.0
 70
    64
  0
VERTEX
  5
2C1
  8
TEAM-NET
 10
-450.0
 20
-187.5
 30
200.0
 70
    64
  0
VERTEX
  5
2C2
  8
TEAM-NET
 10
-450.0
 20
-214.0625
 30
200.0
 70
    64
  0
VERTEX
  5
2C3
  8
TEAM-NET
 10
-450.0
 20
-240.625
 30
200.0
 70
    64
  0
VERTEX
  5
2C4
  8
TEAM-NET
 10
-450.0
 20
-267.1875
 30
200.0
 70
    64
  0
VERTEX
  5
2C5
  8
TEAM-NET
 10
-450.0
 20
-293.75
 30
200.0
 70
    64
  0
VERTEX
  5
2C6
  8
TEAM-NET
 10
-450.0
 20
-320.3125
 30
200.0
 70
    64
  0
VERTEX
  5
2C7
  8
TEAM-NET
 10
-450.0
 20
-346.875
 30
200.0
 70
    64
  0
VERTEX
  5
2C8
  8
TEAM-NET
 10
-450.0
 20
-373.4375
 30
200.0
 70
    64
  0
VERTEX
  5
2C9
  8
TEAM-NET
 10
-450.0
 20
-400.0
 30
200.0
 70
    64
  0
SEQEND
  5
2CA
  8
TEAM-NET
  0
ENDSEC
  0
EOF
