  0
SECTION
  2
HEADER
  9
$ACADVER
  1
AC1009
  9
$INSBASE
 10
0.0
 20
0.0
 30
0.0
  9
$EXTMIN
 10
-593.214172
 20
-593.25372
 30
-0.000958
  9
$EXTMAX
 10
500.022063
 20
500.040117
 30
105.002886
  9
$LIMMIN
 10
-593.214172
 20
-593.25372
  9
$LIMMAX
 10
500.022063
 20
500.040117
  9
$ORTHOMODE
 70
     1
  9
$REGENMODE
 70
     1
  9
$FILLMODE
 70
     1
  9
$QTEXTMODE
 70
     0
  9
$MIRRTEXT
 70
     0
  9
$DRAGMODE
 70
     2
  9
$LTSCALE
 40
25.0
  9
$OSMODE
 70
     0
  9
$ATTMODE
 70
     1
  9
$TEXTSIZE
 40
200.0
  9
$TRACEWID
 40
1.0
  9
$TEXTSTYLE
  7
STANDARD
  9
$CLAYER
  8
TEAM-MAS
  9
$CELTYPE
  6
BYLAYER
  9
$CECOLOR
 62
   256
  9
$DIMSCALE
 40
0.0
  9
$DIMASZ
 40
20.0
  9
$DIMEXO
 40
10.0
  9
$DIMDLI
 40
1.0
  9
$DIMRND
 40
0.0
  9
$DIMDLE
 40
0.0
  9
$DIMEXE
 40
1.0
  9
$DIMTP
 40
0.0
  9
$DIMTM
 40
0.0
  9
$DIMTXT
 40
35.0
  9
$DIMCEN
 40
1.0
  9
$DIMTSZ
 40
0.0
  9
$DIMTOL
 70
     0
  9
$DIMLIM
 70
     0
  9
$DIMTIH
 70
     0
  9
$DIMTOH
 70
     0
  9
$DIMSE1
 70
     0
  9
$DIMSE2
 70
     0
  9
$DIMTAD
 70
     0
  9
$DIMZIN
 70
     0
  9
$DIMBLK
  1

  9
$DIMASO
 70
     1
  9
$DIMSHO
 70
     0
  9
$DIMPOST
  1

  9
$DIMAPOST
  1

  9
$DIMALT
 70
     0
  9
$DIMALTD
 70
     2
  9
$DIMALTF
 40
25.4
  9
$DIMLFAC
 40
1.0
  9
$DIMTOFL
 70
     0
  9
$DIMTVP
 40
0.0
  9
$DIMTIX
 70
     0
  9
$DIMSOXD
 70
     0
  9
$DIMSAH
 70
     0
  9
$DIMBLK1
  1

  9
$DIMBLK2
  1

  9
$DIMSTYLE
  2
TEAM
  9
$DIMCLRD
 70
     9
  9
$DIMCLRE
 70
     9
  9
$DIMCLRT
 70
    11
  9
$DIMTFAC
 40
1.0
  9
$DIMGAP
 40
15.0
  9
$LUNITS
 70
     2
  9
$LUPREC
 70
     1
  9
$SKETCHINC
 40
1.0
  9
$FILLETRAD
 40
50.0
  9
$AUNITS
 70
     0
  9
$AUPREC
 70
     0
  9
$MENU
  1
ROPLANS
  9
$ELEVATION
 40
0.0
  9
$PELEVATION
 40
0.0
  9
$THICKNESS
 40
0.0
  9
$LIMCHECK
 70
     0
  9
$BLIPMODE
 70
     1
  9
$CHAMFERA
 40
0.0
  9
$CHAMFERB
 40
0.0
  9
$SKPOLY
 70
     0
  9
$TDCREATE
 40
2450392.957851
  9
$TDUPDATE
 40
2455493.97462
  9
$TDINDWG
 40
1.964495
  9
$TDUSRTIMER
 40
1.964495
  9
$USRTIMER
 70
     1
  9
$ANGBASE
 50
0.0
  9
$ANGDIR
 70
     0
  9
$PDMODE
 70
     0
  9
$PDSIZE
 40
0.0
  9
$PLINEWID
 40
0.0
  9
$COORDS
 70
     2
  9
$SPLFRAME
 70
     0
  9
$SPLINETYPE
 70
     6
  9
$SPLINESEGS
 70
     8
  9
$ATTDIA
 70
     0
  9
$ATTREQ
 70
     0
  9
$HANDLING
 70
     1
  9
$HANDSEED
  5
342
  9
$SURFTAB1
 70
    24
  9
$SURFTAB2
 70
    24
  9
$SURFTYPE
 70
     6
  9
$SURFU
 70
     6
  9
$SURFV
 70
     6
  9
$UCSNAME
  2

  9
$UCSORG
 10
0.0
 20
0.0
 30
0.0
  9
$UCSXDIR
 10
1.0
 20
0.0
 30
0.0
  9
$UCSYDIR
 10
0.0
 20
1.0
 30
0.0
  9
$PUCSNAME
  2

  9
$PUCSORG
 10
0.0
 20
0.0
 30
0.0
  9
$PUCSXDIR
 10
1.0
 20
0.0
 30
0.0
  9
$PUCSYDIR
 10
0.0
 20
1.0
 30
0.0
  9
$USERI1
 70
     0
  9
$USERI2
 70
     0
  9
$USERI3
 70
     0
  9
$USERI4
 70
     0
  9
$USERI5
 70
     0
  9
$USERR1
 40
0.0
  9
$USERR2
 40
0.0
  9
$USERR3
 40
0.0
  9
$USERR4
 40
0.0
  9
$USERR5
 40
0.0
  9
$WORLDVIEW
 70
     1
  9
$SHADEDGE
 70
     0
  9
$SHADEDIF
 70
    70
  9
$TILEMODE
 70
     1
  9
$MAXACTVP
 70
    16
  9
$PLIMCHECK
 70
     0
  9
$PEXTMIN
 10
-0.805942
 20
0.005011
 30
0.0
  9
$PEXTMAX
 10
20.250094
 20
11.356329
 30
0.0
  9
$PLIMMIN
 10
0.0
 20
0.0
  9
$PLIMMAX
 10
12.0
 20
9.0
  9
$UNITMODE
 70
     0
  9
$VISRETAIN
 70
     0
  9
$PLINEGEN
 70
     0
  9
$PSLTSCALE
 70
     0
  0
ENDSEC
  0
SECTION
  2
TABLES
  0
TABLE
  2
VPORT
 70
     2
  0
VPORT
  2
*ACTIVE
 70
     0
 10
0.0
 20
0.0
 11
1.0
 21
1.0
 12
-46.596054
 22
-46.606801
 13
0.0
 23
0.0
 14
1.0
 24
1.0
 15
50.0
 25
50.0
 16
0.0
 26
0.0
 36
1.0
 17
0.0
 27
0.0
 37
0.0
 40
1100.008026
 41
1.865779
 42
50.0
 43
0.0
 44
0.0
 50
0.0
 51
0.0
 71
     0
 72
   100
 73
     1
 74
     1
 75
     0
 76
     0
 77
     0
 78
     0
  0
ENDTAB
  0
TABLE
  2
LTYPE
 70
     1
  0
LTYPE
  2
CONTINUOUS
 70
     0
  3
Solid Line
 72
    65
 73
     0
 40
0.0
  0
ENDTAB
  0
TABLE
  2
LAYER
 70
     8
  0
LAYER
  2
0
 70
     0
 62
     7
  6
CONTINUOUS
  0
LAYER
  2
TEAM-BODY
 70
     0
 62
     2
  6
CONTINUOUS
  0
LAYER
  2
TEAM-MAS
 70
     0
 62
     9
  6
CONTINUOUS
  0
LAYER
  2
TEAM-TXT
 70
     0
 62
    11
  6
CONTINUOUS
  0
LAYER
  2
TEAM-DET1
 70
     0
 62
     4
  6
CONTINUOUS
  0
LAYER
  2
TEAM-KAN
 70
     0
 62
     6
  6
CONTINUOUS
  0
LAYER
  2
TEAM-NET
 70
     0
 62
    15
  6
CONTINUOUS
  0
LAYER
  2
TEAM-INSP
 70
     0
 62
     5
  6
CONTINUOUS
  0
ENDTAB
  0
TABLE
  2
STYLE
 70
     2
  0
STYLE
  2
STANDARD
 70
     0
 40
0.0
 41
1.0
 50
0.0
 71
     0
 42
200.0
  3
txt
  4

  0
STYLE
  2
TEAM
 70
     0
 40
0.0
 41
0.8
 50
15.0
 71
     0
 42
7.0
  3
ROMANS.shx
  4

  0
ENDTAB
  0
TABLE
  2
VIEW
 70
     0
  0
ENDTAB
  0
TABLE
  2
UCS
 70
     0
  0
ENDTAB
  0
TABLE
  2
APPID
 70
     1
  0
APPID
  2
ACAD
 70
     0
  0
ENDTAB
  0
TABLE
  2
DIMSTYLE
 70
     1
  0
DIMSTYLE
  2
TEAM
 70
     0
  3

  4

  5

  6

  7

 40
0.0
 41
20.0
 42
10.0
 43
1.0
 44
1.0
 45
0.0
 46
0.0
 47
0.0
 48
0.0
140
35.0
141
1.0
142
0.0
143
25.4
144
1.0
145
0.0
146
1.0
147
15.0
 71
     0
 72
     0
 73
     0
 74
     0
 75
     0
 76
     0
 77
     0
 78
     0
170
     0
171
     2
172
     0
173
     0
174
     0
175
     0
176
     9
177
     9
178
    11
  0
ENDTAB
  0
ENDSEC
  0
SECTION
  2
BLOCKS
  0
BLOCK
  8
0
  2
$MODEL_SPACE
 70
     0
 10
0.0
 20
0.0
 30
0.0
  3
$MODEL_SPACE
  1

  0
ENDBLK
  5
316
  8
0
  0
BLOCK
 67
     1
  8
0
  2
$PAPER_SPACE
 70
     0
 10
0.0
 20
0.0
 30
0.0
  3
$PAPER_SPACE
  1

  0
ENDBLK
  5
314
 67
     1
  8
0
  0
ENDSEC
  0
SECTION
  2
ENTITIES
  0
CIRCLE
  5
20
  8
TEAM-INSP
 10
0.0
 20
0.0
 30
0.0
 40
10.0
  0
CIRCLE
  5
22
  8
TEAM-KAN
 39
10.0
 10
310.0
 20
310.0
 30
70.0
 40
35.0
  0
CIRCLE
  5
24
  8
TEAM-KAN
 39
10.0
 10
310.0
 20
310.0
 30
70.0
 40
45.0
  0
POLYLINE
  5
25
  8
TEAM-NET
 66
     1
 10
0.0
 20
0.0
 30
0.0
 70
    16
 71
     2
 72
    37
  0
VERTEX
  5
26
  8
TEAM-NET
 10
-395.174518
 20
394.315502
 30
80.0
 70
    64
  0
VERTEX
  5
27
  8
TEAM-NET
 10
-353.932624
 20
405.0
 30
80.0
 70
    64
  0
VERTEX
  5
28
  8
TEAM-NET
 10
-309.768865
 20
405.0
 30
80.0
 70
    64
  0
VERTEX
  5
29
  8
TEAM-NET
 10
-265.605107
 20
405.0
 30
80.0
 70
    64
  0
VERTEX
  5
2A
  8
TEAM-NET
 10
-221.441348
 20
405.0
 30
80.0
 70
    64
  0
VERTEX
  5
2B
  8
TEAM-NET
 10
-177.277589
 20
405.0
 30
80.0
 70
    64
  0
VERTEX
  5
2C
  8
TEAM-NET
 10
-133.113831
 20
405.0
 30
80.0
 70
    64
  0
VERTEX
  5
2D
  8
TEAM-NET
 10
-88.950072
 20
405.0
 30
80.0
 70
    64
  0
VERTEX
  5
2E
  8
TEAM-NET
 10
-44.786313
 20
405.0
 30
80.0
 70
    64
  0
VERTEX
  5
2F
  8
TEAM-NET
 10
-0.622555
 20
405.0
 30
80.0
 70
    64
  0
VERTEX
  5
30
  8
TEAM-NET
 10
43.541204
 20
405.0
 30
80.0
 70
    64
  0
VERTEX
  5
31
  8
TEAM-NET
 10
87.704963
 20
405.0
 30
80.0
 70
    64
  0
VERTEX
  5
32
  8
TEAM-NET
 10
131.868721
 20
405.0
 30
80.0
 70
    64
  0
VERTEX
  5
33
  8
TEAM-NET
 10
176.03248
 20
405.0
 30
80.0
 70
    64
  0
VERTEX
  5
34
  8
TEAM-NET
 10
220.196239
 20
405.0
 30
80.0
 70
    64
  0
VERTEX
  5
35
  8
TEAM-NET
 10
264.359997
 20
405.0
 30
80.0
 70
    64
  0
VERTEX
  5
36
  8
TEAM-NET
 10
308.523756
 20
405.0
 30
80.0
 70
    64
  0
VERTEX
  5
37
  8
TEAM-NET
 10
352.687515
 20
405.0
 30
80.0
 70
    64
  0
VERTEX
  5
38
  8
TEAM-NET
 10
394.29376
 20
395.1955
 30
80.0
 70
    64
  0
VERTEX
  5
39
  8
TEAM-NET
 10
405.0
 20
353.962839
 30
80.0
 70
    64
  0
VERTEX
  5
3A
  8
TEAM-NET
 10
405.0
 20
309.799081
 30
80.0
 70
    64
  0
VERTEX
  5
3B
  8
TEAM-NET
 10
405.0
 20
265.635322
 30
80.0
 70
    64
  0
VERTEX
  5
3C
  8
TEAM-NET
 10
405.0
 20
221.471563
 30
80.0
 70
    64
  0
VERTEX
  5
3D
  8
TEAM-NET
 10
405.0
 20
177.307805
 30
80.0
 70
    64
  0
VERTEX
  5
3E
  8
TEAM-NET
 10
405.0
 20
133.144046
 30
80.0
 70
    64
  0
VERTEX
  5
3F
  8
TEAM-NET
 10
405.0
 20
88.980287
 30
80.0
 70
    64
  0
VERTEX
  5
40
  8
TEAM-NET
 10
405.0
 20
44.816529
 30
80.0
 70
    64
  0
VERTEX
  5
41
  8
TEAM-NET
 10
405.0
 20
0.65277
 30
80.0
 70
    64
  0
VERTEX
  5
42
  8
TEAM-NET
 10
405.0
 20
-43.510989
 30
80.0
 70
    64
  0
VERTEX
  5
43
  8
TEAM-NET
 10
405.0
 20
-87.674747
 30
80.0
 70
    64
  0
VERTEX
  5
44
  8
TEAM-NET
 10
405.0
 20
-131.838506
 30
80.0
 70
    64
  0
VERTEX
  5
45
  8
TEAM-NET
 10
405.0
 20
-176.002265
 30
80.0
 70
    64
  0
VERTEX
  5
46
  8
TEAM-NET
 10
405.0
 20
-220.166023
 30
80.0
 70
    64
  0
VERTEX
  5
47
  8
TEAM-NET
 10
405.0
 20
-264.329782
 30
80.0
 70
    64
  0
VERTEX
  5
48
  8
TEAM-NET
 10
405.0
 20
-308.493541
 30
80.0
 70
    64
  0
VERTEX
  5
49
  8
TEAM-NET
 10
405.0
 20
-352.657299
 30
80.0
 70
    64
  0
VERTEX
  5
4A
  8
TEAM-NET
 10
395.216464
 20
-394.271999
 30
80.0
 70
    64
  0
VERTEX
  5
4B
  8
TEAM-NET
 10
-423.960966
 20
422.088522
 30
105.0
 70
    64
  0
VERTEX
  5
4C
  8
TEAM-NET
 10
-382.516451
 20
443.948215
 30
105.0
 70
    64
  0
VERTEX
  5
4D
  8
TEAM-NET
 10
-334.921632
 20
445.0
 30
105.0
 70
    64
  0
VERTEX
  5
4E
  8
TEAM-NET
 10
-287.267974
 20
445.0
 30
105.0
 70
    64
  0
VERTEX
  5
4F
  8
TEAM-NET
 10
-239.614316
 20
445.0
 30
105.0
 70
    64
  0
VERTEX
  5
50
  8
TEAM-NET
 10
-191.960658
 20
445.0
 30
105.0
 70
    64
  0
VERTEX
  5
51
  8
TEAM-NET
 10
-144.307
 20
445.0
 30
105.0
 70
    64
  0
VERTEX
  5
52
  8
TEAM-NET
 10
-96.653342
 20
445.0
 30
105.0
 70
    64
  0
VERTEX
  5
53
  8
TEAM-NET
 10
-48.999684
 20
445.0
 30
105.0
 70
    64
  0
VERTEX
  5
54
  8
TEAM-NET
 10
-1.346025
 20
445.0
 30
105.0
 70
    64
  0
VERTEX
  5
55
  8
TEAM-NET
 10
46.307633
 20
445.0
 30
105.0
 70
    64
  0
VERTEX
  5
56
  8
TEAM-NET
 10
93.961291
 20
445.0
 30
105.0
 70
    64
  0
VERTEX
  5
57
  8
TEAM-NET
 10
141.614949
 20
445.0
 30
105.0
 70
    64
  0
VERTEX
  5
58
  8
TEAM-NET
 10
189.268607
 20
445.0
 30
105.0
 70
    64
  0
VERTEX
  5
59
  8
TEAM-NET
 10
236.922265
 20
445.0
 30
105.0
 70
    64
  0
VERTEX
  5
5A
  8
TEAM-NET
 10
284.575923
 20
445.0
 30
105.0
 70
    64
  0
VERTEX
  5
5B
  8
TEAM-NET
 10
332.229582
 20
445.0
 30
105.0
 70
    64
  0
VERTEX
  5
5C
  8
TEAM-NET
 10
379.854661
 20
444.349752
 30
105.0
 70
    64
  0
VERTEX
  5
5D
  8
TEAM-NET
 10
422.056944
 20
423.991431
 30
105.0
 70
    64
  0
VERTEX
  5
5E
  8
TEAM-NET
 10
443.940879
 20
382.559711
 30
105.0
 70
    64
  0
VERTEX
  5
5F
  8
TEAM-NET
 10
445.0
 20
334.96551
 30
105.0
 70
    64
  0
VERTEX
  5
60
  8
TEAM-NET
 10
445.0
 20
287.311852
 30
105.0
 70
    64
  0
VERTEX
  5
61
  8
TEAM-NET
 10
445.0
 20
239.658194
 30
105.0
 70
    64
  0
VERTEX
  5
62
  8
TEAM-NET
 10
445.0
 20
192.004536
 30
105.0
 70
    64
  0
VERTEX
  5
63
  8
TEAM-NET
 10
445.0
 20
144.350878
 30
105.0
 70
    64
  0
VERTEX
  5
64
  8
TEAM-NET
 10
445.0
 20
96.69722
 30
105.0
 70
    64
  0
VERTEX
  5
65
  8
TEAM-NET
 10
445.0
 20
49.043562
 30
105.0
 70
    64
  0
VERTEX
  5
66
  8
TEAM-NET
 10
445.0
 20
1.389903
 30
105.0
 70
    64
  0
VERTEX
  5
67
  8
TEAM-NET
 10
445.0
 20
-46.263755
 30
105.0
 70
    64
  0
VERTEX
  5
68
  8
TEAM-NET
 10
445.0
 20
-93.917413
 30
105.0
 70
    64
  0
VERTEX
  5
69
  8
TEAM-NET
 10
445.0
 20
-141.571071
 30
105.0
 70
    64
  0
VERTEX
  5
6A
  8
TEAM-NET
 10
445.0
 20
-189.224729
 30
105.0
 70
    64
  0
VERTEX
  5
6B
  8
TEAM-NET
 10
445.0
 20
-236.878387
 30
105.0
 70
    64
  0
VERTEX
  5
6C
  8
TEAM-NET
 10
445.0
 20
-284.532045
 30
105.0
 70
    64
  0
VERTEX
  5
6D
  8
TEAM-NET
 10
445.0
 20
-332.185703
 30
105.0
 70
    64
  0
VERTEX
  5
6E
  8
TEAM-NET
 10
444.355505
 20
-379.811161
 30
105.0
 70
    64
  0
VERTEX
  5
6F
  8
TEAM-NET
 10
424.021877
 20
-422.025348
 30
105.0
 70
    64
  0
SEQEND
  5
71
  8
TEAM-NET
  0
POLYLINE
  5
72
  8
TEAM-NET
 66
     1
 10
0.0
 20
0.0
 30
0.0
 70
    16
 71
     2
 72
    37
  0
VERTEX
  5
73
  8
TEAM-NET
 10
-395.182178
 20
394.307569
 30
80.0
 70
    64
  0
VERTEX
  5
74
  8
TEAM-NET
 10
-405.0
 20
356.51908
 30
80.0
 70
    64
  0
VERTEX
  5
75
  8
TEAM-NET
 10
-405.0
 20
316.167699
 30
80.0
 70
    64
  0
VERTEX
  5
76
  8
TEAM-NET
 10
-405.0
 20
275.816318
 30
80.0
 70
    64
  0
VERTEX
  5
77
  8
TEAM-NET
 10
-405.0
 20
235.464937
 30
80.0
 70
    64
  0
VERTEX
  5
78
  8
TEAM-NET
 10
-405.0
 20
195.113556
 30
80.0
 70
    64
  0
VERTEX
  5
79
  8
TEAM-NET
 10
-405.0
 20
154.762175
 30
80.0
 70
    64
  0
VERTEX
  5
7A
  8
TEAM-NET
 10
-405.0
 20
114.410794
 30
80.0
 70
    64
  0
VERTEX
  5
7B
  8
TEAM-NET
 10
-405.0
 20
74.059413
 30
80.0
 70
    64
  0
VERTEX
  5
7C
  8
TEAM-NET
 10
-405.0
 20
33.708032
 30
80.0
 70
    64
  0
VERTEX
  5
7D
  8
TEAM-NET
 10
-405.0
 20
-6.643349
 30
80.0
 70
    64
  0
VERTEX
  5
7E
  8
TEAM-NET
 10
-405.0
 20
-46.99473
 30
80.0
 70
    64
  0
VERTEX
  5
7F
  8
TEAM-NET
 10
-403.0374
 20
-87.277264
 30
80.0
 70
    64
  0
VERTEX
  5
80
  8
TEAM-NET
 10
-396.531211
 20
-127.07866
 30
80.0
 70
    64
  0
VERTEX
  5
81
  8
TEAM-NET
 10
-385.552682
 20
-165.885277
 30
80.0
 70
    64
  0
VERTEX
  5
82
  8
TEAM-NET
 10
-370.243502
 20
-203.196277
 30
80.0
 70
    64
  0
VERTEX
  5
83
  8
TEAM-NET
 10
-350.801252
 20
-238.530121
 30
80.0
 70
    64
  0
VERTEX
  5
84
  8
TEAM-NET
 10
-327.476854
 20
-271.430791
 30
80.0
 70
    64
  0
VERTEX
  5
85
  8
TEAM-NET
 10
-300.571333
 20
-301.47367
 30
80.0
 70
    64
  0
VERTEX
  5
86
  8
TEAM-NET
 10
-270.431933
 20
-328.271024
 30
80.0
 70
    64
  0
VERTEX
  5
87
  8
TEAM-NET
 10
-237.447632
 20
-351.477006
 30
80.0
 70
    64
  0
VERTEX
  5
88
  8
TEAM-NET
 10
-202.044129
 20
-370.792118
 30
80.0
 70
    64
  0
VERTEX
  5
89
  8
TEAM-NET
 10
-164.678339
 20
-385.967079
 30
80.0
 70
    64
  0
VERTEX
  5
8A
  8
TEAM-NET
 10
-125.832509
 20
-396.806042
 30
80.0
 70
    64
  0
VERTEX
  5
8B
  8
TEAM-NET
 10
-86.007982
 20
-403.169117
 30
80.0
 70
    64
  0
VERTEX
  5
8C
  8
TEAM-NET
 10
-45.718632
 20
-405.0
 30
80.0
 70
    64
  0
VERTEX
  5
8D
  8
TEAM-NET
 10
-5.367251
 20
-405.0
 30
80.0
 70
    64
  0
VERTEX
  5
8E
  8
TEAM-NET
 10
34.98413
 20
-405.0
 30
80.0
 70
    64
  0
VERTEX
  5
8F
  8
TEAM-NET
 10
75.335511
 20
-405.0
 30
80.0
 70
    64
  0
VERTEX
  5
90
  8
TEAM-NET
 10
115.686892
 20
-405.0
 30
80.0
 70
    64
  0
VERTEX
  5
91
  8
TEAM-NET
 10
156.038273
 20
-405.0
 30
80.0
 70
    64
  0
VERTEX
  5
92
  8
TEAM-NET
 10
196.389654
 20
-405.0
 30
80.0
 70
    64
  0
VERTEX
  5
93
  8
TEAM-NET
 10
236.741035
 20
-405.0
 30
80.0
 70
    64
  0
VERTEX
  5
94
  8
TEAM-NET
 10
277.092416
 20
-405.0
 30
80.0
 70
    64
  0
VERTEX
  5
95
  8
TEAM-NET
 10
317.443797
 20
-405.0
 30
80.0
 70
    64
  0
VERTEX
  5
96
  8
TEAM-NET
 10
357.795178
 20
-405.0
 30
80.0
 70
    64
  0
VERTEX
  5
97
  8
TEAM-NET
 10
395.209351
 20
-394.279387
 30
80.0
 70
    64
  0
VERTEX
  5
98
  8
TEAM-NET
 10
-423.973818
 20
422.075205
 30
105.0
 70
    64
  0
VERTEX
  5
99
  8
TEAM-NET
 10
-443.748575
 20
383.643596
 30
105.0
 70
    64
  0
VERTEX
  5
9A
  8
TEAM-NET
 10
-445.0
 20
339.877712
 30
105.0
 70
    64
  0
VERTEX
  5
9B
  8
TEAM-NET
 10
-445.0
 20
296.035434
 30
105.0
 70
    64
  0
VERTEX
  5
9C
  8
TEAM-NET
 10
-445.0
 20
252.193156
 30
105.0
 70
    64
  0
VERTEX
  5
9D
  8
TEAM-NET
 10
-445.0
 20
208.350878
 30
105.0
 70
    64
  0
VERTEX
  5
9E
  8
TEAM-NET
 10
-445.0
 20
164.5086
 30
105.0
 70
    64
  0
VERTEX
  5
9F
  8
TEAM-NET
 10
-445.0
 20
120.666323
 30
105.0
 70
    64
  0
VERTEX
  5
A0
  8
TEAM-NET
 10
-445.0
 20
76.824045
 30
105.0
 70
    64
  0
VERTEX
  5
A1
  8
TEAM-NET
 10
-445.0
 20
32.981767
 30
105.0
 70
    64
  0
VERTEX
  5
A2
  8
TEAM-NET
 10
-445.0
 20
-10.860511
 30
105.0
 70
    64
  0
VERTEX
  5
A3
  8
TEAM-NET
 10
-444.972005
 20
-54.702678
 30
105.0
 70
    64
  0
VERTEX
  5
A4
  8
TEAM-NET
 10
-442.020685
 20
-98.422954
 30
105.0
 70
    64
  0
VERTEX
  5
A5
  8
TEAM-NET
 10
-434.244834
 20
-141.547297
 30
105.0
 70
    64
  0
VERTEX
  5
A6
  8
TEAM-NET
 10
-421.740148
 20
-183.544983
 30
105.0
 70
    64
  0
VERTEX
  5
A7
  8
TEAM-NET
 10
-404.660519
 20
-223.899155
 30
105.0
 70
    64
  0
VERTEX
  5
A8
  8
TEAM-NET
 10
-383.216145
 20
-262.113179
 30
105.0
 70
    64
  0
VERTEX
  5
A9
  8
TEAM-NET
 10
-357.670937
 20
-297.716763
 30
105.0
 70
    64
  0
VERTEX
  5
AA
  8
TEAM-NET
 10
-328.339276
 20
-330.271739
 30
105.0
 70
    64
  0
VERTEX
  5
AB
  8
TEAM-NET
 10
-295.582141
 20
-359.377459
 30
105.0
 70
    64
  0
VERTEX
  5
AC
  8
TEAM-NET
 10
-259.802669
 20
-384.675724
 30
105.0
 70
    64
  0
VERTEX
  5
AD
  8
TEAM-NET
 10
-221.441192
 20
-405.855192
 30
105.0
 70
    64
  0
VERTEX
  5
AE
  8
TEAM-NET
 10
-180.969817
 20
-422.655212
 30
105.0
 70
    64
  0
VERTEX
  5
AF
  8
TEAM-NET
 10
-138.886619
 20
-434.869028
 30
105.0
 70
    64
  0
VERTEX
  5
B0
  8
TEAM-NET
 10
-95.709509
 20
-442.346328
 30
105.0
 70
    64
  0
VERTEX
  5
B1
  8
TEAM-NET
 10
-51.96986
 20
-444.995088
 30
105.0
 70
    64
  0
VERTEX
  5
B2
  8
TEAM-NET
 10
-8.127591
 20
-445.0
 30
105.0
 70
    64
  0
VERTEX
  5
B3
  8
TEAM-NET
 10
35.714687
 20
-445.0
 30
105.0
 70
    64
  0
VERTEX
  5
B4
  8
TEAM-NET
 10
79.556965
 20
-445.0
 30
105.0
 70
    64
  0
VERTEX
  5
B5
  8
TEAM-NET
 10
123.399243
 20
-445.0
 30
105.0
 70
    64
  0
VERTEX
  5
B6
  8
TEAM-NET
 10
167.241521
 20
-445.0
 30
105.0
 70
    64
  0
VERTEX
  5
B7
  8
TEAM-NET
 10
211.083799
 20
-445.0
 30
105.0
 70
    64
  0
VERTEX
  5
B8
  8
TEAM-NET
 10
254.926077
 20
-445.0
 30
105.0
 70
    64
  0
VERTEX
  5
B9
  8
TEAM-NET
 10
298.768355
 20
-445.0
 30
105.0
 70
    64
  0
VERTEX
  5
BA
  8
TEAM-NET
 10
342.610633
 20
-445.0
 30
105.0
 70
    64
  0
VERTEX
  5
BB
  8
TEAM-NET
 10
386.321264
 20
-443.202571
 30
105.0
 70
    64
  0
VERTEX
  5
BC
  8
TEAM-NET
 10
424.00695
 20
-422.040844
 30
105.0
 70
    64
  0
SEQEND
  5
BD
  8
TEAM-NET
  0
POLYLINE
  5
BE
  8
TEAM-NET
 66
     1
 10
0.0
 20
0.0
 30
0.0
 70
    16
 71
     2
 72
    37
  0
VERTEX
  5
BF
  8
TEAM-NET
 10
-395.174518
 20
394.315502
 30
80.0
 70
    64
  0
VERTEX
  5
C0
  8
TEAM-NET
 10
-353.932624
 20
405.0
 30
80.0
 70
    64
  0
VERTEX
  5
C1
  8
TEAM-NET
 10
-309.768865
 20
405.0
 30
80.0
 70
    64
  0
VERTEX
  5
C2
  8
TEAM-NET
 10
-265.605107
 20
405.0
 30
80.0
 70
    64
  0
VERTEX
  5
C3
  8
TEAM-NET
 10
-221.441348
 20
405.0
 30
80.0
 70
    64
  0
VERTEX
  5
C4
  8
TEAM-NET
 10
-177.277589
 20
405.0
 30
80.0
 70
    64
  0
VERTEX
  5
C5
  8
TEAM-NET
 10
-133.113831
 20
405.0
 30
80.0
 70
    64
  0
VERTEX
  5
C6
  8
TEAM-NET
 10
-88.950072
 20
405.0
 30
80.0
 70
    64
  0
VERTEX
  5
C7
  8
TEAM-NET
 10
-44.786313
 20
405.0
 30
80.0
 70
    64
  0
VERTEX
  5
C8
  8
TEAM-NET
 10
-0.622555
 20
405.0
 30
80.0
 70
    64
  0
VERTEX
  5
C9
  8
TEAM-NET
 10
43.541204
 20
405.0
 30
80.0
 70
    64
  0
VERTEX
  5
CA
  8
TEAM-NET
 10
87.704963
 20
405.0
 30
80.0
 70
    64
  0
VERTEX
  5
CB
  8
TEAM-NET
 10
131.868721
 20
405.0
 30
80.0
 70
    64
  0
VERTEX
  5
CC
  8
TEAM-NET
 10
176.03248
 20
405.0
 30
80.0
 70
    64
  0
VERTEX
  5
CD
  8
TEAM-NET
 10
220.196239
 20
405.0
 30
80.0
 70
    64
  0
VERTEX
  5
CE
  8
TEAM-NET
 10
264.359997
 20
405.0
 30
80.0
 70
    64
  0
VERTEX
  5
CF
  8
TEAM-NET
 10
308.523756
 20
405.0
 30
80.0
 70
    64
  0
VERTEX
  5
D0
  8
TEAM-NET
 10
352.687515
 20
405.0
 30
80.0
 70
    64
  0
VERTEX
  5
D1
  8
TEAM-NET
 10
394.29376
 20
395.1955
 30
80.0
 70
    64
  0
VERTEX
  5
D2
  8
TEAM-NET
 10
405.0
 20
353.962839
 30
80.0
 70
    64
  0
VERTEX
  5
D3
  8
TEAM-NET
 10
405.0
 20
309.799081
 30
80.0
 70
    64
  0
VERTEX
  5
D4
  8
TEAM-NET
 10
405.0
 20
265.635322
 30
80.0
 70
    64
  0
VERTEX
  5
D5
  8
TEAM-NET
 10
405.0
 20
221.471563
 30
80.0
 70
    64
  0
VERTEX
  5
D6
  8
TEAM-NET
 10
405.0
 20
177.307805
 30
80.0
 70
    64
  0
VERTEX
  5
D7
  8
TEAM-NET
 10
405.0
 20
133.144046
 30
80.0
 70
    64
  0
VERTEX
  5
D8
  8
TEAM-NET
 10
405.0
 20
88.980287
 30
80.0
 70
    64
  0
VERTEX
  5
D9
  8
TEAM-NET
 10
405.0
 20
44.816529
 30
80.0
 70
    64
  0
VERTEX
  5
DA
  8
TEAM-NET
 10
405.0
 20
0.65277
 30
80.0
 70
    64
  0
VERTEX
  5
DB
  8
TEAM-NET
 10
405.0
 20
-43.510989
 30
80.0
 70
    64
  0
VERTEX
  5
DC
  8
TEAM-NET
 10
405.0
 20
-87.674747
 30
80.0
 70
    64
  0
VERTEX
  5
DD
  8
TEAM-NET
 10
405.0
 20
-131.838506
 30
80.0
 70
    64
  0
VERTEX
  5
DE
  8
TEAM-NET
 10
405.0
 20
-176.002265
 30
80.0
 70
    64
  0
VERTEX
  5
DF
  8
TEAM-NET
 10
405.0
 20
-220.166023
 30
80.0
 70
    64
  0
VERTEX
  5
E0
  8
TEAM-NET
 10
405.0
 20
-264.329782
 30
80.0
 70
    64
  0
VERTEX
  5
E1
  8
TEAM-NET
 10
405.0
 20
-308.493541
 30
80.0
 70
    64
  0
VERTEX
  5
E2
  8
TEAM-NET
 10
405.0
 20
-352.657299
 30
80.0
 70
    64
  0
VERTEX
  5
E3
  8
TEAM-NET
 10
395.216464
 20
-394.271999
 30
80.0
 70
    64
  0
VERTEX
  5
E4
  8
TEAM-NET
 10
-395.182178
 20
394.307569
 30
80.0
 70
    64
  0
VERTEX
  5
E5
  8
TEAM-NET
 10
-405.0
 20
356.51908
 30
80.0
 70
    64
  0
VERTEX
  5
E6
  8
TEAM-NET
 10
-405.0
 20
316.167699
 30
80.0
 70
    64
  0
VERTEX
  5
E7
  8
TEAM-NET
 10
-405.0
 20
275.816318
 30
80.0
 70
    64
  0
VERTEX
  5
E8
  8
TEAM-NET
 10
-405.0
 20
235.464937
 30
80.0
 70
    64
  0
VERTEX
  5
E9
  8
TEAM-NET
 10
-405.0
 20
195.113556
 30
80.0
 70
    64
  0
VERTEX
  5
EA
  8
TEAM-NET
 10
-405.0
 20
154.762175
 30
80.0
 70
    64
  0
VERTEX
  5
EB
  8
TEAM-NET
 10
-405.0
 20
114.410794
 30
80.0
 70
    64
  0
VERTEX
  5
EC
  8
TEAM-NET
 10
-405.0
 20
74.059413
 30
80.0
 70
    64
  0
VERTEX
  5
ED
  8
TEAM-NET
 10
-405.0
 20
33.708032
 30
80.0
 70
    64
  0
VERTEX
  5
EE
  8
TEAM-NET
 10
-405.0
 20
-6.643349
 30
80.0
 70
    64
  0
VERTEX
  5
EF
  8
TEAM-NET
 10
-405.0
 20
-46.99473
 30
80.0
 70
    64
  0
VERTEX
  5
F0
  8
TEAM-NET
 10
-403.0374
 20
-87.277264
 30
80.0
 70
    64
  0
VERTEX
  5
F1
  8
TEAM-NET
 10
-396.531211
 20
-127.07866
 30
80.0
 70
    64
  0
VERTEX
  5
F2
  8
TEAM-NET
 10
-385.552682
 20
-165.885277
 30
80.0
 70
    64
  0
VERTEX
  5
F3
  8
TEAM-NET
 10
-370.243502
 20
-203.196277
 30
80.0
 70
    64
  0
VERTEX
  5
F4
  8
TEAM-NET
 10
-350.801252
 20
-238.530121
 30
80.0
 70
    64
  0
VERTEX
  5
F5
  8
TEAM-NET
 10
-327.476854
 20
-271.430791
 30
80.0
 70
    64
  0
VERTEX
  5
F6
  8
TEAM-NET
 10
-300.571333
 20
-301.47367
 30
80.0
 70
    64
  0
VERTEX
  5
F7
  8
TEAM-NET
 10
-270.431933
 20
-328.271024
 30
80.0
 70
    64
  0
VERTEX
  5
F8
  8
TEAM-NET
 10
-237.447632
 20
-351.477006
 30
80.0
 70
    64
  0
VERTEX
  5
F9
  8
TEAM-NET
 10
-202.044129
 20
-370.792118
 30
80.0
 70
    64
  0
VERTEX
  5
FA
  8
TEAM-NET
 10
-164.678339
 20
-385.967079
 30
80.0
 70
    64
  0
VERTEX
  5
FB
  8
TEAM-NET
 10
-125.832509
 20
-396.806042
 30
80.0
 70
    64
  0
VERTEX
  5
FC
  8
TEAM-NET
 10
-86.007982
 20
-403.169117
 30
80.0
 70
    64
  0
VERTEX
  5
FD
  8
TEAM-NET
 10
-45.718632
 20
-405.0
 30
80.0
 70
    64
  0
VERTEX
  5
FE
  8
TEAM-NET
 10
-5.367251
 20
-405.0
 30
80.0
 70
    64
  0
VERTEX
  5
FF
  8
TEAM-NET
 10
34.98413
 20
-405.0
 30
80.0
 70
    64
  0
VERTEX
  5
100
  8
TEAM-NET
 10
75.335511
 20
-405.0
 30
80.0
 70
    64
  0
VERTEX
  5
101
  8
TEAM-NET
 10
115.686892
 20
-405.0
 30
80.0
 70
    64
  0
VERTEX
  5
102
  8
TEAM-NET
 10
156.038273
 20
-405.0
 30
80.0
 70
    64
  0
VERTEX
  5
103
  8
TEAM-NET
 10
196.389654
 20
-405.0
 30
80.0
 70
    64
  0
VERTEX
  5
104
  8
TEAM-NET
 10
236.741035
 20
-405.0
 30
80.0
 70
    64
  0
VERTEX
  5
105
  8
TEAM-NET
 10
277.092416
 20
-405.0
 30
80.0
 70
    64
  0
VERTEX
  5
106
  8
TEAM-NET
 10
317.443797
 20
-405.0
 30
80.0
 70
    64
  0
VERTEX
  5
107
  8
TEAM-NET
 10
357.795178
 20
-405.0
 30
80.0
 70
    64
  0
VERTEX
  5
108
  8
TEAM-NET
 10
395.209351
 20
-394.279387
 30
80.0
 70
    64
  0
SEQEND
  5
109
  8
TEAM-NET
  0
POLYLINE
  5
10A
  8
TEAM-BODY
 66
     1
 10
0.0
 20
0.0
 30
80.0
  0
VERTEX
  5
31C
  8
TEAM-BODY
 10
-395.174518
 20
394.315502
 30
80.0
 42
-0.203427
  0
VERTEX
  5
31D
  8
TEAM-BODY
 10
-370.0
 20
405.0
 30
80.0
  0
VERTEX
  5
31E
  8
TEAM-BODY
 10
370.0
 20
405.0
 30
80.0
 42
-0.414214
  0
VERTEX
  5
31F
  8
TEAM-BODY
 10
405.0
 20
370.0
 30
80.0
  0
VERTEX
  5
320
  8
TEAM-BODY
 10
405.0
 20
-370.0
 30
80.0
 42
-0.193958
  0
VERTEX
  5
321
  8
TEAM-BODY
 10
395.216464
 20
-394.271999
 30
80.0
  0
SEQEND
  5
322
  8
TEAM-BODY
  0
POLYLINE
  5
10C
  8
TEAM-BODY
 66
     1
 10
0.0
 20
0.0
 30
80.0
  0
VERTEX
  5
323
  8
TEAM-BODY
 10
395.209351
 20
-394.279387
 30
80.0
 42
-0.2038
  0
VERTEX
  5
324
  8
TEAM-BODY
 10
370.0
 20
-405.0
 30
80.0
  0
VERTEX
  5
325
  8
TEAM-BODY
 10
-50.0
 20
-405.0
 30
80.0
 42
-0.414214
  0
VERTEX
  5
326
  8
TEAM-BODY
 10
-405.0
 20
-50.0
 30
80.0
  0
VERTEX
  5
327
  8
TEAM-BODY
 10
-405.0
 20
370.0
 30
80.0
 42
-0.194324
  0
VERTEX
  5
328
  8
TEAM-BODY
 10
-395.182178
 20
394.307569
 30
80.0
 42
-0.194324
  0
SEQEND
  5
329
  8
TEAM-BODY
  0
TEXT
  5
10D
  8
TEAM-TXT
 10
-321.522375
 20
327.413839
 30
105.0
 40
30.0
  1
team 141323
 41
0.8
 51
15.0
  7
TEAM
  0
POLYLINE
  5
110
  8
TEAM-NET
 66
     1
 10
0.0
 20
0.0
 30
0.0
 70
    16
 71
     2
 72
    37
  0
VERTEX
  5
111
  8
TEAM-NET
 10
-423.960966
 20
422.088522
 30
105.0
 70
    64
  0
VERTEX
  5
112
  8
TEAM-NET
 10
-382.516451
 20
443.948215
 30
105.0
 70
    64
  0
VERTEX
  5
113
  8
TEAM-NET
 10
-334.921632
 20
445.0
 30
105.0
 70
    64
  0
VERTEX
  5
114
  8
TEAM-NET
 10
-287.267974
 20
445.0
 30
105.0
 70
    64
  0
VERTEX
  5
115
  8
TEAM-NET
 10
-239.614316
 20
445.0
 30
105.0
 70
    64
  0
VERTEX
  5
116
  8
TEAM-NET
 10
-191.960658
 20
445.0
 30
105.0
 70
    64
  0
VERTEX
  5
117
  8
TEAM-NET
 10
-144.307
 20
445.0
 30
105.0
 70
    64
  0
VERTEX
  5
118
  8
TEAM-NET
 10
-96.653342
 20
445.0
 30
105.0
 70
    64
  0
VERTEX
  5
119
  8
TEAM-NET
 10
-48.999684
 20
445.0
 30
105.0
 70
    64
  0
VERTEX
  5
11A
  8
TEAM-NET
 10
-1.346025
 20
445.0
 30
105.0
 70
    64
  0
VERTEX
  5
11B
  8
TEAM-NET
 10
46.307633
 20
445.0
 30
105.0
 70
    64
  0
VERTEX
  5
11C
  8
TEAM-NET
 10
93.961291
 20
445.0
 30
105.0
 70
    64
  0
VERTEX
  5
11D
  8
TEAM-NET
 10
141.614949
 20
445.0
 30
105.0
 70
    64
  0
VERTEX
  5
11E
  8
TEAM-NET
 10
189.268607
 20
445.0
 30
105.0
 70
    64
  0
VERTEX
  5
11F
  8
TEAM-NET
 10
236.922265
 20
445.0
 30
105.0
 70
    64
  0
VERTEX
  5
120
  8
TEAM-NET
 10
284.575923
 20
445.0
 30
105.0
 70
    64
  0
VERTEX
  5
121
  8
TEAM-NET
 10
332.229582
 20
445.0
 30
105.0
 70
    64
  0
VERTEX
  5
122
  8
TEAM-NET
 10
379.854661
 20
444.349752
 30
105.0
 70
    64
  0
VERTEX
  5
123
  8
TEAM-NET
 10
422.056944
 20
423.991431
 30
105.0
 70
    64
  0
VERTEX
  5
124
  8
TEAM-NET
 10
443.940879
 20
382.559711
 30
105.0
 70
    64
  0
VERTEX
  5
125
  8
TEAM-NET
 10
445.0
 20
334.96551
 30
105.0
 70
    64
  0
VERTEX
  5
126
  8
TEAM-NET
 10
445.0
 20
287.311852
 30
105.0
 70
    64
  0
VERTEX
  5
127
  8
TEAM-NET
 10
445.0
 20
239.658194
 30
105.0
 70
    64
  0
VERTEX
  5
128
  8
TEAM-NET
 10
445.0
 20
192.004536
 30
105.0
 70
    64
  0
VERTEX
  5
129
  8
TEAM-NET
 10
445.0
 20
144.350878
 30
105.0
 70
    64
  0
VERTEX
  5
12A
  8
TEAM-NET
 10
445.0
 20
96.69722
 30
105.0
 70
    64
  0
VERTEX
  5
12B
  8
TEAM-NET
 10
445.0
 20
49.043562
 30
105.0
 70
    64
  0
VERTEX
  5
12C
  8
TEAM-NET
 10
445.0
 20
1.389903
 30
105.0
 70
    64
  0
VERTEX
  5
12D
  8
TEAM-NET
 10
445.0
 20
-46.263755
 30
105.0
 70
    64
  0
VERTEX
  5
12E
  8
TEAM-NET
 10
445.0
 20
-93.917413
 30
105.0
 70
    64
  0
VERTEX
  5
12F
  8
TEAM-NET
 10
445.0
 20
-141.571071
 30
105.0
 70
    64
  0
VERTEX
  5
130
  8
TEAM-NET
 10
445.0
 20
-189.224729
 30
105.0
 70
    64
  0
VERTEX
  5
131
  8
TEAM-NET
 10
445.0
 20
-236.878387
 30
105.0
 70
    64
  0
VERTEX
  5
132
  8
TEAM-NET
 10
445.0
 20
-284.532045
 30
105.0
 70
    64
  0
VERTEX
  5
133
  8
TEAM-NET
 10
445.0
 20
-332.185703
 30
105.0
 70
    64
  0
VERTEX
  5
134
  8
TEAM-NET
 10
444.355505
 20
-379.811161
 30
105.0
 70
    64
  0
VERTEX
  5
135
  8
TEAM-NET
 10
424.021877
 20
-422.025348
 30
105.0
 70
    64
  0
VERTEX
  5
136
  8
TEAM-NET
 10
-500.0
 20
500.0
 30
105.0
 70
    64
  0
VERTEX
  5
137
  8
TEAM-NET
 10
-444.444444
 20
500.0
 30
105.0
 70
    64
  0
VERTEX
  5
138
  8
TEAM-NET
 10
-388.888889
 20
500.0
 30
105.0
 70
    64
  0
VERTEX
  5
139
  8
TEAM-NET
 10
-333.333333
 20
500.0
 30
105.0
 70
    64
  0
VERTEX
  5
13A
  8
TEAM-NET
 10
-277.777778
 20
500.0
 30
105.0
 70
    64
  0
VERTEX
  5
13B
  8
TEAM-NET
 10
-222.222222
 20
500.0
 30
105.0
 70
    64
  0
VERTEX
  5
13C
  8
TEAM-NET
 10
-166.666667
 20
500.0
 30
105.0
 70
    64
  0
VERTEX
  5
13D
  8
TEAM-NET
 10
-111.111111
 20
500.0
 30
105.0
 70
    64
  0
VERTEX
  5
13E
  8
TEAM-NET
 10
-55.555556
 20
500.0
 30
105.0
 70
    64
  0
VERTEX
  5
13F
  8
TEAM-NET
 10
0.0
 20
500.0
 30
105.0
 70
    64
  0
VERTEX
  5
140
  8
TEAM-NET
 10
55.555556
 20
500.0
 30
105.0
 70
    64
  0
VERTEX
  5
141
  8
TEAM-NET
 10
111.111111
 20
500.0
 30
105.0
 70
    64
  0
VERTEX
  5
142
  8
TEAM-NET
 10
166.666667
 20
500.0
 30
105.0
 70
    64
  0
VERTEX
  5
143
  8
TEAM-NET
 10
222.222222
 20
500.0
 30
105.0
 70
    64
  0
VERTEX
  5
144
  8
TEAM-NET
 10
277.777778
 20
500.0
 30
105.0
 70
    64
  0
VERTEX
  5
145
  8
TEAM-NET
 10
333.333333
 20
500.0
 30
105.0
 70
    64
  0
VERTEX
  5
146
  8
TEAM-NET
 10
388.888889
 20
500.0
 30
105.0
 70
    64
  0
VERTEX
  5
147
  8
TEAM-NET
 10
444.444444
 20
500.0
 30
105.0
 70
    64
  0
VERTEX
  5
148
  8
TEAM-NET
 10
500.0
 20
500.0
 30
105.0
 70
    64
  0
VERTEX
  5
149
  8
TEAM-NET
 10
500.0
 20
444.444444
 30
105.0
 70
    64
  0
VERTEX
  5
14A
  8
TEAM-NET
 10
500.0
 20
388.888889
 30
105.0
 70
    64
  0
VERTEX
  5
14B
  8
TEAM-NET
 10
500.0
 20
333.333333
 30
105.0
 70
    64
  0
VERTEX
  5
14C
  8
TEAM-NET
 10
500.0
 20
277.777778
 30
105.0
 70
    64
  0
VERTEX
  5
14D
  8
TEAM-NET
 10
500.0
 20
222.222222
 30
105.0
 70
    64
  0
VERTEX
  5
14E
  8
TEAM-NET
 10
500.0
 20
166.666667
 30
105.0
 70
    64
  0
VERTEX
  5
14F
  8
TEAM-NET
 10
500.0
 20
111.111111
 30
105.0
 70
    64
  0
VERTEX
  5
150
  8
TEAM-NET
 10
500.0
 20
55.555556
 30
105.0
 70
    64
  0
VERTEX
  5
151
  8
TEAM-NET
 10
500.0
 20
0.0
 30
105.0
 70
    64
  0
VERTEX
  5
152
  8
TEAM-NET
 10
500.0
 20
-55.555556
 30
105.0
 70
    64
  0
VERTEX
  5
153
  8
TEAM-NET
 10
500.0
 20
-111.111111
 30
105.0
 70
    64
  0
VERTEX
  5
154
  8
TEAM-NET
 10
500.0
 20
-166.666667
 30
105.0
 70
    64
  0
VERTEX
  5
155
  8
TEAM-NET
 10
500.0
 20
-222.222222
 30
105.0
 70
    64
  0
VERTEX
  5
156
  8
TEAM-NET
 10
500.0
 20
-277.777778
 30
105.0
 70
    64
  0
VERTEX
  5
157
  8
TEAM-NET
 10
500.0
 20
-333.333333
 30
105.0
 70
    64
  0
VERTEX
  5
158
  8
TEAM-NET
 10
500.0
 20
-388.888889
 30
105.0
 70
    64
  0
VERTEX
  5
159
  8
TEAM-NET
 10
500.0
 20
-444.444444
 30
105.0
 70
    64
  0
VERTEX
  5
15A
  8
TEAM-NET
 10
500.0
 20
-500.0
 30
105.0
 70
    64
  0
SEQEND
  5
15B
  8
TEAM-NET
  0
POLYLINE
  5
15C
  8
TEAM-NET
 66
     1
 10
0.0
 20
0.0
 30
0.0
 70
    16
 71
     2
 72
    37
  0
VERTEX
  5
15D
  8
TEAM-NET
 10
-423.973818
 20
422.075205
 30
105.0
 70
    64
  0
VERTEX
  5
15E
  8
TEAM-NET
 10
-443.748575
 20
383.643596
 30
105.0
 70
    64
  0
VERTEX
  5
15F
  8
TEAM-NET
 10
-445.0
 20
339.877712
 30
105.0
 70
    64
  0
VERTEX
  5
160
  8
TEAM-NET
 10
-445.0
 20
296.035434
 30
105.0
 70
    64
  0
VERTEX
  5
161
  8
TEAM-NET
 10
-445.0
 20
252.193156
 30
105.0
 70
    64
  0
VERTEX
  5
162
  8
TEAM-NET
 10
-445.0
 20
208.350878
 30
105.0
 70
    64
  0
VERTEX
  5
163
  8
TEAM-NET
 10
-445.0
 20
164.5086
 30
105.0
 70
    64
  0
VERTEX
  5
164
  8
TEAM-NET
 10
-445.0
 20
120.666323
 30
105.0
 70
    64
  0
VERTEX
  5
165
  8
TEAM-NET
 10
-445.0
 20
76.824045
 30
105.0
 70
    64
  0
VERTEX
  5
166
  8
TEAM-NET
 10
-445.0
 20
32.981767
 30
105.0
 70
    64
  0
VERTEX
  5
167
  8
TEAM-NET
 10
-445.0
 20
-10.860511
 30
105.0
 70
    64
  0
VERTEX
  5
168
  8
TEAM-NET
 10
-444.972005
 20
-54.702678
 30
105.0
 70
    64
  0
VERTEX
  5
169
  8
TEAM-NET
 10
-442.020685
 20
-98.422954
 30
105.0
 70
    64
  0
VERTEX
  5
16A
  8
TEAM-NET
 10
-434.244834
 20
-141.547297
 30
105.0
 70
    64
  0
VERTEX
  5
16B
  8
TEAM-NET
 10
-421.740148
 20
-183.544983
 30
105.0
 70
    64
  0
VERTEX
  5
16C
  8
TEAM-NET
 10
-404.660519
 20
-223.899155
 30
105.0
 70
    64
  0
VERTEX
  5
16D
  8
TEAM-NET
 10
-383.216145
 20
-262.113179
 30
105.0
 70
    64
  0
VERTEX
  5
16E
  8
TEAM-NET
 10
-357.670937
 20
-297.716763
 30
105.0
 70
    64
  0
VERTEX
  5
16F
  8
TEAM-NET
 10
-328.339276
 20
-330.271739
 30
105.0
 70
    64
  0
VERTEX
  5
170
  8
TEAM-NET
 10
-295.582141
 20
-359.377459
 30
105.0
 70
    64
  0
VERTEX
  5
171
  8
TEAM-NET
 10
-259.802669
 20
-384.675724
 30
105.0
 70
    64
  0
VERTEX
  5
172
  8
TEAM-NET
 10
-221.441192
 20
-405.855192
 30
105.0
 70
    64
  0
VERTEX
  5
173
  8
TEAM-NET
 10
-180.969817
 20
-422.655212
 30
105.0
 70
    64
  0
VERTEX
  5
174
  8
TEAM-NET
 10
-138.886619
 20
-434.869028
 30
105.0
 70
    64
  0
VERTEX
  5
175
  8
TEAM-NET
 10
-95.709509
 20
-442.346328
 30
105.0
 70
    64
  0
VERTEX
  5
176
  8
TEAM-NET
 10
-51.96986
 20
-444.995088
 30
105.0
 70
    64
  0
VERTEX
  5
177
  8
TEAM-NET
 10
-8.127591
 20
-445.0
 30
105.0
 70
    64
  0
VERTEX
  5
178
  8
TEAM-NET
 10
35.714687
 20
-445.0
 30
105.0
 70
    64
  0
VERTEX
  5
179
  8
TEAM-NET
 10
79.556965
 20
-445.0
 30
105.0
 70
    64
  0
VERTEX
  5
17A
  8
TEAM-NET
 10
123.399243
 20
-445.0
 30
105.0
 70
    64
  0
VERTEX
  5
17B
  8
TEAM-NET
 10
167.241521
 20
-445.0
 30
105.0
 70
    64
  0
VERTEX
  5
17C
  8
TEAM-NET
 10
211.083799
 20
-445.0
 30
105.0
 70
    64
  0
VERTEX
  5
17D
  8
TEAM-NET
 10
254.926077
 20
-445.0
 30
105.0
 70
    64
  0
VERTEX
  5
17E
  8
TEAM-NET
 10
298.768355
 20
-445.0
 30
105.0
 70
    64
  0
VERTEX
  5
17F
  8
TEAM-NET
 10
342.610633
 20
-445.0
 30
105.0
 70
    64
  0
VERTEX
  5
180
  8
TEAM-NET
 10
386.321264
 20
-443.202571
 30
105.0
 70
    64
  0
VERTEX
  5
181
  8
TEAM-NET
 10
424.00695
 20
-422.040844
 30
105.0
 70
    64
  0
VERTEX
  5
182
  8
TEAM-NET
 10
-500.0
 20
500.0
 30
105.0
 70
    64
  0
VERTEX
  5
183
  8
TEAM-NET
 10
-500.0
 20
449.80949
 30
105.0
 70
    64
  0
VERTEX
  5
184
  8
TEAM-NET
 10
-500.0
 20
399.618981
 30
105.0
 70
    64
  0
VERTEX
  5
185
  8
TEAM-NET
 10
-500.0
 20
349.428471
 30
105.0
 70
    64
  0
VERTEX
  5
186
  8
TEAM-NET
 10
-500.0
 20
299.237961
 30
105.0
 70
    64
  0
VERTEX
  5
187
  8
TEAM-NET
 10
-500.0
 20
249.047452
 30
105.0
 70
    64
  0
VERTEX
  5
188
  8
TEAM-NET
 10
-500.0
 20
198.856942
 30
105.0
 70
    64
  0
VERTEX
  5
189
  8
TEAM-NET
 10
-500.0
 20
148.666433
 30
105.0
 70
    64
  0
VERTEX
  5
18A
  8
TEAM-NET
 10
-500.0
 20
98.475923
 30
105.0
 70
    64
  0
VERTEX
  5
18B
  8
TEAM-NET
 10
-500.0
 20
48.285413
 30
105.0
 70
    64
  0
VERTEX
  5
18C
  8
TEAM-NET
 10
-500.0
 20
-1.905096
 30
105.0
 70
    64
  0
VERTEX
  5
18D
  8
TEAM-NET
 10
-499.99512
 20
-52.095598
 30
105.0
 70
    64
  0
VERTEX
  5
18E
  8
TEAM-NET
 10
-496.965818
 20
-102.168548
 30
105.0
 70
    64
  0
VERTEX
  5
18F
  8
TEAM-NET
 10
-488.382051
 20
-151.593196
 30
105.0
 70
    64
  0
VERTEX
  5
190
  8
TEAM-NET
 10
-474.35049
 20
-199.75534
 30
105.0
 70
    64
  0
VERTEX
  5
191
  8
TEAM-NET
 10
-455.045505
 20
-246.056469
 30
105.0
 70
    64
  0
VERTEX
  5
192
  8
TEAM-NET
 10
-430.707001
 20
-289.921194
 30
105.0
 70
    64
  0
VERTEX
  5
193
  8
TEAM-NET
 10
-401.637434
 20
-330.804407
 30
105.0
 70
    64
  0
VERTEX
  5
194
  8
TEAM-NET
 10
-368.198052
 20
-368.198052
 30
105.0
 70
    64
  0
VERTEX
  5
195
  8
TEAM-NET
 10
-330.804407
 20
-401.637434
 30
105.0
 70
    64
  0
VERTEX
  5
196
  8
TEAM-NET
 10
-289.921194
 20
-430.707001
 30
105.0
 70
    64
  0
VERTEX
  5
197
  8
TEAM-NET
 10
-246.056469
 20
-455.045505
 30
105.0
 70
    64
  0
VERTEX
  5
198
  8
TEAM-NET
 10
-199.75534
 20
-474.35049
 30
105.0
 70
    64
  0
VERTEX
  5
199
  8
TEAM-NET
 10
-151.593196
 20
-488.382051
 30
105.0
 70
    64
  0
VERTEX
  5
19A
  8
TEAM-NET
 10
-102.168548
 20
-496.965818
 30
105.0
 70
    64
  0
VERTEX
  5
19B
  8
TEAM-NET
 10
-52.095598
 20
-499.99512
 30
105.0
 70
    64
  0
VERTEX
  5
19C
  8
TEAM-NET
 10
-1.905096
 20
-500.0
 30
105.0
 70
    64
  0
VERTEX
  5
19D
  8
TEAM-NET
 10
48.285413
 20
-500.0
 30
105.0
 70
    64
  0
VERTEX
  5
19E
  8
TEAM-NET
 10
98.475923
 20
-500.0
 30
105.0
 70
    64
  0
VERTEX
  5
19F
  8
TEAM-NET
 10
148.666433
 20
-500.0
 30
105.0
 70
    64
  0
VERTEX
  5
1A0
  8
TEAM-NET
 10
198.856942
 20
-500.0
 30
105.0
 70
    64
  0
VERTEX
  5
1A1
  8
TEAM-NET
 10
249.047452
 20
-500.0
 30
105.0
 70
    64
  0
VERTEX
  5
1A2
  8
TEAM-NET
 10
299.237961
 20
-500.0
 30
105.0
 70
    64
  0
VERTEX
  5
1A3
  8
TEAM-NET
 10
349.428471
 20
-500.0
 30
105.0
 70
    64
  0
VERTEX
  5
1A4
  8
TEAM-NET
 10
399.618981
 20
-500.0
 30
105.0
 70
    64
  0
VERTEX
  5
1A5
  8
TEAM-NET
 10
449.80949
 20
-500.0
 30
105.0
 70
    64
  0
VERTEX
  5
1A6
  8
TEAM-NET
 10
500.0
 20
-500.0
 30
105.0
 70
    64
  0
SEQEND
  5
1A7
  8
TEAM-NET
  0
POLYLINE
  5
1A8
  8
TEAM-BODY
 66
     1
 10
0.0
 20
0.0
 30
105.0
 39
-10.0
  0
VERTEX
  5
32A
  8
TEAM-BODY
 10
-500.0
 20
500.0
 30
105.0
  0
VERTEX
  5
32B
  8
TEAM-BODY
 10
500.0
 20
500.0
 30
105.0
  0
VERTEX
  5
32C
  8
TEAM-BODY
 10
500.0
 20
-500.0
 30
105.0
  0
SEQEND
  5
32D
  8
TEAM-BODY
  0
POLYLINE
  5
1A9
  8
TEAM-DET1
 66
     1
 10
0.0
 20
0.0
 30
105.0
  0
VERTEX
  5
32E
  8
TEAM-DET1
 10
424.00695
 20
-422.040844
 30
105.0
 42
-0.203735
  0
VERTEX
  5
32F
  8
TEAM-DET1
 10
370.0
 20
-445.0
 30
105.0
  0
VERTEX
  5
330
  8
TEAM-DET1
 10
-50.0
 20
-445.0
 30
105.0
 42
-0.414214
  0
VERTEX
  5
331
  8
TEAM-DET1
 10
-445.0
 20
-50.0
 30
105.0
  0
VERTEX
  5
332
  8
TEAM-DET1
 10
-445.0
 20
370.0
 30
105.0
 42
-0.194264
  0
VERTEX
  5
333
  8
TEAM-DET1
 10
-423.973818
 20
422.075205
 30
105.0
 42
-0.194264
  0
SEQEND
  5
334
  8
TEAM-DET1
  0
POLYLINE
  5
1AB
  8
TEAM-DET1
 66
     1
 10
0.0
 20
0.0
 30
105.0
  0
VERTEX
  5
335
  8
TEAM-DET1
 10
-423.960966
 20
422.088522
 30
105.0
 42
-0.203505
  0
VERTEX
  5
336
  8
TEAM-DET1
 10
-370.0
 20
445.0
 30
105.0
  0
VERTEX
  5
337
  8
TEAM-DET1
 10
370.0
 20
445.0
 30
105.0
 42
-0.414214
  0
VERTEX
  5
338
  8
TEAM-DET1
 10
445.0
 20
370.0
 30
105.0
  0
VERTEX
  5
339
  8
TEAM-DET1
 10
445.0
 20
-370.0
 30
105.0
 42
-0.194025
  0
VERTEX
  5
33A
  8
TEAM-DET1
 10
424.021877
 20
-422.025348
 30
105.0
  0
SEQEND
  5
33B
  8
TEAM-DET1
  0
POLYLINE
  5
1AC
  8
TEAM-BODY
 66
     1
 10
0.0
 20
0.0
 30
105.0
 39
-10.0
  0
VERTEX
  5
33C
  8
TEAM-BODY
 10
500.0
 20
-500.0
 30
105.0
  0
VERTEX
  5
33D
  8
TEAM-BODY
 10
-50.0
 20
-500.0
 30
105.0
 42
-0.414214
  0
VERTEX
  5
33E
  8
TEAM-BODY
 10
-500.0
 20
-50.0
 30
105.0
  0
VERTEX
  5
33F
  8
TEAM-BODY
 10
-500.0
 20
500.0
 30
105.0
  0
SEQEND
  5
340
  8
TEAM-BODY
  0
ENDSEC
  0
EOF
