  0
SECTION
  2
HEADER
  9
$ACADVER
  1
AC1009
  9
$INSBASE
 10
0.0
 20
0.0
 30
0.0
  9
$EXTMIN
 10
-453.148832
 20
-563.968824
 30
-35.018347
  9
$EXTMAX
 10
563.978749
 20
453.169201
 30
0.005444
  9
$LIMMIN
 10
-453.148832
 20
-563.968824
  9
$LIMMAX
 10
563.978749
 20
453.169201
  9
$ORTHOMODE
 70
     1
  9
$REGENMODE
 70
     1
  9
$FILLMODE
 70
     1
  9
$QTEXTMODE
 70
     0
  9
$MIRRTEXT
 70
     0
  9
$DRAGMODE
 70
     2
  9
$LTSCALE
 40
50.0
  9
$OSMODE
 70
     7
  9
$ATTMODE
 70
     1
  9
$TEXTSIZE
 40
200.0
  9
$TRACEWID
 40
1.0
  9
$TEXTSTYLE
  7
STANDARD
  9
$CLAYER
  8
TEAM-MAS
  9
$CELTYPE
  6
BYLAYER
  9
$CECOLOR
 62
   256
  9
$DIMSCALE
 40
1.0
  9
$DIMASZ
 40
20.0
  9
$DIMEXO
 40
10.0
  9
$DIMDLI
 40
1.0
  9
$DIMRND
 40
0.0
  9
$DIMDLE
 40
0.0
  9
$DIMEXE
 40
1.0
  9
$DIMTP
 40
0.0
  9
$DIMTM
 40
0.0
  9
$DIMTXT
 40
35.0
  9
$DIMCEN
 40
1.0
  9
$DIMTSZ
 40
0.0
  9
$DIMTOL
 70
     0
  9
$DIMLIM
 70
     0
  9
$DIMTIH
 70
     0
  9
$DIMTOH
 70
     0
  9
$DIMSE1
 70
     0
  9
$DIMSE2
 70
     0
  9
$DIMTAD
 70
     0
  9
$DIMZIN
 70
     0
  9
$DIMBLK
  1

  9
$DIMASO
 70
     1
  9
$DIMSHO
 70
     0
  9
$DIMPOST
  1

  9
$DIMAPOST
  1

  9
$DIMALT
 70
     0
  9
$DIMALTD
 70
     2
  9
$DIMALTF
 40
25.4
  9
$DIMLFAC
 40
1.0
  9
$DIMTOFL
 70
     0
  9
$DIMTVP
 40
0.0
  9
$DIMTIX
 70
     0
  9
$DIMSOXD
 70
     0
  9
$DIMSAH
 70
     0
  9
$DIMBLK1
  1

  9
$DIMBLK2
  1

  9
$DIMSTYLE
  2
TEAM
  9
$DIMCLRD
 70
     9
  9
$DIMCLRE
 70
     9
  9
$DIMCLRT
 70
    11
  9
$DIMTFAC
 40
1.0
  9
$DIMGAP
 40
15.0
  9
$LUNITS
 70
     2
  9
$LUPREC
 70
     1
  9
$SKETCHINC
 40
1.0
  9
$FILLETRAD
 40
10.0
  9
$AUNITS
 70
     0
  9
$AUPREC
 70
     0
  9
$MENU
  1
ROPLANS
  9
$ELEVATION
 40
200.0
  9
$PELEVATION
 40
0.0
  9
$THICKNESS
 40
0.0
  9
$LIMCHECK
 70
     0
  9
$BLIPMODE
 70
     1
  9
$CHAMFERA
 40
0.0
  9
$CHAMFERB
 40
0.0
  9
$SKPOLY
 70
     0
  9
$TDCREATE
 40
2450392.957851
  9
$TDUPDATE
 40
2455878.981777
  9
$TDINDWG
 40
2.881792
  9
$TDUSRTIMER
 40
2.881792
  9
$USRTIMER
 70
     1
  9
$ANGBASE
 50
0.0
  9
$ANGDIR
 70
     0
  9
$PDMODE
 70
     0
  9
$PDSIZE
 40
0.0
  9
$PLINEWID
 40
0.0
  9
$COORDS
 70
     2
  9
$SPLFRAME
 70
     0
  9
$SPLINETYPE
 70
     6
  9
$SPLINESEGS
 70
     8
  9
$ATTDIA
 70
     0
  9
$ATTREQ
 70
     0
  9
$HANDLING
 70
     1
  9
$HANDSEED
  5
3AD
  9
$SURFTAB1
 70
    48
  9
$SURFTAB2
 70
    48
  9
$SURFTYPE
 70
     6
  9
$SURFU
 70
     6
  9
$SURFV
 70
     6
  9
$UCSNAME
  2

  9
$UCSORG
 10
0.0
 20
0.0
 30
0.0
  9
$UCSXDIR
 10
1.0
 20
0.0
 30
0.0
  9
$UCSYDIR
 10
0.0
 20
1.0
 30
0.0
  9
$PUCSNAME
  2

  9
$PUCSORG
 10
0.0
 20
0.0
 30
0.0
  9
$PUCSXDIR
 10
1.0
 20
0.0
 30
0.0
  9
$PUCSYDIR
 10
0.0
 20
1.0
 30
0.0
  9
$USERI1
 70
     0
  9
$USERI2
 70
     0
  9
$USERI3
 70
     0
  9
$USERI4
 70
     0
  9
$USERI5
 70
     0
  9
$USERR1
 40
0.0
  9
$USERR2
 40
0.0
  9
$USERR3
 40
0.0
  9
$USERR4
 40
0.0
  9
$USERR5
 40
0.0
  9
$WORLDVIEW
 70
     1
  9
$SHADEDGE
 70
     0
  9
$SHADEDIF
 70
    70
  9
$TILEMODE
 70
     1
  9
$MAXACTVP
 70
    16
  9
$PLIMCHECK
 70
     0
  9
$PEXTMIN
 10
-0.805942
 20
0.005011
 30
0.0
  9
$PEXTMAX
 10
20.250094
 20
11.356329
 30
0.0
  9
$PLIMMIN
 10
0.0
 20
0.0
  9
$PLIMMAX
 10
12.0
 20
9.0
  9
$UNITMODE
 70
     0
  9
$VISRETAIN
 70
     0
  9
$PLINEGEN
 70
     0
  9
$PSLTSCALE
 70
     0
  0
ENDSEC
  0
SECTION
  2
TABLES
  0
TABLE
  2
VPORT
 70
     2
  0
VPORT
  2
*ACTIVE
 70
     0
 10
0.0
 20
0.0
 11
1.0
 21
1.0
 12
55.414959
 22
-55.399811
 13
0.0
 23
0.0
 14
1.0
 24
1.0
 15
50.0
 25
50.0
 16
0.0
 26
0.0
 36
1.0
 17
0.0
 27
0.0
 37
0.0
 40
1023.515066
 41
1.903766
 42
50.0
 43
0.0
 44
0.0
 50
0.0
 51
0.0
 71
     0
 72
   100
 73
     1
 74
     1
 75
     0
 76
     0
 77
     0
 78
     0
  0
ENDTAB
  0
TABLE
  2
LTYPE
 70
     1
  0
LTYPE
  2
CONTINUOUS
 70
     0
  3
Solid Line
 72
    65
 73
     0
 40
0.0
  0
ENDTAB
  0
TABLE
  2
LAYER
 70
     7
  0
LAYER
  2
0
 70
     0
 62
     7
  6
CONTINUOUS
  0
LAYER
  2
TEAM-BODY
 70
     0
 62
     2
  6
CONTINUOUS
  0
LAYER
  2
TEAM-MAS
 70
     0
 62
     9
  6
CONTINUOUS
  0
LAYER
  2
TEAM-TXT
 70
     0
 62
    11
  6
CONTINUOUS
  0
LAYER
  2
TEAM-DET1
 70
     0
 62
     4
  6
CONTINUOUS
  0
LAYER
  2
TEAM-NET
 70
     0
 62
    15
  6
CONTINUOUS
  0
LAYER
  2
TEAM-INSP
 70
     0
 62
     5
  6
CONTINUOUS
  0
ENDTAB
  0
TABLE
  2
STYLE
 70
     2
  0
STYLE
  2
STANDARD
 70
     0
 40
0.0
 41
1.0
 50
0.0
 71
     0
 42
200.0
  3
txt
  4

  0
STYLE
  2
TEAM
 70
     0
 40
0.0
 41
0.8
 50
15.0
 71
     0
 42
7.0
  3
ROMANS.shx
  4

  0
ENDTAB
  0
TABLE
  2
VIEW
 70
     0
  0
ENDTAB
  0
TABLE
  2
UCS
 70
     0
  0
ENDTAB
  0
TABLE
  2
APPID
 70
     1
  0
APPID
  2
ACAD
 70
     0
  0
ENDTAB
  0
TABLE
  2
DIMSTYLE
 70
     1
  0
DIMSTYLE
  2
TEAM
 70
     0
  3

  4

  5

  6

  7

 40
1.0
 41
20.0
 42
10.0
 43
1.0
 44
1.0
 45
0.0
 46
0.0
 47
0.0
 48
0.0
140
35.0
141
1.0
142
0.0
143
25.4
144
1.0
145
0.0
146
1.0
147
15.0
 71
     0
 72
     0
 73
     0
 74
     0
 75
     0
 76
     0
 77
     0
 78
     0
170
     0
171
     2
172
     0
173
     0
174
     0
175
     0
176
     9
177
     9
178
    11
  0
ENDTAB
  0
ENDSEC
  0
SECTION
  2
BLOCKS
  0
BLOCK
  8
0
  2
$MODEL_SPACE
 70
     0
 10
0.0
 20
0.0
 30
0.0
  3
$MODEL_SPACE
  1

  0
ENDBLK
  5
382
  8
0
  0
BLOCK
 67
     1
  8
0
  2
$PAPER_SPACE
 70
     0
 10
0.0
 20
0.0
 30
0.0
  3
$PAPER_SPACE
  1

  0
ENDBLK
  5
380
 67
     1
  8
0
  0
ENDSEC
  0
SECTION
  2
ENTITIES
  0
POLYLINE
  5
20
  8
TEAM-NET
 66
     1
 10
0.0
 20
0.0
 30
0.0
 70
    16
 71
     2
 72
    37
  0
VERTEX
  5
21
  8
TEAM-NET
 10
-370.0
 20
-340.0
 30
-25.0
 70
    64
  0
VERTEX
  5
22
  8
TEAM-NET
 10
-351.619512
 20
-367.658397
 30
-25.0
 70
    64
  0
VERTEX
  5
23
  8
TEAM-NET
 10
-316.739294
 20
-370.0
 30
-25.0
 70
    64
  0
VERTEX
  5
24
  8
TEAM-NET
 10
-281.546996
 20
-370.0
 30
-25.0
 70
    64
  0
VERTEX
  5
25
  8
TEAM-NET
 10
-246.354698
 20
-370.0
 30
-25.0
 70
    64
  0
VERTEX
  5
26
  8
TEAM-NET
 10
-211.1624
 20
-370.0
 30
-25.0
 70
    64
  0
VERTEX
  5
27
  8
TEAM-NET
 10
-175.970102
 20
-370.0
 30
-25.0
 70
    64
  0
VERTEX
  5
28
  8
TEAM-NET
 10
-140.777804
 20
-370.0
 30
-25.0
 70
    64
  0
VERTEX
  5
29
  8
TEAM-NET
 10
-105.585506
 20
-370.0
 30
-25.0
 70
    64
  0
VERTEX
  5
2A
  8
TEAM-NET
 10
-70.406859
 20
-369.283067
 30
-25.0
 70
    64
  0
VERTEX
  5
2B
  8
TEAM-NET
 10
-35.377154
 20
-365.992113
 30
-25.0
 70
    64
  0
VERTEX
  5
2C
  8
TEAM-NET
 10
-0.695102
 20
-360.070471
 30
-25.0
 70
    64
  0
VERTEX
  5
2D
  8
TEAM-NET
 10
33.442023
 20
-351.551824
 30
-25.0
 70
    64
  0
VERTEX
  5
2E
  8
TEAM-NET
 10
66.840043
 20
-340.484628
 30
-25.0
 70
    64
  0
VERTEX
  5
2F
  8
TEAM-NET
 10
99.308988
 20
-326.931834
 30
-25.0
 70
    64
  0
VERTEX
  5
30
  8
TEAM-NET
 10
130.66417
 20
-310.970531
 30
-25.0
 70
    64
  0
VERTEX
  5
31
  8
TEAM-NET
 10
160.727237
 20
-292.691509
 30
-25.0
 70
    64
  0
VERTEX
  5
32
  8
TEAM-NET
 10
189.327186
 20
-272.198743
 30
-25.0
 70
    64
  0
VERTEX
  5
33
  8
TEAM-NET
 10
216.301339
 20
-249.608796
 30
-25.0
 70
    64
  0
VERTEX
  5
34
  8
TEAM-NET
 10
241.496263
 20
-225.050163
 30
-25.0
 70
    64
  0
VERTEX
  5
35
  8
TEAM-NET
 10
264.768646
 20
-198.662537
 30
-25.0
 70
    64
  0
VERTEX
  5
36
  8
TEAM-NET
 10
285.986112
 20
-170.596014
 30
-25.0
 70
    64
  0
VERTEX
  5
37
  8
TEAM-NET
 10
305.027973
 20
-141.010238
 30
-25.0
 70
    64
  0
VERTEX
  5
38
  8
TEAM-NET
 10
321.785918
 20
-110.073498
 30
-25.0
 70
    64
  0
VERTEX
  5
39
  8
TEAM-NET
 10
336.164626
 20
-77.961765
 30
-25.0
 70
    64
  0
VERTEX
  5
3A
  8
TEAM-NET
 10
348.082308
 20
-44.857695
 30
-25.0
 70
    64
  0
VERTEX
  5
3B
  8
TEAM-NET
 10
357.471175
 20
-10.949587
 30
-25.0
 70
    64
  0
VERTEX
  5
3C
  8
TEAM-NET
 10
364.277823
 20
23.569685
 30
-25.0
 70
    64
  0
VERTEX
  5
3D
  8
TEAM-NET
 10
368.463534
 20
58.503772
 30
-25.0
 70
    64
  0
VERTEX
  5
3E
  8
TEAM-NET
 10
370.004499
 20
93.653965
 30
-25.0
 70
    64
  0
VERTEX
  5
3F
  8
TEAM-NET
 10
370.0
 20
128.846212
 30
-25.0
 70
    64
  0
VERTEX
  5
40
  8
TEAM-NET
 10
370.0
 20
164.03851
 30
-25.0
 70
    64
  0
VERTEX
  5
41
  8
TEAM-NET
 10
370.0
 20
199.230808
 30
-25.0
 70
    64
  0
VERTEX
  5
42
  8
TEAM-NET
 10
370.0
 20
234.423106
 30
-25.0
 70
    64
  0
VERTEX
  5
43
  8
TEAM-NET
 10
370.0
 20
269.615404
 30
-25.0
 70
    64
  0
VERTEX
  5
44
  8
TEAM-NET
 10
370.0
 20
304.807702
 30
-25.0
 70
    64
  0
VERTEX
  5
45
  8
TEAM-NET
 10
370.0
 20
340.0
 30
-25.0
 70
    64
  0
VERTEX
  5
46
  8
TEAM-NET
 10
-390.0
 20
-340.0
 30
0.0
 70
    64
  0
VERTEX
  5
47
  8
TEAM-NET
 10
-376.965462
 20
-373.668303
 30
0.0
 70
    64
  0
VERTEX
  5
48
  8
TEAM-NET
 10
-344.657815
 20
-389.782575
 30
0.0
 70
    64
  0
VERTEX
  5
49
  8
TEAM-NET
 10
-307.726959
 20
-390.0
 30
0.0
 70
    64
  0
VERTEX
  5
4A
  8
TEAM-NET
 10
-270.78934
 20
-390.0
 30
0.0
 70
    64
  0
VERTEX
  5
4B
  8
TEAM-NET
 10
-233.85172
 20
-390.0
 30
0.0
 70
    64
  0
VERTEX
  5
4C
  8
TEAM-NET
 10
-196.914101
 20
-390.0
 30
0.0
 70
    64
  0
VERTEX
  5
4D
  8
TEAM-NET
 10
-159.976482
 20
-390.0
 30
0.0
 70
    64
  0
VERTEX
  5
4E
  8
TEAM-NET
 10
-123.038863
 20
-390.0
 30
0.0
 70
    64
  0
VERTEX
  5
4F
  8
TEAM-NET
 10
-86.102064
 20
-389.901606
 30
0.0
 70
    64
  0
VERTEX
  5
50
  8
TEAM-NET
 10
-49.238284
 20
-387.712061
 30
0.0
 70
    64
  0
VERTEX
  5
51
  8
TEAM-NET
 10
-12.646782
 20
-382.732665
 30
0.0
 70
    64
  0
VERTEX
  5
52
  8
TEAM-NET
 10
23.461613
 20
-374.992107
 30
0.0
 70
    64
  0
VERTEX
  5
53
  8
TEAM-NET
 10
58.878856
 20
-364.534987
 30
0.0
 70
    64
  0
VERTEX
  5
54
  8
TEAM-NET
 10
93.400882
 20
-351.421555
 30
0.0
 70
    64
  0
VERTEX
  5
55
  8
TEAM-NET
 10
126.828788
 20
-335.727366
 30
0.0
 70
    64
  0
VERTEX
  5
56
  8
TEAM-NET
 10
158.969971
 20
-317.542846
 30
0.0
 70
    64
  0
VERTEX
  5
57
  8
TEAM-NET
 10
189.639244
 20
-296.972768
 30
0.0
 70
    64
  0
VERTEX
  5
58
  8
TEAM-NET
 10
218.659901
 20
-274.135651
 30
0.0
 70
    64
  0
VERTEX
  5
59
  8
TEAM-NET
 10
245.864733
 20
-249.163075
 30
0.0
 70
    64
  0
VERTEX
  5
5A
  8
TEAM-NET
 10
271.096994
 20
-222.198924
 30
0.0
 70
    64
  0
VERTEX
  5
5B
  8
TEAM-NET
 10
294.211304
 20
-193.398558
 30
0.0
 70
    64
  0
VERTEX
  5
5C
  8
TEAM-NET
 10
315.074485
 20
-162.927914
 30
0.0
 70
    64
  0
VERTEX
  5
5D
  8
TEAM-NET
 10
333.56633
 20
-130.962557
 30
0.0
 70
    64
  0
VERTEX
  5
5E
  8
TEAM-NET
 10
349.580296
 20
-97.68666
 30
0.0
 70
    64
  0
VERTEX
  5
5F
  8
TEAM-NET
 10
363.024113
 20
-63.291948
 30
0.0
 70
    64
  0
VERTEX
  5
60
  8
TEAM-NET
 10
373.820324
 20
-27.976594
 30
0.0
 70
    64
  0
VERTEX
  5
61
  8
TEAM-NET
 10
381.906724
 20
8.055927
 30
0.0
 70
    64
  0
VERTEX
  5
62
  8
TEAM-NET
 10
387.236721
 20
44.598007
 30
0.0
 70
    64
  0
VERTEX
  5
63
  8
TEAM-NET
 10
389.779605
 20
81.4391
 30
0.0
 70
    64
  0
VERTEX
  5
64
  8
TEAM-NET
 10
390.0
 20
118.374285
 30
0.0
 70
    64
  0
VERTEX
  5
65
  8
TEAM-NET
 10
390.0
 20
155.311904
 30
0.0
 70
    64
  0
VERTEX
  5
66
  8
TEAM-NET
 10
390.0
 20
192.249523
 30
0.0
 70
    64
  0
VERTEX
  5
67
  8
TEAM-NET
 10
390.0
 20
229.187142
 30
0.0
 70
    64
  0
VERTEX
  5
68
  8
TEAM-NET
 10
390.0
 20
266.124762
 30
0.0
 70
    64
  0
VERTEX
  5
69
  8
TEAM-NET
 10
390.0
 20
303.062381
 30
0.0
 70
    64
  0
VERTEX
  5
6A
  8
TEAM-NET
 10
390.0
 20
340.0
 30
0.0
 70
    64
  0
SEQEND
  5
6C
  8
TEAM-NET
  0
POLYLINE
  5
6D
  8
TEAM-NET
 66
     1
 10
0.0
 20
0.0
 30
0.0
 70
    16
 71
     2
 72
    37
  0
VERTEX
  5
6E
  8
TEAM-NET
 10
390.0
 20
340.0
 30
0.0
 70
    64
  0
VERTEX
  5
6F
  8
TEAM-NET
 10
373.267939
 20
377.326187
 30
0.0
 70
    64
  0
VERTEX
  5
70
  8
TEAM-NET
 10
334.257615
 20
390.0
 30
0.0
 70
    64
  0
VERTEX
  5
71
  8
TEAM-NET
 10
292.116514
 20
390.0
 30
0.0
 70
    64
  0
VERTEX
  5
72
  8
TEAM-NET
 10
249.975413
 20
390.0
 30
0.0
 70
    64
  0
VERTEX
  5
73
  8
TEAM-NET
 10
207.834312
 20
390.0
 30
0.0
 70
    64
  0
VERTEX
  5
74
  8
TEAM-NET
 10
165.693211
 20
390.0
 30
0.0
 70
    64
  0
VERTEX
  5
75
  8
TEAM-NET
 10
123.55211
 20
390.0
 30
0.0
 70
    64
  0
VERTEX
  5
76
  8
TEAM-NET
 10
81.411009
 20
390.0
 30
0.0
 70
    64
  0
VERTEX
  5
77
  8
TEAM-NET
 10
39.269908
 20
390.0
 30
0.0
 70
    64
  0
VERTEX
  5
78
  8
TEAM-NET
 10
-2.871193
 20
390.0
 30
0.0
 70
    64
  0
VERTEX
  5
79
  8
TEAM-NET
 10
-45.012294
 20
390.0
 30
0.0
 70
    64
  0
VERTEX
  5
7A
  8
TEAM-NET
 10
-87.153395
 20
390.0
 30
0.0
 70
    64
  0
VERTEX
  5
7B
  8
TEAM-NET
 10
-129.294495
 20
390.0
 30
0.0
 70
    64
  0
VERTEX
  5
7C
  8
TEAM-NET
 10
-171.435596
 20
390.0
 30
0.0
 70
    64
  0
VERTEX
  5
7D
  8
TEAM-NET
 10
-213.576697
 20
390.0
 30
0.0
 70
    64
  0
VERTEX
  5
7E
  8
TEAM-NET
 10
-255.717798
 20
390.0
 30
0.0
 70
    64
  0
VERTEX
  5
7F
  8
TEAM-NET
 10
-297.858899
 20
390.0
 30
0.0
 70
    64
  0
VERTEX
  5
80
  8
TEAM-NET
 10
-340.0
 20
390.0
 30
0.0
 70
    64
  0
VERTEX
  5
81
  8
TEAM-NET
 10
-377.326187
 20
373.267939
 30
0.0
 70
    64
  0
VERTEX
  5
82
  8
TEAM-NET
 10
-390.0
 20
334.257615
 30
0.0
 70
    64
  0
VERTEX
  5
83
  8
TEAM-NET
 10
-390.0
 20
292.116514
 30
0.0
 70
    64
  0
VERTEX
  5
84
  8
TEAM-NET
 10
-390.0
 20
249.975413
 30
0.0
 70
    64
  0
VERTEX
  5
85
  8
TEAM-NET
 10
-390.0
 20
207.834312
 30
0.0
 70
    64
  0
VERTEX
  5
86
  8
TEAM-NET
 10
-390.0
 20
165.693211
 30
0.0
 70
    64
  0
VERTEX
  5
87
  8
TEAM-NET
 10
-390.0
 20
123.55211
 30
0.0
 70
    64
  0
VERTEX
  5
88
  8
TEAM-NET
 10
-390.0
 20
81.411009
 30
0.0
 70
    64
  0
VERTEX
  5
89
  8
TEAM-NET
 10
-390.0
 20
39.269908
 30
0.0
 70
    64
  0
VERTEX
  5
8A
  8
TEAM-NET
 10
-390.0
 20
-2.871193
 30
0.0
 70
    64
  0
VERTEX
  5
8B
  8
TEAM-NET
 10
-390.0
 20
-45.012294
 30
0.0
 70
    64
  0
VERTEX
  5
8C
  8
TEAM-NET
 10
-390.0
 20
-87.153395
 30
0.0
 70
    64
  0
VERTEX
  5
8D
  8
TEAM-NET
 10
-390.0
 20
-129.294495
 30
0.0
 70
    64
  0
VERTEX
  5
8E
  8
TEAM-NET
 10
-390.0
 20
-171.435596
 30
0.0
 70
    64
  0
VERTEX
  5
8F
  8
TEAM-NET
 10
-390.0
 20
-213.576697
 30
0.0
 70
    64
  0
VERTEX
  5
90
  8
TEAM-NET
 10
-390.0
 20
-255.717798
 30
0.0
 70
    64
  0
VERTEX
  5
91
  8
TEAM-NET
 10
-390.0
 20
-297.858899
 30
0.0
 70
    64
  0
VERTEX
  5
92
  8
TEAM-NET
 10
-390.0
 20
-340.0
 30
0.0
 70
    64
  0
VERTEX
  5
93
  8
TEAM-NET
 10
370.0
 20
340.0
 30
-25.0
 70
    64
  0
VERTEX
  5
94
  8
TEAM-NET
 10
346.671859
 20
369.248697
 30
-25.0
 70
    64
  0
VERTEX
  5
95
  8
TEAM-NET
 10
306.332346
 20
370.0
 30
-25.0
 70
    64
  0
VERTEX
  5
96
  8
TEAM-NET
 10
265.936575
 20
370.0
 30
-25.0
 70
    64
  0
VERTEX
  5
97
  8
TEAM-NET
 10
225.540803
 20
370.0
 30
-25.0
 70
    64
  0
VERTEX
  5
98
  8
TEAM-NET
 10
185.145032
 20
370.0
 30
-25.0
 70
    64
  0
VERTEX
  5
99
  8
TEAM-NET
 10
144.74926
 20
370.0
 30
-25.0
 70
    64
  0
VERTEX
  5
9A
  8
TEAM-NET
 10
104.353488
 20
370.0
 30
-25.0
 70
    64
  0
VERTEX
  5
9B
  8
TEAM-NET
 10
63.957717
 20
370.0
 30
-25.0
 70
    64
  0
VERTEX
  5
9C
  8
TEAM-NET
 10
23.561945
 20
370.0
 30
-25.0
 70
    64
  0
VERTEX
  5
9D
  8
TEAM-NET
 10
-16.833827
 20
370.0
 30
-25.0
 70
    64
  0
VERTEX
  5
9E
  8
TEAM-NET
 10
-57.229598
 20
370.0
 30
-25.0
 70
    64
  0
VERTEX
  5
9F
  8
TEAM-NET
 10
-97.62537
 20
370.0
 30
-25.0
 70
    64
  0
VERTEX
  5
A0
  8
TEAM-NET
 10
-138.021142
 20
370.0
 30
-25.0
 70
    64
  0
VERTEX
  5
A1
  8
TEAM-NET
 10
-178.416913
 20
370.0
 30
-25.0
 70
    64
  0
VERTEX
  5
A2
  8
TEAM-NET
 10
-218.812685
 20
370.0
 30
-25.0
 70
    64
  0
VERTEX
  5
A3
  8
TEAM-NET
 10
-259.208457
 20
370.0
 30
-25.0
 70
    64
  0
VERTEX
  5
A4
  8
TEAM-NET
 10
-299.604228
 20
370.0
 30
-25.0
 70
    64
  0
VERTEX
  5
A5
  8
TEAM-NET
 10
-340.0
 20
370.0
 30
-25.0
 70
    64
  0
VERTEX
  5
A6
  8
TEAM-NET
 10
-369.248697
 20
346.671859
 30
-25.0
 70
    64
  0
VERTEX
  5
A7
  8
TEAM-NET
 10
-370.0
 20
306.332346
 30
-25.0
 70
    64
  0
VERTEX
  5
A8
  8
TEAM-NET
 10
-370.0
 20
265.936575
 30
-25.0
 70
    64
  0
VERTEX
  5
A9
  8
TEAM-NET
 10
-370.0
 20
225.540803
 30
-25.0
 70
    64
  0
VERTEX
  5
AA
  8
TEAM-NET
 10
-370.0
 20
185.145032
 30
-25.0
 70
    64
  0
VERTEX
  5
AB
  8
TEAM-NET
 10
-370.0
 20
144.74926
 30
-25.0
 70
    64
  0
VERTEX
  5
AC
  8
TEAM-NET
 10
-370.0
 20
104.353488
 30
-25.0
 70
    64
  0
VERTEX
  5
AD
  8
TEAM-NET
 10
-370.0
 20
63.957717
 30
-25.0
 70
    64
  0
VERTEX
  5
AE
  8
TEAM-NET
 10
-370.0
 20
23.561945
 30
-25.0
 70
    64
  0
VERTEX
  5
AF
  8
TEAM-NET
 10
-370.0
 20
-16.833827
 30
-25.0
 70
    64
  0
VERTEX
  5
B0
  8
TEAM-NET
 10
-370.0
 20
-57.229598
 30
-25.0
 70
    64
  0
VERTEX
  5
B1
  8
TEAM-NET
 10
-370.0
 20
-97.62537
 30
-25.0
 70
    64
  0
VERTEX
  5
B2
  8
TEAM-NET
 10
-370.0
 20
-138.021142
 30
-25.0
 70
    64
  0
VERTEX
  5
B3
  8
TEAM-NET
 10
-370.0
 20
-178.416913
 30
-25.0
 70
    64
  0
VERTEX
  5
B4
  8
TEAM-NET
 10
-370.0
 20
-218.812685
 30
-25.0
 70
    64
  0
VERTEX
  5
B5
  8
TEAM-NET
 10
-370.0
 20
-259.208457
 30
-25.0
 70
    64
  0
VERTEX
  5
B6
  8
TEAM-NET
 10
-370.0
 20
-299.604228
 30
-25.0
 70
    64
  0
VERTEX
  5
B7
  8
TEAM-NET
 10
-370.0
 20
-340.0
 30
-25.0
 70
    64
  0
SEQEND
  5
B8
  8
TEAM-NET
  0
POLYLINE
  5
B9
  8
TEAM-NET
 66
     1
 10
0.0
 20
0.0
 30
0.0
 70
    16
 71
     2
 72
    37
  0
VERTEX
  5
BA
  8
TEAM-NET
 10
390.0
 20
340.0
 30
0.0
 70
    64
  0
VERTEX
  5
BB
  8
TEAM-NET
 10
390.0
 20
303.062381
 30
0.0
 70
    64
  0
VERTEX
  5
BC
  8
TEAM-NET
 10
390.0
 20
266.124762
 30
0.0
 70
    64
  0
VERTEX
  5
BD
  8
TEAM-NET
 10
390.0
 20
229.187142
 30
0.0
 70
    64
  0
VERTEX
  5
BE
  8
TEAM-NET
 10
390.0
 20
192.249523
 30
0.0
 70
    64
  0
VERTEX
  5
BF
  8
TEAM-NET
 10
390.0
 20
155.311904
 30
0.0
 70
    64
  0
VERTEX
  5
C0
  8
TEAM-NET
 10
390.0
 20
118.374285
 30
0.0
 70
    64
  0
VERTEX
  5
C1
  8
TEAM-NET
 10
389.779605
 20
81.4391
 30
0.0
 70
    64
  0
VERTEX
  5
C2
  8
TEAM-NET
 10
387.236721
 20
44.598007
 30
0.0
 70
    64
  0
VERTEX
  5
C3
  8
TEAM-NET
 10
381.906724
 20
8.055927
 30
0.0
 70
    64
  0
VERTEX
  5
C4
  8
TEAM-NET
 10
373.820324
 20
-27.976594
 30
0.0
 70
    64
  0
VERTEX
  5
C5
  8
TEAM-NET
 10
363.024113
 20
-63.291948
 30
0.0
 70
    64
  0
VERTEX
  5
C6
  8
TEAM-NET
 10
349.580296
 20
-97.68666
 30
0.0
 70
    64
  0
VERTEX
  5
C7
  8
TEAM-NET
 10
333.56633
 20
-130.962557
 30
0.0
 70
    64
  0
VERTEX
  5
C8
  8
TEAM-NET
 10
315.074485
 20
-162.927914
 30
0.0
 70
    64
  0
VERTEX
  5
C9
  8
TEAM-NET
 10
294.211304
 20
-193.398558
 30
0.0
 70
    64
  0
VERTEX
  5
CA
  8
TEAM-NET
 10
271.096994
 20
-222.198924
 30
0.0
 70
    64
  0
VERTEX
  5
CB
  8
TEAM-NET
 10
245.864733
 20
-249.163075
 30
0.0
 70
    64
  0
VERTEX
  5
CC
  8
TEAM-NET
 10
218.659901
 20
-274.135651
 30
0.0
 70
    64
  0
VERTEX
  5
CD
  8
TEAM-NET
 10
189.639244
 20
-296.972768
 30
0.0
 70
    64
  0
VERTEX
  5
CE
  8
TEAM-NET
 10
158.969971
 20
-317.542846
 30
0.0
 70
    64
  0
VERTEX
  5
CF
  8
TEAM-NET
 10
126.828788
 20
-335.727366
 30
0.0
 70
    64
  0
VERTEX
  5
D0
  8
TEAM-NET
 10
93.400882
 20
-351.421555
 30
0.0
 70
    64
  0
VERTEX
  5
D1
  8
TEAM-NET
 10
58.878856
 20
-364.534987
 30
0.0
 70
    64
  0
VERTEX
  5
D2
  8
TEAM-NET
 10
23.461613
 20
-374.992107
 30
0.0
 70
    64
  0
VERTEX
  5
D3
  8
TEAM-NET
 10
-12.646782
 20
-382.732665
 30
0.0
 70
    64
  0
VERTEX
  5
D4
  8
TEAM-NET
 10
-49.238284
 20
-387.712061
 30
0.0
 70
    64
  0
VERTEX
  5
D5
  8
TEAM-NET
 10
-86.102064
 20
-389.901606
 30
0.0
 70
    64
  0
VERTEX
  5
D6
  8
TEAM-NET
 10
-123.038863
 20
-390.0
 30
0.0
 70
    64
  0
VERTEX
  5
D7
  8
TEAM-NET
 10
-159.976482
 20
-390.0
 30
0.0
 70
    64
  0
VERTEX
  5
D8
  8
TEAM-NET
 10
-196.914101
 20
-390.0
 30
0.0
 70
    64
  0
VERTEX
  5
D9
  8
TEAM-NET
 10
-233.85172
 20
-390.0
 30
0.0
 70
    64
  0
VERTEX
  5
DA
  8
TEAM-NET
 10
-270.78934
 20
-390.0
 30
0.0
 70
    64
  0
VERTEX
  5
DB
  8
TEAM-NET
 10
-307.726959
 20
-390.0
 30
0.0
 70
    64
  0
VERTEX
  5
DC
  8
TEAM-NET
 10
-344.657815
 20
-389.782575
 30
0.0
 70
    64
  0
VERTEX
  5
DD
  8
TEAM-NET
 10
-376.965462
 20
-373.668303
 30
0.0
 70
    64
  0
VERTEX
  5
DE
  8
TEAM-NET
 10
-390.0
 20
-340.0
 30
0.0
 70
    64
  0
VERTEX
  5
DF
  8
TEAM-NET
 10
450.0
 20
435.0
 30
0.0
 70
    64
  0
VERTEX
  5
E0
  8
TEAM-NET
 10
450.0
 20
391.736113
 30
0.0
 70
    64
  0
VERTEX
  5
E1
  8
TEAM-NET
 10
450.0
 20
348.472226
 30
0.0
 70
    64
  0
VERTEX
  5
E2
  8
TEAM-NET
 10
450.0
 20
305.208339
 30
0.0
 70
    64
  0
VERTEX
  5
E3
  8
TEAM-NET
 10
450.0
 20
261.944452
 30
0.0
 70
    64
  0
VERTEX
  5
E4
  8
TEAM-NET
 10
450.0
 20
218.680565
 30
0.0
 70
    64
  0
VERTEX
  5
E5
  8
TEAM-NET
 10
450.0
 20
175.416678
 30
0.0
 70
    64
  0
VERTEX
  5
E6
  8
TEAM-NET
 10
450.0
 20
132.152791
 30
0.0
 70
    64
  0
VERTEX
  5
E7
  8
TEAM-NET
 10
449.887771
 20
88.88966
 30
0.0
 70
    64
  0
VERTEX
  5
E8
  8
TEAM-NET
 10
447.314335
 20
45.713551
 30
0.0
 70
    64
  0
VERTEX
  5
E9
  8
TEAM-NET
 10
441.356056
 20
2.873175
 30
0.0
 70
    64
  0
VERTEX
  5
EA
  8
TEAM-NET
 10
432.049783
 20
-39.366525
 30
0.0
 70
    64
  0
VERTEX
  5
EB
  8
TEAM-NET
 10
419.453069
 20
-80.744318
 30
0.0
 70
    64
  0
VERTEX
  5
EC
  8
TEAM-NET
 10
403.64382
 20
-121.004306
 30
0.0
 70
    64
  0
VERTEX
  5
ED
  8
TEAM-NET
 10
384.719805
 20
-159.897501
 30
0.0
 70
    64
  0
VERTEX
  5
EE
  8
TEAM-NET
 10
362.79806
 20
-197.18337
 30
0.0
 70
    64
  0
VERTEX
  5
EF
  8
TEAM-NET
 10
338.01416
 20
-232.631321
 30
0.0
 70
    64
  0
VERTEX
  5
F0
  8
TEAM-NET
 10
310.521378
 20
-266.022128
 30
0.0
 70
    64
  0
VERTEX
  5
F1
  8
TEAM-NET
 10
280.489744
 20
-297.149285
 30
0.0
 70
    64
  0
VERTEX
  5
F2
  8
TEAM-NET
 10
248.104987
 20
-325.820288
 30
0.0
 70
    64
  0
VERTEX
  5
F3
  8
TEAM-NET
 10
213.567388
 20
-351.857824
 30
0.0
 70
    64
  0
VERTEX
  5
F4
  8
TEAM-NET
 10
177.090545
 20
-375.100863
 30
0.0
 70
    64
  0
VERTEX
  5
F5
  8
TEAM-NET
 10
138.900047
 20
-395.40566
 30
0.0
 70
    64
  0
VERTEX
  5
F6
  8
TEAM-NET
 10
99.23208
 20
-412.646641
 30
0.0
 70
    64
  0
VERTEX
  5
F7
  8
TEAM-NET
 10
58.331972
 20
-426.717179
 30
0.0
 70
    64
  0
VERTEX
  5
F8
  8
TEAM-NET
 10
16.452665
 20
-437.530257
 30
0.0
 70
    64
  0
VERTEX
  5
F9
  8
TEAM-NET
 10
-26.146838
 20
-445.019
 30
0.0
 70
    64
  0
VERTEX
  5
FA
  8
TEAM-NET
 10
-69.203083
 20
-449.137096
 30
0.0
 70
    64
  0
VERTEX
  5
FB
  8
TEAM-NET
 10
-112.450854
 20
-450.0
 30
0.0
 70
    64
  0
VERTEX
  5
FC
  8
TEAM-NET
 10
-155.714741
 20
-450.0
 30
0.0
 70
    64
  0
VERTEX
  5
FD
  8
TEAM-NET
 10
-198.978628
 20
-450.0
 30
0.0
 70
    64
  0
VERTEX
  5
FE
  8
TEAM-NET
 10
-242.242515
 20
-450.0
 30
0.0
 70
    64
  0
VERTEX
  5
FF
  8
TEAM-NET
 10
-285.506402
 20
-450.0
 30
0.0
 70
    64
  0
VERTEX
  5
100
  8
TEAM-NET
 10
-328.770289
 20
-450.0
 30
0.0
 70
    64
  0
VERTEX
  5
101
  8
TEAM-NET
 10
-372.034176
 20
-450.0
 30
0.0
 70
    64
  0
VERTEX
  5
102
  8
TEAM-NET
 10
-415.298063
 20
-450.0
 30
0.0
 70
    64
  0
VERTEX
  5
103
  8
TEAM-NET
 10
-450.0
 20
-435.0
 30
0.0
 70
    64
  0
SEQEND
  5
104
  8
TEAM-NET
  0
POLYLINE
  5
105
  8
TEAM-NET
 66
     1
 10
0.0
 20
0.0
 30
0.0
 70
    16
 71
     2
 72
    37
  0
VERTEX
  5
106
  8
TEAM-NET
 10
390.0
 20
340.0
 30
0.0
 70
    64
  0
VERTEX
  5
107
  8
TEAM-NET
 10
373.267939
 20
377.326187
 30
0.0
 70
    64
  0
VERTEX
  5
108
  8
TEAM-NET
 10
334.257615
 20
390.0
 30
0.0
 70
    64
  0
VERTEX
  5
109
  8
TEAM-NET
 10
292.116514
 20
390.0
 30
0.0
 70
    64
  0
VERTEX
  5
10A
  8
TEAM-NET
 10
249.975413
 20
390.0
 30
0.0
 70
    64
  0
VERTEX
  5
10B
  8
TEAM-NET
 10
207.834312
 20
390.0
 30
0.0
 70
    64
  0
VERTEX
  5
10C
  8
TEAM-NET
 10
165.693211
 20
390.0
 30
0.0
 70
    64
  0
VERTEX
  5
10D
  8
TEAM-NET
 10
123.55211
 20
390.0
 30
0.0
 70
    64
  0
VERTEX
  5
10E
  8
TEAM-NET
 10
81.411009
 20
390.0
 30
0.0
 70
    64
  0
VERTEX
  5
10F
  8
TEAM-NET
 10
39.269908
 20
390.0
 30
0.0
 70
    64
  0
VERTEX
  5
110
  8
TEAM-NET
 10
-2.871193
 20
390.0
 30
0.0
 70
    64
  0
VERTEX
  5
111
  8
TEAM-NET
 10
-45.012294
 20
390.0
 30
0.0
 70
    64
  0
VERTEX
  5
112
  8
TEAM-NET
 10
-87.153395
 20
390.0
 30
0.0
 70
    64
  0
VERTEX
  5
113
  8
TEAM-NET
 10
-129.294495
 20
390.0
 30
0.0
 70
    64
  0
VERTEX
  5
114
  8
TEAM-NET
 10
-171.435596
 20
390.0
 30
0.0
 70
    64
  0
VERTEX
  5
115
  8
TEAM-NET
 10
-213.576697
 20
390.0
 30
0.0
 70
    64
  0
VERTEX
  5
116
  8
TEAM-NET
 10
-255.717798
 20
390.0
 30
0.0
 70
    64
  0
VERTEX
  5
117
  8
TEAM-NET
 10
-297.858899
 20
390.0
 30
0.0
 70
    64
  0
VERTEX
  5
118
  8
TEAM-NET
 10
-340.0
 20
390.0
 30
0.0
 70
    64
  0
VERTEX
  5
119
  8
TEAM-NET
 10
-377.326187
 20
373.267939
 30
0.0
 70
    64
  0
VERTEX
  5
11A
  8
TEAM-NET
 10
-390.0
 20
334.257615
 30
0.0
 70
    64
  0
VERTEX
  5
11B
  8
TEAM-NET
 10
-390.0
 20
292.116514
 30
0.0
 70
    64
  0
VERTEX
  5
11C
  8
TEAM-NET
 10
-390.0
 20
249.975413
 30
0.0
 70
    64
  0
VERTEX
  5
11D
  8
TEAM-NET
 10
-390.0
 20
207.834312
 30
0.0
 70
    64
  0
VERTEX
  5
11E
  8
TEAM-NET
 10
-390.0
 20
165.693211
 30
0.0
 70
    64
  0
VERTEX
  5
11F
  8
TEAM-NET
 10
-390.0
 20
123.55211
 30
0.0
 70
    64
  0
VERTEX
  5
120
  8
TEAM-NET
 10
-390.0
 20
81.411009
 30
0.0
 70
    64
  0
VERTEX
  5
121
  8
TEAM-NET
 10
-390.0
 20
39.269908
 30
0.0
 70
    64
  0
VERTEX
  5
122
  8
TEAM-NET
 10
-390.0
 20
-2.871193
 30
0.0
 70
    64
  0
VERTEX
  5
123
  8
TEAM-NET
 10
-390.0
 20
-45.012294
 30
0.0
 70
    64
  0
VERTEX
  5
124
  8
TEAM-NET
 10
-390.0
 20
-87.153395
 30
0.0
 70
    64
  0
VERTEX
  5
125
  8
TEAM-NET
 10
-390.0
 20
-129.294495
 30
0.0
 70
    64
  0
VERTEX
  5
126
  8
TEAM-NET
 10
-390.0
 20
-171.435596
 30
0.0
 70
    64
  0
VERTEX
  5
127
  8
TEAM-NET
 10
-390.0
 20
-213.576697
 30
0.0
 70
    64
  0
VERTEX
  5
128
  8
TEAM-NET
 10
-390.0
 20
-255.717798
 30
0.0
 70
    64
  0
VERTEX
  5
129
  8
TEAM-NET
 10
-390.0
 20
-297.858899
 30
0.0
 70
    64
  0
VERTEX
  5
12A
  8
TEAM-NET
 10
-390.0
 20
-340.0
 30
0.0
 70
    64
  0
VERTEX
  5
12B
  8
TEAM-NET
 10
450.0
 20
435.0
 30
0.0
 70
    64
  0
VERTEX
  5
12C
  8
TEAM-NET
 10
408.919619
 20
450.0
 30
0.0
 70
    64
  0
VERTEX
  5
12D
  8
TEAM-NET
 10
359.277289
 20
450.0
 30
0.0
 70
    64
  0
VERTEX
  5
12E
  8
TEAM-NET
 10
309.634958
 20
450.0
 30
0.0
 70
    64
  0
VERTEX
  5
12F
  8
TEAM-NET
 10
259.992628
 20
450.0
 30
0.0
 70
    64
  0
VERTEX
  5
130
  8
TEAM-NET
 10
210.350297
 20
450.0
 30
0.0
 70
    64
  0
VERTEX
  5
131
  8
TEAM-NET
 10
160.707966
 20
450.0
 30
0.0
 70
    64
  0
VERTEX
  5
132
  8
TEAM-NET
 10
111.065636
 20
450.0
 30
0.0
 70
    64
  0
VERTEX
  5
133
  8
TEAM-NET
 10
61.423305
 20
450.0
 30
0.0
 70
    64
  0
VERTEX
  5
134
  8
TEAM-NET
 10
11.780975
 20
450.0
 30
0.0
 70
    64
  0
VERTEX
  5
135
  8
TEAM-NET
 10
-37.861356
 20
450.0
 30
0.0
 70
    64
  0
VERTEX
  5
136
  8
TEAM-NET
 10
-87.503686
 20
450.0
 30
0.0
 70
    64
  0
VERTEX
  5
137
  8
TEAM-NET
 10
-137.146017
 20
450.0
 30
0.0
 70
    64
  0
VERTEX
  5
138
  8
TEAM-NET
 10
-186.788347
 20
450.0
 30
0.0
 70
    64
  0
VERTEX
  5
139
  8
TEAM-NET
 10
-236.430678
 20
450.0
 30
0.0
 70
    64
  0
VERTEX
  5
13A
  8
TEAM-NET
 10
-286.073008
 20
450.0
 30
0.0
 70
    64
  0
VERTEX
  5
13B
  8
TEAM-NET
 10
-335.715339
 20
450.0
 30
0.0
 70
    64
  0
VERTEX
  5
13C
  8
TEAM-NET
 10
-385.357669
 20
450.0
 30
0.0
 70
    64
  0
VERTEX
  5
13D
  8
TEAM-NET
 10
-435.0
 20
450.0
 30
0.0
 70
    64
  0
VERTEX
  5
13E
  8
TEAM-NET
 10
-450.0
 20
408.919619
 30
0.0
 70
    64
  0
VERTEX
  5
13F
  8
TEAM-NET
 10
-450.0
 20
359.277289
 30
0.0
 70
    64
  0
VERTEX
  5
140
  8
TEAM-NET
 10
-450.0
 20
309.634958
 30
0.0
 70
    64
  0
VERTEX
  5
141
  8
TEAM-NET
 10
-450.0
 20
259.992628
 30
0.0
 70
    64
  0
VERTEX
  5
142
  8
TEAM-NET
 10
-450.0
 20
210.350297
 30
0.0
 70
    64
  0
VERTEX
  5
143
  8
TEAM-NET
 10
-450.0
 20
160.707966
 30
0.0
 70
    64
  0
VERTEX
  5
144
  8
TEAM-NET
 10
-450.0
 20
111.065636
 30
0.0
 70
    64
  0
VERTEX
  5
145
  8
TEAM-NET
 10
-450.0
 20
61.423305
 30
0.0
 70
    64
  0
VERTEX
  5
146
  8
TEAM-NET
 10
-450.0
 20
11.780975
 30
0.0
 70
    64
  0
VERTEX
  5
147
  8
TEAM-NET
 10
-450.0
 20
-37.861356
 30
0.0
 70
    64
  0
VERTEX
  5
148
  8
TEAM-NET
 10
-450.0
 20
-87.503686
 30
0.0
 70
    64
  0
VERTEX
  5
149
  8
TEAM-NET
 10
-450.0
 20
-137.146017
 30
0.0
 70
    64
  0
VERTEX
  5
14A
  8
TEAM-NET
 10
-450.0
 20
-186.788347
 30
0.0
 70
    64
  0
VERTEX
  5
14B
  8
TEAM-NET
 10
-450.0
 20
-236.430678
 30
0.0
 70
    64
  0
VERTEX
  5
14C
  8
TEAM-NET
 10
-450.0
 20
-286.073008
 30
0.0
 70
    64
  0
VERTEX
  5
14D
  8
TEAM-NET
 10
-450.0
 20
-335.715339
 30
0.0
 70
    64
  0
VERTEX
  5
14E
  8
TEAM-NET
 10
-450.0
 20
-385.357669
 30
0.0
 70
    64
  0
VERTEX
  5
14F
  8
TEAM-NET
 10
-450.0
 20
-435.0
 30
0.0
 70
    64
  0
SEQEND
  5
150
  8
TEAM-NET
  0
POLYLINE
  5
151
  8
TEAM-NET
 66
     1
 10
0.0
 20
0.0
 30
0.0
 70
    16
 71
     2
 72
    37
  0
VERTEX
  5
152
  8
TEAM-NET
 10
370.0
 20
340.0
 30
-25.0
 70
    64
  0
VERTEX
  5
153
  8
TEAM-NET
 10
346.671859
 20
369.248697
 30
-25.0
 70
    64
  0
VERTEX
  5
154
  8
TEAM-NET
 10
306.332346
 20
370.0
 30
-25.0
 70
    64
  0
VERTEX
  5
155
  8
TEAM-NET
 10
265.936575
 20
370.0
 30
-25.0
 70
    64
  0
VERTEX
  5
156
  8
TEAM-NET
 10
225.540803
 20
370.0
 30
-25.0
 70
    64
  0
VERTEX
  5
157
  8
TEAM-NET
 10
185.145032
 20
370.0
 30
-25.0
 70
    64
  0
VERTEX
  5
158
  8
TEAM-NET
 10
144.74926
 20
370.0
 30
-25.0
 70
    64
  0
VERTEX
  5
159
  8
TEAM-NET
 10
104.353488
 20
370.0
 30
-25.0
 70
    64
  0
VERTEX
  5
15A
  8
TEAM-NET
 10
63.957717
 20
370.0
 30
-25.0
 70
    64
  0
VERTEX
  5
15B
  8
TEAM-NET
 10
23.561945
 20
370.0
 30
-25.0
 70
    64
  0
VERTEX
  5
15C
  8
TEAM-NET
 10
-16.833827
 20
370.0
 30
-25.0
 70
    64
  0
VERTEX
  5
15D
  8
TEAM-NET
 10
-57.229598
 20
370.0
 30
-25.0
 70
    64
  0
VERTEX
  5
15E
  8
TEAM-NET
 10
-97.62537
 20
370.0
 30
-25.0
 70
    64
  0
VERTEX
  5
15F
  8
TEAM-NET
 10
-138.021142
 20
370.0
 30
-25.0
 70
    64
  0
VERTEX
  5
160
  8
TEAM-NET
 10
-178.416913
 20
370.0
 30
-25.0
 70
    64
  0
VERTEX
  5
161
  8
TEAM-NET
 10
-218.812685
 20
370.0
 30
-25.0
 70
    64
  0
VERTEX
  5
162
  8
TEAM-NET
 10
-259.208457
 20
370.0
 30
-25.0
 70
    64
  0
VERTEX
  5
163
  8
TEAM-NET
 10
-299.604228
 20
370.0
 30
-25.0
 70
    64
  0
VERTEX
  5
164
  8
TEAM-NET
 10
-340.0
 20
370.0
 30
-25.0
 70
    64
  0
VERTEX
  5
165
  8
TEAM-NET
 10
-369.248697
 20
346.671859
 30
-25.0
 70
    64
  0
VERTEX
  5
166
  8
TEAM-NET
 10
-370.0
 20
306.332346
 30
-25.0
 70
    64
  0
VERTEX
  5
167
  8
TEAM-NET
 10
-370.0
 20
265.936575
 30
-25.0
 70
    64
  0
VERTEX
  5
168
  8
TEAM-NET
 10
-370.0
 20
225.540803
 30
-25.0
 70
    64
  0
VERTEX
  5
169
  8
TEAM-NET
 10
-370.0
 20
185.145032
 30
-25.0
 70
    64
  0
VERTEX
  5
16A
  8
TEAM-NET
 10
-370.0
 20
144.74926
 30
-25.0
 70
    64
  0
VERTEX
  5
16B
  8
TEAM-NET
 10
-370.0
 20
104.353488
 30
-25.0
 70
    64
  0
VERTEX
  5
16C
  8
TEAM-NET
 10
-370.0
 20
63.957717
 30
-25.0
 70
    64
  0
VERTEX
  5
16D
  8
TEAM-NET
 10
-370.0
 20
23.561945
 30
-25.0
 70
    64
  0
VERTEX
  5
16E
  8
TEAM-NET
 10
-370.0
 20
-16.833827
 30
-25.0
 70
    64
  0
VERTEX
  5
16F
  8
TEAM-NET
 10
-370.0
 20
-57.229598
 30
-25.0
 70
    64
  0
VERTEX
  5
170
  8
TEAM-NET
 10
-370.0
 20
-97.62537
 30
-25.0
 70
    64
  0
VERTEX
  5
171
  8
TEAM-NET
 10
-370.0
 20
-138.021142
 30
-25.0
 70
    64
  0
VERTEX
  5
172
  8
TEAM-NET
 10
-370.0
 20
-178.416913
 30
-25.0
 70
    64
  0
VERTEX
  5
173
  8
TEAM-NET
 10
-370.0
 20
-218.812685
 30
-25.0
 70
    64
  0
VERTEX
  5
174
  8
TEAM-NET
 10
-370.0
 20
-259.208457
 30
-25.0
 70
    64
  0
VERTEX
  5
175
  8
TEAM-NET
 10
-370.0
 20
-299.604228
 30
-25.0
 70
    64
  0
VERTEX
  5
176
  8
TEAM-NET
 10
-370.0
 20
-340.0
 30
-25.0
 70
    64
  0
VERTEX
  5
177
  8
TEAM-NET
 10
370.0
 20
340.0
 30
-25.0
 70
    64
  0
VERTEX
  5
178
  8
TEAM-NET
 10
370.0
 20
304.807702
 30
-25.0
 70
    64
  0
VERTEX
  5
179
  8
TEAM-NET
 10
370.0
 20
269.615404
 30
-25.0
 70
    64
  0
VERTEX
  5
17A
  8
TEAM-NET
 10
370.0
 20
234.423106
 30
-25.0
 70
    64
  0
VERTEX
  5
17B
  8
TEAM-NET
 10
370.0
 20
199.230808
 30
-25.0
 70
    64
  0
VERTEX
  5
17C
  8
TEAM-NET
 10
370.0
 20
164.03851
 30
-25.0
 70
    64
  0
VERTEX
  5
17D
  8
TEAM-NET
 10
370.0
 20
128.846212
 30
-25.0
 70
    64
  0
VERTEX
  5
17E
  8
TEAM-NET
 10
370.004499
 20
93.653965
 30
-25.0
 70
    64
  0
VERTEX
  5
17F
  8
TEAM-NET
 10
368.463534
 20
58.503772
 30
-25.0
 70
    64
  0
VERTEX
  5
180
  8
TEAM-NET
 10
364.277823
 20
23.569685
 30
-25.0
 70
    64
  0
VERTEX
  5
181
  8
TEAM-NET
 10
357.471175
 20
-10.949587
 30
-25.0
 70
    64
  0
VERTEX
  5
182
  8
TEAM-NET
 10
348.082308
 20
-44.857695
 30
-25.0
 70
    64
  0
VERTEX
  5
183
  8
TEAM-NET
 10
336.164626
 20
-77.961765
 30
-25.0
 70
    64
  0
VERTEX
  5
184
  8
TEAM-NET
 10
321.785918
 20
-110.073498
 30
-25.0
 70
    64
  0
VERTEX
  5
185
  8
TEAM-NET
 10
305.027973
 20
-141.010238
 30
-25.0
 70
    64
  0
VERTEX
  5
186
  8
TEAM-NET
 10
285.986112
 20
-170.596014
 30
-25.0
 70
    64
  0
VERTEX
  5
187
  8
TEAM-NET
 10
264.768646
 20
-198.662537
 30
-25.0
 70
    64
  0
VERTEX
  5
188
  8
TEAM-NET
 10
241.496263
 20
-225.050163
 30
-25.0
 70
    64
  0
VERTEX
  5
189
  8
TEAM-NET
 10
216.301339
 20
-249.608796
 30
-25.0
 70
    64
  0
VERTEX
  5
18A
  8
TEAM-NET
 10
189.327186
 20
-272.198743
 30
-25.0
 70
    64
  0
VERTEX
  5
18B
  8
TEAM-NET
 10
160.727237
 20
-292.691509
 30
-25.0
 70
    64
  0
VERTEX
  5
18C
  8
TEAM-NET
 10
130.66417
 20
-310.970531
 30
-25.0
 70
    64
  0
VERTEX
  5
18D
  8
TEAM-NET
 10
99.308988
 20
-326.931834
 30
-25.0
 70
    64
  0
VERTEX
  5
18E
  8
TEAM-NET
 10
66.840043
 20
-340.484628
 30
-25.0
 70
    64
  0
VERTEX
  5
18F
  8
TEAM-NET
 10
33.442023
 20
-351.551824
 30
-25.0
 70
    64
  0
VERTEX
  5
190
  8
TEAM-NET
 10
-0.695102
 20
-360.070471
 30
-25.0
 70
    64
  0
VERTEX
  5
191
  8
TEAM-NET
 10
-35.377154
 20
-365.992113
 30
-25.0
 70
    64
  0
VERTEX
  5
192
  8
TEAM-NET
 10
-70.406859
 20
-369.283067
 30
-25.0
 70
    64
  0
VERTEX
  5
193
  8
TEAM-NET
 10
-105.585506
 20
-370.0
 30
-25.0
 70
    64
  0
VERTEX
  5
194
  8
TEAM-NET
 10
-140.777804
 20
-370.0
 30
-25.0
 70
    64
  0
VERTEX
  5
195
  8
TEAM-NET
 10
-175.970102
 20
-370.0
 30
-25.0
 70
    64
  0
VERTEX
  5
196
  8
TEAM-NET
 10
-211.1624
 20
-370.0
 30
-25.0
 70
    64
  0
VERTEX
  5
197
  8
TEAM-NET
 10
-246.354698
 20
-370.0
 30
-25.0
 70
    64
  0
VERTEX
  5
198
  8
TEAM-NET
 10
-281.546996
 20
-370.0
 30
-25.0
 70
    64
  0
VERTEX
  5
199
  8
TEAM-NET
 10
-316.739294
 20
-370.0
 30
-25.0
 70
    64
  0
VERTEX
  5
19A
  8
TEAM-NET
 10
-351.619512
 20
-367.658397
 30
-25.0
 70
    64
  0
VERTEX
  5
19B
  8
TEAM-NET
 10
-370.0
 20
-340.0
 30
-25.0
 70
    64
  0
SEQEND
  5
19C
  8
TEAM-NET
  0
POLYLINE
  5
19D
  8
TEAM-BODY
 66
     1
 10
0.0
 20
0.0
 30
0.0
 39
-30.0
  0
VERTEX
  5
388
  8
TEAM-BODY
 10
-450.0
 20
-435.0
 30
0.0
 42
0.414214
  0
VERTEX
  5
389
  8
TEAM-BODY
 10
-435.0
 20
-450.0
 30
0.0
  0
VERTEX
  5
38A
  8
TEAM-BODY
 10
-100.0
 20
-450.0
 30
0.0
 42
0.414214
  0
VERTEX
  5
38B
  8
TEAM-BODY
 10
450.0
 20
100.0
 30
0.0
  0
VERTEX
  5
38C
  8
TEAM-BODY
 10
450.0
 20
435.0
 30
0.0
  0
SEQEND
  5
38D
  8
TEAM-BODY
  0
POLYLINE
  5
19F
  8
TEAM-BODY
 66
     1
 10
0.0
 20
0.0
 30
0.0
  0
VERTEX
  5
38E
  8
TEAM-BODY
 10
-390.0
 20
-340.0
 30
0.0
 42
0.414214
  0
VERTEX
  5
38F
  8
TEAM-BODY
 10
-340.0
 20
-390.0
 30
0.0
  0
VERTEX
  5
390
  8
TEAM-BODY
 10
-100.0
 20
-390.0
 30
0.0
 42
0.41844
  0
VERTEX
  5
391
  8
TEAM-BODY
 10
390.0
 20
100.0
 30
0.0
  0
VERTEX
  5
392
  8
TEAM-BODY
 10
390.0
 20
340.0
 30
0.0
  0
SEQEND
  5
393
  8
TEAM-BODY
  0
POLYLINE
  5
1A0
  8
TEAM-DET1
 66
     1
 10
0.0
 20
0.0
 30
-25.0
  0
VERTEX
  5
394
  8
TEAM-DET1
 10
-370.0
 20
-340.0
 30
-25.0
 42
0.414214
  0
VERTEX
  5
395
  8
TEAM-DET1
 10
-340.0
 20
-370.0
 30
-25.0
  0
VERTEX
  5
396
  8
TEAM-DET1
 10
-100.0
 20
-370.0
 30
-25.0
 42
0.41862
  0
VERTEX
  5
397
  8
TEAM-DET1
 10
370.0
 20
100.0
 30
-25.0
  0
VERTEX
  5
398
  8
TEAM-DET1
 10
370.0
 20
340.0
 30
-25.0
  0
SEQEND
  5
399
  8
TEAM-DET1
  0
POLYLINE
  5
1A2
  8
TEAM-BODY
 66
     1
 10
0.0
 20
0.0
 30
0.0
  0
VERTEX
  5
39A
  8
TEAM-BODY
 10
390.0
 20
340.0
 30
0.0
 42
0.414214
  0
VERTEX
  5
39B
  8
TEAM-BODY
 10
340.0
 20
390.0
 30
0.0
  0
VERTEX
  5
39C
  8
TEAM-BODY
 10
-340.0
 20
390.0
 30
0.0
 42
0.414214
  0
VERTEX
  5
39D
  8
TEAM-BODY
 10
-390.0
 20
340.0
 30
0.0
  0
VERTEX
  5
39E
  8
TEAM-BODY
 10
-390.0
 20
-340.0
 30
0.0
  0
SEQEND
  5
39F
  8
TEAM-BODY
  0
POLYLINE
  5
1A3
  8
TEAM-DET1
 66
     1
 10
0.0
 20
0.0
 30
-25.0
  0
VERTEX
  5
3A0
  8
TEAM-DET1
 10
370.0
 20
340.0
 30
-25.0
 42
0.414214
  0
VERTEX
  5
3A1
  8
TEAM-DET1
 10
340.0
 20
370.0
 30
-25.0
  0
VERTEX
  5
3A2
  8
TEAM-DET1
 10
-340.0
 20
370.0
 30
-25.0
 42
0.414214
  0
VERTEX
  5
3A3
  8
TEAM-DET1
 10
-370.0
 20
340.0
 30
-25.0
  0
VERTEX
  5
3A4
  8
TEAM-DET1
 10
-370.0
 20
-340.0
 30
-25.0
  0
SEQEND
  5
3A5
  8
TEAM-DET1
  0
POLYLINE
  5
1A4
  8
TEAM-BODY
 66
     1
 10
0.0
 20
0.0
 30
0.0
 39
-30.0
  0
VERTEX
  5
3A6
  8
TEAM-BODY
 10
450.0
 20
435.0
 30
0.0
 42
0.414214
  0
VERTEX
  5
3A7
  8
TEAM-BODY
 10
435.0
 20
450.0
 30
0.0
  0
VERTEX
  5
3A8
  8
TEAM-BODY
 10
-435.0
 20
450.0
 30
0.0
 42
0.414214
  0
VERTEX
  5
3A9
  8
TEAM-BODY
 10
-450.0
 20
435.0
 30
0.0
  0
VERTEX
  5
3AA
  8
TEAM-BODY
 10
-450.0
 20
-435.0
 30
0.0
  0
SEQEND
  5
3AB
  8
TEAM-BODY
  0
CIRCLE
  5
1A5
  8
TEAM-INSP
 10
0.0
 20
0.0
 30
0.0
 40
10.0
  0
CIRCLE
  5
1A7
  8
TEAM-DET1
 39
-10.0
 10
-230.0
 20
230.0
 30
-25.0
 40
55.0
  0
CIRCLE
  5
1A8
  8
TEAM-BODY
 39
-10.0
 10
-230.0
 20
230.0
 30
-25.0
 40
45.0
  0
TEXT
  5
1A9
  8
TEAM-TXT
 10
-274.0577
 20
-278.278742
 30
0.0
 40
30.0
  1
team 147280
 41
0.8
 51
15.0
  7
TEAM
  0
ENDSEC
  0
EOF
