  0
SECTION
  2
HEADER
  9
$ACADVER
  1
AC1009
  9
$INSBASE
 10
0.0
 20
0.0
 30
0.0
  9
$EXTMIN
 10
-164.887098
 20
-329.754657
 30
-0.051893
  9
$EXTMAX
 10
164.8871
 20
10.020738
 30
850.301901
  9
$LIMMIN
 10
-164.887098
 20
-329.754657
  9
$LIMMAX
 10
164.8871
 20
10.020738
  9
$ORTHOMODE
 70
     1
  9
$REGENMODE
 70
     1
  9
$FILLMODE
 70
     1
  9
$QTEXTMODE
 70
     0
  9
$MIRRTEXT
 70
     0
  9
$DRAGMODE
 70
     2
  9
$LTSCALE
 40
25.0
  9
$OSMODE
 70
     0
  9
$ATTMODE
 70
     1
  9
$TEXTSIZE
 40
200.0
  9
$TRACEWID
 40
1.0
  9
$TEXTSTYLE
  7
STANDARD
  9
$CLAYER
  8
TEAM-MAS
  9
$CELTYPE
  6
BYLAYER
  9
$CECOLOR
 62
   256
  9
$DIMSCALE
 40
0.0
  9
$DIMASZ
 40
20.0
  9
$DIMEXO
 40
10.0
  9
$DIMDLI
 40
1.0
  9
$DIMRND
 40
0.0
  9
$DIMDLE
 40
0.0
  9
$DIMEXE
 40
1.0
  9
$DIMTP
 40
0.0
  9
$DIMTM
 40
0.0
  9
$DIMTXT
 40
35.0
  9
$DIMCEN
 40
1.0
  9
$DIMTSZ
 40
0.0
  9
$DIMTOL
 70
     0
  9
$DIMLIM
 70
     0
  9
$DIMTIH
 70
     0
  9
$DIMTOH
 70
     0
  9
$DIMSE1
 70
     0
  9
$DIMSE2
 70
     0
  9
$DIMTAD
 70
     0
  9
$DIMZIN
 70
     0
  9
$DIMBLK
  1

  9
$DIMASO
 70
     1
  9
$DIMSHO
 70
     0
  9
$DIMPOST
  1

  9
$DIMAPOST
  1

  9
$DIMALT
 70
     0
  9
$DIMALTD
 70
     2
  9
$DIMALTF
 40
25.4
  9
$DIMLFAC
 40
1.0
  9
$DIMTOFL
 70
     0
  9
$DIMTVP
 40
0.0
  9
$DIMTIX
 70
     0
  9
$DIMSOXD
 70
     0
  9
$DIMSAH
 70
     0
  9
$DIMBLK1
  1

  9
$DIMBLK2
  1

  9
$DIMSTYLE
  2
TEAM
  9
$DIMCLRD
 70
     9
  9
$DIMCLRE
 70
     9
  9
$DIMCLRT
 70
    11
  9
$DIMTFAC
 40
1.0
  9
$DIMGAP
 40
15.0
  9
$LUNITS
 70
     2
  9
$LUPREC
 70
     1
  9
$SKETCHINC
 40
1.0
  9
$FILLETRAD
 40
50.0
  9
$AUNITS
 70
     0
  9
$AUPREC
 70
     0
  9
$MENU
  1
ROPLANS
  9
$ELEVATION
 40
0.0
  9
$PELEVATION
 40
0.0
  9
$THICKNESS
 40
0.0
  9
$LIMCHECK
 70
     0
  9
$BLIPMODE
 70
     1
  9
$CHAMFERA
 40
0.0
  9
$CHAMFERB
 40
0.0
  9
$SKPOLY
 70
     0
  9
$TDCREATE
 40
2450392.957851
  9
$TDUPDATE
 40
2455498.624065
  9
$TDINDWG
 40
1.987034
  9
$TDUSRTIMER
 40
1.987034
  9
$USRTIMER
 70
     1
  9
$ANGBASE
 50
0.0
  9
$ANGDIR
 70
     0
  9
$PDMODE
 70
     0
  9
$PDSIZE
 40
0.0
  9
$PLINEWID
 40
0.0
  9
$COORDS
 70
     2
  9
$SPLFRAME
 70
     0
  9
$SPLINETYPE
 70
     6
  9
$SPLINESEGS
 70
     8
  9
$ATTDIA
 70
     0
  9
$ATTREQ
 70
     0
  9
$HANDLING
 70
     1
  9
$HANDSEED
  5
833
  9
$SURFTAB1
 70
    24
  9
$SURFTAB2
 70
    24
  9
$SURFTYPE
 70
     6
  9
$SURFU
 70
     6
  9
$SURFV
 70
     6
  9
$UCSNAME
  2

  9
$UCSORG
 10
0.0
 20
0.0
 30
0.0
  9
$UCSXDIR
 10
1.0
 20
0.0
 30
0.0
  9
$UCSYDIR
 10
0.0
 20
1.0
 30
0.0
  9
$PUCSNAME
  2

  9
$PUCSORG
 10
0.0
 20
0.0
 30
0.0
  9
$PUCSXDIR
 10
1.0
 20
0.0
 30
0.0
  9
$PUCSYDIR
 10
0.0
 20
1.0
 30
0.0
  9
$USERI1
 70
     0
  9
$USERI2
 70
     0
  9
$USERI3
 70
     0
  9
$USERI4
 70
     0
  9
$USERI5
 70
     0
  9
$USERR1
 40
0.0
  9
$USERR2
 40
0.0
  9
$USERR3
 40
0.0
  9
$USERR4
 40
0.0
  9
$USERR5
 40
0.0
  9
$WORLDVIEW
 70
     1
  9
$SHADEDGE
 70
     0
  9
$SHADEDIF
 70
    70
  9
$TILEMODE
 70
     1
  9
$MAXACTVP
 70
    16
  9
$PLIMCHECK
 70
     0
  9
$PEXTMIN
 10
-0.805942
 20
0.005011
 30
0.0
  9
$PEXTMAX
 10
20.250094
 20
11.356329
 30
0.0
  9
$PLIMMIN
 10
0.0
 20
0.0
  9
$PLIMMAX
 10
12.0
 20
9.0
  9
$UNITMODE
 70
     0
  9
$VISRETAIN
 70
     0
  9
$PLINEGEN
 70
     0
  9
$PSLTSCALE
 70
     0
  0
ENDSEC
  0
SECTION
  2
TABLES
  0
TABLE
  2
VPORT
 70
     2
  0
VPORT
  2
*ACTIVE
 70
     0
 10
0.0
 20
0.0
 11
1.0
 21
1.0
 12
0.000001
 22
-159.86696
 13
0.0
 23
0.0
 14
1.0
 24
1.0
 15
50.0
 25
50.0
 16
0.0
 26
0.0
 36
1.0
 17
0.0
 27
0.0
 37
0.0
 40
341.86204
 41
1.865779
 42
50.0
 43
0.0
 44
0.0
 50
0.0
 51
0.0
 71
     0
 72
   100
 73
     1
 74
     1
 75
     0
 76
     0
 77
     0
 78
     0
  0
ENDTAB
  0
TABLE
  2
LTYPE
 70
     3
  0
LTYPE
  2
CONTINUOUS
 70
     0
  3
Solid Line
 72
    65
 73
     0
 40
0.0
  0
LTYPE
  2
31
 70
     0
  3

 72
    65
 73
     4
 40
2.1
 49
1.5
 49
-0.3
 49
0.0
 49
-0.3
  0
LTYPE
  2
DURCHGEHEND
 70
     0
  3

 72
    65
 73
     0
 40
0.0
  0
ENDTAB
  0
TABLE
  2
LAYER
 70
     8
  0
LAYER
  2
0
 70
     0
 62
     7
  6
CONTINUOUS
  0
LAYER
  2
TEAM-AXE
 70
     0
 62
    10
  6
31
  0
LAYER
  2
TEAM-MAS
 70
     0
 62
     9
  6
CONTINUOUS
  0
LAYER
  2
TEAM-TXT
 70
     0
 62
    11
  6
CONTINUOUS
  0
LAYER
  2
TEAM-DET1
 70
     0
 62
     4
  6
CONTINUOUS
  0
LAYER
  2
TEAM-NET
 70
     0
 62
    15
  6
CONTINUOUS
  0
LAYER
  2
TEAM-INSP
 70
     0
 62
     5
  6
CONTINUOUS
  0
LAYER
  2
STANDARDEBENE
 70
     0
 62
     7
  6
DURCHGEHEND
  0
ENDTAB
  0
TABLE
  2
STYLE
 70
     2
  0
STYLE
  2
STANDARD
 70
     0
 40
0.0
 41
1.0
 50
0.0
 71
     0
 42
200.0
  3
txt
  4

  0
STYLE
  2
TEAM
 70
     0
 40
0.0
 41
0.8
 50
15.0
 71
     0
 42
7.0
  3
ROMANS.shx
  4

  0
ENDTAB
  0
TABLE
  2
VIEW
 70
     0
  0
ENDTAB
  0
TABLE
  2
UCS
 70
     0
  0
ENDTAB
  0
TABLE
  2
APPID
 70
     1
  0
APPID
  2
ACAD
 70
     0
  0
ENDTAB
  0
TABLE
  2
DIMSTYLE
 70
     1
  0
DIMSTYLE
  2
TEAM
 70
     0
  3

  4

  5

  6

  7

 40
0.0
 41
20.0
 42
10.0
 43
1.0
 44
1.0
 45
0.0
 46
0.0
 47
0.0
 48
0.0
140
35.0
141
1.0
142
0.0
143
25.4
144
1.0
145
0.0
146
1.0
147
15.0
 71
     0
 72
     0
 73
     0
 74
     0
 75
     0
 76
     0
 77
     0
 78
     0
170
     0
171
     2
172
     0
173
     0
174
     0
175
     0
176
     9
177
     9
178
    11
  0
ENDTAB
  0
ENDSEC
  0
SECTION
  2
BLOCKS
  0
BLOCK
  8
0
  2
$MODEL_SPACE
 70
     0
 10
0.0
 20
0.0
 30
0.0
  3
$MODEL_SPACE
  1

  0
ENDBLK
  5
6D5
  8
0
  0
BLOCK
 67
     1
  8
0
  2
$PAPER_SPACE
 70
     0
 10
0.0
 20
0.0
 30
0.0
  3
$PAPER_SPACE
  1

  0
ENDBLK
  5
6D3
 67
     1
  8
0
  0
ENDSEC
  0
SECTION
  2
ENTITIES
  0
CIRCLE
  5
20
  8
TEAM-INSP
 10
0.0
 20
0.0
 30
0.0
 40
10.0
  0
POLYLINE
  5
22
  8
TEAM-NET
 66
     1
 10
0.0
 20
0.0
 30
0.0
 70
    16
 71
     2
 72
    37
  0
VERTEX
  5
23
  8
TEAM-NET
 10
86.443721
 20
-172.055168
 30
720.725
 70
    64
  0
VERTEX
  5
24
  8
TEAM-NET
 10
85.26069
 20
-186.969198
 30
720.725
 70
    64
  0
VERTEX
  5
25
  8
TEAM-NET
 10
81.521146
 20
-201.455179
 30
720.725
 70
    64
  0
VERTEX
  5
26
  8
TEAM-NET
 10
75.337344
 20
-215.078264
 30
720.725
 70
    64
  0
VERTEX
  5
27
  8
TEAM-NET
 10
66.894915
 20
-227.429508
 30
720.725
 70
    64
  0
VERTEX
  5
28
  8
TEAM-NET
 10
56.447286
 20
-238.138144
 30
720.725
 70
    64
  0
VERTEX
  5
29
  8
TEAM-NET
 10
44.30808
 20
-246.882716
 30
720.725
 70
    64
  0
VERTEX
  5
2A
  8
TEAM-NET
 10
30.841699
 20
-253.400723
 30
720.725
 70
    64
  0
VERTEX
  5
2B
  8
TEAM-NET
 10
16.452383
 20
-257.496505
 30
720.725
 70
    64
  0
VERTEX
  5
2C
  8
TEAM-NET
 10
1.572078
 20
-259.047113
 30
720.725
 70
    64
  0
VERTEX
  5
2D
  8
TEAM-NET
 10
-13.35253
 20
-258.005999
 30
720.725
 70
    64
  0
VERTEX
  5
2E
  8
TEAM-NET
 10
-27.873427
 20
-254.404416
 30
720.725
 70
    64
  0
VERTEX
  5
2F
  8
TEAM-NET
 10
-41.554717
 20
-248.350479
 30
720.725
 70
    64
  0
VERTEX
  5
30
  8
TEAM-NET
 10
-53.985707
 20
-240.025917
 30
720.725
 70
    64
  0
VERTEX
  5
31
  8
TEAM-NET
 10
-64.793238
 20
-229.680623
 30
720.725
 70
    64
  0
VERTEX
  5
32
  8
TEAM-NET
 10
-73.652883
 20
-217.625146
 30
720.725
 70
    64
  0
VERTEX
  5
33
  8
TEAM-NET
 10
-80.298689
 20
-204.221374
 30
720.725
 70
    64
  0
VERTEX
  5
34
  8
TEAM-NET
 10
-84.531159
 20
-189.871668
 30
720.725
 70
    64
  0
VERTEX
  5
35
  8
TEAM-NET
 10
-86.22324
 20
-175.006786
 30
720.725
 70
    64
  0
VERTEX
  5
36
  8
TEAM-NET
 10
-85.324137
 20
-160.07295
 30
720.725
 70
    64
  0
VERTEX
  5
37
  8
TEAM-NET
 10
-81.860842
 20
-145.518452
 30
720.725
 70
    64
  0
VERTEX
  5
38
  8
TEAM-NET
 10
-75.937317
 20
-131.780195
 30
720.725
 70
    64
  0
VERTEX
  5
39
  8
TEAM-NET
 10
-67.731377
 20
-119.270583
 30
720.725
 70
    64
  0
VERTEX
  5
3A
  8
TEAM-NET
 10
-57.489353
 20
-108.365135
 30
720.725
 70
    64
  0
VERTEX
  5
3B
  8
TEAM-NET
 10
-45.518695
 20
-99.391218
 30
720.725
 70
    64
  0
VERTEX
  5
3C
  8
TEAM-NET
 10
-32.178745
 20
-92.618214
 30
720.725
 70
    64
  0
VERTEX
  5
3D
  8
TEAM-NET
 10
-17.869949
 20
-88.24944
 30
720.725
 70
    64
  0
VERTEX
  5
3E
  8
TEAM-NET
 10
-3.021835
 20
-86.41604
 30
720.725
 70
    64
  0
VERTEX
  5
3F
  8
TEAM-NET
 10
11.919878
 20
-87.173049
 30
720.725
 70
    64
  0
VERTEX
  5
40
  8
TEAM-NET
 10
26.506662
 20
-90.497743
 30
720.725
 70
    64
  0
VERTEX
  5
41
  8
TEAM-NET
 10
40.300642
 20
-96.290321
 30
720.725
 70
    64
  0
VERTEX
  5
42
  8
TEAM-NET
 10
52.887744
 20
-104.376896
 30
720.725
 70
    64
  0
VERTEX
  5
43
  8
TEAM-NET
 10
63.890121
 20
-114.514723
 30
720.725
 70
    64
  0
VERTEX
  5
44
  8
TEAM-NET
 10
72.977499
 20
-126.399479
 30
720.725
 70
    64
  0
VERTEX
  5
45
  8
TEAM-NET
 10
79.877088
 20
-139.674399
 30
720.725
 70
    64
  0
VERTEX
  5
46
  8
TEAM-NET
 10
84.381771
 20
-153.940992
 30
720.725
 70
    64
  0
VERTEX
  5
47
  8
TEAM-NET
 10
86.356326
 20
-168.770995
 30
720.725
 70
    64
  0
VERTEX
  5
48
  8
TEAM-NET
 10
154.396139
 20
-172.055168
 30
850.25
 70
    64
  0
VERTEX
  5
49
  8
TEAM-NET
 10
150.817873
 20
-198.666431
 30
850.25
 70
    64
  0
VERTEX
  5
4A
  8
TEAM-NET
 10
142.694552
 20
-224.259014
 30
850.25
 70
    64
  0
VERTEX
  5
4B
  8
TEAM-NET
 10
130.265462
 20
-248.06068
 30
850.25
 70
    64
  0
VERTEX
  5
4C
  8
TEAM-NET
 10
113.898197
 20
-269.345911
 30
850.25
 70
    64
  0
VERTEX
  5
4D
  8
TEAM-NET
 10
94.10018
 20
-287.485049
 30
850.25
 70
    64
  0
VERTEX
  5
4E
  8
TEAM-NET
 10
71.457451
 20
-301.915808
 30
850.25
 70
    64
  0
VERTEX
  5
4F
  8
TEAM-NET
 10
46.660833
 20
-312.215444
 30
850.25
 70
    64
  0
VERTEX
  5
50
  8
TEAM-NET
 10
20.45547
 20
-318.069476
 30
850.25
 70
    64
  0
VERTEX
  5
51
  8
TEAM-NET
 10
-6.367166
 20
-319.29888
 30
850.25
 70
    64
  0
VERTEX
  5
52
  8
TEAM-NET
 10
-32.997153
 20
-315.862801
 30
850.25
 70
    64
  0
VERTEX
  5
53
  8
TEAM-NET
 10
-58.632838
 20
-307.876117
 30
850.25
 70
    64
  0
VERTEX
  5
54
  8
TEAM-NET
 10
-82.500231
 20
-295.573394
 30
850.25
 70
    64
  0
VERTEX
  5
55
  8
TEAM-NET
 10
-103.872947
 20
-279.320262
 30
850.25
 70
    64
  0
VERTEX
  5
56
  8
TEAM-NET
 10
-122.117207
 20
-259.618678
 30
850.25
 70
    64
  0
VERTEX
  5
57
  8
TEAM-NET
 10
-136.669321
 20
-237.053345
 30
850.25
 70
    64
  0
VERTEX
  5
58
  8
TEAM-NET
 10
-147.10164
 20
-212.311665
 30
850.25
 70
    64
  0
VERTEX
  5
59
  8
TEAM-NET
 10
-153.095016
 20
-186.137189
 30
850.25
 70
    64
  0
VERTEX
  5
5A
  8
TEAM-NET
 10
-154.467696
 20
-159.320835
 30
850.25
 70
    64
  0
VERTEX
  5
5B
  8
TEAM-NET
 10
-151.173822
 20
-132.672123
 30
850.25
 70
    64
  0
VERTEX
  5
5C
  8
TEAM-NET
 10
-143.323772
 20
-106.993336
 30
850.25
 70
    64
  0
VERTEX
  5
5D
  8
TEAM-NET
 10
-131.147409
 20
-83.060221
 30
850.25
 70
    64
  0
VERTEX
  5
5E
  8
TEAM-NET
 10
-115.008419
 20
-61.600014
 30
850.25
 70
    64
  0
VERTEX
  5
5F
  8
TEAM-NET
 10
-95.403254
 20
-43.250646
 30
850.25
 70
    64
  0
VERTEX
  5
60
  8
TEAM-NET
 10
-72.915317
 20
-28.577179
 30
850.25
 70
    64
  0
VERTEX
  5
61
  8
TEAM-NET
 10
-48.228584
 20
-18.012155
 30
850.25
 70
    64
  0
VERTEX
  5
62
  8
TEAM-NET
 10
-22.084991
 20
-11.879443
 30
850.25
 70
    64
  0
VERTEX
  5
63
  8
TEAM-NET
 10
4.725081
 20
-10.363473
 30
850.25
 70
    64
  0
VERTEX
  5
64
  8
TEAM-NET
 10
31.392514
 20
-13.515162
 30
850.25
 70
    64
  0
VERTEX
  5
65
  8
TEAM-NET
 10
57.114406
 20
-21.228564
 30
850.25
 70
    64
  0
VERTEX
  5
66
  8
TEAM-NET
 10
81.113239
 20
-33.27858
 30
850.25
 70
    64
  0
VERTEX
  5
67
  8
TEAM-NET
 10
102.660939
 20
-49.303426
 30
850.25
 70
    64
  0
VERTEX
  5
68
  8
TEAM-NET
 10
121.11542
 20
-68.812168
 30
850.25
 70
    64
  0
VERTEX
  5
69
  8
TEAM-NET
 10
135.910245
 20
-91.222707
 30
850.25
 70
    64
  0
VERTEX
  5
6A
  8
TEAM-NET
 10
146.607955
 20
-115.854501
 30
850.25
 70
    64
  0
VERTEX
  5
6B
  8
TEAM-NET
 10
152.880017
 20
-141.967204
 30
850.25
 70
    64
  0
VERTEX
  5
6C
  8
TEAM-NET
 10
154.539255
 20
-168.770995
 30
850.25
 70
    64
  0
SEQEND
  5
6E
  8
TEAM-NET
  0
POLYLINE
  5
6F
  8
TEAM-NET
 66
     1
 10
0.0
 20
0.0
 30
0.0
 70
    16
 71
     2
 72
    37
  0
VERTEX
  5
70
  8
TEAM-NET
 10
-82.32643
 20
-172.084921
 30
720.725
 70
    64
  0
VERTEX
  5
71
  8
TEAM-NET
 10
-82.064472
 20
-164.864336
 30
720.725
 70
    64
  0
VERTEX
  5
72
  8
TEAM-NET
 10
-81.171176
 20
-157.694435
 30
720.725
 70
    64
  0
VERTEX
  5
73
  8
TEAM-NET
 10
-79.653406
 20
-150.630312
 30
720.725
 70
    64
  0
VERTEX
  5
74
  8
TEAM-NET
 10
-77.522825
 20
-143.726249
 30
720.725
 70
    64
  0
VERTEX
  5
75
  8
TEAM-NET
 10
-74.795804
 20
-137.035299
 30
720.725
 70
    64
  0
VERTEX
  5
76
  8
TEAM-NET
 10
-71.4933
 20
-130.608875
 30
720.725
 70
    64
  0
VERTEX
  5
77
  8
TEAM-NET
 10
-67.640688
 20
-124.49636
 30
720.725
 70
    64
  0
VERTEX
  5
78
  8
TEAM-NET
 10
-63.267573
 20
-118.744723
 30
720.725
 70
    64
  0
VERTEX
  5
79
  8
TEAM-NET
 10
-58.407559
 20
-113.398161
 30
720.725
 70
    64
  0
VERTEX
  5
7A
  8
TEAM-NET
 10
-53.097991
 20
-108.497758
 30
720.725
 70
    64
  0
VERTEX
  5
7B
  8
TEAM-NET
 10
-47.379669
 20
-104.08117
 30
720.725
 70
    64
  0
VERTEX
  5
7C
  8
TEAM-NET
 10
-41.296534
 20
-100.182334
 30
720.725
 70
    64
  0
VERTEX
  5
7D
  8
TEAM-NET
 10
-34.895328
 20
-96.83121
 30
720.725
 70
    64
  0
VERTEX
  5
7E
  8
TEAM-NET
 10
-28.225242
 20
-94.053549
 30
720.725
 70
    64
  0
VERTEX
  5
7F
  8
TEAM-NET
 10
-21.337528
 20
-91.870695
 30
720.725
 70
    64
  0
VERTEX
  5
80
  8
TEAM-NET
 10
-14.285113
 20
-90.29942
 30
720.725
 70
    64
  0
VERTEX
  5
81
  8
TEAM-NET
 10
-7.122189
 20
-89.3518
 30
720.725
 70
    64
  0
VERTEX
  5
82
  8
TEAM-NET
 10
0.096202
 20
-89.035115
 30
720.725
 70
    64
  0
VERTEX
  5
83
  8
TEAM-NET
 10
7.314593
 20
-89.3518
 30
720.725
 70
    64
  0
VERTEX
  5
84
  8
TEAM-NET
 10
14.477517
 20
-90.29942
 30
720.725
 70
    64
  0
VERTEX
  5
85
  8
TEAM-NET
 10
21.529932
 20
-91.870695
 30
720.725
 70
    64
  0
VERTEX
  5
86
  8
TEAM-NET
 10
28.417646
 20
-94.053549
 30
720.725
 70
    64
  0
VERTEX
  5
87
  8
TEAM-NET
 10
35.087733
 20
-96.83121
 30
720.725
 70
    64
  0
VERTEX
  5
88
  8
TEAM-NET
 10
41.488938
 20
-100.182334
 30
720.725
 70
    64
  0
VERTEX
  5
89
  8
TEAM-NET
 10
47.572074
 20
-104.08117
 30
720.725
 70
    64
  0
VERTEX
  5
8A
  8
TEAM-NET
 10
53.290396
 20
-108.497758
 30
720.725
 70
    64
  0
VERTEX
  5
8B
  8
TEAM-NET
 10
58.599964
 20
-113.398161
 30
720.725
 70
    64
  0
VERTEX
  5
8C
  8
TEAM-NET
 10
63.459978
 20
-118.744723
 30
720.725
 70
    64
  0
VERTEX
  5
8D
  8
TEAM-NET
 10
67.833092
 20
-124.49636
 30
720.725
 70
    64
  0
VERTEX
  5
8E
  8
TEAM-NET
 10
71.685704
 20
-130.608875
 30
720.725
 70
    64
  0
VERTEX
  5
8F
  8
TEAM-NET
 10
74.988209
 20
-137.035299
 30
720.725
 70
    64
  0
VERTEX
  5
90
  8
TEAM-NET
 10
77.715229
 20
-143.726249
 30
720.725
 70
    64
  0
VERTEX
  5
91
  8
TEAM-NET
 10
79.84581
 20
-150.630312
 30
720.725
 70
    64
  0
VERTEX
  5
92
  8
TEAM-NET
 10
81.36358
 20
-157.694435
 30
720.725
 70
    64
  0
VERTEX
  5
93
  8
TEAM-NET
 10
82.256876
 20
-164.864336
 30
720.725
 70
    64
  0
VERTEX
  5
94
  8
TEAM-NET
 10
82.518834
 20
-172.084921
 30
720.725
 70
    64
  0
VERTEX
  5
95
  8
TEAM-NET
 10
-82.32643
 20
-172.084921
 30
720.725
 70
    64
  0
VERTEX
  5
96
  8
TEAM-NET
 10
-82.064472
 20
-179.305505
 30
720.725
 70
    64
  0
VERTEX
  5
97
  8
TEAM-NET
 10
-81.171176
 20
-186.475406
 30
720.725
 70
    64
  0
VERTEX
  5
98
  8
TEAM-NET
 10
-79.653406
 20
-193.539529
 30
720.725
 70
    64
  0
VERTEX
  5
99
  8
TEAM-NET
 10
-77.522825
 20
-200.443592
 30
720.725
 70
    64
  0
VERTEX
  5
9A
  8
TEAM-NET
 10
-74.795804
 20
-207.134543
 30
720.725
 70
    64
  0
VERTEX
  5
9B
  8
TEAM-NET
 10
-71.4933
 20
-213.560966
 30
720.725
 70
    64
  0
VERTEX
  5
9C
  8
TEAM-NET
 10
-67.640688
 20
-219.673482
 30
720.725
 70
    64
  0
VERTEX
  5
9D
  8
TEAM-NET
 10
-63.267573
 20
-225.425118
 30
720.725
 70
    64
  0
VERTEX
  5
9E
  8
TEAM-NET
 10
-58.407559
 20
-230.77168
 30
720.725
 70
    64
  0
VERTEX
  5
9F
  8
TEAM-NET
 10
-53.097991
 20
-235.672083
 30
720.725
 70
    64
  0
VERTEX
  5
A0
  8
TEAM-NET
 10
-47.379669
 20
-240.088671
 30
720.725
 70
    64
  0
VERTEX
  5
A1
  8
TEAM-NET
 10
-41.296534
 20
-243.987507
 30
720.725
 70
    64
  0
VERTEX
  5
A2
  8
TEAM-NET
 10
-34.895328
 20
-247.338631
 30
720.725
 70
    64
  0
VERTEX
  5
A3
  8
TEAM-NET
 10
-28.225242
 20
-250.116292
 30
720.725
 70
    64
  0
VERTEX
  5
A4
  8
TEAM-NET
 10
-21.337528
 20
-252.299147
 30
720.725
 70
    64
  0
VERTEX
  5
A5
  8
TEAM-NET
 10
-14.285113
 20
-253.870421
 30
720.725
 70
    64
  0
VERTEX
  5
A6
  8
TEAM-NET
 10
-7.122189
 20
-254.818042
 30
720.725
 70
    64
  0
VERTEX
  5
A7
  8
TEAM-NET
 10
0.096202
 20
-255.134726
 30
720.725
 70
    64
  0
VERTEX
  5
A8
  8
TEAM-NET
 10
7.314593
 20
-254.818042
 30
720.725
 70
    64
  0
VERTEX
  5
A9
  8
TEAM-NET
 10
14.477517
 20
-253.870421
 30
720.725
 70
    64
  0
VERTEX
  5
AA
  8
TEAM-NET
 10
21.529932
 20
-252.299147
 30
720.725
 70
    64
  0
VERTEX
  5
AB
  8
TEAM-NET
 10
28.417646
 20
-250.116292
 30
720.725
 70
    64
  0
VERTEX
  5
AC
  8
TEAM-NET
 10
35.087733
 20
-247.338631
 30
720.725
 70
    64
  0
VERTEX
  5
AD
  8
TEAM-NET
 10
41.488938
 20
-243.987507
 30
720.725
 70
    64
  0
VERTEX
  5
AE
  8
TEAM-NET
 10
47.572074
 20
-240.088671
 30
720.725
 70
    64
  0
VERTEX
  5
AF
  8
TEAM-NET
 10
53.290396
 20
-235.672083
 30
720.725
 70
    64
  0
VERTEX
  5
B0
  8
TEAM-NET
 10
58.599964
 20
-230.77168
 30
720.725
 70
    64
  0
VERTEX
  5
B1
  8
TEAM-NET
 10
63.459978
 20
-225.425118
 30
720.725
 70
    64
  0
VERTEX
  5
B2
  8
TEAM-NET
 10
67.833092
 20
-219.673482
 30
720.725
 70
    64
  0
VERTEX
  5
B3
  8
TEAM-NET
 10
71.685704
 20
-213.560966
 30
720.725
 70
    64
  0
VERTEX
  5
B4
  8
TEAM-NET
 10
74.988209
 20
-207.134543
 30
720.725
 70
    64
  0
VERTEX
  5
B5
  8
TEAM-NET
 10
77.715229
 20
-200.443592
 30
720.725
 70
    64
  0
VERTEX
  5
B6
  8
TEAM-NET
 10
79.84581
 20
-193.539529
 30
720.725
 70
    64
  0
VERTEX
  5
B7
  8
TEAM-NET
 10
81.36358
 20
-186.475406
 30
720.725
 70
    64
  0
VERTEX
  5
B8
  8
TEAM-NET
 10
82.256876
 20
-179.305505
 30
720.725
 70
    64
  0
VERTEX
  5
B9
  8
TEAM-NET
 10
82.518834
 20
-172.084921
 30
720.725
 70
    64
  0
SEQEND
  5
BA
  8
TEAM-NET
  0
ARC
  5
BB
  8
TEAM-DET1
 10
0.096202
 20
-171.460115
 30
720.725
 40
82.425
 50
359.565677
 51
180.434323
  0
ARC
  5
BD
  8
TEAM-DET1
 10
0.096202
 20
-172.709726
 30
720.725
 40
82.425
 50
179.565677
 51
0.434323
  0
ARC
  5
BE
  8
TEAM-DET1
 10
0.096202
 20
-172.709726
 30
720.725
 40
86.35
 50
2.614372
 51
0.434323
  0
LINE
  5
BF
  8
TEAM-AXE
 10
-39.227937
 20
-172.709726
 30
720.725
 11
39.420341
 21
-172.709726
 31
720.725
  0
LINE
  5
C2
  8
TEAM-AXE
 10
0.78137
 20
-132.829963
 30
720.725
 11
0.78137
 21
-211.478205
 31
720.725
  0
POLYLINE
  5
C3
  8
STANDARDEBENE
 62
     2
 66
     1
 10
0.0
 20
0.0
 30
720.725
 70
     1
  0
VERTEX
  5
6DB
  8
STANDARDEBENE
 62
     2
 10
20.307527
 20
-173.49051
 30
720.725
  0
VERTEX
  5
6DC
  8
STANDARDEBENE
 62
     2
 10
20.236305
 20
-171.855971
 30
720.725
  0
VERTEX
  5
6DD
  8
STANDARDEBENE
 62
     2
 10
20.022614
 20
-170.23643
 30
720.725
  0
VERTEX
  5
6DE
  8
STANDARDEBENE
 62
     2
 10
19.668325
 20
-168.639359
 30
720.725
  0
VERTEX
  5
6DF
  8
STANDARDEBENE
 62
     2
 10
19.17722
 20
-167.079804
 30
720.725
  0
VERTEX
  5
6E0
  8
STANDARDEBENE
 62
     2
 10
18.551147
 20
-165.568976
 30
720.725
  0
VERTEX
  5
6E1
  8
STANDARDEBENE
 62
     2
 10
17.795733
 20
-164.118135
 30
720.725
  0
VERTEX
  5
6E2
  8
STANDARDEBENE
 62
     2
 10
16.918477
 20
-162.738491
 30
720.725
  0
VERTEX
  5
6E3
  8
STANDARDEBENE
 62
     2
 10
15.921248
 20
-161.441354
 30
720.725
  0
VERTEX
  5
6E4
  8
STANDARDEBENE
 62
     2
 10
14.817174
 20
-160.236064
 30
720.725
  0
VERTEX
  5
6E5
  8
STANDARDEBENE
 62
     2
 10
13.611885
 20
-159.132014
 30
720.725
  0
VERTEX
  5
6E6
  8
STANDARDEBENE
 62
     2
 10
12.314747
 20
-158.134761
 30
720.725
  0
VERTEX
  5
6E7
  8
STANDARDEBENE
 62
     2
 10
10.935128
 20
-157.25753
 30
720.725
  0
VERTEX
  5
6E8
  8
STANDARDEBENE
 62
     2
 10
9.484287
 20
-156.502092
 30
720.725
  0
VERTEX
  5
6E9
  8
STANDARDEBENE
 62
     2
 10
7.973459
 20
-155.876018
 30
720.725
  0
VERTEX
  5
6EA
  8
STANDARDEBENE
 62
     2
 10
6.413892
 20
-155.384914
 30
720.725
  0
VERTEX
  5
6EB
  8
STANDARDEBENE
 62
     2
 10
4.816833
 20
-155.030649
 30
720.725
  0
VERTEX
  5
6EC
  8
STANDARDEBENE
 62
     2
 10
3.197292
 20
-154.816958
 30
720.725
  0
VERTEX
  5
6ED
  8
STANDARDEBENE
 62
     2
 10
1.562741
 20
-154.745712
 30
720.725
  0
VERTEX
  5
6EE
  8
STANDARDEBENE
 62
     2
 10
-0.071809
 20
-154.816958
 30
720.725
  0
VERTEX
  5
6EF
  8
STANDARDEBENE
 62
     2
 10
-1.691351
 20
-155.030649
 30
720.725
  0
VERTEX
  5
6F0
  8
STANDARDEBENE
 62
     2
 10
-3.28841
 20
-155.384914
 30
720.725
  0
VERTEX
  5
6F1
  8
STANDARDEBENE
 62
     2
 10
-4.847976
 20
-155.876018
 30
720.725
  0
VERTEX
  5
6F2
  8
STANDARDEBENE
 62
     2
 10
-6.358805
 20
-156.502092
 30
720.725
  0
VERTEX
  5
6F3
  8
STANDARDEBENE
 62
     2
 10
-7.809646
 20
-157.25753
 30
720.725
  0
VERTEX
  5
6F4
  8
STANDARDEBENE
 62
     2
 10
-9.189265
 20
-158.134761
 30
720.725
  0
VERTEX
  5
6F5
  8
STANDARDEBENE
 62
     2
 10
-10.486403
 20
-159.132014
 30
720.725
  0
VERTEX
  5
6F6
  8
STANDARDEBENE
 62
     2
 10
-11.691692
 20
-160.236064
 30
720.725
  0
VERTEX
  5
6F7
  8
STANDARDEBENE
 62
     2
 10
-12.795766
 20
-161.441354
 30
720.725
  0
VERTEX
  5
6F8
  8
STANDARDEBENE
 62
     2
 10
-13.792983
 20
-162.738491
 30
720.725
  0
VERTEX
  5
6F9
  8
STANDARDEBENE
 62
     2
 10
-14.670239
 20
-164.118135
 30
720.725
  0
VERTEX
  5
6FA
  8
STANDARDEBENE
 62
     2
 10
-15.425653
 20
-165.568976
 30
720.725
  0
VERTEX
  5
6FB
  8
STANDARDEBENE
 62
     2
 10
-16.051739
 20
-167.079804
 30
720.725
  0
VERTEX
  5
6FC
  8
STANDARDEBENE
 62
     2
 10
-16.542843
 20
-168.639359
 30
720.725
  0
VERTEX
  5
6FD
  8
STANDARDEBENE
 62
     2
 10
-16.89712
 20
-170.23643
 30
720.725
  0
VERTEX
  5
6FE
  8
STANDARDEBENE
 62
     2
 10
-17.110811
 20
-171.855971
 30
720.725
  0
VERTEX
  5
6FF
  8
STANDARDEBENE
 62
     2
 10
-17.182045
 20
-173.49051
 30
720.725
  0
VERTEX
  5
700
  8
STANDARDEBENE
 62
     2
 10
-17.110811
 20
-175.125048
 30
720.725
  0
VERTEX
  5
701
  8
STANDARDEBENE
 62
     2
 10
-16.89712
 20
-176.74459
 30
720.725
  0
VERTEX
  5
702
  8
STANDARDEBENE
 62
     2
 10
-16.542843
 20
-178.34166
 30
720.725
  0
VERTEX
  5
703
  8
STANDARDEBENE
 62
     2
 10
-16.051739
 20
-179.901216
 30
720.725
  0
VERTEX
  5
704
  8
STANDARDEBENE
 62
     2
 10
-15.425653
 20
-181.412043
 30
720.725
  0
VERTEX
  5
705
  8
STANDARDEBENE
 62
     2
 10
-14.670239
 20
-182.862885
 30
720.725
  0
VERTEX
  5
706
  8
STANDARDEBENE
 62
     2
 10
-13.792983
 20
-184.242528
 30
720.725
  0
VERTEX
  5
707
  8
STANDARDEBENE
 62
     2
 10
-12.795766
 20
-185.539666
 30
720.725
  0
VERTEX
  5
708
  8
STANDARDEBENE
 62
     2
 10
-11.691692
 20
-186.744955
 30
720.725
  0
VERTEX
  5
709
  8
STANDARDEBENE
 62
     2
 10
-10.486403
 20
-187.849005
 30
720.725
  0
VERTEX
  5
70A
  8
STANDARDEBENE
 62
     2
 10
-9.189265
 20
-188.846258
 30
720.725
  0
VERTEX
  5
70B
  8
STANDARDEBENE
 62
     2
 10
-7.809646
 20
-189.72349
 30
720.725
  0
VERTEX
  5
70C
  8
STANDARDEBENE
 62
     2
 10
-6.358805
 20
-190.478927
 30
720.725
  0
VERTEX
  5
70D
  8
STANDARDEBENE
 62
     2
 10
-4.847976
 20
-191.105002
 30
720.725
  0
VERTEX
  5
70E
  8
STANDARDEBENE
 62
     2
 10
-3.28841
 20
-191.596106
 30
720.725
  0
VERTEX
  5
70F
  8
STANDARDEBENE
 62
     2
 10
-1.691351
 20
-191.950371
 30
720.725
  0
VERTEX
  5
710
  8
STANDARDEBENE
 62
     2
 10
-0.071809
 20
-192.164062
 30
720.725
  0
VERTEX
  5
711
  8
STANDARDEBENE
 62
     2
 10
1.562741
 20
-192.235307
 30
720.725
  0
VERTEX
  5
712
  8
STANDARDEBENE
 62
     2
 10
3.197292
 20
-192.164062
 30
720.725
  0
VERTEX
  5
713
  8
STANDARDEBENE
 62
     2
 10
4.816833
 20
-191.950371
 30
720.725
  0
VERTEX
  5
714
  8
STANDARDEBENE
 62
     2
 10
6.413892
 20
-191.596106
 30
720.725
  0
VERTEX
  5
715
  8
STANDARDEBENE
 62
     2
 10
7.973459
 20
-191.105002
 30
720.725
  0
VERTEX
  5
716
  8
STANDARDEBENE
 62
     2
 10
9.484287
 20
-190.478927
 30
720.725
  0
VERTEX
  5
717
  8
STANDARDEBENE
 62
     2
 10
10.935128
 20
-189.72349
 30
720.725
  0
VERTEX
  5
718
  8
STANDARDEBENE
 62
     2
 10
12.314747
 20
-188.846258
 30
720.725
  0
VERTEX
  5
719
  8
STANDARDEBENE
 62
     2
 10
13.611885
 20
-187.849005
 30
720.725
  0
VERTEX
  5
71A
  8
STANDARDEBENE
 62
     2
 10
14.817174
 20
-186.744955
 30
720.725
  0
VERTEX
  5
71B
  8
STANDARDEBENE
 62
     2
 10
15.921248
 20
-185.539666
 30
720.725
  0
VERTEX
  5
71C
  8
STANDARDEBENE
 62
     2
 10
16.918477
 20
-184.242528
 30
720.725
  0
VERTEX
  5
71D
  8
STANDARDEBENE
 62
     2
 10
17.795733
 20
-182.862885
 30
720.725
  0
VERTEX
  5
71E
  8
STANDARDEBENE
 62
     2
 10
18.551147
 20
-181.412043
 30
720.725
  0
VERTEX
  5
71F
  8
STANDARDEBENE
 62
     2
 10
19.17722
 20
-179.901216
 30
720.725
  0
VERTEX
  5
720
  8
STANDARDEBENE
 62
     2
 10
19.668325
 20
-178.34166
 30
720.725
  0
VERTEX
  5
721
  8
STANDARDEBENE
 62
     2
 10
20.022614
 20
-176.74459
 30
720.725
  0
VERTEX
  5
722
  8
STANDARDEBENE
 62
     2
 10
20.236305
 20
-175.125048
 30
720.725
  0
VERTEX
  5
723
  8
STANDARDEBENE
 62
     2
 10
20.307527
 20
-173.49051
 30
720.725
  0
VERTEX
  5
724
  8
STANDARDEBENE
 62
     2
 10
20.307527
 20
-173.49051
 30
720.725
  0
SEQEND
  5
725
  8
STANDARDEBENE
 62
     2
  0
POLYLINE
  5
C6
  8
TEAM-DET1
 66
     1
 10
0.0
 20
0.0
 30
720.725
 70
     1
  0
VERTEX
  5
726
  8
TEAM-DET1
 10
30.473214
 20
-173.49051
 30
720.725
  0
VERTEX
  5
727
  8
TEAM-DET1
 10
30.363351
 20
-170.969493
 30
720.725
  0
VERTEX
  5
728
  8
TEAM-DET1
 10
30.033784
 20
-168.471665
 30
720.725
  0
VERTEX
  5
729
  8
TEAM-DET1
 10
29.487365
 20
-166.008479
 30
720.725
  0
VERTEX
  5
72A
  8
TEAM-DET1
 10
28.729914
 20
-163.603122
 30
720.725
  0
VERTEX
  5
72B
  8
TEAM-DET1
 10
27.764308
 20
-161.272941
 30
720.725
  0
VERTEX
  5
72C
  8
TEAM-DET1
 10
26.599217
 20
-159.035279
 30
720.725
  0
VERTEX
  5
72D
  8
TEAM-DET1
 10
25.24619
 20
-156.907481
 30
720.725
  0
VERTEX
  5
72E
  8
TEAM-DET1
 10
23.708171
 20
-154.906842
 30
720.725
  0
VERTEX
  5
72F
  8
TEAM-DET1
 10
22.005334
 20
-153.047929
 30
720.725
  0
VERTEX
  5
730
  8
TEAM-DET1
 10
20.146397
 20
-151.345067
 30
720.725
  0
VERTEX
  5
731
  8
TEAM-DET1
 10
18.145782
 20
-149.807073
 30
720.725
  0
VERTEX
  5
732
  8
TEAM-DET1
 10
16.017984
 20
-148.454021
 30
720.725
  0
VERTEX
  5
733
  8
TEAM-DET1
 10
13.780297
 20
-147.288931
 30
720.725
  0
VERTEX
  5
734
  8
TEAM-DET1
 10
11.450129
 20
-146.323348
 30
720.725
  0
VERTEX
  5
735
  8
TEAM-DET1
 10
9.044772
 20
-145.565898
 30
720.725
  0
VERTEX
  5
736
  8
TEAM-DET1
 10
6.581598
 20
-145.019455
 30
720.725
  0
VERTEX
  5
737
  8
TEAM-DET1
 10
4.083734
 20
-144.689912
 30
720.725
  0
VERTEX
  5
738
  8
TEAM-DET1
 10
1.562741
 20
-144.580049
 30
720.725
  0
VERTEX
  5
739
  8
TEAM-DET1
 10
-0.958252
 20
-144.689912
 30
720.725
  0
VERTEX
  5
73A
  8
TEAM-DET1
 10
-3.456116
 20
-145.019455
 30
720.725
  0
VERTEX
  5
73B
  8
TEAM-DET1
 10
-5.91929
 20
-145.565898
 30
720.725
  0
VERTEX
  5
73C
  8
TEAM-DET1
 10
-8.324646
 20
-146.323348
 30
720.725
  0
VERTEX
  5
73D
  8
TEAM-DET1
 10
-10.654828
 20
-147.288931
 30
720.725
  0
VERTEX
  5
73E
  8
TEAM-DET1
 10
-12.892502
 20
-148.454021
 30
720.725
  0
VERTEX
  5
73F
  8
TEAM-DET1
 10
-15.020312
 20
-149.807073
 30
720.725
  0
VERTEX
  5
740
  8
TEAM-DET1
 10
-17.020915
 20
-151.345067
 30
720.725
  0
VERTEX
  5
741
  8
TEAM-DET1
 10
-18.879851
 20
-153.047929
 30
720.725
  0
VERTEX
  5
742
  8
TEAM-DET1
 10
-20.582677
 20
-154.906842
 30
720.725
  0
VERTEX
  5
743
  8
TEAM-DET1
 10
-22.120719
 20
-156.907481
 30
720.725
  0
VERTEX
  5
744
  8
TEAM-DET1
 10
-23.473723
 20
-159.035279
 30
720.725
  0
VERTEX
  5
745
  8
TEAM-DET1
 10
-24.638826
 20
-161.272941
 30
720.725
  0
VERTEX
  5
746
  8
TEAM-DET1
 10
-25.604432
 20
-163.603122
 30
720.725
  0
VERTEX
  5
747
  8
TEAM-DET1
 10
-26.361883
 20
-166.008479
 30
720.725
  0
VERTEX
  5
748
  8
TEAM-DET1
 10
-26.90829
 20
-168.471665
 30
720.725
  0
VERTEX
  5
749
  8
TEAM-DET1
 10
-27.237869
 20
-170.969493
 30
720.725
  0
VERTEX
  5
74A
  8
TEAM-DET1
 10
-27.347733
 20
-173.49051
 30
720.725
  0
VERTEX
  5
74B
  8
TEAM-DET1
 10
-27.237869
 20
-176.011527
 30
720.725
  0
VERTEX
  5
74C
  8
TEAM-DET1
 10
-26.90829
 20
-178.509354
 30
720.725
  0
VERTEX
  5
74D
  8
TEAM-DET1
 10
-26.361883
 20
-180.972541
 30
720.725
  0
VERTEX
  5
74E
  8
TEAM-DET1
 10
-25.604432
 20
-183.377897
 30
720.725
  0
VERTEX
  5
74F
  8
TEAM-DET1
 10
-24.638826
 20
-185.708079
 30
720.725
  0
VERTEX
  5
750
  8
TEAM-DET1
 10
-23.473723
 20
-187.94574
 30
720.725
  0
VERTEX
  5
751
  8
TEAM-DET1
 10
-22.120719
 20
-190.073539
 30
720.725
  0
VERTEX
  5
752
  8
TEAM-DET1
 10
-20.582677
 20
-192.074178
 30
720.725
  0
VERTEX
  5
753
  8
TEAM-DET1
 10
-18.879851
 20
-193.933091
 30
720.725
  0
VERTEX
  5
754
  8
TEAM-DET1
 10
-17.020915
 20
-195.635952
 30
720.725
  0
VERTEX
  5
755
  8
TEAM-DET1
 10
-15.020312
 20
-197.173947
 30
720.725
  0
VERTEX
  5
756
  8
TEAM-DET1
 10
-12.892502
 20
-198.526998
 30
720.725
  0
VERTEX
  5
757
  8
TEAM-DET1
 10
-10.654828
 20
-199.692088
 30
720.725
  0
VERTEX
  5
758
  8
TEAM-DET1
 10
-8.324646
 20
-200.657671
 30
720.725
  0
VERTEX
  5
759
  8
TEAM-DET1
 10
-5.91929
 20
-201.415122
 30
720.725
  0
VERTEX
  5
75A
  8
TEAM-DET1
 10
-3.456116
 20
-201.961565
 30
720.725
  0
VERTEX
  5
75B
  8
TEAM-DET1
 10
-0.958252
 20
-202.291108
 30
720.725
  0
VERTEX
  5
75C
  8
TEAM-DET1
 10
1.562741
 20
-202.400971
 30
720.725
  0
VERTEX
  5
75D
  8
TEAM-DET1
 10
4.083734
 20
-202.291108
 30
720.725
  0
VERTEX
  5
75E
  8
TEAM-DET1
 10
6.581598
 20
-201.961565
 30
720.725
  0
VERTEX
  5
75F
  8
TEAM-DET1
 10
9.044772
 20
-201.415122
 30
720.725
  0
VERTEX
  5
760
  8
TEAM-DET1
 10
11.450129
 20
-200.657671
 30
720.725
  0
VERTEX
  5
761
  8
TEAM-DET1
 10
13.780297
 20
-199.692088
 30
720.725
  0
VERTEX
  5
762
  8
TEAM-DET1
 10
16.017984
 20
-198.526998
 30
720.725
  0
VERTEX
  5
763
  8
TEAM-DET1
 10
18.145782
 20
-197.173947
 30
720.725
  0
VERTEX
  5
764
  8
TEAM-DET1
 10
20.146397
 20
-195.635952
 30
720.725
  0
VERTEX
  5
765
  8
TEAM-DET1
 10
22.005334
 20
-193.933091
 30
720.725
  0
VERTEX
  5
766
  8
TEAM-DET1
 10
23.708171
 20
-192.074178
 30
720.725
  0
VERTEX
  5
767
  8
TEAM-DET1
 10
25.24619
 20
-190.073539
 30
720.725
  0
VERTEX
  5
768
  8
TEAM-DET1
 10
26.599217
 20
-187.94574
 30
720.725
  0
VERTEX
  5
769
  8
TEAM-DET1
 10
27.764308
 20
-185.708079
 30
720.725
  0
VERTEX
  5
76A
  8
TEAM-DET1
 10
28.729914
 20
-183.377897
 30
720.725
  0
VERTEX
  5
76B
  8
TEAM-DET1
 10
29.487365
 20
-180.972541
 30
720.725
  0
VERTEX
  5
76C
  8
TEAM-DET1
 10
30.033784
 20
-178.509354
 30
720.725
  0
VERTEX
  5
76D
  8
TEAM-DET1
 10
30.363351
 20
-176.011527
 30
720.725
  0
VERTEX
  5
76E
  8
TEAM-DET1
 10
30.473214
 20
-173.49051
 30
720.725
  0
VERTEX
  5
76F
  8
TEAM-DET1
 10
30.473214
 20
-173.49051
 30
720.725
  0
SEQEND
  5
770
  8
TEAM-DET1
  0
POLYLINE
  5
C7
  8
TEAM-DET1
 66
     1
 10
0.0
 20
0.0
 30
834.55
 70
     1
  0
VERTEX
  5
771
  8
TEAM-DET1
 10
11.846557
 20
-38.255526
 30
834.55
  0
VERTEX
  5
772
  8
TEAM-DET1
 10
11.697142
 20
-37.402298
 30
834.55
  0
VERTEX
  5
773
  8
TEAM-DET1
 10
11.253819
 20
-36.574609
 30
834.55
  0
VERTEX
  5
774
  8
TEAM-DET1
 10
10.529357
 20
-35.798041
 30
834.55
  0
VERTEX
  5
775
  8
TEAM-DET1
 10
9.546369
 20
-35.096217
 30
834.55
  0
VERTEX
  5
776
  8
TEAM-DET1
 10
8.33533
 20
-34.490698
 30
834.55
  0
VERTEX
  5
777
  8
TEAM-DET1
 10
6.931623
 20
-33.99921
 30
834.55
  0
VERTEX
  5
778
  8
TEAM-DET1
 10
5.378512
 20
-33.636991
 30
834.55
  0
VERTEX
  5
779
  8
TEAM-DET1
 10
3.723168
 20
-33.4153
 30
834.55
  0
VERTEX
  5
77A
  8
TEAM-DET1
 10
2.016701
 20
-33.340604
 30
834.55
  0
VERTEX
  5
77B
  8
TEAM-DET1
 10
0.310234
 20
-33.4153
 30
834.55
  0
VERTEX
  5
77C
  8
TEAM-DET1
 10
-1.34511
 20
-33.636991
 30
834.55
  0
VERTEX
  5
77D
  8
TEAM-DET1
 10
-2.898222
 20
-33.99921
 30
834.55
  0
VERTEX
  5
77E
  8
TEAM-DET1
 10
-4.301929
 20
-34.490698
 30
834.55
  0
VERTEX
  5
77F
  8
TEAM-DET1
 10
-5.512967
 20
-35.096217
 30
834.55
  0
VERTEX
  5
780
  8
TEAM-DET1
 10
-6.495954
 20
-35.798041
 30
834.55
  0
VERTEX
  5
781
  8
TEAM-DET1
 10
-7.220417
 20
-36.574609
 30
834.55
  0
VERTEX
  5
782
  8
TEAM-DET1
 10
-7.66374
 20
-37.402298
 30
834.55
  0
VERTEX
  5
783
  8
TEAM-DET1
 10
-7.813155
 20
-38.255526
 30
834.55
  0
VERTEX
  5
784
  8
TEAM-DET1
 10
-7.66374
 20
-39.108753
 30
834.55
  0
VERTEX
  5
785
  8
TEAM-DET1
 10
-7.220417
 20
-39.936443
 30
834.55
  0
VERTEX
  5
786
  8
TEAM-DET1
 10
-6.495954
 20
-40.713011
 30
834.55
  0
VERTEX
  5
787
  8
TEAM-DET1
 10
-5.512967
 20
-41.414835
 30
834.55
  0
VERTEX
  5
788
  8
TEAM-DET1
 10
-4.301929
 20
-42.020354
 30
834.55
  0
VERTEX
  5
789
  8
TEAM-DET1
 10
-2.898222
 20
-42.511841
 30
834.55
  0
VERTEX
  5
78A
  8
TEAM-DET1
 10
-1.34511
 20
-42.874061
 30
834.55
  0
VERTEX
  5
78B
  8
TEAM-DET1
 10
0.310234
 20
-43.095753
 30
834.55
  0
VERTEX
  5
78C
  8
TEAM-DET1
 10
2.016701
 20
-43.170448
 30
834.55
  0
VERTEX
  5
78D
  8
TEAM-DET1
 10
3.723168
 20
-43.095753
 30
834.55
  0
VERTEX
  5
78E
  8
TEAM-DET1
 10
5.378512
 20
-42.874061
 30
834.55
  0
VERTEX
  5
78F
  8
TEAM-DET1
 10
6.931623
 20
-42.511841
 30
834.55
  0
VERTEX
  5
790
  8
TEAM-DET1
 10
8.33533
 20
-42.020354
 30
834.55
  0
VERTEX
  5
791
  8
TEAM-DET1
 10
9.546369
 20
-41.414835
 30
834.55
  0
VERTEX
  5
792
  8
TEAM-DET1
 10
10.529357
 20
-40.713011
 30
834.55
  0
VERTEX
  5
793
  8
TEAM-DET1
 10
11.253819
 20
-39.936443
 30
834.55
  0
VERTEX
  5
794
  8
TEAM-DET1
 10
11.697142
 20
-39.108753
 30
834.55
  0
VERTEX
  5
795
  8
TEAM-DET1
 10
11.846557
 20
-38.255526
 30
834.55
  0
VERTEX
  5
796
  8
TEAM-DET1
 10
11.846557
 20
-38.255526
 30
834.55
  0
SEQEND
  5
797
  8
TEAM-DET1
  0
POLYLINE
  5
C8
  8
TEAM-NET
 66
     1
 10
0.0
 20
0.0
 30
0.0
 70
    16
 71
     2
 72
    37
  0
VERTEX
  5
C9
  8
TEAM-NET
 10
164.553732
 20
-172.055168
 30
850.25
 70
    64
  0
VERTEX
  5
CA
  8
TEAM-NET
 10
160.820964
 20
-200.430233
 30
850.25
 70
    64
  0
VERTEX
  5
CB
  8
TEAM-NET
 10
152.239548
 20
-227.733122
 30
850.25
 70
    64
  0
VERTEX
  5
CC
  8
TEAM-NET
 10
139.061994
 20
-253.13939
 30
850.25
 70
    64
  0
VERTEX
  5
CD
  8
TEAM-NET
 10
121.679179
 20
-275.874916
 30
850.25
 70
    64
  0
VERTEX
  5
CE
  8
TEAM-NET
 10
100.629169
 20
-295.266008
 30
850.25
 70
    64
  0
VERTEX
  5
CF
  8
TEAM-NET
 10
76.536159
 20
-310.712332
 30
850.25
 70
    64
  0
VERTEX
  5
D0
  8
TEAM-NET
 10
50.134957
 20
-321.760472
 30
850.25
 70
    64
  0
VERTEX
  5
D1
  8
TEAM-NET
 10
22.219287
 20
-328.072612
 30
850.25
 70
    64
  0
VERTEX
  5
D2
  8
TEAM-NET
 10
-6.367161
 20
-329.45646
 30
850.25
 70
    64
  0
VERTEX
  5
D3
  8
TEAM-NET
 10
-34.760953
 20
-325.865902
 30
850.25
 70
    64
  0
VERTEX
  5
D4
  8
TEAM-NET
 10
-62.106943
 20
-317.421127
 30
850.25
 70
    64
  0
VERTEX
  5
D5
  8
TEAM-NET
 10
-87.578932
 20
-304.369928
 30
850.25
 70
    64
  0
VERTEX
  5
D6
  8
TEAM-NET
 10
-110.401949
 20
-287.101253
 30
850.25
 70
    64
  0
VERTEX
  5
D7
  8
TEAM-NET
 10
-129.898153
 20
-266.147665
 30
850.25
 70
    64
  0
VERTEX
  5
D8
  8
TEAM-NET
 10
-145.465832
 20
-242.132053
 30
850.25
 70
    64
  0
VERTEX
  5
D9
  8
TEAM-NET
 10
-156.646656
 20
-215.785789
 30
850.25
 70
    64
  0
VERTEX
  5
DA
  8
TEAM-NET
 10
-163.098152
 20
-187.901009
 30
850.25
 70
    64
  0
VERTEX
  5
DB
  8
TEAM-NET
 10
-164.625286
 20
-159.320844
 30
850.25
 70
    64
  0
VERTEX
  5
DC
  8
TEAM-NET
 10
-161.176922
 20
-130.908329
 30
850.25
 70
    64
  0
VERTEX
  5
DD
  8
TEAM-NET
 10
-152.868775
 20
-103.519237
 30
850.25
 70
    64
  0
VERTEX
  5
DE
  8
TEAM-NET
 10
-139.943933
 20
-77.981528
 30
850.25
 70
    64
  0
VERTEX
  5
DF
  8
TEAM-NET
 10
-122.789403
 20
-55.071016
 30
850.25
 70
    64
  0
VERTEX
  5
E0
  8
TEAM-NET
 10
-101.932243
 20
-35.469697
 30
850.25
 70
    64
  0
VERTEX
  5
E1
  8
TEAM-NET
 10
-77.994027
 20
-19.78066
 30
850.25
 70
    64
  0
VERTEX
  5
E2
  8
TEAM-NET
 10
-51.702696
 20
-8.467162
 30
850.25
 70
    64
  0
VERTEX
  5
E3
  8
TEAM-NET
 10
-23.848805
 20
-1.87631
 30
850.25
 70
    64
  0
VERTEX
  5
E4
  8
TEAM-NET
 10
4.725077
 20
-0.205897
 30
850.25
 70
    64
  0
VERTEX
  5
E5
  8
TEAM-NET
 10
33.156314
 20
-3.512069
 30
850.25
 70
    64
  0
VERTEX
  5
E6
  8
TEAM-NET
 10
60.588509
 20
-11.68358
 30
850.25
 70
    64
  0
VERTEX
  5
E7
  8
TEAM-NET
 10
86.191942
 20
-24.482056
 30
850.25
 70
    64
  0
VERTEX
  5
E8
  8
TEAM-NET
 10
109.189951
 20
-41.522436
 30
850.25
 70
    64
  0
VERTEX
  5
E9
  8
TEAM-NET
 10
128.89637
 20
-62.283187
 30
850.25
 70
    64
  0
VERTEX
  5
EA
  8
TEAM-NET
 10
144.706771
 20
-86.144
 30
850.25
 70
    64
  0
VERTEX
  5
EB
  8
TEAM-NET
 10
156.152964
 20
-112.380389
 30
850.25
 70
    64
  0
VERTEX
  5
EC
  8
TEAM-NET
 10
162.883154
 20
-140.203394
 30
850.25
 70
    64
  0
VERTEX
  5
ED
  8
TEAM-NET
 10
164.696846
 20
-168.770995
 30
850.25
 70
    64
  0
VERTEX
  5
EE
  8
TEAM-NET
 10
154.396139
 20
-172.055168
 30
850.25
 70
    64
  0
VERTEX
  5
EF
  8
TEAM-NET
 10
150.817873
 20
-198.666431
 30
850.25
 70
    64
  0
VERTEX
  5
F0
  8
TEAM-NET
 10
142.694552
 20
-224.259014
 30
850.25
 70
    64
  0
VERTEX
  5
F1
  8
TEAM-NET
 10
130.265462
 20
-248.06068
 30
850.25
 70
    64
  0
VERTEX
  5
F2
  8
TEAM-NET
 10
113.898197
 20
-269.345911
 30
850.25
 70
    64
  0
VERTEX
  5
F3
  8
TEAM-NET
 10
94.10018
 20
-287.485049
 30
850.25
 70
    64
  0
VERTEX
  5
F4
  8
TEAM-NET
 10
71.457451
 20
-301.915808
 30
850.25
 70
    64
  0
VERTEX
  5
F5
  8
TEAM-NET
 10
46.660833
 20
-312.215444
 30
850.25
 70
    64
  0
VERTEX
  5
F6
  8
TEAM-NET
 10
20.45547
 20
-318.069476
 30
850.25
 70
    64
  0
VERTEX
  5
F7
  8
TEAM-NET
 10
-6.367166
 20
-319.29888
 30
850.25
 70
    64
  0
VERTEX
  5
F8
  8
TEAM-NET
 10
-32.997153
 20
-315.862801
 30
850.25
 70
    64
  0
VERTEX
  5
F9
  8
TEAM-NET
 10
-58.632838
 20
-307.876117
 30
850.25
 70
    64
  0
VERTEX
  5
FA
  8
TEAM-NET
 10
-82.500231
 20
-295.573394
 30
850.25
 70
    64
  0
VERTEX
  5
FB
  8
TEAM-NET
 10
-103.872947
 20
-279.320262
 30
850.25
 70
    64
  0
VERTEX
  5
FC
  8
TEAM-NET
 10
-122.117207
 20
-259.618678
 30
850.25
 70
    64
  0
VERTEX
  5
FD
  8
TEAM-NET
 10
-136.669321
 20
-237.053345
 30
850.25
 70
    64
  0
VERTEX
  5
FE
  8
TEAM-NET
 10
-147.10164
 20
-212.311665
 30
850.25
 70
    64
  0
VERTEX
  5
FF
  8
TEAM-NET
 10
-153.095016
 20
-186.137189
 30
850.25
 70
    64
  0
VERTEX
  5
100
  8
TEAM-NET
 10
-154.467696
 20
-159.320835
 30
850.25
 70
    64
  0
VERTEX
  5
101
  8
TEAM-NET
 10
-151.173822
 20
-132.672123
 30
850.25
 70
    64
  0
VERTEX
  5
102
  8
TEAM-NET
 10
-143.323772
 20
-106.993336
 30
850.25
 70
    64
  0
VERTEX
  5
103
  8
TEAM-NET
 10
-131.147409
 20
-83.060221
 30
850.25
 70
    64
  0
VERTEX
  5
104
  8
TEAM-NET
 10
-115.008419
 20
-61.600014
 30
850.25
 70
    64
  0
VERTEX
  5
105
  8
TEAM-NET
 10
-95.403254
 20
-43.250646
 30
850.25
 70
    64
  0
VERTEX
  5
106
  8
TEAM-NET
 10
-72.915317
 20
-28.577179
 30
850.25
 70
    64
  0
VERTEX
  5
107
  8
TEAM-NET
 10
-48.228584
 20
-18.012155
 30
850.25
 70
    64
  0
VERTEX
  5
108
  8
TEAM-NET
 10
-22.084991
 20
-11.879443
 30
850.25
 70
    64
  0
VERTEX
  5
109
  8
TEAM-NET
 10
4.725081
 20
-10.363473
 30
850.25
 70
    64
  0
VERTEX
  5
10A
  8
TEAM-NET
 10
31.392514
 20
-13.515162
 30
850.25
 70
    64
  0
VERTEX
  5
10B
  8
TEAM-NET
 10
57.114406
 20
-21.228564
 30
850.25
 70
    64
  0
VERTEX
  5
10C
  8
TEAM-NET
 10
81.113239
 20
-33.27858
 30
850.25
 70
    64
  0
VERTEX
  5
10D
  8
TEAM-NET
 10
102.660939
 20
-49.303426
 30
850.25
 70
    64
  0
VERTEX
  5
10E
  8
TEAM-NET
 10
121.11542
 20
-68.812168
 30
850.25
 70
    64
  0
VERTEX
  5
10F
  8
TEAM-NET
 10
135.910245
 20
-91.222707
 30
850.25
 70
    64
  0
VERTEX
  5
110
  8
TEAM-NET
 10
146.607955
 20
-115.854501
 30
850.25
 70
    64
  0
VERTEX
  5
111
  8
TEAM-NET
 10
152.880017
 20
-141.967204
 30
850.25
 70
    64
  0
VERTEX
  5
112
  8
TEAM-NET
 10
154.539255
 20
-168.770995
 30
850.25
 70
    64
  0
SEQEND
  5
113
  8
TEAM-NET
  0
POLYLINE
  5
114
  8
STANDARDEBENE
 62
     2
 66
     1
 10
0.0
 20
0.0
 30
850.25
  0
VERTEX
  5
798
  8
STANDARDEBENE
 62
     2
 10
154.539255
 20
-168.770995
 30
850.25
  0
VERTEX
  5
799
  8
STANDARDEBENE
 62
     2
 10
154.709383
 20
-164.866961
 30
850.25
  0
VERTEX
  5
79A
  8
STANDARDEBENE
 62
     2
 10
154.709383
 20
-164.866961
 30
850.25
  0
VERTEX
  5
79B
  8
STANDARDEBENE
 62
     2
 10
154.709383
 20
-164.866961
 30
850.25
  0
VERTEX
  5
79C
  8
STANDARDEBENE
 62
     2
 10
154.121494
 20
-151.376306
 30
850.25
  0
VERTEX
  5
79D
  8
STANDARDEBENE
 62
     2
 10
152.357808
 20
-138.00941
 30
850.25
  0
VERTEX
  5
79E
  8
STANDARDEBENE
 62
     2
 10
149.433798
 20
-124.828175
 30
850.25
  0
VERTEX
  5
79F
  8
STANDARDEBENE
 62
     2
 10
145.380417
 20
-111.956361
 30
850.25
  0
VERTEX
  5
7A0
  8
STANDARDEBENE
 62
     2
 10
140.213115
 20
-99.486772
 30
850.25
  0
VERTEX
  5
7A1
  8
STANDARDEBENE
 62
     2
 10
133.97832
 20
-87.512264
 30
850.25
  0
VERTEX
  5
7A2
  8
STANDARDEBENE
 62
     2
 10
126.737912
 20
-76.125643
 30
850.25
  0
VERTEX
  5
7A3
  8
STANDARDEBENE
 62
     2
 10
118.50739
 20
-65.419765
 30
850.25
  0
VERTEX
  5
7A4
  8
STANDARDEBENE
 62
     2
 10
109.394989
 20
-55.47196
 30
850.25
  0
VERTEX
  5
7A5
  8
STANDARDEBENE
 62
     2
 10
99.447184
 20
-46.359558
 30
850.25
  0
VERTEX
  5
7A6
  8
STANDARDEBENE
 62
     2
 10
88.741305
 20
-38.129036
 30
850.25
  0
VERTEX
  5
7A7
  8
STANDARDEBENE
 62
     2
 10
77.354685
 20
-30.888629
 30
850.25
  0
VERTEX
  5
7A8
  8
STANDARDEBENE
 62
     2
 10
65.380177
 20
-24.653858
 30
850.25
  0
VERTEX
  5
7A9
  8
STANDARDEBENE
 62
     2
 10
52.910612
 20
-19.486532
 30
850.25
  0
VERTEX
  5
7AA
  8
STANDARDEBENE
 62
     2
 10
40.038797
 20
-15.433175
 30
850.25
  0
VERTEX
  5
7AB
  8
STANDARDEBENE
 62
     2
 10
26.857538
 20
-12.509164
 30
850.25
  0
VERTEX
  5
7AC
  8
STANDARDEBENE
 62
     2
 10
13.490666
 20
-10.745454
 30
850.25
  0
VERTEX
  5
7AD
  8
STANDARDEBENE
 62
     2
 10
0.0
 20
-10.157566
 30
850.25
  0
VERTEX
  5
7AE
  8
STANDARDEBENE
 62
     2
 10
-13.490654
 20
-10.745454
 30
850.25
  0
VERTEX
  5
7AF
  8
STANDARDEBENE
 62
     2
 10
-26.85755
 20
-12.509164
 30
850.25
  0
VERTEX
  5
7B0
  8
STANDARDEBENE
 62
     2
 10
-40.038785
 20
-15.433175
 30
850.25
  0
VERTEX
  5
7B1
  8
STANDARDEBENE
 62
     2
 10
-52.910612
 20
-19.486532
 30
850.25
  0
VERTEX
  5
7B2
  8
STANDARDEBENE
 62
     2
 10
-65.380189
 20
-24.653858
 30
850.25
  0
VERTEX
  5
7B3
  8
STANDARDEBENE
 62
     2
 10
-77.354686
 20
-30.888629
 30
850.25
  0
VERTEX
  5
7B4
  8
STANDARDEBENE
 62
     2
 10
-88.7413
 20
-38.129036
 30
850.25
  0
VERTEX
  5
7B5
  8
STANDARDEBENE
 62
     2
 10
-99.447184
 20
-46.359558
 30
850.25
  0
VERTEX
  5
7B6
  8
STANDARDEBENE
 62
     2
 10
-109.395002
 20
-55.47196
 30
850.25
  0
VERTEX
  5
7B7
  8
STANDARDEBENE
 62
     2
 10
-118.507384
 20
-65.419765
 30
850.25
  0
VERTEX
  5
7B8
  8
STANDARDEBENE
 62
     2
 10
-126.737924
 20
-76.125643
 30
850.25
  0
VERTEX
  5
7B9
  8
STANDARDEBENE
 62
     2
 10
-133.978326
 20
-87.512264
 30
850.25
  0
VERTEX
  5
7BA
  8
STANDARDEBENE
 62
     2
 10
-140.213115
 20
-99.486772
 30
850.25
  0
VERTEX
  5
7BB
  8
STANDARDEBENE
 62
     2
 10
-145.380408
 20
-111.956361
 30
850.25
  0
VERTEX
  5
7BC
  8
STANDARDEBENE
 62
     2
 10
-149.433792
 20
-124.828175
 30
850.25
  0
VERTEX
  5
7BD
  8
STANDARDEBENE
 62
     2
 10
-152.357797
 20
-138.00941
 30
850.25
  0
VERTEX
  5
7BE
  8
STANDARDEBENE
 62
     2
 10
-154.121492
 20
-151.376306
 30
850.25
  0
VERTEX
  5
7BF
  8
STANDARDEBENE
 62
     2
 10
-154.709383
 20
-164.866961
 30
850.25
  0
VERTEX
  5
7C0
  8
STANDARDEBENE
 62
     2
 10
-154.121492
 20
-178.357615
 30
850.25
  0
VERTEX
  5
7C1
  8
STANDARDEBENE
 62
     2
 10
-152.357797
 20
-191.724511
 30
850.25
  0
VERTEX
  5
7C2
  8
STANDARDEBENE
 62
     2
 10
-149.433792
 20
-204.905746
 30
850.25
  0
VERTEX
  5
7C3
  8
STANDARDEBENE
 62
     2
 10
-145.380408
 20
-217.777561
 30
850.25
  0
VERTEX
  5
7C4
  8
STANDARDEBENE
 62
     2
 10
-140.213115
 20
-230.24715
 30
850.25
  0
VERTEX
  5
7C5
  8
STANDARDEBENE
 62
     2
 10
-133.978326
 20
-242.221658
 30
850.25
  0
VERTEX
  5
7C6
  8
STANDARDEBENE
 62
     2
 10
-126.737924
 20
-253.608279
 30
850.25
  0
VERTEX
  5
7C7
  8
STANDARDEBENE
 62
     2
 10
-118.507384
 20
-264.314157
 30
850.25
  0
VERTEX
  5
7C8
  8
STANDARDEBENE
 62
     2
 10
-109.395002
 20
-274.261962
 30
850.25
  0
VERTEX
  5
7C9
  8
STANDARDEBENE
 62
     2
 10
-99.447184
 20
-283.374339
 30
850.25
  0
VERTEX
  5
7CA
  8
STANDARDEBENE
 62
     2
 10
-88.7413
 20
-291.604885
 30
850.25
  0
VERTEX
  5
7CB
  8
STANDARDEBENE
 62
     2
 10
-77.354686
 20
-298.845293
 30
850.25
  0
VERTEX
  5
7CC
  8
STANDARDEBENE
 62
     2
 10
-65.380189
 20
-305.080064
 30
850.25
  0
VERTEX
  5
7CD
  8
STANDARDEBENE
 62
     2
 10
-52.910612
 20
-310.247366
 30
850.25
  0
VERTEX
  5
7CE
  8
STANDARDEBENE
 62
     2
 10
-40.038785
 20
-314.300747
 30
850.25
  0
VERTEX
  5
7CF
  8
STANDARDEBENE
 62
     2
 10
-26.85755
 20
-317.224757
 30
850.25
  0
VERTEX
  5
7D0
  8
STANDARDEBENE
 62
     2
 10
-13.490654
 20
-318.988444
 30
850.25
  0
VERTEX
  5
7D1
  8
STANDARDEBENE
 62
     2
 10
0.0
 20
-319.576355
 30
850.25
  0
VERTEX
  5
7D2
  8
STANDARDEBENE
 62
     2
 10
13.490666
 20
-318.988444
 30
850.25
  0
VERTEX
  5
7D3
  8
STANDARDEBENE
 62
     2
 10
26.857538
 20
-317.224757
 30
850.25
  0
VERTEX
  5
7D4
  8
STANDARDEBENE
 62
     2
 10
40.038797
 20
-314.300747
 30
850.25
  0
VERTEX
  5
7D5
  8
STANDARDEBENE
 62
     2
 10
52.910612
 20
-310.247366
 30
850.25
  0
VERTEX
  5
7D6
  8
STANDARDEBENE
 62
     2
 10
65.380177
 20
-305.080064
 30
850.25
  0
VERTEX
  5
7D7
  8
STANDARDEBENE
 62
     2
 10
77.354685
 20
-298.845293
 30
850.25
  0
VERTEX
  5
7D8
  8
STANDARDEBENE
 62
     2
 10
88.741305
 20
-291.604885
 30
850.25
  0
VERTEX
  5
7D9
  8
STANDARDEBENE
 62
     2
 10
99.447184
 20
-283.374339
 30
850.25
  0
VERTEX
  5
7DA
  8
STANDARDEBENE
 62
     2
 10
109.394989
 20
-274.261962
 30
850.25
  0
VERTEX
  5
7DB
  8
STANDARDEBENE
 62
     2
 10
118.50739
 20
-264.314157
 30
850.25
  0
VERTEX
  5
7DC
  8
STANDARDEBENE
 62
     2
 10
126.737912
 20
-253.608279
 30
850.25
  0
VERTEX
  5
7DD
  8
STANDARDEBENE
 62
     2
 10
133.97832
 20
-242.221658
 30
850.25
  0
VERTEX
  5
7DE
  8
STANDARDEBENE
 62
     2
 10
140.213115
 20
-230.24715
 30
850.25
  0
VERTEX
  5
7DF
  8
STANDARDEBENE
 62
     2
 10
145.380417
 20
-217.777561
 30
850.25
  0
VERTEX
  5
7E0
  8
STANDARDEBENE
 62
     2
 10
149.433798
 20
-204.905746
 30
850.25
  0
VERTEX
  5
7E1
  8
STANDARDEBENE
 62
     2
 10
152.357808
 20
-191.724511
 30
850.25
  0
VERTEX
  5
7E2
  8
STANDARDEBENE
 62
     2
 10
154.121494
 20
-178.357615
 30
850.25
  0
VERTEX
  5
7E3
  8
STANDARDEBENE
 62
     2
 10
154.396139
 20
-172.055168
 30
850.25
  0
SEQEND
  5
7E4
  8
STANDARDEBENE
 62
     2
  0
POLYLINE
  5
115
  8
STANDARDEBENE
 62
     2
 66
     1
 10
0.0
 20
0.0
 30
850.25
  0
VERTEX
  5
7E5
  8
STANDARDEBENE
 62
     2
 10
164.696846
 20
-168.770995
 30
850.25
  0
VERTEX
  5
7E6
  8
STANDARDEBENE
 62
     2
 10
164.866972
 20
-164.866961
 30
850.25
  0
VERTEX
  5
7E7
  8
STANDARDEBENE
 62
     2
 10
164.866972
 20
-164.866961
 30
850.25
  0
VERTEX
  5
7E8
  8
STANDARDEBENE
 62
     2
 10
164.866972
 20
-164.866961
 30
850.25
  0
VERTEX
  5
7E9
  8
STANDARDEBENE
 62
     2
 10
164.240491
 20
-150.490546
 30
850.25
  0
VERTEX
  5
7EA
  8
STANDARDEBENE
 62
     2
 10
162.361
 20
-136.246035
 30
850.25
  0
VERTEX
  5
7EB
  8
STANDARDEBENE
 62
     2
 10
159.245004
 20
-122.199404
 30
850.25
  0
VERTEX
  5
7EC
  8
STANDARDEBENE
 62
     2
 10
154.925492
 20
-108.482458
 30
850.25
  0
VERTEX
  5
7ED
  8
STANDARDEBENE
 62
     2
 10
149.418945
 20
-95.194186
 30
850.25
  0
VERTEX
  5
7EE
  8
STANDARDEBENE
 62
     2
 10
142.774809
 20
-82.43348
 30
850.25
  0
VERTEX
  5
7EF
  8
STANDARDEBENE
 62
     2
 10
135.059013
 20
-70.299279
 30
850.25
  0
VERTEX
  5
7F0
  8
STANDARDEBENE
 62
     2
 10
126.288108
 20
-58.890475
 30
850.25
  0
VERTEX
  5
7F1
  8
STANDARDEBENE
 62
     2
 10
116.577423
 20
-48.289526
 30
850.25
  0
VERTEX
  5
7F2
  8
STANDARDEBENE
 62
     2
 10
105.976497
 20
-38.57884
 30
850.25
  0
VERTEX
  5
7F3
  8
STANDARDEBENE
 62
     2
 10
94.567693
 20
-29.80796
 30
850.25
  0
VERTEX
  5
7F4
  8
STANDARDEBENE
 62
     2
 10
82.433492
 20
-22.092163
 30
850.25
  0
VERTEX
  5
7F5
  8
STANDARDEBENE
 62
     2
 10
69.672786
 20
-15.448028
 30
850.25
  0
VERTEX
  5
7F6
  8
STANDARDEBENE
 62
     2
 10
56.384515
 20
-9.94148
 30
850.25
  0
VERTEX
  5
7F7
  8
STANDARDEBENE
 62
     2
 10
42.66757
 20
-5.621968
 30
850.25
  0
VERTEX
  5
7F8
  8
STANDARDEBENE
 62
     2
 10
28.620913
 20
-2.505973
 30
850.25
  0
VERTEX
  5
7F9
  8
STANDARDEBENE
 62
     2
 10
14.376402
 20
-0.626457
 30
850.25
  0
VERTEX
  5
7FA
  8
STANDARDEBENE
 62
     2
 10
0.0
 20
0.0
 30
850.25
  0
VERTEX
  5
7FB
  8
STANDARDEBENE
 62
     2
 10
-14.376403
 20
-0.626457
 30
850.25
  0
VERTEX
  5
7FC
  8
STANDARDEBENE
 62
     2
 10
-28.620902
 20
-2.505973
 30
850.25
  0
VERTEX
  5
7FD
  8
STANDARDEBENE
 62
     2
 10
-42.66757
 20
-5.621968
 30
850.25
  0
VERTEX
  5
7FE
  8
STANDARDEBENE
 62
     2
 10
-56.384504
 20
-9.94148
 30
850.25
  0
VERTEX
  5
7FF
  8
STANDARDEBENE
 62
     2
 10
-69.672786
 20
-15.448028
 30
850.25
  0
VERTEX
  5
800
  8
STANDARDEBENE
 62
     2
 10
-82.433493
 20
-22.092163
 30
850.25
  0
VERTEX
  5
801
  8
STANDARDEBENE
 62
     2
 10
-94.567693
 20
-29.80796
 30
850.25
  0
VERTEX
  5
802
  8
STANDARDEBENE
 62
     2
 10
-105.976485
 20
-38.57884
 30
850.25
  0
VERTEX
  5
803
  8
STANDARDEBENE
 62
     2
 10
-116.577435
 20
-48.289526
 30
850.25
  0
VERTEX
  5
804
  8
STANDARDEBENE
 62
     2
 10
-126.288097
 20
-58.890475
 30
850.25
  0
VERTEX
  5
805
  8
STANDARDEBENE
 62
     2
 10
-135.059019
 20
-70.299279
 30
850.25
  0
VERTEX
  5
806
  8
STANDARDEBENE
 62
     2
 10
-142.774798
 20
-82.43348
 30
850.25
  0
VERTEX
  5
807
  8
STANDARDEBENE
 62
     2
 10
-149.418939
 20
-95.194186
 30
850.25
  0
VERTEX
  5
808
  8
STANDARDEBENE
 62
     2
 10
-154.925495
 20
-108.482458
 30
850.25
  0
VERTEX
  5
809
  8
STANDARDEBENE
 62
     2
 10
-159.245011
 20
-122.199404
 30
850.25
  0
VERTEX
  5
80A
  8
STANDARDEBENE
 62
     2
 10
-162.360992
 20
-136.246035
 30
850.25
  0
VERTEX
  5
80B
  8
STANDARDEBENE
 62
     2
 10
-164.240483
 20
-150.490546
 30
850.25
  0
VERTEX
  5
80C
  8
STANDARDEBENE
 62
     2
 10
-164.866973
 20
-164.866961
 30
850.25
  0
VERTEX
  5
80D
  8
STANDARDEBENE
 62
     2
 10
-164.240483
 20
-179.243375
 30
850.25
  0
VERTEX
  5
80E
  8
STANDARDEBENE
 62
     2
 10
-162.360992
 20
-193.487886
 30
850.25
  0
VERTEX
  5
80F
  8
STANDARDEBENE
 62
     2
 10
-159.245011
 20
-207.534519
 30
850.25
  0
VERTEX
  5
810
  8
STANDARDEBENE
 62
     2
 10
-154.925495
 20
-221.251464
 30
850.25
  0
VERTEX
  5
811
  8
STANDARDEBENE
 62
     2
 10
-149.418939
 20
-234.539735
 30
850.25
  0
VERTEX
  5
812
  8
STANDARDEBENE
 62
     2
 10
-142.774798
 20
-247.300441
 30
850.25
  0
VERTEX
  5
813
  8
STANDARDEBENE
 62
     2
 10
-135.059019
 20
-259.434666
 30
850.25
  0
VERTEX
  5
814
  8
STANDARDEBENE
 62
     2
 10
-126.288097
 20
-270.843446
 30
850.25
  0
VERTEX
  5
815
  8
STANDARDEBENE
 62
     2
 10
-116.577435
 20
-281.444396
 30
850.25
  0
VERTEX
  5
816
  8
STANDARDEBENE
 62
     2
 10
-105.976485
 20
-291.155058
 30
850.25
  0
VERTEX
  5
817
  8
STANDARDEBENE
 62
     2
 10
-94.567693
 20
-299.925985
 30
850.25
  0
VERTEX
  5
818
  8
STANDARDEBENE
 62
     2
 10
-82.433493
 20
-307.641758
 30
850.25
  0
VERTEX
  5
819
  8
STANDARDEBENE
 62
     2
 10
-69.672786
 20
-314.285895
 30
850.25
  0
VERTEX
  5
81A
  8
STANDARDEBENE
 62
     2
 10
-56.384504
 20
-319.792466
 30
850.25
  0
VERTEX
  5
81B
  8
STANDARDEBENE
 62
     2
 10
-42.66757
 20
-324.111977
 30
850.25
  0
VERTEX
  5
81C
  8
STANDARDEBENE
 62
     2
 10
-28.620902
 20
-327.227949
 30
850.25
  0
VERTEX
  5
81D
  8
STANDARDEBENE
 62
     2
 10
-14.376403
 20
-329.107441
 30
850.25
  0
VERTEX
  5
81E
  8
STANDARDEBENE
 62
     2
 10
0.0
 20
-329.733922
 30
850.25
  0
VERTEX
  5
81F
  8
STANDARDEBENE
 62
     2
 10
14.376402
 20
-329.107441
 30
850.25
  0
VERTEX
  5
820
  8
STANDARDEBENE
 62
     2
 10
28.620913
 20
-327.227949
 30
850.25
  0
VERTEX
  5
821
  8
STANDARDEBENE
 62
     2
 10
42.66757
 20
-324.111977
 30
850.25
  0
VERTEX
  5
822
  8
STANDARDEBENE
 62
     2
 10
56.384515
 20
-319.792466
 30
850.25
  0
VERTEX
  5
823
  8
STANDARDEBENE
 62
     2
 10
69.672786
 20
-314.285895
 30
850.25
  0
VERTEX
  5
824
  8
STANDARDEBENE
 62
     2
 10
82.433492
 20
-307.641758
 30
850.25
  0
VERTEX
  5
825
  8
STANDARDEBENE
 62
     2
 10
94.567693
 20
-299.925985
 30
850.25
  0
VERTEX
  5
826
  8
STANDARDEBENE
 62
     2
 10
105.976497
 20
-291.155058
 30
850.25
  0
VERTEX
  5
827
  8
STANDARDEBENE
 62
     2
 10
116.577423
 20
-281.444396
 30
850.25
  0
VERTEX
  5
828
  8
STANDARDEBENE
 62
     2
 10
126.288108
 20
-270.843446
 30
850.25
  0
VERTEX
  5
829
  8
STANDARDEBENE
 62
     2
 10
135.059013
 20
-259.434666
 30
850.25
  0
VERTEX
  5
82A
  8
STANDARDEBENE
 62
     2
 10
142.774809
 20
-247.300441
 30
850.25
  0
VERTEX
  5
82B
  8
STANDARDEBENE
 62
     2
 10
149.418945
 20
-234.539735
 30
850.25
  0
VERTEX
  5
82C
  8
STANDARDEBENE
 62
     2
 10
154.925492
 20
-221.251464
 30
850.25
  0
VERTEX
  5
82D
  8
STANDARDEBENE
 62
     2
 10
159.245004
 20
-207.534519
 30
850.25
  0
VERTEX
  5
82E
  8
STANDARDEBENE
 62
     2
 10
162.361
 20
-193.487886
 30
850.25
  0
VERTEX
  5
82F
  8
STANDARDEBENE
 62
     2
 10
164.240491
 20
-179.243375
 30
850.25
  0
VERTEX
  5
830
  8
STANDARDEBENE
 62
     2
 10
164.553732
 20
-172.055168
 30
850.25
  0
SEQEND
  5
831
  8
STANDARDEBENE
 62
     2
  0
TEXT
  5
116
  8
TEAM-TXT
 10
-85.19933
 20
-91.374206
 30
850.0
 40
24.999999
  1
team 211117
 41
0.8
 51
15.0
  7
TEAM
  0
ENDSEC
  0
EOF
