  0
SECTION
  2
HEADER
  9
$ACADVER
  1
AC1009
  9
$INSBASE
 10
0.0
 20
0.0
 30
0.0
  9
$EXTMIN
 10
-256.98063
 20
-368.293227
 30
-0.060388
  9
$EXTMAX
 10
259.637203
 20
10.022839
 30
989.585231
  9
$LIMMIN
 10
-256.98063
 20
-368.293227
  9
$LIMMAX
 10
259.637203
 20
10.022839
  9
$ORTHOMODE
 70
     1
  9
$REGENMODE
 70
     1
  9
$FILLMODE
 70
     1
  9
$QTEXTMODE
 70
     0
  9
$MIRRTEXT
 70
     0
  9
$DRAGMODE
 70
     2
  9
$LTSCALE
 40
25.0
  9
$OSMODE
 70
     0
  9
$ATTMODE
 70
     1
  9
$TEXTSIZE
 40
200.0
  9
$TRACEWID
 40
1.0
  9
$TEXTSTYLE
  7
STANDARD
  9
$CLAYER
  8
TEAM-MAS
  9
$CELTYPE
  6
BYLAYER
  9
$CECOLOR
 62
   256
  9
$DIMSCALE
 40
1.0
  9
$DIMASZ
 40
20.0
  9
$DIMEXO
 40
10.0
  9
$DIMDLI
 40
1.0
  9
$DIMRND
 40
0.0
  9
$DIMDLE
 40
0.0
  9
$DIMEXE
 40
1.0
  9
$DIMTP
 40
0.0
  9
$DIMTM
 40
0.0
  9
$DIMTXT
 40
35.0
  9
$DIMCEN
 40
1.0
  9
$DIMTSZ
 40
0.0
  9
$DIMTOL
 70
     0
  9
$DIMLIM
 70
     0
  9
$DIMTIH
 70
     0
  9
$DIMTOH
 70
     0
  9
$DIMSE1
 70
     0
  9
$DIMSE2
 70
     0
  9
$DIMTAD
 70
     0
  9
$DIMZIN
 70
     0
  9
$DIMBLK
  1

  9
$DIMASO
 70
     1
  9
$DIMSHO
 70
     0
  9
$DIMPOST
  1

  9
$DIMAPOST
  1

  9
$DIMALT
 70
     0
  9
$DIMALTD
 70
     2
  9
$DIMALTF
 40
25.4
  9
$DIMLFAC
 40
1.0
  9
$DIMTOFL
 70
     0
  9
$DIMTVP
 40
0.0
  9
$DIMTIX
 70
     0
  9
$DIMSOXD
 70
     0
  9
$DIMSAH
 70
     0
  9
$DIMBLK1
  1

  9
$DIMBLK2
  1

  9
$DIMSTYLE
  2
TEAM
  9
$DIMCLRD
 70
     9
  9
$DIMCLRE
 70
     9
  9
$DIMCLRT
 70
    11
  9
$DIMTFAC
 40
1.0
  9
$DIMGAP
 40
15.0
  9
$LUNITS
 70
     2
  9
$LUPREC
 70
     1
  9
$SKETCHINC
 40
1.0
  9
$FILLETRAD
 40
10.0
  9
$AUNITS
 70
     0
  9
$AUPREC
 70
     0
  9
$MENU
  1
ROPLANS
  9
$ELEVATION
 40
0.0
  9
$PELEVATION
 40
0.0
  9
$THICKNESS
 40
0.0
  9
$LIMCHECK
 70
     0
  9
$BLIPMODE
 70
     1
  9
$CHAMFERA
 40
0.0
  9
$CHAMFERB
 40
0.0
  9
$SKPOLY
 70
     0
  9
$TDCREATE
 40
2450392.957851
  9
$TDUPDATE
 40
2455509.933601
  9
$TDINDWG
 40
2.904676
  9
$TDUSRTIMER
 40
2.904676
  9
$USRTIMER
 70
     1
  9
$ANGBASE
 50
0.0
  9
$ANGDIR
 70
     0
  9
$PDMODE
 70
     0
  9
$PDSIZE
 40
0.0
  9
$PLINEWID
 40
0.0
  9
$COORDS
 70
     2
  9
$SPLFRAME
 70
     0
  9
$SPLINETYPE
 70
     6
  9
$SPLINESEGS
 70
     8
  9
$ATTDIA
 70
     0
  9
$ATTREQ
 70
     0
  9
$HANDLING
 70
     1
  9
$HANDSEED
  5
DAD
  9
$SURFTAB1
 70
    24
  9
$SURFTAB2
 70
    24
  9
$SURFTYPE
 70
     6
  9
$SURFU
 70
     6
  9
$SURFV
 70
     6
  9
$UCSNAME
  2

  9
$UCSORG
 10
0.0
 20
0.0
 30
0.0
  9
$UCSXDIR
 10
1.0
 20
0.0
 30
0.0
  9
$UCSYDIR
 10
0.0
 20
1.0
 30
0.0
  9
$PUCSNAME
  2

  9
$PUCSORG
 10
0.0
 20
0.0
 30
0.0
  9
$PUCSXDIR
 10
1.0
 20
0.0
 30
0.0
  9
$PUCSYDIR
 10
0.0
 20
1.0
 30
0.0
  9
$USERI1
 70
     0
  9
$USERI2
 70
     0
  9
$USERI3
 70
     0
  9
$USERI4
 70
     0
  9
$USERI5
 70
     0
  9
$USERR1
 40
0.0
  9
$USERR2
 40
0.0
  9
$USERR3
 40
0.0
  9
$USERR4
 40
0.0
  9
$USERR5
 40
0.0
  9
$WORLDVIEW
 70
     1
  9
$SHADEDGE
 70
     0
  9
$SHADEDIF
 70
    70
  9
$TILEMODE
 70
     1
  9
$MAXACTVP
 70
    16
  9
$PLIMCHECK
 70
     0
  9
$PEXTMIN
 10
-0.805942
 20
0.005011
 30
0.0
  9
$PEXTMAX
 10
20.250094
 20
11.356329
 30
0.0
  9
$PLIMMIN
 10
0.0
 20
0.0
  9
$PLIMMAX
 10
12.0
 20
9.0
  9
$UNITMODE
 70
     0
  9
$VISRETAIN
 70
     0
  9
$PLINEGEN
 70
     0
  9
$PSLTSCALE
 70
     0
  0
ENDSEC
  0
SECTION
  2
TABLES
  0
TABLE
  2
VPORT
 70
     2
  0
VPORT
  2
*ACTIVE
 70
     0
 10
0.0
 20
0.0
 11
1.0
 21
1.0
 12
1.328286
 22
-179.135194
 13
0.0
 23
0.0
 14
1.0
 24
1.0
 15
50.0
 25
50.0
 16
0.0
 26
0.0
 36
1.0
 17
0.0
 27
0.0
 37
0.0
 40
380.639399
 41
1.865779
 42
50.0
 43
0.0
 44
0.0
 50
0.0
 51
0.0
 71
     0
 72
   100
 73
     1
 74
     1
 75
     0
 76
     0
 77
     0
 78
     0
  0
ENDTAB
  0
TABLE
  2
LTYPE
 70
     3
  0
LTYPE
  2
CONTINUOUS
 70
     0
  3
Solid Line
 72
    65
 73
     0
 40
0.0
  0
LTYPE
  2
31
 70
     0
  3

 72
    65
 73
     4
 40
2.1
 49
1.5
 49
-0.3
 49
0.0
 49
-0.3
  0
LTYPE
  2
22
 70
     0
  3

 72
    65
 73
     2
 40
1.4
 49
1.2
 49
-0.2
  0
ENDTAB
  0
TABLE
  2
LAYER
 70
     7
  0
LAYER
  2
0
 70
     0
 62
     7
  6
CONTINUOUS
  0
LAYER
  2
TEAM-AXE
 70
     0
 62
    10
  6
31
  0
LAYER
  2
TEAM-MAS
 70
     0
 62
     9
  6
CONTINUOUS
  0
LAYER
  2
TEAM-TXT
 70
     0
 62
    11
  6
CONTINUOUS
  0
LAYER
  2
TEAM-HIDE
 70
     0
 62
     8
  6
22
  0
LAYER
  2
TEAM-NET
 70
     0
 62
    15
  6
CONTINUOUS
  0
LAYER
  2
TEAM-INSP
 70
     0
 62
     5
  6
CONTINUOUS
  0
ENDTAB
  0
TABLE
  2
STYLE
 70
     2
  0
STYLE
  2
STANDARD
 70
     0
 40
0.0
 41
1.0
 50
0.0
 71
     0
 42
200.0
  3
txt
  4

  0
STYLE
  2
TEAM
 70
     0
 40
0.0
 41
0.8
 50
15.0
 71
     0
 42
7.0
  3
ROMANS.shx
  4

  0
ENDTAB
  0
TABLE
  2
VIEW
 70
     0
  0
ENDTAB
  0
TABLE
  2
UCS
 70
     0
  0
ENDTAB
  0
TABLE
  2
APPID
 70
     1
  0
APPID
  2
ACAD
 70
     0
  0
ENDTAB
  0
TABLE
  2
DIMSTYLE
 70
     1
  0
DIMSTYLE
  2
TEAM
 70
     0
  3

  4

  5

  6

  7

 40
1.0
 41
20.0
 42
10.0
 43
1.0
 44
1.0
 45
0.0
 46
0.0
 47
0.0
 48
0.0
140
35.0
141
1.0
142
0.0
143
25.4
144
1.0
145
0.0
146
1.0
147
15.0
 71
     0
 72
     0
 73
     0
 74
     0
 75
     0
 76
     0
 77
     0
 78
     0
170
     0
171
     2
172
     0
173
     0
174
     0
175
     0
176
     9
177
     9
178
    11
  0
ENDTAB
  0
ENDSEC
  0
SECTION
  2
BLOCKS
  0
BLOCK
  8
0
  2
$MODEL_SPACE
 70
     0
 10
0.0
 20
0.0
 30
0.0
  3
$MODEL_SPACE
  1

  0
ENDBLK
  5
C09
  8
0
  0
BLOCK
 67
     1
  8
0
  2
$PAPER_SPACE
 70
     0
 10
0.0
 20
0.0
 30
0.0
  3
$PAPER_SPACE
  1

  0
ENDBLK
  5
C07
 67
     1
  8
0
  0
ENDSEC
  0
SECTION
  2
ENTITIES
  0
CIRCLE
  5
20
  8
TEAM-INSP
 10
0.0
 20
0.0
 30
0.0
 40
10.0
  0
ARC
  5
22
  8
TEAM-NET
 10
-1.328284
 20
815.0
 30
-122.0
 40
10.0
210
0.0
220
1.0
230
0.0
 50
180.0
 51
270.0
  0
ARC
  5
24
  8
TEAM-NET
 10
1.328284
 20
815.0
 30
120.0
 40
10.0
210
0.0
220
-1.0
230
0.0
 50
180.0
 51
0.0
  0
ARC
  5
25
  8
TEAM-NET
 10
-1.328284
 20
815.0
 30
-122.0
 40
10.0
210
0.0
220
1.0
230
0.0
 50
270.0
 51
0.0
  0
ARC
  5
26
  8
TEAM-NET
 10
-1.328284
 20
815.0
 30
-122.0
 40
10.0
210
0.0
220
1.0
230
0.0
 50
270.0
 51
0.0
  0
ARC
  5
27
  8
TEAM-NET
 10
1.328284
 20
815.0
 30
125.0
 40
13.0
210
0.0
220
-1.0
230
0.0
 50
90.0
 51
270.0
  0
ARC
  5
28
  8
TEAM-NET
 10
1.328284
 20
815.0
 30
120.0
 40
10.0
210
0.0
220
-1.0
230
0.0
 50
360.0
 51
180.0
  0
POLYLINE
  5
29
  8
TEAM-NET
 66
     1
 10
0.0
 20
0.0
 30
0.0
 70
     8
  0
VERTEX
  5
26E
  8
TEAM-NET
 10
-147.403534
 20
-246.154817
 30
690.0
 70
    32
  0
VERTEX
  5
26F
  8
TEAM-NET
 10
-148.251515
 20
-252.292547
 30
690.900011
 70
    32
  0
VERTEX
  5
270
  8
TEAM-NET
 10
-149.373676
 20
-258.286161
 30
692.109868
 70
    32
  0
VERTEX
  5
271
  8
TEAM-NET
 10
-152.292602
 20
-269.702582
 30
695.36026
 70
    32
  0
VERTEX
  5
272
  8
TEAM-NET
 10
-155.937053
 20
-280.438155
 30
699.639323
 70
    32
  0
VERTEX
  5
273
  8
TEAM-NET
 10
-160.087059
 20
-290.448299
 30
704.832646
 70
    32
  0
VERTEX
  5
274
  8
TEAM-NET
 10
-164.53354
 20
-299.670912
 30
710.815375
 70
    32
  0
VERTEX
  5
275
  8
TEAM-NET
 10
-169.170716
 20
-308.187484
 30
717.570018
 70
    32
  0
VERTEX
  5
276
  8
TEAM-NET
 10
-173.90352
 20
-316.014092
 30
725.083956
 70
    32
  0
VERTEX
  5
277
  8
TEAM-NET
 10
-178.624082
 20
-323.102085
 30
733.307169
 70
    32
  0
VERTEX
  5
278
  8
TEAM-NET
 10
-183.236567
 20
-329.397553
 30
742.184791
 70
    32
  0
VERTEX
  5
279
  8
TEAM-NET
 10
-187.680204
 20
-334.871393
 30
751.706826
 70
    32
  0
VERTEX
  5
27A
  8
TEAM-NET
 10
-191.922599
 20
-339.499158
 30
761.928074
 70
    32
  0
VERTEX
  5
27B
  8
TEAM-NET
 10
-195.868946
 20
-343.16517
 30
772.747378
 70
    32
  0
VERTEX
  5
27C
  8
TEAM-NET
 10
-199.435802
 20
-345.768445
 30
784.040031
 70
    32
  0
VERTEX
  5
27D
  8
TEAM-NET
 10
-202.574591
 20
-347.236407
 30
795.728068
 70
    32
  0
VERTEX
  5
27E
  8
TEAM-NET
 10
-205.259515
 20
-347.492318
 30
807.79484
 70
    32
  0
VERTEX
  5
27F
  8
TEAM-NET
 10
-207.429655
 20
-346.457511
 30
820.00089
 70
    32
  0
SEQEND
  5
280
  8
TEAM-NET
  0
POLYLINE
  5
2A
  8
TEAM-NET
 66
     1
 10
0.0
 20
0.0
 30
0.0
 70
     8
  0
VERTEX
  5
281
  8
TEAM-NET
 10
-238.671716
 20
-315.061878
 30
820.00089
 70
    32
  0
VERTEX
  5
282
  8
TEAM-NET
 10
-236.615493
 20
-316.83195
 30
808.897085
 70
    32
  0
VERTEX
  5
283
  8
TEAM-NET
 10
-233.858283
 20
-317.534524
 30
797.70855
 70
    32
  0
VERTEX
  5
284
  8
TEAM-NET
 10
-230.43863
 20
-317.191745
 30
786.683705
 70
    32
  0
VERTEX
  5
285
  8
TEAM-NET
 10
-226.436648
 20
-315.873906
 30
776.036676
 70
    32
  0
VERTEX
  5
286
  8
TEAM-NET
 10
-221.887007
 20
-313.64326
 30
765.779517
 70
    32
  0
VERTEX
  5
287
  8
TEAM-NET
 10
-216.872379
 20
-310.569125
 30
756.013889
 70
    32
  0
VERTEX
  5
288
  8
TEAM-NET
 10
-211.509333
 20
-306.740193
 30
746.856266
 70
    32
  0
VERTEX
  5
289
  8
TEAM-NET
 10
-205.90812
 20
-302.23827
 30
738.36396
 70
    32
  0
VERTEX
  5
28A
  8
TEAM-NET
 10
-200.111783
 20
-297.072363
 30
730.484775
 70
    32
  0
VERTEX
  5
28B
  8
TEAM-NET
 10
-194.234564
 20
-291.284147
 30
723.263947
 70
    32
  0
VERTEX
  5
28C
  8
TEAM-NET
 10
-188.41173
 20
-284.915716
 30
716.750934
 70
    32
  0
VERTEX
  5
28D
  8
TEAM-NET
 10
-182.791085
 20
-277.99148
 30
710.983506
 70
    32
  0
VERTEX
  5
28E
  8
TEAM-NET
 10
-177.486475
 20
-270.436699
 30
705.953449
 70
    32
  0
VERTEX
  5
28F
  8
TEAM-NET
 10
-172.747894
 20
-262.273463
 30
701.76404
 70
    32
  0
VERTEX
  5
290
  8
TEAM-NET
 10
-168.873746
 20
-253.550728
 30
698.53563
 70
    32
  0
VERTEX
  5
291
  8
TEAM-NET
 10
-167.349893
 20
-248.962167
 30
697.311352
 70
    32
  0
VERTEX
  5
292
  8
TEAM-NET
 10
-166.16293
 20
-244.238343
 30
696.374956
 70
    32
  0
SEQEND
  5
293
  8
TEAM-NET
  0
ARC
  5
2B
  8
TEAM-NET
 10
-14.741219
 20
873.03948
 30
0.0
 40
232.711817
210
0.0
220
1.0
230
0.0
 50
193.174369
 51
229.021946
  0
ARC
  5
2C
  8
TEAM-NET
 10
45.978923
 20
849.941816
 30
0.0
 40
195.005055
210
0.0
220
1.0
230
0.0
 50
308.047318
 51
351.167914
  0
ARC
  5
2D
  8
TEAM-NET
 10
45.978923
 20
849.941816
 30
0.0
 40
195.005055
210
0.0
220
1.0
230
0.0
 50
308.047318
 51
351.167914
  0
POLYLINE
  5
2E
  8
TEAM-NET
 66
     1
 10
0.0
 20
0.0
 30
0.0
 70
     8
  0
VERTEX
  5
294
  8
TEAM-NET
 10
-238.671716
 20
-315.061878
 30
820.00089
 70
    32
  0
VERTEX
  5
295
  8
TEAM-NET
 10
-236.615493
 20
-316.83195
 30
808.897085
 70
    32
  0
VERTEX
  5
296
  8
TEAM-NET
 10
-233.858283
 20
-317.534524
 30
797.70855
 70
    32
  0
VERTEX
  5
297
  8
TEAM-NET
 10
-230.43863
 20
-317.191745
 30
786.683705
 70
    32
  0
VERTEX
  5
298
  8
TEAM-NET
 10
-226.436648
 20
-315.873906
 30
776.036676
 70
    32
  0
VERTEX
  5
299
  8
TEAM-NET
 10
-221.887007
 20
-313.64326
 30
765.779517
 70
    32
  0
VERTEX
  5
29A
  8
TEAM-NET
 10
-216.872379
 20
-310.569125
 30
756.013889
 70
    32
  0
VERTEX
  5
29B
  8
TEAM-NET
 10
-211.509333
 20
-306.740193
 30
746.856266
 70
    32
  0
VERTEX
  5
29C
  8
TEAM-NET
 10
-205.90812
 20
-302.23827
 30
738.36396
 70
    32
  0
VERTEX
  5
29D
  8
TEAM-NET
 10
-200.111783
 20
-297.072363
 30
730.484775
 70
    32
  0
VERTEX
  5
29E
  8
TEAM-NET
 10
-194.234564
 20
-291.284147
 30
723.263947
 70
    32
  0
VERTEX
  5
29F
  8
TEAM-NET
 10
-188.41173
 20
-284.915716
 30
716.750934
 70
    32
  0
VERTEX
  5
2A0
  8
TEAM-NET
 10
-182.791085
 20
-277.99148
 30
710.983506
 70
    32
  0
VERTEX
  5
2A1
  8
TEAM-NET
 10
-177.486475
 20
-270.436699
 30
705.953449
 70
    32
  0
VERTEX
  5
2A2
  8
TEAM-NET
 10
-172.747894
 20
-262.273463
 30
701.76404
 70
    32
  0
VERTEX
  5
2A3
  8
TEAM-NET
 10
-168.873746
 20
-253.550728
 30
698.53563
 70
    32
  0
VERTEX
  5
2A4
  8
TEAM-NET
 10
-167.349893
 20
-248.962167
 30
697.311352
 70
    32
  0
VERTEX
  5
2A5
  8
TEAM-NET
 10
-166.16293
 20
-244.238343
 30
696.374956
 70
    32
  0
SEQEND
  5
2A6
  8
TEAM-NET
  0
POLYLINE
  5
2F
  8
TEAM-NET
 66
     1
 10
0.0
 20
0.0
 30
0.0
 70
     8
  0
VERTEX
  5
2A7
  8
TEAM-NET
 10
167.346643
 20
-244.238347
 30
697.351192
 70
    32
  0
VERTEX
  5
2A8
  8
TEAM-NET
 10
168.415628
 20
-249.070849
 30
698.285464
 70
    32
  0
VERTEX
  5
2A9
  8
TEAM-NET
 10
169.800287
 20
-253.764227
 30
699.512891
 70
    32
  0
VERTEX
  5
2AA
  8
TEAM-NET
 10
171.466175
 20
-258.314771
 30
701.016014
 70
    32
  0
VERTEX
  5
2AB
  8
TEAM-NET
 10
173.386094
 20
-262.733289
 30
702.784939
 70
    32
  0
VERTEX
  5
2AC
  8
TEAM-NET
 10
177.84697
 20
-271.125385
 30
707.053703
 70
    32
  0
VERTEX
  5
2AD
  8
TEAM-NET
 10
182.898089
 20
-278.849203
 30
712.172912
 70
    32
  0
VERTEX
  5
2AE
  8
TEAM-NET
 10
188.326921
 20
-285.905944
 30
718.046926
 70
    32
  0
VERTEX
  5
2AF
  8
TEAM-NET
 10
194.014574
 20
-292.351653
 30
724.662855
 70
    32
  0
VERTEX
  5
2B0
  8
TEAM-NET
 10
199.813706
 20
-298.152976
 30
731.960944
 70
    32
  0
VERTEX
  5
2B1
  8
TEAM-NET
 10
205.586344
 20
-303.270151
 30
739.874575
 70
    32
  0
VERTEX
  5
2B2
  8
TEAM-NET
 10
211.234955
 20
-307.674831
 30
748.35996
 70
    32
  0
VERTEX
  5
2B3
  8
TEAM-NET
 10
216.723308
 20
-311.362502
 30
757.462608
 70
    32
  0
VERTEX
  5
2B4
  8
TEAM-NET
 10
221.943584
 20
-314.254522
 30
767.105876
 70
    32
  0
VERTEX
  5
2B5
  8
TEAM-NET
 10
226.791959
 20
-316.27495
 30
777.17874
 70
    32
  0
VERTEX
  5
2B6
  8
TEAM-NET
 10
231.198095
 20
-317.364711
 30
787.592311
 70
    32
  0
VERTEX
  5
2B7
  8
TEAM-NET
 10
235.137378
 20
-317.464785
 30
798.338235
 70
    32
  0
VERTEX
  5
2B8
  8
TEAM-NET
 10
238.53028
 20
-316.509987
 30
809.217189
 70
    32
  0
VERTEX
  5
2B9
  8
TEAM-NET
 10
241.328284
 20
-314.477747
 30
820.00089
 70
    32
  0
SEQEND
  5
2BA
  8
TEAM-NET
  0
POLYLINE
  5
30
  8
TEAM-NET
 66
     1
 10
0.0
 20
0.0
 30
0.0
 70
     8
  0
VERTEX
  5
2BB
  8
TEAM-NET
 10
209.226943
 20
-346.457634
 30
820.000887
 70
    32
  0
VERTEX
  5
2BC
  8
TEAM-NET
 10
206.392249
 20
-347.486269
 30
807.98141
 70
    32
  0
VERTEX
  5
2BD
  8
TEAM-NET
 10
203.144671
 20
-347.265117
 30
796.126082
 70
    32
  0
VERTEX
  5
2BE
  8
TEAM-NET
 10
199.544678
 20
-345.871904
 30
784.629995
 70
    32
  0
VERTEX
  5
2BF
  8
TEAM-NET
 10
195.602742
 20
-343.369895
 30
773.477209
 70
    32
  0
VERTEX
  5
2C0
  8
TEAM-NET
 10
191.368044
 20
-339.822492
 30
762.75564
 70
    32
  0
VERTEX
  5
2C1
  8
TEAM-NET
 10
186.916523
 20
-335.315073
 30
752.580929
 70
    32
  0
VERTEX
  5
2C2
  8
TEAM-NET
 10
182.332278
 20
-329.944333
 30
743.047273
 70
    32
  0
VERTEX
  5
2C3
  8
TEAM-NET
 10
177.643161
 20
-323.727173
 30
734.113078
 70
    32
  0
VERTEX
  5
2C4
  8
TEAM-NET
 10
172.901781
 20
-316.677035
 30
725.789261
 70
    32
  0
VERTEX
  5
2C5
  8
TEAM-NET
 10
168.202322
 20
-308.844788
 30
718.148238
 70
    32
  0
VERTEX
  5
2C6
  8
TEAM-NET
 10
163.648781
 20
-300.268322
 30
711.247739
 70
    32
  0
VERTEX
  5
2C7
  8
TEAM-NET
 10
159.342756
 20
-290.960022
 30
705.132707
 70
    32
  0
VERTEX
  5
2C8
  8
TEAM-NET
 10
155.373015
 20
-280.819696
 30
699.814909
 70
    32
  0
VERTEX
  5
2C9
  8
TEAM-NET
 10
151.932897
 20
-269.920413
 30
695.434957
 70
    32
  0
VERTEX
  5
2CA
  8
TEAM-NET
 10
149.227021
 20
-258.372894
 30
692.129748
 70
    32
  0
VERTEX
  5
2CB
  8
TEAM-NET
 10
148.201311
 20
-252.336198
 30
690.907657
 70
    32
  0
VERTEX
  5
2CC
  8
TEAM-NET
 10
147.430395
 20
-246.154817
 30
690.0
 70
    32
  0
SEQEND
  5
2CD
  8
TEAM-NET
  0
POLYLINE
  5
31
  8
TEAM-NET
 66
     1
 10
0.0
 20
0.0
 30
0.0
 70
     8
  0
VERTEX
  5
2CE
  8
TEAM-NET
 10
209.226943
 20
-346.457634
 30
820.000887
 70
    32
  0
VERTEX
  5
2CF
  8
TEAM-NET
 10
206.392249
 20
-347.486269
 30
807.98141
 70
    32
  0
VERTEX
  5
2D0
  8
TEAM-NET
 10
203.144671
 20
-347.265117
 30
796.126082
 70
    32
  0
VERTEX
  5
2D1
  8
TEAM-NET
 10
199.544678
 20
-345.871904
 30
784.629995
 70
    32
  0
VERTEX
  5
2D2
  8
TEAM-NET
 10
195.602742
 20
-343.369895
 30
773.477209
 70
    32
  0
VERTEX
  5
2D3
  8
TEAM-NET
 10
191.368044
 20
-339.822492
 30
762.75564
 70
    32
  0
VERTEX
  5
2D4
  8
TEAM-NET
 10
186.916523
 20
-335.315073
 30
752.580929
 70
    32
  0
VERTEX
  5
2D5
  8
TEAM-NET
 10
182.332278
 20
-329.944333
 30
743.047273
 70
    32
  0
VERTEX
  5
2D6
  8
TEAM-NET
 10
177.643161
 20
-323.727173
 30
734.113078
 70
    32
  0
VERTEX
  5
2D7
  8
TEAM-NET
 10
172.901781
 20
-316.677035
 30
725.789261
 70
    32
  0
VERTEX
  5
2D8
  8
TEAM-NET
 10
168.202322
 20
-308.844788
 30
718.148238
 70
    32
  0
VERTEX
  5
2D9
  8
TEAM-NET
 10
163.648781
 20
-300.268322
 30
711.247739
 70
    32
  0
VERTEX
  5
2DA
  8
TEAM-NET
 10
159.342756
 20
-290.960022
 30
705.132707
 70
    32
  0
VERTEX
  5
2DB
  8
TEAM-NET
 10
155.373015
 20
-280.819696
 30
699.814909
 70
    32
  0
VERTEX
  5
2DC
  8
TEAM-NET
 10
151.932897
 20
-269.920413
 30
695.434957
 70
    32
  0
VERTEX
  5
2DD
  8
TEAM-NET
 10
149.227021
 20
-258.372894
 30
692.129748
 70
    32
  0
VERTEX
  5
2DE
  8
TEAM-NET
 10
148.201311
 20
-252.336198
 30
690.907657
 70
    32
  0
VERTEX
  5
2DF
  8
TEAM-NET
 10
147.430395
 20
-246.154817
 30
690.0
 70
    32
  0
SEQEND
  5
2E0
  8
TEAM-NET
  0
POLYLINE
  5
32
  8
TEAM-NET
 66
     1
 10
0.0
 20
0.0
 30
0.0
 70
     8
  0
VERTEX
  5
2E1
  8
TEAM-NET
 10
-147.403534
 20
-246.154817
 30
690.0
 70
    32
  0
VERTEX
  5
2E2
  8
TEAM-NET
 10
-148.251515
 20
-252.292547
 30
690.900011
 70
    32
  0
VERTEX
  5
2E3
  8
TEAM-NET
 10
-149.373676
 20
-258.286161
 30
692.109868
 70
    32
  0
VERTEX
  5
2E4
  8
TEAM-NET
 10
-152.292602
 20
-269.702582
 30
695.36026
 70
    32
  0
VERTEX
  5
2E5
  8
TEAM-NET
 10
-155.937053
 20
-280.438155
 30
699.639323
 70
    32
  0
VERTEX
  5
2E6
  8
TEAM-NET
 10
-160.087059
 20
-290.448299
 30
704.832646
 70
    32
  0
VERTEX
  5
2E7
  8
TEAM-NET
 10
-164.53354
 20
-299.670912
 30
710.815375
 70
    32
  0
VERTEX
  5
2E8
  8
TEAM-NET
 10
-169.170716
 20
-308.187484
 30
717.570018
 70
    32
  0
VERTEX
  5
2E9
  8
TEAM-NET
 10
-173.90352
 20
-316.014092
 30
725.083956
 70
    32
  0
VERTEX
  5
2EA
  8
TEAM-NET
 10
-178.624082
 20
-323.102085
 30
733.307169
 70
    32
  0
VERTEX
  5
2EB
  8
TEAM-NET
 10
-183.236567
 20
-329.397553
 30
742.184791
 70
    32
  0
VERTEX
  5
2EC
  8
TEAM-NET
 10
-187.680204
 20
-334.871393
 30
751.706826
 70
    32
  0
VERTEX
  5
2ED
  8
TEAM-NET
 10
-191.922599
 20
-339.499158
 30
761.928074
 70
    32
  0
VERTEX
  5
2EE
  8
TEAM-NET
 10
-195.868946
 20
-343.16517
 30
772.747378
 70
    32
  0
VERTEX
  5
2EF
  8
TEAM-NET
 10
-199.435802
 20
-345.768445
 30
784.040031
 70
    32
  0
VERTEX
  5
2F0
  8
TEAM-NET
 10
-202.574591
 20
-347.236407
 30
795.728068
 70
    32
  0
VERTEX
  5
2F1
  8
TEAM-NET
 10
-205.259515
 20
-347.492318
 30
807.79484
 70
    32
  0
VERTEX
  5
2F2
  8
TEAM-NET
 10
-207.429655
 20
-346.457511
 30
820.00089
 70
    32
  0
SEQEND
  5
2F3
  8
TEAM-NET
  0
POLYLINE
  5
33
  8
TEAM-NET
 66
     1
 10
0.0
 20
0.0
 30
0.0
 70
     8
  0
VERTEX
  5
2F4
  8
TEAM-NET
 10
167.346643
 20
-244.238347
 30
697.351192
 70
    32
  0
VERTEX
  5
2F5
  8
TEAM-NET
 10
168.415628
 20
-249.070849
 30
698.285464
 70
    32
  0
VERTEX
  5
2F6
  8
TEAM-NET
 10
169.800287
 20
-253.764227
 30
699.512891
 70
    32
  0
VERTEX
  5
2F7
  8
TEAM-NET
 10
171.466175
 20
-258.314771
 30
701.016014
 70
    32
  0
VERTEX
  5
2F8
  8
TEAM-NET
 10
173.386094
 20
-262.733289
 30
702.784939
 70
    32
  0
VERTEX
  5
2F9
  8
TEAM-NET
 10
177.84697
 20
-271.125385
 30
707.053703
 70
    32
  0
VERTEX
  5
2FA
  8
TEAM-NET
 10
182.898089
 20
-278.849203
 30
712.172912
 70
    32
  0
VERTEX
  5
2FB
  8
TEAM-NET
 10
188.326921
 20
-285.905944
 30
718.046926
 70
    32
  0
VERTEX
  5
2FC
  8
TEAM-NET
 10
194.014574
 20
-292.351653
 30
724.662855
 70
    32
  0
VERTEX
  5
2FD
  8
TEAM-NET
 10
199.813706
 20
-298.152976
 30
731.960944
 70
    32
  0
VERTEX
  5
2FE
  8
TEAM-NET
 10
205.586344
 20
-303.270151
 30
739.874575
 70
    32
  0
VERTEX
  5
2FF
  8
TEAM-NET
 10
211.234955
 20
-307.674831
 30
748.35996
 70
    32
  0
VERTEX
  5
300
  8
TEAM-NET
 10
216.723308
 20
-311.362502
 30
757.462608
 70
    32
  0
VERTEX
  5
301
  8
TEAM-NET
 10
221.943584
 20
-314.254522
 30
767.105876
 70
    32
  0
VERTEX
  5
302
  8
TEAM-NET
 10
226.791959
 20
-316.27495
 30
777.17874
 70
    32
  0
VERTEX
  5
303
  8
TEAM-NET
 10
231.198095
 20
-317.364711
 30
787.592311
 70
    32
  0
VERTEX
  5
304
  8
TEAM-NET
 10
235.137378
 20
-317.464785
 30
798.338235
 70
    32
  0
VERTEX
  5
305
  8
TEAM-NET
 10
238.53028
 20
-316.509987
 30
809.217189
 70
    32
  0
VERTEX
  5
306
  8
TEAM-NET
 10
241.328284
 20
-314.477747
 30
820.00089
 70
    32
  0
SEQEND
  5
307
  8
TEAM-NET
  0
ARC
  5
34
  8
TEAM-NET
 10
-14.741219
 20
873.03948
 30
0.0
 40
232.711817
210
0.0
220
1.0
230
0.0
 50
193.174369
 51
229.021946
  0
ARC
  5
35
  8
TEAM-NET
 10
1.328284
 20
815.0
 30
125.0
 40
13.0
210
0.0
220
-1.0
230
0.0
 50
270.0
 51
0.0
  0
ARC
  5
36
  8
TEAM-NET
 10
-1.328284
 20
815.0
 30
-122.0
 40
10.0
210
0.0
220
1.0
230
0.0
 50
180.0
 51
270.0
  0
ARC
  5
37
  8
TEAM-NET
 10
1.328284
 20
815.0
 30
125.0
 40
13.0
210
0.0
220
-1.0
230
0.0
 50
90.0
 51
270.0
  0
ARC
  5
38
  8
TEAM-NET
 10
1.328284
 20
815.0
 30
125.0
 40
13.0
210
0.0
220
-1.0
230
0.0
 50
270.0
 51
0.0
  0
ARC
  5
39
  8
TEAM-NET
 10
34.789872
 20
906.779985
 30
125.0
 40
170.44481
210
0.0
220
-1.0
230
0.0
 50
270.0
 51
335.093842
  0
ARC
  5
3A
  8
TEAM-NET
 10
-32.133304
 20
906.779985
 30
125.0
 40
170.44481
210
0.0
220
-1.0
230
0.0
 50
204.906158
 51
270.0
  0
ARC
  5
3B
  8
TEAM-NET
 10
-34.789872
 20
906.779985
 30
-140.0
 40
185.44481
210
0.0
220
1.0
230
0.0
 50
199.571189
 51
270.0
  0
POLYLINE
  5
3C
  8
TEAM-NET
 66
     1
 10
0.0
 20
0.0
 30
-237.164866
 70
   128
210
-0.0
220
0.996783
230
0.080153
  0
VERTEX
  5
C0F
  8
TEAM-NET
 10
-209.753983
 20
867.119393
 30
-237.164866
  0
VERTEX
  5
C10
  8
TEAM-NET
 10
-203.670044
 20
851.919406
 30
-237.164866
  0
VERTEX
  5
C11
  8
TEAM-NET
 10
-196.277044
 20
837.315181
 30
-237.164866
  0
VERTEX
  5
C12
  8
TEAM-NET
 10
-187.632289
 20
823.419921
 30
-237.164866
  0
VERTEX
  5
C13
  8
TEAM-NET
 10
-177.802788
 20
810.341335
 30
-237.164866
  0
VERTEX
  5
C14
  8
TEAM-NET
 10
-166.864734
 20
798.180799
 30
-237.164866
  0
VERTEX
  5
C15
  8
TEAM-NET
 10
-154.902913
 20
787.032576
 30
-237.164866
  0
VERTEX
  5
C16
  8
TEAM-NET
 10
-142.010045
 20
776.98308
 30
-237.164866
  0
VERTEX
  5
C17
  8
TEAM-NET
 10
-128.286068
 20
768.110208
 30
-237.164866
  0
VERTEX
  5
C18
  8
TEAM-NET
 10
-113.837363
 20
760.482738
 30
-237.164866
  0
VERTEX
  5
C19
  8
TEAM-NET
 10
-98.775928
 20
754.159795
 30
-237.164866
  0
VERTEX
  5
C1A
  8
TEAM-NET
 10
-83.21851
 20
749.190389
 30
-237.164866
  0
VERTEX
  5
C1B
  8
TEAM-NET
 10
-67.285701
 20
745.61304
 30
-237.164866
  0
VERTEX
  5
C1C
  8
TEAM-NET
 10
-51.101004
 20
743.455479
 30
-237.164866
  0
VERTEX
  5
C1D
  8
TEAM-NET
 10
-34.789872
 20
742.734429
 30
-237.164866
  0
SEQEND
  5
C1E
  8
TEAM-NET
  0
ARC
  5
3D
  8
TEAM-NET
 10
-34.789872
 20
906.779985
 30
-125.0
 40
170.44481
210
0.0
220
1.0
230
0.0
 50
204.906158
 51
270.0
  0
ARC
  5
3E
  8
TEAM-NET
 10
-34.789872
 20
906.779985
 30
-140.0
 40
185.44481
210
0.0
220
1.0
230
0.0
 50
199.571189
 51
270.0
  0
ARC
  5
3F
  8
TEAM-NET
 10
32.133304
 20
906.779985
 30
-125.0
 40
170.44481
210
0.0
220
1.0
230
0.0
 50
270.0
 51
335.093842
  0
ARC
  5
40
  8
TEAM-NET
 10
32.133304
 20
906.779985
 30
-140.0
 40
185.44481
210
0.0
220
1.0
230
0.0
 50
270.0
 51
340.428811
  0
ARC
  5
41
  8
TEAM-NET
 10
32.133304
 20
906.779985
 30
-140.0
 40
185.44481
210
0.0
220
1.0
230
0.0
 50
270.0
 51
340.428811
  0
POLYLINE
  5
42
  8
TEAM-NET
 66
     1
 10
0.0
 20
0.0
 30
-237.164866
 70
   128
210
0.0
220
0.996783
230
0.080153
  0
VERTEX
  5
C1F
  8
TEAM-NET
 10
32.133304
 20
742.734429
 30
-237.164866
  0
VERTEX
  5
C20
  8
TEAM-NET
 10
48.444436
 20
743.455479
 30
-237.164866
  0
VERTEX
  5
C21
  8
TEAM-NET
 10
64.629133
 20
745.61304
 30
-237.164866
  0
VERTEX
  5
C22
  8
TEAM-NET
 10
80.561942
 20
749.190389
 30
-237.164866
  0
VERTEX
  5
C23
  8
TEAM-NET
 10
96.11936
 20
754.159795
 30
-237.164866
  0
VERTEX
  5
C24
  8
TEAM-NET
 10
111.180795
 20
760.482738
 30
-237.164866
  0
VERTEX
  5
C25
  8
TEAM-NET
 10
125.6295
 20
768.110208
 30
-237.164866
  0
VERTEX
  5
C26
  8
TEAM-NET
 10
139.353476
 20
776.98308
 30
-237.164866
  0
VERTEX
  5
C27
  8
TEAM-NET
 10
152.246344
 20
787.032576
 30
-237.164866
  0
VERTEX
  5
C28
  8
TEAM-NET
 10
164.208166
 20
798.180799
 30
-237.164866
  0
VERTEX
  5
C29
  8
TEAM-NET
 10
175.14622
 20
810.341335
 30
-237.164866
  0
VERTEX
  5
C2A
  8
TEAM-NET
 10
184.975721
 20
823.419921
 30
-237.164866
  0
VERTEX
  5
C2B
  8
TEAM-NET
 10
193.620476
 20
837.315181
 30
-237.164866
  0
VERTEX
  5
C2C
  8
TEAM-NET
 10
201.013476
 20
851.919406
 30
-237.164866
  0
VERTEX
  5
C2D
  8
TEAM-NET
 10
207.097415
 20
867.119393
 30
-237.164866
  0
SEQEND
  5
C2E
  8
TEAM-NET
  0
POLYLINE
  5
43
  8
TEAM-NET
 66
     1
 10
0.0
 20
0.0
 30
245.632443
 70
   128
210
0.0
220
-0.996195
230
-0.087156
  0
VERTEX
  5
C2F
  8
TEAM-NET
 10
34.789872
 20
759.32558
 30
245.632443
  0
VERTEX
  5
C30
  8
TEAM-NET
 10
50.492641
 20
760.053224
 30
245.632443
  0
VERTEX
  5
C31
  8
TEAM-NET
 10
66.061846
 20
762.229967
 30
245.632443
  0
VERTEX
  5
C32
  8
TEAM-NET
 10
81.365062
 20
765.837293
 30
245.632443
  0
VERTEX
  5
C33
  8
TEAM-NET
 10
96.272124
 20
770.844522
 30
245.632443
  0
VERTEX
  5
C34
  8
TEAM-NET
 10
110.656237
 20
777.209061
 30
245.632443
  0
VERTEX
  5
C35
  8
TEAM-NET
 10
124.395054
 20
784.876777
 30
245.632443
  0
VERTEX
  5
C36
  8
TEAM-NET
 10
137.371718
 20
793.78245
 30
245.632443
  0
VERTEX
  5
C37
  8
TEAM-NET
 10
149.475854
 20
803.850332
 30
245.632443
  0
VERTEX
  5
C38
  8
TEAM-NET
 10
160.604506
 20
814.994789
 30
245.632443
  0
VERTEX
  5
C39
  8
TEAM-NET
 10
170.663018
 20
827.121028
 30
245.632443
  0
VERTEX
  5
C3A
  8
TEAM-NET
 10
179.565836
 20
840.125908
 30
245.632443
  0
VERTEX
  5
C3B
  8
TEAM-NET
 10
187.237235
 20
853.898814
 30
245.632443
  0
VERTEX
  5
C3C
  8
TEAM-NET
 10
193.611965
 20
868.322598
 30
245.632443
  0
SEQEND
  5
C3D
  8
TEAM-NET
  0
POLYLINE
  5
44
  8
TEAM-NET
 66
     1
 10
0.0
 20
0.0
 30
-237.164866
 70
   128
210
-0.0
220
0.996783
230
0.080153
  0
VERTEX
  5
C3E
  8
TEAM-NET
 10
-209.753983
 20
867.119393
 30
-237.164866
  0
VERTEX
  5
C3F
  8
TEAM-NET
 10
-203.670044
 20
851.919406
 30
-237.164866
  0
VERTEX
  5
C40
  8
TEAM-NET
 10
-196.277044
 20
837.315181
 30
-237.164866
  0
VERTEX
  5
C41
  8
TEAM-NET
 10
-187.632289
 20
823.419921
 30
-237.164866
  0
VERTEX
  5
C42
  8
TEAM-NET
 10
-177.802788
 20
810.341335
 30
-237.164866
  0
VERTEX
  5
C43
  8
TEAM-NET
 10
-166.864734
 20
798.180799
 30
-237.164866
  0
VERTEX
  5
C44
  8
TEAM-NET
 10
-154.902913
 20
787.032576
 30
-237.164866
  0
VERTEX
  5
C45
  8
TEAM-NET
 10
-142.010045
 20
776.98308
 30
-237.164866
  0
VERTEX
  5
C46
  8
TEAM-NET
 10
-128.286068
 20
768.110208
 30
-237.164866
  0
VERTEX
  5
C47
  8
TEAM-NET
 10
-113.837363
 20
760.482738
 30
-237.164866
  0
VERTEX
  5
C48
  8
TEAM-NET
 10
-98.775928
 20
754.159795
 30
-237.164866
  0
VERTEX
  5
C49
  8
TEAM-NET
 10
-83.21851
 20
749.190389
 30
-237.164866
  0
VERTEX
  5
C4A
  8
TEAM-NET
 10
-67.285701
 20
745.61304
 30
-237.164866
  0
VERTEX
  5
C4B
  8
TEAM-NET
 10
-51.101004
 20
743.455479
 30
-237.164866
  0
VERTEX
  5
C4C
  8
TEAM-NET
 10
-34.789872
 20
742.734429
 30
-237.164866
  0
SEQEND
  5
C4D
  8
TEAM-NET
  0
POLYLINE
  5
45
  8
TEAM-NET
 66
     1
 10
0.0
 20
0.0
 30
-245.632443
 70
   128
210
0.0
220
0.996195
230
0.087156
  0
VERTEX
  5
C4E
  8
TEAM-NET
 10
32.133304
 20
759.32558
 30
-245.632443
  0
VERTEX
  5
C4F
  8
TEAM-NET
 10
47.836072
 20
760.053224
 30
-245.632443
  0
VERTEX
  5
C50
  8
TEAM-NET
 10
63.405278
 20
762.229967
 30
-245.632443
  0
VERTEX
  5
C51
  8
TEAM-NET
 10
78.708494
 20
765.837293
 30
-245.632443
  0
VERTEX
  5
C52
  8
TEAM-NET
 10
93.615555
 20
770.844522
 30
-245.632443
  0
VERTEX
  5
C53
  8
TEAM-NET
 10
107.999669
 20
777.209061
 30
-245.632443
  0
VERTEX
  5
C54
  8
TEAM-NET
 10
121.738486
 20
784.876777
 30
-245.632443
  0
VERTEX
  5
C55
  8
TEAM-NET
 10
134.71515
 20
793.78245
 30
-245.632443
  0
VERTEX
  5
C56
  8
TEAM-NET
 10
146.819285
 20
803.850332
 30
-245.632443
  0
VERTEX
  5
C57
  8
TEAM-NET
 10
157.947937
 20
814.994789
 30
-245.632443
  0
VERTEX
  5
C58
  8
TEAM-NET
 10
168.00645
 20
827.121028
 30
-245.632443
  0
VERTEX
  5
C59
  8
TEAM-NET
 10
176.909268
 20
840.125908
 30
-245.632443
  0
VERTEX
  5
C5A
  8
TEAM-NET
 10
184.580667
 20
853.898814
 30
-245.632443
  0
VERTEX
  5
C5B
  8
TEAM-NET
 10
190.955397
 20
868.322598
 30
-245.632443
  0
SEQEND
  5
C5C
  8
TEAM-NET
  0
POLYLINE
  5
46
  8
TEAM-NET
 66
     1
 10
0.0
 20
0.0
 30
-245.632443
 70
   128
210
0.0
220
0.996195
230
0.087156
  0
VERTEX
  5
C5D
  8
TEAM-NET
 10
-193.611965
 20
868.322598
 30
-245.632443
  0
VERTEX
  5
C5E
  8
TEAM-NET
 10
-187.237235
 20
853.898814
 30
-245.632443
  0
VERTEX
  5
C5F
  8
TEAM-NET
 10
-179.565836
 20
840.125908
 30
-245.632443
  0
VERTEX
  5
C60
  8
TEAM-NET
 10
-170.663018
 20
827.121028
 30
-245.632443
  0
VERTEX
  5
C61
  8
TEAM-NET
 10
-160.604506
 20
814.994789
 30
-245.632443
  0
VERTEX
  5
C62
  8
TEAM-NET
 10
-149.475854
 20
803.850332
 30
-245.632443
  0
VERTEX
  5
C63
  8
TEAM-NET
 10
-137.371718
 20
793.78245
 30
-245.632443
  0
VERTEX
  5
C64
  8
TEAM-NET
 10
-124.395054
 20
784.876777
 30
-245.632443
  0
VERTEX
  5
C65
  8
TEAM-NET
 10
-110.656237
 20
777.209061
 30
-245.632443
  0
VERTEX
  5
C66
  8
TEAM-NET
 10
-96.272124
 20
770.844522
 30
-245.632443
  0
VERTEX
  5
C67
  8
TEAM-NET
 10
-81.365062
 20
765.837293
 30
-245.632443
  0
VERTEX
  5
C68
  8
TEAM-NET
 10
-66.061846
 20
762.229967
 30
-245.632443
  0
VERTEX
  5
C69
  8
TEAM-NET
 10
-50.492641
 20
760.053224
 30
-245.632443
  0
VERTEX
  5
C6A
  8
TEAM-NET
 10
-34.789872
 20
759.32558
 30
-245.632443
  0
SEQEND
  5
C6B
  8
TEAM-NET
  0
POLYLINE
  5
47
  8
TEAM-NET
 66
     1
 10
0.0
 20
0.0
 30
-237.164866
 70
   128
210
0.0
220
0.996783
230
0.080153
  0
VERTEX
  5
C6C
  8
TEAM-NET
 10
32.133304
 20
742.734429
 30
-237.164866
  0
VERTEX
  5
C6D
  8
TEAM-NET
 10
48.444436
 20
743.455479
 30
-237.164866
  0
VERTEX
  5
C6E
  8
TEAM-NET
 10
64.629133
 20
745.61304
 30
-237.164866
  0
VERTEX
  5
C6F
  8
TEAM-NET
 10
80.561942
 20
749.190389
 30
-237.164866
  0
VERTEX
  5
C70
  8
TEAM-NET
 10
96.11936
 20
754.159795
 30
-237.164866
  0
VERTEX
  5
C71
  8
TEAM-NET
 10
111.180795
 20
760.482738
 30
-237.164866
  0
VERTEX
  5
C72
  8
TEAM-NET
 10
125.6295
 20
768.110208
 30
-237.164866
  0
VERTEX
  5
C73
  8
TEAM-NET
 10
139.353476
 20
776.98308
 30
-237.164866
  0
VERTEX
  5
C74
  8
TEAM-NET
 10
152.246344
 20
787.032576
 30
-237.164866
  0
VERTEX
  5
C75
  8
TEAM-NET
 10
164.208166
 20
798.180799
 30
-237.164866
  0
VERTEX
  5
C76
  8
TEAM-NET
 10
175.14622
 20
810.341335
 30
-237.164866
  0
VERTEX
  5
C77
  8
TEAM-NET
 10
184.975721
 20
823.419921
 30
-237.164866
  0
VERTEX
  5
C78
  8
TEAM-NET
 10
193.620476
 20
837.315181
 30
-237.164866
  0
VERTEX
  5
C79
  8
TEAM-NET
 10
201.013476
 20
851.919406
 30
-237.164866
  0
VERTEX
  5
C7A
  8
TEAM-NET
 10
207.097415
 20
867.119393
 30
-237.164866
  0
SEQEND
  5
C7B
  8
TEAM-NET
  0
POLYLINE
  5
48
  8
TEAM-NET
 66
     1
 10
0.0
 20
0.0
 30
245.632443
 70
   128
210
0.0
220
-0.996195
230
-0.087156
  0
VERTEX
  5
C7C
  8
TEAM-NET
 10
-190.955397
 20
868.322598
 30
245.632443
  0
VERTEX
  5
C7D
  8
TEAM-NET
 10
-184.580667
 20
853.898814
 30
245.632443
  0
VERTEX
  5
C7E
  8
TEAM-NET
 10
-176.909268
 20
840.125908
 30
245.632443
  0
VERTEX
  5
C7F
  8
TEAM-NET
 10
-168.00645
 20
827.121028
 30
245.632443
  0
VERTEX
  5
C80
  8
TEAM-NET
 10
-157.947937
 20
814.994789
 30
245.632443
  0
VERTEX
  5
C81
  8
TEAM-NET
 10
-146.819285
 20
803.850332
 30
245.632443
  0
VERTEX
  5
C82
  8
TEAM-NET
 10
-134.71515
 20
793.78245
 30
245.632443
  0
VERTEX
  5
C83
  8
TEAM-NET
 10
-121.738486
 20
784.876777
 30
245.632443
  0
VERTEX
  5
C84
  8
TEAM-NET
 10
-107.999669
 20
777.209061
 30
245.632443
  0
VERTEX
  5
C85
  8
TEAM-NET
 10
-93.615555
 20
770.844522
 30
245.632443
  0
VERTEX
  5
C86
  8
TEAM-NET
 10
-78.708494
 20
765.837293
 30
245.632443
  0
VERTEX
  5
C87
  8
TEAM-NET
 10
-63.405278
 20
762.229967
 30
245.632443
  0
VERTEX
  5
C88
  8
TEAM-NET
 10
-47.836072
 20
760.053224
 30
245.632443
  0
VERTEX
  5
C89
  8
TEAM-NET
 10
-32.133304
 20
759.32558
 30
245.632443
  0
SEQEND
  5
C8A
  8
TEAM-NET
  0
LINE
  5
49
  8
TEAM-NET
 10
-140.274321
 20
-35.0
 30
697.0
 11
-140.274321
 21
-35.0
 31
835.0
210
0.0
220
-1.0
230
0.0
  0
LINE
  5
4A
  8
TEAM-NET
 10
142.930889
 20
-35.0
 30
697.0
 11
142.930889
 21
-35.0
 31
835.0
210
0.0
220
-1.0
230
0.0
  0
LINE
  5
4B
  8
TEAM-NET
 10
142.930889
 20
-35.0
 30
697.0
 11
142.930889
 21
-35.0
 31
835.0
210
-1.0
220
0.0
230
0.0
  0
LINE
  5
4C
  8
TEAM-NET
 10
142.930889
 20
-120.0
 30
697.0
 11
142.930889
 21
-120.0
 31
835.0
210
-1.0
220
0.0
230
0.0
  0
ARC
  5
4D
  8
TEAM-NET
 10
-1.328284
 20
815.0
 30
-120.0
 40
10.0
210
0.0
220
1.0
230
0.0
 50
180.0
 51
0.0
  0
ARC
  5
4E
  8
TEAM-NET
 10
-1.328284
 20
815.0
 30
-120.0
 40
10.0
210
0.0
220
1.0
230
0.0
 50
0.0
 51
180.0
  0
LINE
  5
4F
  8
TEAM-NET
 10
142.930889
 20
-120.0
 30
697.0
 11
142.930889
 21
-120.0
 31
835.0
210
0.0
220
1.0
230
0.0
  0
LINE
  5
50
  8
TEAM-NET
 10
-140.274321
 20
-120.0
 30
697.0
 11
-140.274321
 21
-120.0
 31
835.0
210
0.0
220
1.0
230
0.0
  0
LINE
  5
51
  8
TEAM-NET
 10
-140.274321
 20
-120.0
 30
697.0
 11
-140.274321
 21
-120.0
 31
835.0
210
1.0
220
0.0
230
0.0
  0
LINE
  5
52
  8
TEAM-NET
 10
-140.274321
 20
-35.0
 30
697.0
 11
-140.274321
 21
-35.0
 31
835.0
210
1.0
220
0.0
230
0.0
  0
LINE
  5
53
  8
TEAM-NET
 10
-28.671716
 20
-170.0
 30
729.195629
 11
-28.671716
 21
-170.0
 31
728.373709
  0
ARC
  5
384
  8
TEAM-NET
 10
1.328284
 20
-170.0
 30
728.373709
 40
30.0
 50
180.0
 51
0.0
1001
ACAD
1000
R13OBJECT
1002
{
1005
53
1002
}
  0
LINE
  5
385
  8
TEAM-NET
 10
31.328284
 20
-170.0
 30
729.195629
 11
31.328284
 21
-170.0
 31
728.373709
1001
ACAD
1000
R13OBJECT
1002
{
1005
53
1002
}
  0
ARC
  5
386
  8
TEAM-NET
 10
1.328284
 20
-170.0
 30
729.195629
 40
30.0
 50
270.0
 51
360.0
1001
ACAD
1000
R13OBJECT
1002
{
1005
53
1002
}
  0
ARC
  5
387
  8
TEAM-NET
 10
1.328284
 20
-170.0
 30
729.195629
 40
30.0
 50
180.0
 51
270.0
1001
ACAD
1000
R13OBJECT
1002
{
1005
53
1002
}
  0
LINE
  5
388
  8
TEAM-NET
 10
1.328284
 20
-200.0
 30
728.373709
 11
1.328284
 21
-200.0
 31
729.195629
1001
ACAD
1000
R13OBJECT
1002
{
1005
53
1002
}
  0
LINE
  5
54
  8
TEAM-NET
 10
-28.671716
 20
-170.0
 30
729.195629
 11
-28.671716
 21
-170.0
 31
728.373709
  0
ARC
  5
389
  8
TEAM-NET
 10
1.328284
 20
-170.0
 30
729.195629
 40
30.0
 50
90.0
 51
180.0
1001
ACAD
1000
R13OBJECT
1002
{
1005
54
1002
}
  0
ARC
  5
38A
  8
TEAM-NET
 10
1.328284
 20
-170.0
 30
729.195629
 40
30.0
 50
0.0
 51
90.0
1001
ACAD
1000
R13OBJECT
1002
{
1005
54
1002
}
  0
LINE
  5
38B
  8
TEAM-NET
 10
31.328284
 20
-170.0
 30
729.195629
 11
31.328284
 21
-170.0
 31
728.373709
1001
ACAD
1000
R13OBJECT
1002
{
1005
54
1002
}
  0
ARC
  5
38C
  8
TEAM-NET
 10
1.328284
 20
-170.0
 30
728.373709
 40
30.0
 50
0.0
 51
180.0
1001
ACAD
1000
R13OBJECT
1002
{
1005
54
1002
}
  0
LINE
  5
38D
  8
TEAM-NET
 10
1.328284
 20
-140.0
 30
728.373709
 11
1.328284
 21
-140.0
 31
729.195629
1001
ACAD
1000
R13OBJECT
1002
{
1005
54
1002
}
  0
ARC
  5
55
  8
TEAM-NET
 10
-140.0
 20
736.335175
 30
-32.133304
 40
15.0
210
1.0
220
0.0
230
0.0
 50
270.0
 51
0.0
  0
ARC
  5
56
  8
TEAM-NET
 10
-140.0
 20
736.335175
 30
34.789872
 40
15.0
210
1.0
220
0.0
230
0.0
 50
270.0
 51
0.0
  0
ARC
  5
57
  8
TEAM-NET
 10
-295.934402
 20
736.335175
 30
-32.133304
 40
15.0
210
1.0
220
0.0
230
0.0
 50
185.0
 51
270.0
  0
ARC
  5
58
  8
TEAM-NET
 10
295.934402
 20
736.335175
 30
-34.789872
 40
15.0
210
-1.0
220
0.0
230
0.0
 50
270.0
 51
355.0
  0
ARC
  5
59
  8
TEAM-NET
 10
-140.0
 20
736.335175
 30
34.789872
 40
15.0
210
1.0
220
0.0
230
0.0
 50
270.0
 51
0.0
  0
ARC
  5
5A
  8
TEAM-NET
 10
-140.0
 20
736.335175
 30
-32.133304
 40
15.0
210
1.0
220
0.0
230
0.0
 50
270.0
 51
0.0
  0
ARC
  5
5B
  8
TEAM-NET
 10
295.934402
 20
736.335175
 30
-34.789872
 40
15.0
210
-1.0
220
0.0
230
0.0
 50
270.0
 51
355.0
  0
ARC
  5
5C
  8
TEAM-NET
 10
-295.934402
 20
736.335175
 30
-32.133304
 40
15.0
210
1.0
220
0.0
230
0.0
 50
185.0
 51
270.0
  0
ARC
  5
5D
  8
TEAM-NET
 10
-147.673527
 20
720.0
 30
0.0
 40
30.0
210
0.0
220
-1.0
230
0.0
 50
231.952682
 51
270.0
  0
ARC
  5
5E
  8
TEAM-NET
 10
147.673527
 20
720.0
 30
0.0
 40
30.0
210
0.0
220
-1.0
230
0.0
 50
270.0
 51
310.978054
  0
ARC
  5
5F
  8
TEAM-NET
 10
119.427699
 20
683.0
 30
-45.049683
 40
7.0
210
-0.966292
220
0.257448
230
0.0
 50
0.0
 51
90.0
  0
ARC
  5
60
  8
TEAM-NET
 10
-120.111627
 20
683.0
 30
-42.482662
 40
7.0
210
0.966292
220
0.257448
230
0.0
 50
90.0
 51
180.0
  0
ARC
  5
61
  8
TEAM-NET
 10
119.427699
 20
683.0
 30
-45.049683
 40
7.0
210
-0.966292
220
0.257448
230
0.0
 50
0.0
 51
90.0
  0
ARC
  5
62
  8
TEAM-NET
 10
-120.111627
 20
683.0
 30
-42.482662
 40
7.0
210
0.966292
220
0.257448
230
0.0
 50
90.0
 51
180.0
  0
LINE
  5
63
  8
TEAM-NET
 10
-24.671716
 20
-170.0
 30
670.0
 11
-24.671716
 21
-170.0
 31
715.531328
  0
LINE
  5
64
  8
TEAM-NET
 10
27.328284
 20
-170.0
 30
670.0
 11
27.328284
 21
-170.0
 31
715.531328
  0
LINE
  5
65
  8
TEAM-NET
 10
-24.671716
 20
-170.0
 30
670.0
 11
-24.671716
 21
-170.0
 31
715.531328
  0
LINE
  5
66
  8
TEAM-NET
 10
27.328284
 20
-170.0
 30
670.0
 11
27.328284
 21
-170.0
 31
715.531328
  0
POLYLINE
  5
67
  8
TEAM-NET
 66
     1
 10
0.0
 20
0.0
 30
0.0
 70
     8
  0
VERTEX
  5
38E
  8
TEAM-NET
 10
-9.18147
 20
-182.064206
 30
688.373709
 70
    32
  0
VERTEX
  5
38F
  8
TEAM-NET
 10
-10.026406
 20
-182.919704
 30
688.5199
 70
    32
  0
VERTEX
  5
390
  8
TEAM-NET
 10
-10.410584
 20
-183.308684
 30
688.688485
 70
    32
  0
VERTEX
  5
391
  8
TEAM-NET
 10
-10.717771
 20
-183.619711
 30
688.875197
 70
    32
  0
VERTEX
  5
392
  8
TEAM-NET
 10
-11.438184
 20
-184.349129
 30
689.537052
 70
    32
  0
VERTEX
  5
393
  8
TEAM-NET
 10
-11.666574
 20
-184.580374
 30
689.833486
 70
    32
  0
VERTEX
  5
394
  8
TEAM-NET
 10
-11.858706
 20
-184.774908
 30
690.128664
 70
    32
  0
VERTEX
  5
395
  8
TEAM-NET
 10
-12.224367
 20
-185.145139
 30
690.862476
 70
    32
  0
VERTEX
  5
396
  8
TEAM-NET
 10
-12.40313
 20
-185.326137
 30
691.362601
 70
    32
  0
VERTEX
  5
397
  8
TEAM-NET
 10
-12.506006
 20
-185.430298
 30
691.735297
 70
    32
  0
VERTEX
  5
398
  8
TEAM-NET
 10
-12.686276
 20
-185.612822
 30
692.928991
 70
    32
  0
VERTEX
  5
399
  8
TEAM-NET
 10
-12.700217
 20
-185.626937
 30
693.373709
 70
    32
  0
SEQEND
  5
39A
  8
TEAM-NET
  0
LINE
  5
39B
  8
TEAM-NET
 10
-9.18147
 20
-182.064206
 30
688.373709
 11
-2.117468
 21
-174.911903
 31
688.373709
1001
ACAD
1000
R13OBJECT
1002
{
1005
67
1002
}
  0
LINE
  5
39C
  8
TEAM-NET
 10
-2.117468
 20
-174.911903
 30
728.373709
 11
-2.117468
 21
-174.911903
 31
688.373709
1001
ACAD
1000
R13OBJECT
1002
{
1005
67
1002
}
  0
LINE
  5
39D
  8
TEAM-NET
 10
-12.700217
 20
-185.626937
 30
728.373709
 11
-2.117468
 21
-174.911903
 31
728.373709
1001
ACAD
1000
R13OBJECT
1002
{
1005
67
1002
}
  0
LINE
  5
39E
  8
TEAM-NET
 10
-12.700217
 20
-185.626937
 30
728.373709
 11
-12.700217
 21
-185.626937
 31
693.373709
1001
ACAD
1000
R13OBJECT
1002
{
1005
67
1002
}
  0
LINE
  5
68
  8
TEAM-NET
 10
4.774036
 20
-165.088097
 30
728.373709
 11
4.774036
 21
-165.088097
 31
688.373709
  0
ARC
  5
39F
  8
TEAM-NET
 10
1.328284
 20
-170.0
 30
688.373709
 40
6.0
 50
54.949938
 51
125.761802
1001
ACAD
1000
R13OBJECT
1002
{
1005
68
1002
}
  0
LINE
  5
3A0
  8
TEAM-NET
 10
-2.178217
 20
-165.131278
 30
688.373709
 11
-2.178217
 21
-165.131278
 31
728.373709
1001
ACAD
1000
R13OBJECT
1002
{
1005
68
1002
}
  0
ARC
  5
3A1
  8
TEAM-NET
 10
1.328284
 20
-170.0
 30
728.373709
 40
6.0
 50
54.949938
 51
125.761802
1001
ACAD
1000
R13OBJECT
1002
{
1005
68
1002
}
  0
LINE
  5
69
  8
TEAM-NET
 10
-3.583619
 20
-166.554248
 30
728.373709
 11
-3.583619
 21
-166.554248
 31
688.373709
  0
ARC
  5
3A2
  8
TEAM-NET
 10
1.328284
 20
-170.0
 30
688.373709
 40
6.0
 50
144.949938
 51
215.761802
1001
ACAD
1000
R13OBJECT
1002
{
1005
69
1002
}
  0
LINE
  5
3A3
  8
TEAM-NET
 10
-3.540438
 20
-173.506501
 30
728.373709
 11
-3.540438
 21
-173.506501
 31
688.373709
1001
ACAD
1000
R13OBJECT
1002
{
1005
69
1002
}
  0
ARC
  5
3A4
  8
TEAM-NET
 10
1.328284
 20
-170.0
 30
728.373709
 40
6.0
 50
144.949938
 51
215.761802
1001
ACAD
1000
R13OBJECT
1002
{
1005
69
1002
}
  0
POLYLINE
  5
6A
  8
TEAM-NET
 66
     1
 10
0.0
 20
0.0
 30
0.0
 70
     8
  0
VERTEX
  5
3A5
  8
TEAM-NET
 10
-10.735922
 20
-159.490246
 30
688.373709
 70
    32
  0
VERTEX
  5
3A6
  8
TEAM-NET
 10
-11.59142
 20
-158.64531
 30
688.5199
 70
    32
  0
VERTEX
  5
3A7
  8
TEAM-NET
 10
-11.9804
 20
-158.261132
 30
688.688485
 70
    32
  0
VERTEX
  5
3A8
  8
TEAM-NET
 10
-12.291427
 20
-157.953945
 30
688.875197
 70
    32
  0
VERTEX
  5
3A9
  8
TEAM-NET
 10
-13.020844
 20
-157.233532
 30
689.537052
 70
    32
  0
VERTEX
  5
3AA
  8
TEAM-NET
 10
-13.25209
 20
-157.005142
 30
689.833486
 70
    32
  0
VERTEX
  5
3AB
  8
TEAM-NET
 10
-13.446623
 20
-156.81301
 30
690.128664
 70
    32
  0
VERTEX
  5
3AC
  8
TEAM-NET
 10
-13.816855
 20
-156.447349
 30
690.862476
 70
    32
  0
VERTEX
  5
3AD
  8
TEAM-NET
 10
-13.997853
 20
-156.268586
 30
691.362601
 70
    32
  0
VERTEX
  5
3AE
  8
TEAM-NET
 10
-14.102014
 20
-156.16571
 30
691.735297
 70
    32
  0
VERTEX
  5
3AF
  8
TEAM-NET
 10
-14.284538
 20
-155.98544
 30
692.928991
 70
    32
  0
VERTEX
  5
3B0
  8
TEAM-NET
 10
-14.298653
 20
-155.971499
 30
693.373709
 70
    32
  0
SEQEND
  5
3B1
  8
TEAM-NET
  0
LINE
  5
3B2
  8
TEAM-NET
 10
-10.735922
 20
-159.490246
 30
688.373709
 11
-3.583619
 21
-166.554248
 31
688.373709
1001
ACAD
1000
R13OBJECT
1002
{
1005
6A
1002
}
  0
LINE
  5
3B3
  8
TEAM-NET
 10
-3.583619
 20
-166.554248
 30
728.373709
 11
-3.583619
 21
-166.554248
 31
688.373709
1001
ACAD
1000
R13OBJECT
1002
{
1005
6A
1002
}
  0
LINE
  5
3B4
  8
TEAM-NET
 10
-14.298653
 20
-155.971499
 30
728.373709
 11
-3.583619
 21
-166.554248
 31
728.373709
1001
ACAD
1000
R13OBJECT
1002
{
1005
6A
1002
}
  0
LINE
  5
3B5
  8
TEAM-NET
 10
-14.298653
 20
-155.971499
 30
728.373709
 11
-14.298653
 21
-155.971499
 31
693.373709
1001
ACAD
1000
R13OBJECT
1002
{
1005
6A
1002
}
  0
LINE
  5
6B
  8
TEAM-NET
 10
6.240188
 20
-173.445752
 30
728.373709
 11
6.240188
 21
-173.445752
 31
688.373709
  0
ARC
  5
3B6
  8
TEAM-NET
 10
1.328284
 20
-170.0
 30
688.373709
 40
6.0
 50
324.949938
 51
35.761802
1001
ACAD
1000
R13OBJECT
1002
{
1005
6B
1002
}
  0
LINE
  5
3B7
  8
TEAM-NET
 10
6.197006
 20
-166.493499
 30
688.373709
 11
6.197006
 21
-166.493499
 31
728.373709
1001
ACAD
1000
R13OBJECT
1002
{
1005
6B
1002
}
  0
ARC
  5
3B8
  8
TEAM-NET
 10
1.328284
 20
-170.0
 30
728.373709
 40
6.0
 50
324.949938
 51
35.761802
1001
ACAD
1000
R13OBJECT
1002
{
1005
6B
1002
}
  0
POLYLINE
  5
6C
  8
TEAM-NET
 66
     1
 10
0.0
 20
0.0
 30
0.0
 70
     8
  0
VERTEX
  5
3B9
  8
TEAM-NET
 10
11.838038
 20
-157.935794
 30
688.373709
 70
    32
  0
VERTEX
  5
3BA
  8
TEAM-NET
 10
12.682974
 20
-157.080296
 30
688.5199
 70
    32
  0
VERTEX
  5
3BB
  8
TEAM-NET
 10
13.067152
 20
-156.691316
 30
688.688485
 70
    32
  0
VERTEX
  5
3BC
  8
TEAM-NET
 10
13.374339
 20
-156.380289
 30
688.875197
 70
    32
  0
VERTEX
  5
3BD
  8
TEAM-NET
 10
14.094752
 20
-155.650871
 30
689.537052
 70
    32
  0
VERTEX
  5
3BE
  8
TEAM-NET
 10
14.323143
 20
-155.419626
 30
689.833486
 70
    32
  0
VERTEX
  5
3BF
  8
TEAM-NET
 10
14.515274
 20
-155.225092
 30
690.128664
 70
    32
  0
VERTEX
  5
3C0
  8
TEAM-NET
 10
14.880935
 20
-154.854861
 30
690.862476
 70
    32
  0
VERTEX
  5
3C1
  8
TEAM-NET
 10
15.059699
 20
-154.673863
 30
691.362601
 70
    32
  0
VERTEX
  5
3C2
  8
TEAM-NET
 10
15.162574
 20
-154.569702
 30
691.735297
 70
    32
  0
VERTEX
  5
3C3
  8
TEAM-NET
 10
15.342844
 20
-154.387178
 30
692.928991
 70
    32
  0
VERTEX
  5
3C4
  8
TEAM-NET
 10
15.356785
 20
-154.373063
 30
693.373709
 70
    32
  0
SEQEND
  5
3C5
  8
TEAM-NET
  0
LINE
  5
3C6
  8
TEAM-NET
 10
11.838038
 20
-157.935794
 30
688.373709
 11
4.774036
 21
-165.088097
 31
688.373709
1001
ACAD
1000
R13OBJECT
1002
{
1005
6C
1002
}
  0
LINE
  5
3C7
  8
TEAM-NET
 10
4.774036
 20
-165.088097
 30
728.373709
 11
4.774036
 21
-165.088097
 31
688.373709
1001
ACAD
1000
R13OBJECT
1002
{
1005
6C
1002
}
  0
LINE
  5
3C8
  8
TEAM-NET
 10
15.356785
 20
-154.373063
 30
728.373709
 11
4.774036
 21
-165.088097
 31
728.373709
1001
ACAD
1000
R13OBJECT
1002
{
1005
6C
1002
}
  0
LINE
  5
3C9
  8
TEAM-NET
 10
15.356785
 20
-154.373063
 30
728.373709
 11
15.356785
 21
-154.373063
 31
693.373709
1001
ACAD
1000
R13OBJECT
1002
{
1005
6C
1002
}
  0
LINE
  5
6D
  8
TEAM-NET
 10
4.834785
 20
-174.868722
 30
688.373709
 11
4.834785
 21
-174.868722
 31
728.373709
  0
ARC
  5
3CA
  8
TEAM-NET
 10
1.328284
 20
-170.0
 30
728.373709
 40
6.0
 50
234.949938
 51
305.761802
1001
ACAD
1000
R13OBJECT
1002
{
1005
6D
1002
}
  0
LINE
  5
3CB
  8
TEAM-NET
 10
-2.117468
 20
-174.911903
 30
728.373709
 11
-2.117468
 21
-174.911903
 31
688.373709
1001
ACAD
1000
R13OBJECT
1002
{
1005
6D
1002
}
  0
ARC
  5
3CC
  8
TEAM-NET
 10
1.328284
 20
-170.0
 30
688.373709
 40
6.0
 50
234.949938
 51
305.761802
1001
ACAD
1000
R13OBJECT
1002
{
1005
6D
1002
}
  0
POLYLINE
  5
6E
  8
TEAM-NET
 66
     1
 10
0.0
 20
0.0
 30
0.0
 70
     8
  0
VERTEX
  5
3CD
  8
TEAM-NET
 10
13.39249
 20
-180.509754
 30
688.373709
 70
    32
  0
VERTEX
  5
3CE
  8
TEAM-NET
 10
14.247988
 20
-181.35469
 30
688.5199
 70
    32
  0
VERTEX
  5
3CF
  8
TEAM-NET
 10
14.636968
 20
-181.738868
 30
688.688485
 70
    32
  0
VERTEX
  5
3D0
  8
TEAM-NET
 10
14.947995
 20
-182.046055
 30
688.875197
 70
    32
  0
VERTEX
  5
3D1
  8
TEAM-NET
 10
15.677413
 20
-182.766468
 30
689.537052
 70
    32
  0
VERTEX
  5
3D2
  8
TEAM-NET
 10
15.908658
 20
-182.994858
 30
689.833486
 70
    32
  0
VERTEX
  5
3D3
  8
TEAM-NET
 10
16.103192
 20
-183.18699
 30
690.128664
 70
    32
  0
VERTEX
  5
3D4
  8
TEAM-NET
 10
16.473424
 20
-183.552651
 30
690.862476
 70
    32
  0
VERTEX
  5
3D5
  8
TEAM-NET
 10
16.654421
 20
-183.731414
 30
691.362601
 70
    32
  0
VERTEX
  5
3D6
  8
TEAM-NET
 10
16.758582
 20
-183.83429
 30
691.735297
 70
    32
  0
VERTEX
  5
3D7
  8
TEAM-NET
 10
16.941106
 20
-184.01456
 30
692.928991
 70
    32
  0
VERTEX
  5
3D8
  8
TEAM-NET
 10
16.955221
 20
-184.028501
 30
693.373709
 70
    32
  0
SEQEND
  5
3D9
  8
TEAM-NET
  0
LINE
  5
3DA
  8
TEAM-NET
 10
13.39249
 20
-180.509754
 30
688.373709
 11
6.240188
 21
-173.445752
 31
688.373709
1001
ACAD
1000
R13OBJECT
1002
{
1005
6E
1002
}
  0
LINE
  5
3DB
  8
TEAM-NET
 10
6.240188
 20
-173.445752
 30
728.373709
 11
6.240188
 21
-173.445752
 31
688.373709
1001
ACAD
1000
R13OBJECT
1002
{
1005
6E
1002
}
  0
LINE
  5
3DC
  8
TEAM-NET
 10
16.955221
 20
-184.028501
 30
728.373709
 11
6.240188
 21
-173.445752
 31
728.373709
1001
ACAD
1000
R13OBJECT
1002
{
1005
6E
1002
}
  0
LINE
  5
3DD
  8
TEAM-NET
 10
16.955221
 20
-184.028501
 30
728.373709
 11
16.955221
 21
-184.028501
 31
693.373709
1001
ACAD
1000
R13OBJECT
1002
{
1005
6E
1002
}
  0
POLYLINE
  5
6F
  8
TEAM-NET
 66
     1
 10
0.0
 20
0.0
 30
0.0
 70
     8
  0
VERTEX
  5
3DE
  8
TEAM-NET
 10
-14.123187
 20
-184.221535
 30
693.373709
 70
    32
  0
VERTEX
  5
3DF
  8
TEAM-NET
 10
-14.055493
 20
-184.152994
 30
692.397499
 70
    32
  0
VERTEX
  5
3E0
  8
TEAM-NET
 10
-13.884144
 20
-183.979503
 30
691.56197
 70
    32
  0
VERTEX
  5
3E1
  8
TEAM-NET
 10
-13.770832
 20
-183.864776
 30
691.192514
 70
    32
  0
VERTEX
  5
3E2
  8
TEAM-NET
 10
-13.305449
 20
-183.393575
 30
690.168694
 70
    32
  0
VERTEX
  5
3E3
  8
TEAM-NET
 10
-13.095059
 20
-183.180555
 30
689.84132
 70
    32
  0
VERTEX
  5
3E4
  8
TEAM-NET
 10
-12.889467
 20
-182.972393
 30
689.57104
 70
    32
  0
VERTEX
  5
3E5
  8
TEAM-NET
 10
-12.372473
 20
-182.448937
 30
689.050417
 70
    32
  0
VERTEX
  5
3E6
  8
TEAM-NET
 10
-12.0095
 20
-182.081427
 30
688.789406
 70
    32
  0
VERTEX
  5
3E7
  8
TEAM-NET
 10
-11.745275
 20
-181.813899
 30
688.643635
 70
    32
  0
VERTEX
  5
3E8
  8
TEAM-NET
 10
-10.903275
 20
-180.961374
 30
688.391758
 70
    32
  0
VERTEX
  5
3E9
  8
TEAM-NET
 10
-10.60444
 20
-180.658804
 30
688.373709
 70
    32
  0
SEQEND
  5
3EA
  8
TEAM-NET
  0
LINE
  5
3EB
  8
TEAM-NET
 10
-14.123187
 20
-184.221535
 30
728.373709
 11
-14.123187
 21
-184.221535
 31
693.373709
1001
ACAD
1000
R13OBJECT
1002
{
1005
6F
1002
}
  0
LINE
  5
3EC
  8
TEAM-NET
 10
-3.540438
 20
-173.506501
 30
728.373709
 11
-14.123187
 21
-184.221535
 31
728.373709
1001
ACAD
1000
R13OBJECT
1002
{
1005
6F
1002
}
  0
LINE
  5
3ED
  8
TEAM-NET
 10
-3.540438
 20
-173.506501
 30
728.373709
 11
-3.540438
 21
-173.506501
 31
688.373709
1001
ACAD
1000
R13OBJECT
1002
{
1005
6F
1002
}
  0
LINE
  5
3EE
  8
TEAM-NET
 10
-3.540438
 20
-173.506501
 30
688.373709
 11
-10.60444
 21
-180.658804
 31
688.373709
1001
ACAD
1000
R13OBJECT
1002
{
1005
6F
1002
}
  0
POLYLINE
  5
70
  8
TEAM-NET
 66
     1
 10
0.0
 20
0.0
 30
0.0
 70
     8
  0
VERTEX
  5
3EF
  8
TEAM-NET
 10
-9.18147
 20
-182.064206
 30
688.373709
 70
    32
  0
VERTEX
  5
3F0
  8
TEAM-NET
 10
-10.026406
 20
-182.919704
 30
688.5199
 70
    32
  0
VERTEX
  5
3F1
  8
TEAM-NET
 10
-10.410584
 20
-183.308684
 30
688.688485
 70
    32
  0
VERTEX
  5
3F2
  8
TEAM-NET
 10
-10.717771
 20
-183.619711
 30
688.875197
 70
    32
  0
VERTEX
  5
3F3
  8
TEAM-NET
 10
-11.438184
 20
-184.349129
 30
689.537052
 70
    32
  0
VERTEX
  5
3F4
  8
TEAM-NET
 10
-11.666574
 20
-184.580374
 30
689.833486
 70
    32
  0
VERTEX
  5
3F5
  8
TEAM-NET
 10
-11.858706
 20
-184.774908
 30
690.128664
 70
    32
  0
VERTEX
  5
3F6
  8
TEAM-NET
 10
-12.224367
 20
-185.145139
 30
690.862476
 70
    32
  0
VERTEX
  5
3F7
  8
TEAM-NET
 10
-12.40313
 20
-185.326137
 30
691.362601
 70
    32
  0
VERTEX
  5
3F8
  8
TEAM-NET
 10
-12.506006
 20
-185.430298
 30
691.735297
 70
    32
  0
VERTEX
  5
3F9
  8
TEAM-NET
 10
-12.686276
 20
-185.612822
 30
692.928991
 70
    32
  0
VERTEX
  5
3FA
  8
TEAM-NET
 10
-12.700217
 20
-185.626937
 30
693.373709
 70
    32
  0
SEQEND
  5
3FB
  8
TEAM-NET
  0
ARC
  5
3FC
  8
TEAM-NET
 10
-1.328284
 20
-170.0
 30
-693.373709
 40
21.0
210
0.0
220
0.0
230
-1.0
 50
311.914727
 51
317.373533
1001
ACAD
1000
R13OBJECT
1002
{
1005
70
1002
}
  0
POLYLINE
  5
3FD
  8
TEAM-NET
 66
     1
 10
0.0
 20
0.0
 30
0.0
 70
     8
1001
ACAD
1000
R13OBJECT
1002
{
1005
70
1002
}
  0
VERTEX
  5
3FE
  8
TEAM-NET
 10
-14.123187
 20
-184.221535
 30
693.373709
 70
    32
  0
VERTEX
  5
3FF
  8
TEAM-NET
 10
-14.055493
 20
-184.152994
 30
692.397499
 70
    32
  0
VERTEX
  5
400
  8
TEAM-NET
 10
-13.884144
 20
-183.979503
 30
691.56197
 70
    32
  0
VERTEX
  5
401
  8
TEAM-NET
 10
-13.770832
 20
-183.864776
 30
691.192514
 70
    32
  0
VERTEX
  5
402
  8
TEAM-NET
 10
-13.305449
 20
-183.393575
 30
690.168694
 70
    32
  0
VERTEX
  5
403
  8
TEAM-NET
 10
-13.095059
 20
-183.180555
 30
689.84132
 70
    32
  0
VERTEX
  5
404
  8
TEAM-NET
 10
-12.889467
 20
-182.972393
 30
689.57104
 70
    32
  0
VERTEX
  5
405
  8
TEAM-NET
 10
-12.372473
 20
-182.448937
 30
689.050417
 70
    32
  0
VERTEX
  5
406
  8
TEAM-NET
 10
-12.0095
 20
-182.081427
 30
688.789406
 70
    32
  0
VERTEX
  5
407
  8
TEAM-NET
 10
-11.745275
 20
-181.813899
 30
688.643635
 70
    32
  0
VERTEX
  5
408
  8
TEAM-NET
 10
-10.903275
 20
-180.961374
 30
688.391758
 70
    32
  0
VERTEX
  5
409
  8
TEAM-NET
 10
-10.60444
 20
-180.658804
 30
688.373709
 70
    32
  0
SEQEND
  5
40A
  8
TEAM-NET
  0
ARC
  5
40B
  8
TEAM-NET
 10
1.328284
 20
-170.0
 30
688.373709
 40
16.0
 50
221.772548
 51
228.939192
1001
ACAD
1000
R13OBJECT
1002
{
1005
70
1002
}
  0
ARC
  5
40C
  8
TEAM-NET
 10
135.981949
 20
693.373709
 30
-120.441256
 40
5.0
210
-0.711268
220
0.702921
230
0.0
 50
270.0
 51
360.0
1001
ACAD
1000
R13OBJECT
1002
{
1005
70
1002
}
  0
ARC
  5
40D
  8
TEAM-NET
 10
1.328284
 20
-170.0
 30
689.838175
 40
19.535534
 50
222.421687
 51
228.290053
1001
ACAD
1000
R13OBJECT
1002
{
1005
70
1002
}
  0
POLYLINE
  5
71
  8
TEAM-NET
 66
     1
 10
0.0
 20
0.0
 30
0.0
 70
     8
  0
VERTEX
  5
40E
  8
TEAM-NET
 10
15.549819
 20
-185.451471
 30
693.373709
 70
    32
  0
VERTEX
  5
40F
  8
TEAM-NET
 10
15.481278
 20
-185.383777
 30
692.397499
 70
    32
  0
VERTEX
  5
410
  8
TEAM-NET
 10
15.307788
 20
-185.212428
 30
691.56197
 70
    32
  0
VERTEX
  5
411
  8
TEAM-NET
 10
15.19306
 20
-185.099116
 30
691.192514
 70
    32
  0
VERTEX
  5
412
  8
TEAM-NET
 10
14.721859
 20
-184.633733
 30
690.168694
 70
    32
  0
VERTEX
  5
413
  8
TEAM-NET
 10
14.508839
 20
-184.423343
 30
689.84132
 70
    32
  0
VERTEX
  5
414
  8
TEAM-NET
 10
14.300677
 20
-184.217751
 30
689.57104
 70
    32
  0
VERTEX
  5
415
  8
TEAM-NET
 10
13.777221
 20
-183.700757
 30
689.050417
 70
    32
  0
VERTEX
  5
416
  8
TEAM-NET
 10
13.409711
 20
-183.337784
 30
688.789406
 70
    32
  0
VERTEX
  5
417
  8
TEAM-NET
 10
13.142183
 20
-183.073559
 30
688.643635
 70
    32
  0
VERTEX
  5
418
  8
TEAM-NET
 10
12.289658
 20
-182.231559
 30
688.391758
 70
    32
  0
VERTEX
  5
419
  8
TEAM-NET
 10
11.987088
 20
-181.932724
 30
688.373709
 70
    32
  0
SEQEND
  5
41A
  8
TEAM-NET
  0
LINE
  5
41B
  8
TEAM-NET
 10
15.549819
 20
-185.451471
 30
728.373709
 11
15.549819
 21
-185.451471
 31
693.373709
1001
ACAD
1000
R13OBJECT
1002
{
1005
71
1002
}
  0
LINE
  5
41C
  8
TEAM-NET
 10
4.834785
 20
-174.868722
 30
728.373709
 11
15.549819
 21
-185.451471
 31
728.373709
1001
ACAD
1000
R13OBJECT
1002
{
1005
71
1002
}
  0
LINE
  5
41D
  8
TEAM-NET
 10
4.834785
 20
-174.868722
 30
688.373709
 11
4.834785
 21
-174.868722
 31
728.373709
1001
ACAD
1000
R13OBJECT
1002
{
1005
71
1002
}
  0
LINE
  5
41E
  8
TEAM-NET
 10
4.834785
 20
-174.868722
 30
688.373709
 11
11.987088
 21
-181.932724
 31
688.373709
1001
ACAD
1000
R13OBJECT
1002
{
1005
71
1002
}
  0
POLYLINE
  5
72
  8
TEAM-NET
 66
     1
 10
0.0
 20
0.0
 30
0.0
 70
     8
  0
VERTEX
  5
41F
  8
TEAM-NET
 10
13.39249
 20
-180.509754
 30
688.373709
 70
    32
  0
VERTEX
  5
420
  8
TEAM-NET
 10
14.247988
 20
-181.35469
 30
688.5199
 70
    32
  0
VERTEX
  5
421
  8
TEAM-NET
 10
14.636968
 20
-181.738868
 30
688.688485
 70
    32
  0
VERTEX
  5
422
  8
TEAM-NET
 10
14.947995
 20
-182.046055
 30
688.875197
 70
    32
  0
VERTEX
  5
423
  8
TEAM-NET
 10
15.677413
 20
-182.766468
 30
689.537052
 70
    32
  0
VERTEX
  5
424
  8
TEAM-NET
 10
15.908658
 20
-182.994858
 30
689.833486
 70
    32
  0
VERTEX
  5
425
  8
TEAM-NET
 10
16.103192
 20
-183.18699
 30
690.128664
 70
    32
  0
VERTEX
  5
426
  8
TEAM-NET
 10
16.473424
 20
-183.552651
 30
690.862476
 70
    32
  0
VERTEX
  5
427
  8
TEAM-NET
 10
16.654421
 20
-183.731414
 30
691.362601
 70
    32
  0
VERTEX
  5
428
  8
TEAM-NET
 10
16.758582
 20
-183.83429
 30
691.735297
 70
    32
  0
VERTEX
  5
429
  8
TEAM-NET
 10
16.941106
 20
-184.01456
 30
692.928991
 70
    32
  0
VERTEX
  5
42A
  8
TEAM-NET
 10
16.955221
 20
-184.028501
 30
693.373709
 70
    32
  0
SEQEND
  5
42B
  8
TEAM-NET
  0
ARC
  5
42C
  8
TEAM-NET
 10
-1.328284
 20
-170.0
 30
-693.373709
 40
21.0
210
0.0
220
0.0
230
-1.0
 50
221.914727
 51
227.373533
1001
ACAD
1000
R13OBJECT
1002
{
1005
72
1002
}
  0
POLYLINE
  5
42D
  8
TEAM-NET
 66
     1
 10
0.0
 20
0.0
 30
0.0
 70
     8
1001
ACAD
1000
R13OBJECT
1002
{
1005
72
1002
}
  0
VERTEX
  5
42E
  8
TEAM-NET
 10
15.549819
 20
-185.451471
 30
693.373709
 70
    32
  0
VERTEX
  5
42F
  8
TEAM-NET
 10
15.481278
 20
-185.383777
 30
692.397499
 70
    32
  0
VERTEX
  5
430
  8
TEAM-NET
 10
15.307788
 20
-185.212428
 30
691.56197
 70
    32
  0
VERTEX
  5
431
  8
TEAM-NET
 10
15.19306
 20
-185.099116
 30
691.192514
 70
    32
  0
VERTEX
  5
432
  8
TEAM-NET
 10
14.721859
 20
-184.633733
 30
690.168694
 70
    32
  0
VERTEX
  5
433
  8
TEAM-NET
 10
14.508839
 20
-184.423343
 30
689.84132
 70
    32
  0
VERTEX
  5
434
  8
TEAM-NET
 10
14.300677
 20
-184.217751
 30
689.57104
 70
    32
  0
VERTEX
  5
435
  8
TEAM-NET
 10
13.777221
 20
-183.700757
 30
689.050417
 70
    32
  0
VERTEX
  5
436
  8
TEAM-NET
 10
13.409711
 20
-183.337784
 30
688.789406
 70
    32
  0
VERTEX
  5
437
  8
TEAM-NET
 10
13.142183
 20
-183.073559
 30
688.643635
 70
    32
  0
VERTEX
  5
438
  8
TEAM-NET
 10
12.289658
 20
-182.231559
 30
688.391758
 70
    32
  0
VERTEX
  5
439
  8
TEAM-NET
 10
11.987088
 20
-181.932724
 30
688.373709
 70
    32
  0
SEQEND
  5
43A
  8
TEAM-NET
  0
ARC
  5
43B
  8
TEAM-NET
 10
1.328284
 20
-170.0
 30
688.373709
 40
16.0
 50
311.772548
 51
318.939192
1001
ACAD
1000
R13OBJECT
1002
{
1005
72
1002
}
  0
ARC
  5
43C
  8
TEAM-NET
 10
136.441256
 20
693.373709
 30
119.981949
 40
5.0
210
-0.702921
220
-0.711268
230
0.0
 50
270.0
 51
360.0
1001
ACAD
1000
R13OBJECT
1002
{
1005
72
1002
}
  0
ARC
  5
43D
  8
TEAM-NET
 10
1.328284
 20
-170.0
 30
689.838175
 40
19.535534
 50
312.421687
 51
318.290053
1001
ACAD
1000
R13OBJECT
1002
{
1005
72
1002
}
  0
POLYLINE
  5
73
  8
TEAM-NET
 66
     1
 10
0.0
 20
0.0
 30
0.0
 70
     8
  0
VERTEX
  5
43E
  8
TEAM-NET
 10
16.779755
 20
-155.778465
 30
693.373709
 70
    32
  0
VERTEX
  5
43F
  8
TEAM-NET
 10
16.712061
 20
-155.847006
 30
692.397499
 70
    32
  0
VERTEX
  5
440
  8
TEAM-NET
 10
16.540712
 20
-156.020497
 30
691.56197
 70
    32
  0
VERTEX
  5
441
  8
TEAM-NET
 10
16.4274
 20
-156.135224
 30
691.192514
 70
    32
  0
VERTEX
  5
442
  8
TEAM-NET
 10
15.962017
 20
-156.606425
 30
690.168694
 70
    32
  0
VERTEX
  5
443
  8
TEAM-NET
 10
15.751627
 20
-156.819445
 30
689.84132
 70
    32
  0
VERTEX
  5
444
  8
TEAM-NET
 10
15.546035
 20
-157.027607
 30
689.57104
 70
    32
  0
VERTEX
  5
445
  8
TEAM-NET
 10
15.029041
 20
-157.551063
 30
689.050417
 70
    32
  0
VERTEX
  5
446
  8
TEAM-NET
 10
14.666068
 20
-157.918573
 30
688.789406
 70
    32
  0
VERTEX
  5
447
  8
TEAM-NET
 10
14.401843
 20
-158.186101
 30
688.643635
 70
    32
  0
VERTEX
  5
448
  8
TEAM-NET
 10
13.559843
 20
-159.038626
 30
688.391758
 70
    32
  0
VERTEX
  5
449
  8
TEAM-NET
 10
13.261008
 20
-159.341196
 30
688.373709
 70
    32
  0
SEQEND
  5
44A
  8
TEAM-NET
  0
LINE
  5
44B
  8
TEAM-NET
 10
16.779755
 20
-155.778465
 30
728.373709
 11
16.779755
 21
-155.778465
 31
693.373709
1001
ACAD
1000
R13OBJECT
1002
{
1005
73
1002
}
  0
LINE
  5
44C
  8
TEAM-NET
 10
6.197006
 20
-166.493499
 30
728.373709
 11
16.779755
 21
-155.778465
 31
728.373709
1001
ACAD
1000
R13OBJECT
1002
{
1005
73
1002
}
  0
LINE
  5
44D
  8
TEAM-NET
 10
6.197006
 20
-166.493499
 30
688.373709
 11
6.197006
 21
-166.493499
 31
728.373709
1001
ACAD
1000
R13OBJECT
1002
{
1005
73
1002
}
  0
LINE
  5
44E
  8
TEAM-NET
 10
6.197006
 20
-166.493499
 30
688.373709
 11
13.261008
 21
-159.341196
 31
688.373709
1001
ACAD
1000
R13OBJECT
1002
{
1005
73
1002
}
  0
POLYLINE
  5
74
  8
TEAM-NET
 66
     1
 10
0.0
 20
0.0
 30
0.0
 70
     8
  0
VERTEX
  5
44F
  8
TEAM-NET
 10
11.838038
 20
-157.935794
 30
688.373709
 70
    32
  0
VERTEX
  5
450
  8
TEAM-NET
 10
12.682974
 20
-157.080296
 30
688.5199
 70
    32
  0
VERTEX
  5
451
  8
TEAM-NET
 10
13.067152
 20
-156.691316
 30
688.688485
 70
    32
  0
VERTEX
  5
452
  8
TEAM-NET
 10
13.374339
 20
-156.380289
 30
688.875197
 70
    32
  0
VERTEX
  5
453
  8
TEAM-NET
 10
14.094752
 20
-155.650871
 30
689.537052
 70
    32
  0
VERTEX
  5
454
  8
TEAM-NET
 10
14.323143
 20
-155.419626
 30
689.833486
 70
    32
  0
VERTEX
  5
455
  8
TEAM-NET
 10
14.515274
 20
-155.225092
 30
690.128664
 70
    32
  0
VERTEX
  5
456
  8
TEAM-NET
 10
14.880935
 20
-154.854861
 30
690.862476
 70
    32
  0
VERTEX
  5
457
  8
TEAM-NET
 10
15.059699
 20
-154.673863
 30
691.362601
 70
    32
  0
VERTEX
  5
458
  8
TEAM-NET
 10
15.162574
 20
-154.569702
 30
691.735297
 70
    32
  0
VERTEX
  5
459
  8
TEAM-NET
 10
15.342844
 20
-154.387178
 30
692.928991
 70
    32
  0
VERTEX
  5
45A
  8
TEAM-NET
 10
15.356785
 20
-154.373063
 30
693.373709
 70
    32
  0
SEQEND
  5
45B
  8
TEAM-NET
  0
ARC
  5
45C
  8
TEAM-NET
 10
-1.328284
 20
-170.0
 30
-693.373709
 40
21.0
210
0.0
220
0.0
230
-1.0
 50
131.914727
 51
137.373533
1001
ACAD
1000
R13OBJECT
1002
{
1005
74
1002
}
  0
POLYLINE
  5
45D
  8
TEAM-NET
 66
     1
 10
0.0
 20
0.0
 30
0.0
 70
     8
1001
ACAD
1000
R13OBJECT
1002
{
1005
74
1002
}
  0
VERTEX
  5
45E
  8
TEAM-NET
 10
16.779755
 20
-155.778465
 30
693.373709
 70
    32
  0
VERTEX
  5
45F
  8
TEAM-NET
 10
16.712061
 20
-155.847006
 30
692.397499
 70
    32
  0
VERTEX
  5
460
  8
TEAM-NET
 10
16.540712
 20
-156.020497
 30
691.56197
 70
    32
  0
VERTEX
  5
461
  8
TEAM-NET
 10
16.4274
 20
-156.135224
 30
691.192514
 70
    32
  0
VERTEX
  5
462
  8
TEAM-NET
 10
15.962017
 20
-156.606425
 30
690.168694
 70
    32
  0
VERTEX
  5
463
  8
TEAM-NET
 10
15.751627
 20
-156.819445
 30
689.84132
 70
    32
  0
VERTEX
  5
464
  8
TEAM-NET
 10
15.546035
 20
-157.027607
 30
689.57104
 70
    32
  0
VERTEX
  5
465
  8
TEAM-NET
 10
15.029041
 20
-157.551063
 30
689.050417
 70
    32
  0
VERTEX
  5
466
  8
TEAM-NET
 10
14.666068
 20
-157.918573
 30
688.789406
 70
    32
  0
VERTEX
  5
467
  8
TEAM-NET
 10
14.401843
 20
-158.186101
 30
688.643635
 70
    32
  0
VERTEX
  5
468
  8
TEAM-NET
 10
13.559843
 20
-159.038626
 30
688.391758
 70
    32
  0
VERTEX
  5
469
  8
TEAM-NET
 10
13.261008
 20
-159.341196
 30
688.373709
 70
    32
  0
SEQEND
  5
46A
  8
TEAM-NET
  0
ARC
  5
46B
  8
TEAM-NET
 10
1.328284
 20
-170.0
 30
688.373709
 40
16.0
 50
41.772548
 51
48.939192
1001
ACAD
1000
R13OBJECT
1002
{
1005
74
1002
}
  0
ARC
  5
46C
  8
TEAM-NET
 10
-103.981949
 20
693.373709
 30
120.441256
 40
5.0
210
0.711268
220
-0.702921
230
0.0
 50
270.0
 51
360.0
1001
ACAD
1000
R13OBJECT
1002
{
1005
74
1002
}
  0
ARC
  5
46D
  8
TEAM-NET
 10
1.328284
 20
-170.0
 30
689.838175
 40
19.535534
 50
42.421687
 51
48.290053
1001
ACAD
1000
R13OBJECT
1002
{
1005
74
1002
}
  0
POLYLINE
  5
75
  8
TEAM-NET
 66
     1
 10
0.0
 20
0.0
 30
0.0
 70
     8
  0
VERTEX
  5
46E
  8
TEAM-NET
 10
-12.893251
 20
-154.548529
 30
693.373709
 70
    32
  0
VERTEX
  5
46F
  8
TEAM-NET
 10
-12.82471
 20
-154.616223
 30
692.397499
 70
    32
  0
VERTEX
  5
470
  8
TEAM-NET
 10
-12.651219
 20
-154.787572
 30
691.56197
 70
    32
  0
VERTEX
  5
471
  8
TEAM-NET
 10
-12.536491
 20
-154.900884
 30
691.192514
 70
    32
  0
VERTEX
  5
472
  8
TEAM-NET
 10
-12.065291
 20
-155.366267
 30
690.168694
 70
    32
  0
VERTEX
  5
473
  8
TEAM-NET
 10
-11.852271
 20
-155.576657
 30
689.84132
 70
    32
  0
VERTEX
  5
474
  8
TEAM-NET
 10
-11.644109
 20
-155.782249
 30
689.57104
 70
    32
  0
VERTEX
  5
475
  8
TEAM-NET
 10
-11.120653
 20
-156.299243
 30
689.050417
 70
    32
  0
VERTEX
  5
476
  8
TEAM-NET
 10
-10.753142
 20
-156.662216
 30
688.789406
 70
    32
  0
VERTEX
  5
477
  8
TEAM-NET
 10
-10.485615
 20
-156.926441
 30
688.643635
 70
    32
  0
VERTEX
  5
478
  8
TEAM-NET
 10
-9.633089
 20
-157.768441
 30
688.391758
 70
    32
  0
VERTEX
  5
479
  8
TEAM-NET
 10
-9.330519
 20
-158.067276
 30
688.373709
 70
    32
  0
SEQEND
  5
47A
  8
TEAM-NET
  0
LINE
  5
47B
  8
TEAM-NET
 10
-12.893251
 20
-154.548529
 30
728.373709
 11
-12.893251
 21
-154.548529
 31
693.373709
1001
ACAD
1000
R13OBJECT
1002
{
1005
75
1002
}
  0
LINE
  5
47C
  8
TEAM-NET
 10
-2.178217
 20
-165.131278
 30
728.373709
 11
-12.893251
 21
-154.548529
 31
728.373709
1001
ACAD
1000
R13OBJECT
1002
{
1005
75
1002
}
  0
LINE
  5
47D
  8
TEAM-NET
 10
-2.178217
 20
-165.131278
 30
688.373709
 11
-2.178217
 21
-165.131278
 31
728.373709
1001
ACAD
1000
R13OBJECT
1002
{
1005
75
1002
}
  0
LINE
  5
47E
  8
TEAM-NET
 10
-2.178217
 20
-165.131278
 30
688.373709
 11
-9.330519
 21
-158.067276
 31
688.373709
1001
ACAD
1000
R13OBJECT
1002
{
1005
75
1002
}
  0
POLYLINE
  5
76
  8
TEAM-NET
 66
     1
 10
0.0
 20
0.0
 30
0.0
 70
     8
  0
VERTEX
  5
47F
  8
TEAM-NET
 10
-10.735922
 20
-159.490246
 30
688.373709
 70
    32
  0
VERTEX
  5
480
  8
TEAM-NET
 10
-11.59142
 20
-158.64531
 30
688.5199
 70
    32
  0
VERTEX
  5
481
  8
TEAM-NET
 10
-11.9804
 20
-158.261132
 30
688.688485
 70
    32
  0
VERTEX
  5
482
  8
TEAM-NET
 10
-12.291427
 20
-157.953945
 30
688.875197
 70
    32
  0
VERTEX
  5
483
  8
TEAM-NET
 10
-13.020844
 20
-157.233532
 30
689.537052
 70
    32
  0
VERTEX
  5
484
  8
TEAM-NET
 10
-13.25209
 20
-157.005142
 30
689.833486
 70
    32
  0
VERTEX
  5
485
  8
TEAM-NET
 10
-13.446623
 20
-156.81301
 30
690.128664
 70
    32
  0
VERTEX
  5
486
  8
TEAM-NET
 10
-13.816855
 20
-156.447349
 30
690.862476
 70
    32
  0
VERTEX
  5
487
  8
TEAM-NET
 10
-13.997853
 20
-156.268586
 30
691.362601
 70
    32
  0
VERTEX
  5
488
  8
TEAM-NET
 10
-14.102014
 20
-156.16571
 30
691.735297
 70
    32
  0
VERTEX
  5
489
  8
TEAM-NET
 10
-14.284538
 20
-155.98544
 30
692.928991
 70
    32
  0
VERTEX
  5
48A
  8
TEAM-NET
 10
-14.298653
 20
-155.971499
 30
693.373709
 70
    32
  0
SEQEND
  5
48B
  8
TEAM-NET
  0
ARC
  5
48C
  8
TEAM-NET
 10
-1.328284
 20
-170.0
 30
-693.373709
 40
21.0
210
0.0
220
0.0
230
-1.0
 50
41.914727
 51
47.373533
1001
ACAD
1000
R13OBJECT
1002
{
1005
76
1002
}
  0
POLYLINE
  5
48D
  8
TEAM-NET
 66
     1
 10
0.0
 20
0.0
 30
0.0
 70
     8
1001
ACAD
1000
R13OBJECT
1002
{
1005
76
1002
}
  0
VERTEX
  5
48E
  8
TEAM-NET
 10
-12.893251
 20
-154.548529
 30
693.373709
 70
    32
  0
VERTEX
  5
48F
  8
TEAM-NET
 10
-12.82471
 20
-154.616223
 30
692.397499
 70
    32
  0
VERTEX
  5
490
  8
TEAM-NET
 10
-12.651219
 20
-154.787572
 30
691.56197
 70
    32
  0
VERTEX
  5
491
  8
TEAM-NET
 10
-12.536491
 20
-154.900884
 30
691.192514
 70
    32
  0
VERTEX
  5
492
  8
TEAM-NET
 10
-12.065291
 20
-155.366267
 30
690.168694
 70
    32
  0
VERTEX
  5
493
  8
TEAM-NET
 10
-11.852271
 20
-155.576657
 30
689.84132
 70
    32
  0
VERTEX
  5
494
  8
TEAM-NET
 10
-11.644109
 20
-155.782249
 30
689.57104
 70
    32
  0
VERTEX
  5
495
  8
TEAM-NET
 10
-11.120653
 20
-156.299243
 30
689.050417
 70
    32
  0
VERTEX
  5
496
  8
TEAM-NET
 10
-10.753142
 20
-156.662216
 30
688.789406
 70
    32
  0
VERTEX
  5
497
  8
TEAM-NET
 10
-10.485615
 20
-156.926441
 30
688.643635
 70
    32
  0
VERTEX
  5
498
  8
TEAM-NET
 10
-9.633089
 20
-157.768441
 30
688.391758
 70
    32
  0
VERTEX
  5
499
  8
TEAM-NET
 10
-9.330519
 20
-158.067276
 30
688.373709
 70
    32
  0
SEQEND
  5
49A
  8
TEAM-NET
  0
ARC
  5
49B
  8
TEAM-NET
 10
1.328284
 20
-170.0
 30
688.373709
 40
16.0
 50
131.772548
 51
138.939192
1001
ACAD
1000
R13OBJECT
1002
{
1005
76
1002
}
  0
ARC
  5
49C
  8
TEAM-NET
 10
-104.441256
 20
693.373709
 30
-119.981949
 40
5.0
210
0.702921
220
0.711268
230
0.0
 50
270.0
 51
360.0
1001
ACAD
1000
R13OBJECT
1002
{
1005
76
1002
}
  0
ARC
  5
49D
  8
TEAM-NET
 10
1.328284
 20
-170.0
 30
689.838175
 40
19.535534
 50
132.421687
 51
138.290053
1001
ACAD
1000
R13OBJECT
1002
{
1005
76
1002
}
  0
LINE
  5
77
  8
TEAM-NET
 10
-3.148054
 20
-190.517368
 30
716.373709
 11
-3.148054
 21
-190.517368
 31
686.531328
  0
ARC
  5
49E
  8
TEAM-NET
 10
1.328284
 20
-170.0
 30
686.531328
 40
21.0
 50
77.692461
 51
257.692461
1001
ACAD
1000
R13OBJECT
1002
{
1005
77
1002
}
  0
LINE
  5
49F
  8
TEAM-NET
 10
5.804622
 20
-149.482632
 30
716.373709
 11
5.804622
 21
-149.482632
 31
686.531328
1001
ACAD
1000
R13OBJECT
1002
{
1005
77
1002
}
  0
ARC
  5
4A0
  8
TEAM-NET
 10
1.328284
 20
-170.0
 30
716.373709
 40
21.0
 50
77.692461
 51
257.692461
1001
ACAD
1000
R13OBJECT
1002
{
1005
77
1002
}
  0
LINE
  5
78
  8
TEAM-NET
 10
-3.361213
 20
-191.494386
 30
716.531328
 11
-3.361213
 21
-191.494386
 31
686.531328
  0
ARC
  5
4A1
  8
TEAM-NET
 10
1.328284
 20
-170.0
 30
686.531328
 40
22.0
 50
257.692461
 51
77.692461
1001
ACAD
1000
R13OBJECT
1002
{
1005
78
1002
}
  0
LINE
  5
4A2
  8
TEAM-NET
 10
6.017781
 20
-148.505614
 30
716.531328
 11
6.017781
 21
-148.505614
 31
686.531328
1001
ACAD
1000
R13OBJECT
1002
{
1005
78
1002
}
  0
ARC
  5
4A3
  8
TEAM-NET
 10
1.328284
 20
-170.0
 30
716.531328
 40
22.0
 50
257.692461
 51
77.692461
1001
ACAD
1000
R13OBJECT
1002
{
1005
78
1002
}
  0
LINE
  5
4A4
  8
TEAM-NET
 10
22.82267
 20
-174.689497
 30
686.531328
 11
22.82267
 21
-174.689497
 31
716.531328
1001
ACAD
1000
R13OBJECT
1002
{
1005
78
1002
}
  0
LINE
  5
79
  8
TEAM-NET
 10
-3.361213
 20
-191.494386
 30
716.531328
 11
-3.361213
 21
-191.494386
 31
686.531328
  0
ARC
  5
4A5
  8
TEAM-NET
 10
1.328284
 20
-170.0
 30
716.531328
 40
22.0
 50
77.692461
 51
257.692461
1001
ACAD
1000
R13OBJECT
1002
{
1005
79
1002
}
  0
LINE
  5
4A6
  8
TEAM-NET
 10
6.017781
 20
-148.505614
 30
716.531328
 11
6.017781
 21
-148.505614
 31
686.531328
1001
ACAD
1000
R13OBJECT
1002
{
1005
79
1002
}
  0
ARC
  5
4A7
  8
TEAM-NET
 10
1.328284
 20
-170.0
 30
686.531328
 40
22.0
 50
77.692461
 51
257.692461
1001
ACAD
1000
R13OBJECT
1002
{
1005
79
1002
}
  0
LINE
  5
4A8
  8
TEAM-NET
 10
-20.166102
 20
-165.310503
 30
686.531328
 11
-20.166102
 21
-165.310503
 31
716.531328
1001
ACAD
1000
R13OBJECT
1002
{
1005
79
1002
}
  0
LINE
  5
7A
  8
TEAM-NET
 10
-3.148054
 20
-190.517368
 30
716.373709
 11
-3.148054
 21
-190.517368
 31
686.531328
  0
ARC
  5
4A9
  8
TEAM-NET
 10
1.328284
 20
-170.0
 30
716.373709
 40
21.0
 50
257.692461
 51
77.692461
1001
ACAD
1000
R13OBJECT
1002
{
1005
7A
1002
}
  0
LINE
  5
4AA
  8
TEAM-NET
 10
5.804622
 20
-149.482632
 30
716.373709
 11
5.804622
 21
-149.482632
 31
686.531328
1001
ACAD
1000
R13OBJECT
1002
{
1005
7A
1002
}
  0
ARC
  5
4AB
  8
TEAM-NET
 10
1.328284
 20
-170.0
 30
686.531328
 40
21.0
 50
257.692461
 51
77.692461
1001
ACAD
1000
R13OBJECT
1002
{
1005
7A
1002
}
  0
ARC
  5
7B
  8
TEAM-NET
 10
-147.673527
 20
720.0
 30
0.0
 40
30.0
210
0.0
220
1.0
230
0.0
 50
229.021946
 51
270.0
  0
ARC
  5
7C
  8
TEAM-NET
 10
147.673527
 20
720.0
 30
0.0
 40
30.0
210
0.0
220
1.0
230
0.0
 50
270.0
 51
308.047318
  0
ARC
  5
7D
  8
TEAM-NET
 10
1.328284
 20
-170.0
 30
683.0
 40
37.5
 50
0.0
 51
75.081306
  0
ARC
  5
7E
  8
TEAM-NET
 10
1.328284
 20
-170.0
 30
683.0
 40
37.5
 50
180.0
 51
0.0
  0
ARC
  5
7F
  8
TEAM-NET
 10
1.328284
 20
-170.0
 30
683.0
 40
37.5
 50
104.918694
 51
180.0
  0
POLYLINE
  5
80
  8
TEAM-NET
 66
     1
 10
0.0
 20
0.0
 30
0.0
 70
     8
  0
VERTEX
  5
4AC
  8
TEAM-NET
 10
10.982587
 20
-133.764045
 30
683.0
 70
    32
  0
VERTEX
  5
4AD
  8
TEAM-NET
 10
6.196592
 20
-132.81746
 30
683.044876
 70
    32
  0
VERTEX
  5
4AE
  8
TEAM-NET
 10
1.328511
 20
-132.499911
 30
683.080741
 70
    32
  0
VERTEX
  5
4AF
  8
TEAM-NET
 10
-3.540076
 20
-132.817312
 30
683.045228
 70
    32
  0
VERTEX
  5
4B0
  8
TEAM-NET
 10
-8.326019
 20
-133.764045
 30
683.0
 70
    32
  0
SEQEND
  5
4B1
  8
TEAM-NET
  0
ARC
  5
81
  8
TEAM-NET
 10
-1.328284
 20
-170.0
 30
-670.0
 40
26.0
210
0.0
220
0.0
230
-1.0
 50
360.0
 51
180.0
  0
ARC
  5
82
  8
TEAM-NET
 10
-1.328284
 20
-170.0
 30
-670.0
 40
26.0
210
0.0
220
0.0
230
-1.0
 50
180.0
 51
0.0
  0
ARC
  5
83
  8
TEAM-NET
 10
-1.328284
 20
-170.0
 30
-670.0
 40
37.5
210
0.0
220
0.0
230
-1.0
 50
360.0
 51
180.0
  0
ARC
  5
84
  8
TEAM-NET
 10
-1.328284
 20
-170.0
 30
-670.0
 40
37.5
210
0.0
220
0.0
230
-1.0
 50
180.0
 51
0.0
  0
ARC
  5
85
  8
TEAM-NET
 10
1.328284
 20
-170.0
 30
683.0
 40
37.5
 50
104.918694
 51
180.0
  0
POLYLINE
  5
86
  8
TEAM-NET
 66
     1
 10
0.0
 20
0.0
 30
0.0
 70
     8
  0
VERTEX
  5
4B2
  8
TEAM-NET
 10
10.982587
 20
-133.764045
 30
683.0
 70
    32
  0
VERTEX
  5
4B3
  8
TEAM-NET
 10
6.196592
 20
-132.81746
 30
683.044876
 70
    32
  0
VERTEX
  5
4B4
  8
TEAM-NET
 10
1.328511
 20
-132.499911
 30
683.080741
 70
    32
  0
VERTEX
  5
4B5
  8
TEAM-NET
 10
-3.540076
 20
-132.817312
 30
683.045228
 70
    32
  0
VERTEX
  5
4B6
  8
TEAM-NET
 10
-8.326019
 20
-133.764045
 30
683.0
 70
    32
  0
SEQEND
  5
4B7
  8
TEAM-NET
  0
LINE
  5
87
  8
TEAM-NET
 10
-36.171716
 20
-170.0
 30
670.0
 11
-36.171716
 21
-170.0
 31
683.0
  0
ARC
  5
88
  8
TEAM-NET
 10
1.328284
 20
-170.0
 30
683.0
 40
37.5
 50
0.0
 51
75.081306
  0
ARC
  5
89
  8
TEAM-NET
 10
1.328284
 20
-170.0
 30
670.0
 40
37.5
 50
0.0
 51
180.0
  0
LINE
  5
8A
  8
TEAM-NET
 10
38.828284
 20
-170.0
 30
670.0
 11
38.828284
 21
-170.0
 31
683.0
  0
ARC
  5
8B
  8
TEAM-NET
 10
1.328284
 20
-170.0
 30
670.0
 40
26.0
 50
180.0
 51
0.0
  0
ARC
  5
8C
  8
TEAM-NET
 10
1.328284
 20
-170.0
 30
670.0
 40
26.0
 50
0.0
 51
180.0
  0
LINE
  5
8D
  8
TEAM-NET
 10
-36.171716
 20
-170.0
 30
670.0
 11
-36.171716
 21
-170.0
 31
683.0
  0
ARC
  5
8E
  8
TEAM-NET
 10
1.328284
 20
-170.0
 30
670.0
 40
37.5
 50
180.0
 51
0.0
  0
ARC
  5
8F
  8
TEAM-NET
 10
1.328284
 20
-170.0
 30
683.0
 40
37.5
 50
180.0
 51
0.0
  0
LINE
  5
90
  8
TEAM-NET
 10
38.828284
 20
-170.0
 30
670.0
 11
38.828284
 21
-170.0
 31
683.0
  0
ARC
  5
91
  8
TEAM-NET
 10
1.328284
 20
-170.0
 30
688.373709
 40
16.0
 50
131.772548
 51
138.939192
  0
LINE
  5
4B8
  8
TEAM-NET
 10
-2.178217
 20
-165.131278
 30
688.373709
 11
-9.330519
 21
-158.067276
 31
688.373709
1001
ACAD
1000
R13OBJECT
1002
{
1005
91
1002
}
  0
ARC
  5
4B9
  8
TEAM-NET
 10
1.328284
 20
-170.0
 30
688.373709
 40
6.0
 50
54.949938
 51
125.761802
1001
ACAD
1000
R13OBJECT
1002
{
1005
91
1002
}
  0
LINE
  5
4BA
  8
TEAM-NET
 10
11.838038
 20
-157.935794
 30
688.373709
 11
4.774036
 21
-165.088097
 31
688.373709
1001
ACAD
1000
R13OBJECT
1002
{
1005
91
1002
}
  0
ARC
  5
4BB
  8
TEAM-NET
 10
1.328284
 20
-170.0
 30
688.373709
 40
16.0
 50
41.772548
 51
48.939192
1001
ACAD
1000
R13OBJECT
1002
{
1005
91
1002
}
  0
LINE
  5
4BC
  8
TEAM-NET
 10
6.197006
 20
-166.493499
 30
688.373709
 11
13.261008
 21
-159.341196
 31
688.373709
1001
ACAD
1000
R13OBJECT
1002
{
1005
91
1002
}
  0
ARC
  5
4BD
  8
TEAM-NET
 10
1.328284
 20
-170.0
 30
688.373709
 40
6.0
 50
324.949938
 51
35.761802
1001
ACAD
1000
R13OBJECT
1002
{
1005
91
1002
}
  0
LINE
  5
4BE
  8
TEAM-NET
 10
13.39249
 20
-180.509754
 30
688.373709
 11
6.240188
 21
-173.445752
 31
688.373709
1001
ACAD
1000
R13OBJECT
1002
{
1005
91
1002
}
  0
ARC
  5
4BF
  8
TEAM-NET
 10
1.328284
 20
-170.0
 30
688.373709
 40
16.0
 50
311.772548
 51
318.939192
1001
ACAD
1000
R13OBJECT
1002
{
1005
91
1002
}
  0
LINE
  5
4C0
  8
TEAM-NET
 10
4.834785
 20
-174.868722
 30
688.373709
 11
11.987088
 21
-181.932724
 31
688.373709
1001
ACAD
1000
R13OBJECT
1002
{
1005
91
1002
}
  0
ARC
  5
4C1
  8
TEAM-NET
 10
1.328284
 20
-170.0
 30
688.373709
 40
6.0
 50
234.949938
 51
305.761802
1001
ACAD
1000
R13OBJECT
1002
{
1005
91
1002
}
  0
LINE
  5
4C2
  8
TEAM-NET
 10
-9.18147
 20
-182.064206
 30
688.373709
 11
-2.117468
 21
-174.911903
 31
688.373709
1001
ACAD
1000
R13OBJECT
1002
{
1005
91
1002
}
  0
ARC
  5
4C3
  8
TEAM-NET
 10
1.328284
 20
-170.0
 30
688.373709
 40
16.0
 50
221.772548
 51
228.939192
1001
ACAD
1000
R13OBJECT
1002
{
1005
91
1002
}
  0
LINE
  5
4C4
  8
TEAM-NET
 10
-3.540438
 20
-173.506501
 30
688.373709
 11
-10.60444
 21
-180.658804
 31
688.373709
1001
ACAD
1000
R13OBJECT
1002
{
1005
91
1002
}
  0
ARC
  5
4C5
  8
TEAM-NET
 10
1.328284
 20
-170.0
 30
688.373709
 40
6.0
 50
144.949938
 51
215.761802
1001
ACAD
1000
R13OBJECT
1002
{
1005
91
1002
}
  0
LINE
  5
4C6
  8
TEAM-NET
 10
-10.735922
 20
-159.490246
 30
688.373709
 11
-3.583619
 21
-166.554248
 31
688.373709
1001
ACAD
1000
R13OBJECT
1002
{
1005
91
1002
}
  0
ARC
  5
92
  8
TEAM-NET
 10
1.328284
 20
-170.0
 30
686.531328
 40
21.0
 50
257.692461
 51
77.692461
  0
ARC
  5
4C7
  8
TEAM-NET
 10
1.328284
 20
-170.0
 30
686.531328
 40
21.0
 50
77.692461
 51
257.692461
1001
ACAD
1000
R13OBJECT
1002
{
1005
92
1002
}
  0
ARC
  5
4C8
  8
TEAM-NET
 10
1.328284
 20
-170.0
 30
686.531328
 40
22.0
 50
257.692461
 51
77.692461
1001
ACAD
1000
R13OBJECT
1002
{
1005
92
1002
}
  0
ARC
  5
4C9
  8
TEAM-NET
 10
1.328284
 20
-170.0
 30
686.531328
 40
22.0
 50
77.692461
 51
257.692461
1001
ACAD
1000
R13OBJECT
1002
{
1005
92
1002
}
  0
ARC
  5
93
  8
TEAM-NET
 10
-1.328284
 20
-170.0
 30
-693.373709
 40
21.0
210
0.0
220
0.0
230
-1.0
 50
311.914727
 51
317.373533
  0
LINE
  5
4CA
  8
TEAM-NET
 10
-12.700217
 20
-185.626937
 30
728.373709
 11
-12.700217
 21
-185.626937
 31
693.373709
1001
ACAD
1000
R13OBJECT
1002
{
1005
93
1002
}
  0
ARC
  5
4CB
  8
TEAM-NET
 10
1.328284
 20
-170.0
 30
728.373709
 40
21.0
 50
222.626467
 51
228.085273
1001
ACAD
1000
R13OBJECT
1002
{
1005
93
1002
}
  0
LINE
  5
4CC
  8
TEAM-NET
 10
-14.123187
 20
-184.221535
 30
728.373709
 11
-14.123187
 21
-184.221535
 31
693.373709
1001
ACAD
1000
R13OBJECT
1002
{
1005
93
1002
}
  0
ARC
  5
94
  8
TEAM-NET
 10
-1.328284
 20
-170.0
 30
-693.373709
 40
21.0
210
0.0
220
0.0
230
-1.0
 50
221.914727
 51
227.373533
  0
LINE
  5
4CD
  8
TEAM-NET
 10
16.955221
 20
-184.028501
 30
728.373709
 11
16.955221
 21
-184.028501
 31
693.373709
1001
ACAD
1000
R13OBJECT
1002
{
1005
94
1002
}
  0
ARC
  5
4CE
  8
TEAM-NET
 10
1.328284
 20
-170.0
 30
728.373709
 40
21.0
 50
312.626467
 51
318.085273
1001
ACAD
1000
R13OBJECT
1002
{
1005
94
1002
}
  0
LINE
  5
4CF
  8
TEAM-NET
 10
15.549819
 20
-185.451471
 30
728.373709
 11
15.549819
 21
-185.451471
 31
693.373709
1001
ACAD
1000
R13OBJECT
1002
{
1005
94
1002
}
  0
ARC
  5
95
  8
TEAM-NET
 10
-1.328284
 20
-170.0
 30
-693.373709
 40
21.0
210
0.0
220
0.0
230
-1.0
 50
131.914727
 51
137.373533
  0
LINE
  5
4D0
  8
TEAM-NET
 10
15.356785
 20
-154.373063
 30
728.373709
 11
15.356785
 21
-154.373063
 31
693.373709
1001
ACAD
1000
R13OBJECT
1002
{
1005
95
1002
}
  0
ARC
  5
4D1
  8
TEAM-NET
 10
1.328284
 20
-170.0
 30
728.373709
 40
21.0
 50
42.626467
 51
48.085273
1001
ACAD
1000
R13OBJECT
1002
{
1005
95
1002
}
  0
LINE
  5
4D2
  8
TEAM-NET
 10
16.779755
 20
-155.778465
 30
728.373709
 11
16.779755
 21
-155.778465
 31
693.373709
1001
ACAD
1000
R13OBJECT
1002
{
1005
95
1002
}
  0
ARC
  5
96
  8
TEAM-NET
 10
-1.328284
 20
-170.0
 30
-693.373709
 40
21.0
210
0.0
220
0.0
230
-1.0
 50
41.914727
 51
47.373533
  0
LINE
  5
4D3
  8
TEAM-NET
 10
-14.298653
 20
-155.971499
 30
728.373709
 11
-14.298653
 21
-155.971499
 31
693.373709
1001
ACAD
1000
R13OBJECT
1002
{
1005
96
1002
}
  0
ARC
  5
4D4
  8
TEAM-NET
 10
1.328284
 20
-170.0
 30
728.373709
 40
21.0
 50
132.626467
 51
138.085273
1001
ACAD
1000
R13OBJECT
1002
{
1005
96
1002
}
  0
LINE
  5
4D5
  8
TEAM-NET
 10
-12.893251
 20
-154.548529
 30
728.373709
 11
-12.893251
 21
-154.548529
 31
693.373709
1001
ACAD
1000
R13OBJECT
1002
{
1005
96
1002
}
  0
POLYLINE
  5
97
  8
TEAM-NET
 66
     1
 10
0.0
 20
0.0
 30
0.0
 70
     8
  0
VERTEX
  5
4D6
  8
TEAM-NET
 10
-166.162889
 20
-244.238352
 30
696.374939
 70
    32
  0
VERTEX
  5
4D7
  8
TEAM-NET
 10
-162.009389
 20
-244.776534
 30
693.646954
 70
    32
  0
VERTEX
  5
4D8
  8
TEAM-NET
 10
-157.45905
 20
-245.279677
 30
691.640812
 70
    32
  0
VERTEX
  5
4D9
  8
TEAM-NET
 10
-152.636869
 20
-245.738262
 30
690.413429
 70
    32
  0
VERTEX
  5
4DA
  8
TEAM-NET
 10
-147.673527
 20
-246.144635
 30
690.0
 70
    32
  0
SEQEND
  5
4DB
  8
TEAM-NET
  0
LINE
  5
98
  8
TEAM-NET
 10
-166.162889
 20
-244.238352
 30
696.374939
 11
-166.162889
 21
0.0
 31
696.374939
  0
LINE
  5
99
  8
TEAM-NET
 10
-147.673527
 20
0.0
 30
690.0
 11
-147.673527
 21
-246.144635
 31
690.0
  0
POLYLINE
  5
9A
  8
TEAM-NET
 66
     1
 10
0.0
 20
0.0
 30
0.0
 70
     8
  0
VERTEX
  5
4DC
  8
TEAM-NET
 10
167.346624
 20
-244.238352
 30
697.351175
 70
    32
  0
VERTEX
  5
4DD
  8
TEAM-NET
 10
163.009656
 20
-244.783535
 30
694.216226
 70
    32
  0
VERTEX
  5
4DE
  8
TEAM-NET
 10
158.181176
 20
-245.290448
 30
691.900368
 70
    32
  0
VERTEX
  5
4DF
  8
TEAM-NET
 10
153.014911
 20
-245.747794
 30
690.479339
 70
    32
  0
VERTEX
  5
4E0
  8
TEAM-NET
 10
147.673527
 20
-246.146548
 30
690.0
 70
    32
  0
SEQEND
  5
4E1
  8
TEAM-NET
  0
LINE
  5
9B
  8
TEAM-NET
 10
147.673527
 20
-246.146548
 30
690.0
 11
147.673527
 21
-127.0
 31
690.0
  0
LINE
  5
9C
  8
TEAM-NET
 10
167.346624
 20
0.0
 30
697.351175
 11
167.346624
 21
-244.238352
 31
697.351175
  0
LINE
  5
9D
  8
TEAM-NET
 10
147.673527
 20
-127.0
 30
690.0
 11
149.196165
 21
-126.265276
 31
690.038665
  0
LINE
  5
9E
  8
TEAM-NET
 10
149.196165
 20
-126.265276
 30
690.038665
 11
149.196165
 21
-28.734724
 31
690.038665
  0
LINE
  5
9F
  8
TEAM-NET
 10
147.673527
 20
-28.0
 30
690.0
 11
147.673527
 21
0.0
 31
690.0
  0
LINE
  5
A0
  8
TEAM-NET
 10
149.196165
 20
-28.734724
 30
690.038665
 11
147.673527
 21
-28.0
 31
690.0
  0
LINE
  5
A1
  8
TEAM-NET
 10
142.930889
 20
-120.0
 30
697.0
 11
142.930889
 21
-35.0
 31
697.0
  0
POLYLINE
  5
A2
  8
TEAM-NET
 66
     1
 10
0.0
 20
0.0
 30
125.816138
 70
   128
210
0.707107
220
-0.707107
230
-0.0
  0
VERTEX
  5
C8B
  8
TEAM-NET
 10
76.318664
 20
697.0
 30
125.816138
  0
VERTEX
  5
C8C
  8
TEAM-NET
 10
76.484334
 20
695.724725
 30
125.816138
  0
VERTEX
  5
C8D
  8
TEAM-NET
 10
76.975799
 20
694.492134
 30
125.816138
  0
VERTEX
  5
C8E
  8
TEAM-NET
 10
77.776609
 20
693.343483
 30
125.816138
  0
VERTEX
  5
C8F
  8
TEAM-NET
 10
78.859961
 20
692.317216
 30
125.816138
  0
VERTEX
  5
C90
  8
TEAM-NET
 10
80.189595
 20
691.447684
 30
125.816138
  0
VERTEX
  5
C91
  8
TEAM-NET
 10
81.721008
 20
690.76399
 30
125.816138
  0
VERTEX
  5
C92
  8
TEAM-NET
 10
83.402941
 20
690.289018
 30
125.816138
  0
VERTEX
  5
C93
  8
TEAM-NET
 10
85.179102
 20
690.038665
 30
125.816138
  0
SEQEND
  5
C94
  8
TEAM-NET
  0
POLYLINE
  5
A3
  8
TEAM-NET
 66
     1
 10
0.0
 20
0.0
 30
16.214587
 70
   128
210
0.707107
220
0.707107
230
-0.0
  0
VERTEX
  5
C95
  8
TEAM-NET
 10
-194.780653
 20
690.038665
 30
16.214587
  0
VERTEX
  5
C96
  8
TEAM-NET
 10
-193.004492
 20
690.289018
 30
16.214587
  0
VERTEX
  5
C97
  8
TEAM-NET
 10
-191.322559
 20
690.76399
 30
16.214587
  0
VERTEX
  5
C98
  8
TEAM-NET
 10
-189.791146
 20
691.447684
 30
16.214587
  0
VERTEX
  5
C99
  8
TEAM-NET
 10
-188.461512
 20
692.317216
 30
16.214587
  0
VERTEX
  5
C9A
  8
TEAM-NET
 10
-187.37816
 20
693.343483
 30
16.214587
  0
VERTEX
  5
C9B
  8
TEAM-NET
 10
-186.57735
 20
694.492134
 30
16.214587
  0
VERTEX
  5
C9C
  8
TEAM-NET
 10
-186.085885
 20
695.724725
 30
16.214587
  0
VERTEX
  5
C9D
  8
TEAM-NET
 10
-185.920215
 20
697.0
 30
16.214587
  0
SEQEND
  5
C9E
  8
TEAM-NET
  0
LINE
  5
A4
  8
TEAM-NET
 10
149.196165
 20
-126.265276
 30
690.038665
 11
149.196165
 21
-28.734724
 31
690.038665
  0
POLYLINE
  5
A5
  8
TEAM-NET
 66
     1
 10
0.0
 20
0.0
 30
-14.33611
 70
   128
210
0.707107
220
-0.707107
230
-0.0
  0
VERTEX
  5
C9F
  8
TEAM-NET
 10
-193.941232
 20
690.0
 30
-14.33611
  0
VERTEX
  5
CA0
  8
TEAM-NET
 10
-192.009937
 20
690.134503
 30
-14.33611
  0
VERTEX
  5
CA1
  8
TEAM-NET
 10
-190.15286
 20
690.532843
 30
-14.33611
  0
VERTEX
  5
CA2
  8
TEAM-NET
 10
-188.441368
 20
691.179713
 30
-14.33611
  0
VERTEX
  5
CA3
  8
TEAM-NET
 10
-186.941232
 20
692.050253
 30
-14.33611
  0
VERTEX
  5
CA4
  8
TEAM-NET
 10
-185.710103
 20
693.111008
 30
-14.33611
  0
VERTEX
  5
CA5
  8
TEAM-NET
 10
-184.795292
 20
694.321216
 30
-14.33611
  0
VERTEX
  5
CA6
  8
TEAM-NET
 10
-184.231953
 20
695.634368
 30
-14.33611
  0
VERTEX
  5
CA7
  8
TEAM-NET
 10
-184.041737
 20
697.0
 30
-14.33611
  0
SEQEND
  5
CA8
  8
TEAM-NET
  0
LINE
  5
A6
  8
TEAM-NET
 10
-10.128155
 20
-127.0
 30
690.0
 11
-147.274321
 21
-127.0
 31
690.0
  0
LINE
  5
A7
  8
TEAM-NET
 10
-140.274321
 20
-120.0
 30
697.0
 11
142.930889
 21
-120.0
 31
697.0
  0
POLYLINE
  5
A8
  8
TEAM-NET
 66
     1
 10
0.0
 20
0.0
 30
0.0
 70
     8
  0
VERTEX
  5
500
  8
TEAM-NET
 10
-10.128155
 20
-127.0
 30
690.0
 70
    32
  0
VERTEX
  5
501
  8
TEAM-NET
 10
-4.448837
 20
-126.438272
 30
690.022614
 70
    32
  0
VERTEX
  5
502
  8
TEAM-NET
 10
1.328554
 20
-126.249947
 30
690.04037
 70
    32
  0
VERTEX
  5
503
  8
TEAM-NET
 10
12.784723
 20
-127.0
 30
690.0
 70
    32
  0
SEQEND
  5
504
  8
TEAM-NET
  0
POLYLINE
  5
A9
  8
TEAM-NET
 66
     1
 10
0.0
 20
0.0
 30
16.214587
 70
   128
210
0.707107
220
0.707107
230
-0.0
  0
VERTEX
  5
CA9
  8
TEAM-NET
 10
-194.780653
 20
690.038665
 30
16.214587
  0
VERTEX
  5
CAA
  8
TEAM-NET
 10
-193.004492
 20
690.289018
 30
16.214587
  0
VERTEX
  5
CAB
  8
TEAM-NET
 10
-191.322559
 20
690.76399
 30
16.214587
  0
VERTEX
  5
CAC
  8
TEAM-NET
 10
-189.791146
 20
691.447684
 30
16.214587
  0
VERTEX
  5
CAD
  8
TEAM-NET
 10
-188.461512
 20
692.317216
 30
16.214587
  0
VERTEX
  5
CAE
  8
TEAM-NET
 10
-187.37816
 20
693.343483
 30
16.214587
  0
VERTEX
  5
CAF
  8
TEAM-NET
 10
-186.57735
 20
694.492134
 30
16.214587
  0
VERTEX
  5
CB0
  8
TEAM-NET
 10
-186.085885
 20
695.724725
 30
16.214587
  0
VERTEX
  5
CB1
  8
TEAM-NET
 10
-185.920215
 20
697.0
 30
16.214587
  0
SEQEND
  5
CB2
  8
TEAM-NET
  0
LINE
  5
AA
  8
TEAM-NET
 10
147.673527
 20
-127.0
 30
690.0
 11
12.784723
 21
-127.0
 31
690.0
  0
LINE
  5
AB
  8
TEAM-NET
 10
147.673527
 20
-127.0
 30
690.0
 11
149.196165
 21
-126.265276
 31
690.038665
  0
ARC
  5
AC
  8
TEAM-NET
 10
-1.328284
 20
-170.0
 30
-690.0
 40
44.5
210
0.0
220
0.0
230
-1.0
 50
104.918694
 51
75.081306
  0
LINE
  5
AD
  8
TEAM-NET
 10
147.673527
 20
-127.0
 30
690.0
 11
12.784723
 21
-127.0
 31
690.0
210
0.0
220
0.0
230
-1.0
  0
LINE
  5
AE
  8
TEAM-NET
 10
-10.128155
 20
-127.0
 30
690.0
 11
-147.274321
 21
-127.0
 31
690.0
210
0.0
220
0.0
230
-1.0
  0
LINE
  5
AF
  8
TEAM-NET
 10
147.673527
 20
-246.146548
 30
690.0
 11
147.673527
 21
-127.0
 31
690.0
210
0.0
220
0.0
230
-1.0
  0
LINE
  5
B0
  8
TEAM-NET
 10
-147.274321
 20
-127.0
 30
690.0
 11
-147.274321
 21
-28.0
 31
690.0
210
0.0
220
0.0
230
-1.0
  0
LINE
  5
B1
  8
TEAM-NET
 10
147.430395
 20
-246.154817
 30
690.0
 11
147.673527
 21
-246.146548
 31
690.0
  0
LINE
  5
B2
  8
TEAM-NET
 10
-147.274321
 20
-28.0
 30
690.0
 11
147.673527
 21
-28.0
 31
690.0
210
0.0
220
0.0
230
-1.0
  0
LINE
  5
B3
  8
TEAM-NET
 10
147.430395
 20
-246.154817
 30
690.0
 11
-147.403534
 21
-246.154817
 31
690.0
210
0.0
220
0.0
230
-1.0
  0
LINE
  5
B4
  8
TEAM-NET
 10
147.673527
 20
-28.0
 30
690.0
 11
147.673527
 21
0.0
 31
690.0
210
0.0
220
0.0
230
-1.0
  0
LINE
  5
B5
  8
TEAM-NET
 10
-147.673527
 20
-246.144635
 30
690.0
 11
-147.403534
 21
-246.154817
 31
690.0
  0
LINE
  5
B6
  8
TEAM-NET
 10
-147.673527
 20
0.0
 30
690.0
 11
147.673527
 21
0.0
 31
690.0
210
0.0
220
0.0
230
-1.0
  0
LINE
  5
B7
  8
TEAM-NET
 10
-147.673527
 20
0.0
 30
690.0
 11
-147.673527
 21
-246.144635
 31
690.0
210
0.0
220
0.0
230
-1.0
  0
ARC
  5
B8
  8
TEAM-NET
 10
-1.328284
 20
-170.0
 30
-690.0
 40
44.5
210
0.0
220
0.0
230
-1.0
 50
104.918694
 51
75.081306
  0
POLYLINE
  5
B9
  8
TEAM-NET
 66
     1
 10
0.0
 20
0.0
 30
0.0
 70
     8
  0
VERTEX
  5
50F
  8
TEAM-NET
 10
-10.128155
 20
-127.0
 30
690.0
 70
    32
  0
VERTEX
  5
510
  8
TEAM-NET
 10
-4.448837
 20
-126.438272
 30
690.022614
 70
    32
  0
VERTEX
  5
511
  8
TEAM-NET
 10
1.328554
 20
-126.249947
 30
690.04037
 70
    32
  0
VERTEX
  5
512
  8
TEAM-NET
 10
12.784723
 20
-127.0
 30
690.0
 70
    32
  0
SEQEND
  5
513
  8
TEAM-NET
  0
LINE
  5
BA
  8
TEAM-NET
 10
-147.274321
 20
-127.0
 30
690.0
 11
-147.274321
 21
-28.0
 31
690.0
  0
POLYLINE
  5
BB
  8
TEAM-NET
 66
     1
 10
0.0
 20
0.0
 30
123.937661
 70
   128
210
-0.707107
220
-0.707107
230
-0.0
  0
VERTEX
  5
CB3
  8
TEAM-NET
 10
-84.339681
 20
690.0
 30
123.937661
  0
VERTEX
  5
CB4
  8
TEAM-NET
 10
-82.408386
 20
690.134503
 30
123.937661
  0
VERTEX
  5
CB5
  8
TEAM-NET
 10
-80.551309
 20
690.532843
 30
123.937661
  0
VERTEX
  5
CB6
  8
TEAM-NET
 10
-78.839817
 20
691.179713
 30
123.937661
  0
VERTEX
  5
CB7
  8
TEAM-NET
 10
-77.339681
 20
692.050253
 30
123.937661
  0
VERTEX
  5
CB8
  8
TEAM-NET
 10
-76.108552
 20
693.111008
 30
123.937661
  0
VERTEX
  5
CB9
  8
TEAM-NET
 10
-75.19374
 20
694.321216
 30
123.937661
  0
VERTEX
  5
CBA
  8
TEAM-NET
 10
-74.630402
 20
695.634368
 30
123.937661
  0
VERTEX
  5
CBB
  8
TEAM-NET
 10
-74.440186
 20
697.0
 30
123.937661
  0
SEQEND
  5
CBC
  8
TEAM-NET
  0
POLYLINE
  5
BC
  8
TEAM-NET
 66
     1
 10
0.0
 20
0.0
 30
-14.33611
 70
   128
210
0.707107
220
-0.707107
230
-0.0
  0
VERTEX
  5
CBD
  8
TEAM-NET
 10
-193.941232
 20
690.0
 30
-14.33611
  0
VERTEX
  5
CBE
  8
TEAM-NET
 10
-192.009937
 20
690.134503
 30
-14.33611
  0
VERTEX
  5
CBF
  8
TEAM-NET
 10
-190.15286
 20
690.532843
 30
-14.33611
  0
VERTEX
  5
CC0
  8
TEAM-NET
 10
-188.441368
 20
691.179713
 30
-14.33611
  0
VERTEX
  5
CC1
  8
TEAM-NET
 10
-186.941232
 20
692.050253
 30
-14.33611
  0
VERTEX
  5
CC2
  8
TEAM-NET
 10
-185.710103
 20
693.111008
 30
-14.33611
  0
VERTEX
  5
CC3
  8
TEAM-NET
 10
-184.795292
 20
694.321216
 30
-14.33611
  0
VERTEX
  5
CC4
  8
TEAM-NET
 10
-184.231953
 20
695.634368
 30
-14.33611
  0
VERTEX
  5
CC5
  8
TEAM-NET
 10
-184.041737
 20
697.0
 30
-14.33611
  0
SEQEND
  5
CC6
  8
TEAM-NET
  0
LINE
  5
BD
  8
TEAM-NET
 10
-140.274321
 20
-35.0
 30
697.0
 11
-140.274321
 21
-120.0
 31
697.0
  0
POLYLINE
  5
BE
  8
TEAM-NET
 66
     1
 10
0.0
 20
0.0
 30
123.937661
 70
   128
210
-0.707107
220
-0.707107
230
-0.0
  0
VERTEX
  5
CC7
  8
TEAM-NET
 10
-84.339681
 20
690.0
 30
123.937661
  0
VERTEX
  5
CC8
  8
TEAM-NET
 10
-82.408386
 20
690.134503
 30
123.937661
  0
VERTEX
  5
CC9
  8
TEAM-NET
 10
-80.551309
 20
690.532843
 30
123.937661
  0
VERTEX
  5
CCA
  8
TEAM-NET
 10
-78.839817
 20
691.179713
 30
123.937661
  0
VERTEX
  5
CCB
  8
TEAM-NET
 10
-77.339681
 20
692.050253
 30
123.937661
  0
VERTEX
  5
CCC
  8
TEAM-NET
 10
-76.108552
 20
693.111008
 30
123.937661
  0
VERTEX
  5
CCD
  8
TEAM-NET
 10
-75.19374
 20
694.321216
 30
123.937661
  0
VERTEX
  5
CCE
  8
TEAM-NET
 10
-74.630402
 20
695.634368
 30
123.937661
  0
VERTEX
  5
CCF
  8
TEAM-NET
 10
-74.440186
 20
697.0
 30
123.937661
  0
SEQEND
  5
CD0
  8
TEAM-NET
  0
LINE
  5
BF
  8
TEAM-NET
 10
142.930889
 20
-35.0
 30
697.0
 11
-140.274321
 21
-35.0
 31
697.0
  0
LINE
  5
C0
  8
TEAM-NET
 10
-147.274321
 20
-28.0
 30
690.0
 11
147.673527
 21
-28.0
 31
690.0
  0
POLYLINE
  5
C1
  8
TEAM-NET
 66
     1
 10
0.0
 20
0.0
 30
125.816138
 70
   128
210
0.707107
220
-0.707107
230
-0.0
  0
VERTEX
  5
CD1
  8
TEAM-NET
 10
76.318664
 20
697.0
 30
125.816138
  0
VERTEX
  5
CD2
  8
TEAM-NET
 10
76.484334
 20
695.724725
 30
125.816138
  0
VERTEX
  5
CD3
  8
TEAM-NET
 10
76.975799
 20
694.492134
 30
125.816138
  0
VERTEX
  5
CD4
  8
TEAM-NET
 10
77.776609
 20
693.343483
 30
125.816138
  0
VERTEX
  5
CD5
  8
TEAM-NET
 10
78.859961
 20
692.317216
 30
125.816138
  0
VERTEX
  5
CD6
  8
TEAM-NET
 10
80.189595
 20
691.447684
 30
125.816138
  0
VERTEX
  5
CD7
  8
TEAM-NET
 10
81.721008
 20
690.76399
 30
125.816138
  0
VERTEX
  5
CD8
  8
TEAM-NET
 10
83.402941
 20
690.289018
 30
125.816138
  0
VERTEX
  5
CD9
  8
TEAM-NET
 10
85.179102
 20
690.038665
 30
125.816138
  0
SEQEND
  5
CDA
  8
TEAM-NET
  0
LINE
  5
C2
  8
TEAM-NET
 10
149.196165
 20
-28.734724
 30
690.038665
 11
147.673527
 21
-28.0
 31
690.0
  0
LINE
  5
C3
  8
TEAM-NET
 10
-147.673527
 20
-246.144635
 30
690.0
 11
-147.403534
 21
-246.154817
 31
690.0
  0
POLYLINE
  5
C4
  8
TEAM-NET
 66
     1
 10
0.0
 20
0.0
 30
0.0
 70
     8
  0
VERTEX
  5
53C
  8
TEAM-NET
 10
-166.162889
 20
-244.238352
 30
696.374939
 70
    32
  0
VERTEX
  5
53D
  8
TEAM-NET
 10
-162.009389
 20
-244.776534
 30
693.646954
 70
    32
  0
VERTEX
  5
53E
  8
TEAM-NET
 10
-157.45905
 20
-245.279677
 30
691.640812
 70
    32
  0
VERTEX
  5
53F
  8
TEAM-NET
 10
-152.636869
 20
-245.738262
 30
690.413429
 70
    32
  0
VERTEX
  5
540
  8
TEAM-NET
 10
-147.673527
 20
-246.144635
 30
690.0
 70
    32
  0
SEQEND
  5
541
  8
TEAM-NET
  0
LINE
  5
C5
  8
TEAM-NET
 10
-147.673527
 20
0.0
 30
690.0
 11
147.673527
 21
0.0
 31
690.0
210
0.0
220
1.0
230
0.0
  0
LINE
  5
C6
  8
TEAM-NET
 10
-166.162889
 20
-244.238352
 30
696.374939
 11
-166.162889
 21
0.0
 31
696.374939
  0
POLYLINE
  5
C7
  8
TEAM-NET
 66
     1
 10
0.0
 20
0.0
 30
0.0
 70
     8
  0
VERTEX
  5
542
  8
TEAM-NET
 10
167.346624
 20
-244.238352
 30
697.351175
 70
    32
  0
VERTEX
  5
543
  8
TEAM-NET
 10
163.009656
 20
-244.783535
 30
694.216226
 70
    32
  0
VERTEX
  5
544
  8
TEAM-NET
 10
158.181176
 20
-245.290448
 30
691.900368
 70
    32
  0
VERTEX
  5
545
  8
TEAM-NET
 10
153.014911
 20
-245.747794
 30
690.479339
 70
    32
  0
VERTEX
  5
546
  8
TEAM-NET
 10
147.673527
 20
-246.146548
 30
690.0
 70
    32
  0
SEQEND
  5
547
  8
TEAM-NET
  0
LINE
  5
C8
  8
TEAM-NET
 10
147.430395
 20
-246.154817
 30
690.0
 11
147.673527
 21
-246.146548
 31
690.0
  0
LINE
  5
C9
  8
TEAM-NET
 10
147.430395
 20
-246.154817
 30
690.0
 11
-147.403534
 21
-246.154817
 31
690.0
  0
LINE
  5
CA
  8
TEAM-NET
 10
167.346624
 20
0.0
 30
697.351175
 11
167.346624
 21
-244.238352
 31
697.351175
  0
LINE
  5
CB
  8
TEAM-NET
 10
142.930889
 20
-35.0
 30
697.0
 11
-140.274321
 21
-35.0
 31
697.0
210
0.0
220
-1.0
230
0.0
  0
LINE
  5
CC
  8
TEAM-NET
 10
142.930889
 20
-120.0
 30
697.0
 11
142.930889
 21
-35.0
 31
697.0
210
-1.0
220
0.0
230
0.0
  0
LINE
  5
CD
  8
TEAM-NET
 10
-140.274321
 20
-120.0
 30
697.0
 11
142.930889
 21
-120.0
 31
697.0
210
0.0
220
1.0
230
0.0
  0
LINE
  5
CE
  8
TEAM-NET
 10
-140.274321
 20
-35.0
 30
697.0
 11
-140.274321
 21
-120.0
 31
697.0
210
1.0
220
0.0
230
0.0
  0
LINE
  5
CF
  8
TEAM-NET
 10
-25.07364
 20
-170.0
 30
717.031328
 11
-26.692442
 21
-170.0
 31
719.835175
  0
ARC
  5
D0
  8
TEAM-NET
 10
-1.328284
 20
-170.0
 30
-719.835175
 40
28.020726
210
0.0
220
0.0
230
-1.0
 50
180.0
 51
0.0
  0
ARC
  5
D1
  8
TEAM-NET
 10
1.328284
 20
-170.0
 30
717.031328
 40
26.401924
 50
180.0
 51
0.0
  0
LINE
  5
D2
  8
TEAM-NET
 10
27.730208
 20
-170.0
 30
717.031328
 11
29.34901
 21
-170.0
 31
719.835175
  0
ARC
  5
D3
  8
TEAM-NET
 10
30.328284
 20
715.531328
 30
170.0
 40
3.0
210
0.0
220
-1.0
230
0.0
 50
150.0
 51
180.0
  0
ARC
  5
D4
  8
TEAM-NET
 10
-1.328284
 20
-170.0
 30
-715.531328
 40
26.0
210
0.0
220
0.0
230
-1.0
 50
180.0
 51
0.0
  0
ARC
  5
D5
  8
TEAM-NET
 10
1.328284
 20
-170.0
 30
717.031328
 40
26.401924
 50
180.0
 51
0.0
  0
ARC
  5
D6
  8
TEAM-NET
 10
27.671716
 20
715.531328
 30
-170.0
 40
3.0
210
0.0
220
1.0
230
0.0
 50
150.0
 51
180.0
  0
ARC
  5
D7
  8
TEAM-NET
 10
30.328284
 20
715.531328
 30
170.0
 40
3.0
210
0.0
220
-1.0
230
0.0
 50
150.0
 51
180.0
  0
ARC
  5
D8
  8
TEAM-NET
 10
1.328284
 20
-170.0
 30
717.031328
 40
26.401924
 50
0.0
 51
180.0
  0
ARC
  5
D9
  8
TEAM-NET
 10
-1.328284
 20
-170.0
 30
-715.531328
 40
26.0
210
0.0
220
0.0
230
-1.0
 50
360.0
 51
180.0
  0
ARC
  5
DA
  8
TEAM-NET
 10
27.671716
 20
715.531328
 30
-170.0
 40
3.0
210
0.0
220
1.0
230
0.0
 50
150.0
 51
180.0
  0
ARC
  5
DB
  8
TEAM-NET
 10
-1.328284
 20
-170.0
 30
-719.835175
 40
28.020726
210
0.0
220
0.0
230
-1.0
 50
360.0
 51
78.461388
  0
LINE
  5
DC
  8
TEAM-NET
 10
-25.07364
 20
-170.0
 30
717.031328
 11
-26.692442
 21
-170.0
 31
719.835175
  0
POLYLINE
  5
DD
  8
TEAM-NET
 66
     1
 10
0.0
 20
0.0
 30
-722.385969
 70
   128
210
0.0
220
0.018786
230
-0.999824
  0
VERTEX
  5
CDB
  8
TEAM-NET
 10
4.276653
 20
-128.997795
 30
-722.385969
  0
VERTEX
  5
CDC
  8
TEAM-NET
 10
-1.328303
 20
-128.425241
 30
-722.385969
  0
VERTEX
  5
CDD
  8
TEAM-NET
 10
-6.933222
 20
-128.997795
 30
-722.385969
  0
SEQEND
  5
CDE
  8
TEAM-NET
  0
ARC
  5
DE
  8
TEAM-NET
 10
1.328284
 20
-170.0
 30
717.031328
 40
26.401924
 50
0.0
 51
180.0
  0
ARC
  5
DF
  8
TEAM-NET
 10
-1.328284
 20
-170.0
 30
-719.835175
 40
28.020726
210
0.0
220
0.0
230
-1.0
 50
101.538612
 51
180.0
  0
LINE
  5
E0
  8
TEAM-NET
 10
27.730208
 20
-170.0
 30
717.031328
 11
29.34901
 21
-170.0
 31
719.835175
  0
LINE
  5
E1
  8
TEAM-NET
 10
34.789872
 20
-295.934402
 30
721.335175
 11
-32.133304
 21
-295.934402
 31
721.335175
  0
LINE
  5
E2
  8
TEAM-NET
 10
34.789872
 20
-140.0
 30
721.335175
 11
34.789872
 21
-295.934402
 31
721.335175
  0
LINE
  5
E3
  8
TEAM-NET
 10
-32.133304
 20
-140.0
 30
721.335175
 11
-32.133304
 21
-295.934402
 31
721.335175
  0
LINE
  5
E4
  8
TEAM-NET
 10
7.45291
 20
-140.0
 30
721.335175
 11
34.789872
 21
-140.0
 31
721.335175
  0
LINE
  5
E5
  8
TEAM-NET
 10
-32.133304
 20
-140.0
 30
721.335175
 11
-4.796342
 21
-140.0
 31
721.335175
  0
ARC
  5
E6
  8
TEAM-NET
 10
1.328284
 20
-170.0
 30
721.335175
 40
30.618802
 50
101.538612
 51
78.461388
  0
ARC
  5
E7
  8
TEAM-NET
 10
-1.328284
 20
-170.0
 30
-715.531328
 40
26.0
210
0.0
220
0.0
230
-1.0
 50
180.0
 51
0.0
  0
ARC
  5
E8
  8
TEAM-NET
 10
-1.328284
 20
-170.0
 30
-715.531328
 40
26.0
210
0.0
220
0.0
230
-1.0
 50
360.0
 51
180.0
  0
LINE
  5
E9
  8
TEAM-NET
 10
16.955221
 20
-184.028501
 30
728.373709
 11
6.240188
 21
-173.445752
 31
728.373709
  0
ARC
  5
54C
  8
TEAM-NET
 10
1.328284
 20
-170.0
 30
728.373709
 40
6.0
 50
324.949938
 51
35.761802
1001
ACAD
1000
R13OBJECT
1002
{
1005
E9
1002
}
  0
LINE
  5
54D
  8
TEAM-NET
 10
6.197006
 20
-166.493499
 30
728.373709
 11
16.779755
 21
-155.778465
 31
728.373709
1001
ACAD
1000
R13OBJECT
1002
{
1005
E9
1002
}
  0
ARC
  5
54E
  8
TEAM-NET
 10
1.328284
 20
-170.0
 30
728.373709
 40
21.0
 50
42.626467
 51
48.085273
1001
ACAD
1000
R13OBJECT
1002
{
1005
E9
1002
}
  0
LINE
  5
54F
  8
TEAM-NET
 10
15.356785
 20
-154.373063
 30
728.373709
 11
4.774036
 21
-165.088097
 31
728.373709
1001
ACAD
1000
R13OBJECT
1002
{
1005
E9
1002
}
  0
ARC
  5
550
  8
TEAM-NET
 10
1.328284
 20
-170.0
 30
728.373709
 40
6.0
 50
54.949938
 51
125.761802
1001
ACAD
1000
R13OBJECT
1002
{
1005
E9
1002
}
  0
LINE
  5
551
  8
TEAM-NET
 10
-2.178217
 20
-165.131278
 30
728.373709
 11
-12.893251
 21
-154.548529
 31
728.373709
1001
ACAD
1000
R13OBJECT
1002
{
1005
E9
1002
}
  0
ARC
  5
552
  8
TEAM-NET
 10
1.328284
 20
-170.0
 30
728.373709
 40
21.0
 50
132.626467
 51
138.085273
1001
ACAD
1000
R13OBJECT
1002
{
1005
E9
1002
}
  0
LINE
  5
553
  8
TEAM-NET
 10
-14.298653
 20
-155.971499
 30
728.373709
 11
-3.583619
 21
-166.554248
 31
728.373709
1001
ACAD
1000
R13OBJECT
1002
{
1005
E9
1002
}
  0
ARC
  5
554
  8
TEAM-NET
 10
1.328284
 20
-170.0
 30
728.373709
 40
6.0
 50
144.949938
 51
215.761802
1001
ACAD
1000
R13OBJECT
1002
{
1005
E9
1002
}
  0
LINE
  5
555
  8
TEAM-NET
 10
-3.540438
 20
-173.506501
 30
728.373709
 11
-14.123187
 21
-184.221535
 31
728.373709
1001
ACAD
1000
R13OBJECT
1002
{
1005
E9
1002
}
  0
ARC
  5
556
  8
TEAM-NET
 10
1.328284
 20
-170.0
 30
728.373709
 40
21.0
 50
222.626467
 51
228.085273
1001
ACAD
1000
R13OBJECT
1002
{
1005
E9
1002
}
  0
LINE
  5
557
  8
TEAM-NET
 10
-12.700217
 20
-185.626937
 30
728.373709
 11
-2.117468
 21
-174.911903
 31
728.373709
1001
ACAD
1000
R13OBJECT
1002
{
1005
E9
1002
}
  0
ARC
  5
558
  8
TEAM-NET
 10
1.328284
 20
-170.0
 30
728.373709
 40
6.0
 50
234.949938
 51
305.761802
1001
ACAD
1000
R13OBJECT
1002
{
1005
E9
1002
}
  0
LINE
  5
559
  8
TEAM-NET
 10
4.834785
 20
-174.868722
 30
728.373709
 11
15.549819
 21
-185.451471
 31
728.373709
1001
ACAD
1000
R13OBJECT
1002
{
1005
E9
1002
}
  0
ARC
  5
55A
  8
TEAM-NET
 10
1.328284
 20
-170.0
 30
728.373709
 40
21.0
 50
312.626467
 51
318.085273
1001
ACAD
1000
R13OBJECT
1002
{
1005
E9
1002
}
  0
ARC
  5
55B
  8
TEAM-NET
 10
1.328284
 20
-170.0
 30
728.373709
 40
30.0
 50
180.0
 51
0.0
1001
ACAD
1000
R13OBJECT
1002
{
1005
E9
1002
}
  0
ARC
  5
55C
  8
TEAM-NET
 10
1.328284
 20
-170.0
 30
728.373709
 40
30.0
 50
0.0
 51
180.0
1001
ACAD
1000
R13OBJECT
1002
{
1005
E9
1002
}
  0
LINE
  5
EA
  8
TEAM-NET
 10
-5.470534
 20
-201.162495
 30
725.057367
 11
-3.148054
 21
-190.517368
 31
716.373709
  0
ARC
  5
55D
  8
TEAM-NET
 10
1.328284
 20
-170.0
 30
716.373709
 40
21.0
 50
77.692461
 51
257.692461
1001
ACAD
1000
R13OBJECT
1002
{
1005
EA
1002
}
  0
LINE
  5
55E
  8
TEAM-NET
 10
8.127102
 20
-138.837505
 30
725.057367
 11
5.804622
 21
-149.482632
 31
716.373709
1001
ACAD
1000
R13OBJECT
1002
{
1005
EA
1002
}
  0
ARC
  5
55F
  8
TEAM-NET
 10
1.328284
 20
-170.0
 30
725.057367
 40
31.895533
 50
77.692461
 51
257.692461
1001
ACAD
1000
R13OBJECT
1002
{
1005
EA
1002
}
  0
ARC
  5
EB
  8
TEAM-NET
 10
1.328284
 20
-170.0
 30
725.057367
 40
31.895533
 50
257.692461
 51
77.692461
  0
ARC
  5
560
  8
TEAM-NET
 10
1.328284
 20
-170.0
 30
725.057367
 40
31.895533
 50
77.692461
 51
257.692461
1001
ACAD
1000
R13OBJECT
1002
{
1005
EB
1002
}
  0
ARC
  5
561
  8
TEAM-NET
 10
1.328284
 20
-170.0
 30
725.057367
 40
32.697766
 50
257.692461
 51
77.692461
1001
ACAD
1000
R13OBJECT
1002
{
1005
EB
1002
}
  0
ARC
  5
562
  8
TEAM-NET
 10
1.328284
 20
-170.0
 30
725.057367
 40
32.697766
 50
77.692461
 51
257.692461
1001
ACAD
1000
R13OBJECT
1002
{
1005
EB
1002
}
  0
LINE
  5
EC
  8
TEAM-NET
 10
-5.641537
 20
-201.946291
 30
725.057367
 11
-3.361213
 21
-191.494386
 31
716.531328
  0
ARC
  5
563
  8
TEAM-NET
 10
1.328284
 20
-170.0
 30
716.531328
 40
22.0
 50
257.692461
 51
77.692461
1001
ACAD
1000
R13OBJECT
1002
{
1005
EC
1002
}
  0
LINE
  5
564
  8
TEAM-NET
 10
8.298106
 20
-138.053709
 30
725.057367
 11
6.017781
 21
-148.505614
 31
716.531328
1001
ACAD
1000
R13OBJECT
1002
{
1005
EC
1002
}
  0
ARC
  5
565
  8
TEAM-NET
 10
1.328284
 20
-170.0
 30
725.057367
 40
32.697766
 50
257.692461
 51
77.692461
1001
ACAD
1000
R13OBJECT
1002
{
1005
EC
1002
}
  0
LINE
  5
566
  8
TEAM-NET
 10
22.82267
 20
-174.689497
 30
716.531328
 11
33.274575
 21
-176.969822
 31
725.057367
1001
ACAD
1000
R13OBJECT
1002
{
1005
EC
1002
}
  0
LINE
  5
ED
  8
TEAM-NET
 10
-5.641537
 20
-201.946291
 30
725.057367
 11
-3.361213
 21
-191.494386
 31
716.531328
  0
ARC
  5
567
  8
TEAM-NET
 10
1.328284
 20
-170.0
 30
725.057367
 40
32.697766
 50
77.692461
 51
257.692461
1001
ACAD
1000
R13OBJECT
1002
{
1005
ED
1002
}
  0
LINE
  5
568
  8
TEAM-NET
 10
8.298106
 20
-138.053709
 30
725.057367
 11
6.017781
 21
-148.505614
 31
716.531328
1001
ACAD
1000
R13OBJECT
1002
{
1005
ED
1002
}
  0
ARC
  5
569
  8
TEAM-NET
 10
1.328284
 20
-170.0
 30
716.531328
 40
22.0
 50
77.692461
 51
257.692461
1001
ACAD
1000
R13OBJECT
1002
{
1005
ED
1002
}
  0
LINE
  5
56A
  8
TEAM-NET
 10
-20.166102
 20
-165.310503
 30
716.531328
 11
-30.618007
 21
-163.030178
 31
725.057367
1001
ACAD
1000
R13OBJECT
1002
{
1005
ED
1002
}
  0
LINE
  5
EE
  8
TEAM-NET
 10
-5.470534
 20
-201.162495
 30
725.057367
 11
-3.148054
 21
-190.517368
 31
716.373709
  0
ARC
  5
56B
  8
TEAM-NET
 10
1.328284
 20
-170.0
 30
725.057367
 40
31.895533
 50
257.692461
 51
77.692461
1001
ACAD
1000
R13OBJECT
1002
{
1005
EE
1002
}
  0
LINE
  5
56C
  8
TEAM-NET
 10
8.127102
 20
-138.837505
 30
725.057367
 11
5.804622
 21
-149.482632
 31
716.373709
1001
ACAD
1000
R13OBJECT
1002
{
1005
EE
1002
}
  0
ARC
  5
56D
  8
TEAM-NET
 10
1.328284
 20
-170.0
 30
716.373709
 40
21.0
 50
257.692461
 51
77.692461
1001
ACAD
1000
R13OBJECT
1002
{
1005
EE
1002
}
  0
ARC
  5
EF
  8
TEAM-NET
 10
-1.328284
 20
-170.0
 30
-719.835175
 40
28.020726
210
0.0
220
0.0
230
-1.0
 50
101.538612
 51
180.0
  0
ARC
  5
F0
  8
TEAM-NET
 10
-1.328284
 20
-170.0
 30
-719.835175
 40
28.020726
210
0.0
220
0.0
230
-1.0
 50
180.0
 51
0.0
  0
ARC
  5
F1
  8
TEAM-NET
 10
-135.679825
 20
718.335175
 30
35.306246
 40
3.0
210
0.97979
220
-0.200028
230
0.0
 50
90.0
 51
150.0
  0
ARC
  5
F2
  8
TEAM-NET
 10
-1.328284
 20
-170.0
 30
-719.835175
 40
28.020726
210
0.0
220
0.0
230
-1.0
 50
360.0
 51
78.461388
  0
ARC
  5
F3
  8
TEAM-NET
 10
1.328284
 20
-170.0
 30
721.335175
 40
30.618802
 50
101.538612
 51
78.461388
  0
ARC
  5
F4
  8
TEAM-NET
 10
136.211214
 20
718.335175
 30
32.703367
 40
3.0
210
-0.97979
220
-0.200028
230
-0.0
 50
30.0
 51
90.0
  0
ARC
  5
F5
  8
TEAM-NET
 10
-135.679825
 20
718.335175
 30
35.306246
 40
3.0
210
0.97979
220
-0.200028
230
0.0
 50
90.0
 51
150.0
  0
POLYLINE
  5
F6
  8
TEAM-NET
 66
     1
 10
0.0
 20
0.0
 30
723.637495
 70
   128
210
0.0
220
-0.017208
230
0.999852
  0
VERTEX
  5
CDF
  8
TEAM-NET
 10
7.45291
 20
-127.566498
 30
723.637495
  0
VERTEX
  5
CE0
  8
TEAM-NET
 10
1.328306
 20
-127.045626
 30
723.637495
  0
VERTEX
  5
CE1
  8
TEAM-NET
 10
-4.796342
 20
-127.566498
 30
723.637495
  0
SEQEND
  5
CE2
  8
TEAM-NET
  0
POLYLINE
  5
F7
  8
TEAM-NET
 66
     1
 10
0.0
 20
0.0
 30
-722.385969
 70
   128
210
0.0
220
0.018786
230
-0.999824
  0
VERTEX
  5
CE3
  8
TEAM-NET
 10
4.276653
 20
-128.997795
 30
-722.385969
  0
VERTEX
  5
CE4
  8
TEAM-NET
 10
-1.328303
 20
-128.425241
 30
-722.385969
  0
VERTEX
  5
CE5
  8
TEAM-NET
 10
-6.933222
 20
-128.997795
 30
-722.385969
  0
SEQEND
  5
CE6
  8
TEAM-NET
  0
ARC
  5
F8
  8
TEAM-NET
 10
136.211214
 20
718.335175
 30
32.703367
 40
3.0
210
-0.97979
220
-0.200028
230
-0.0
 50
30.0
 51
90.0
  0
LINE
  5
F9
  8
TEAM-NET
 10
-32.133304
 20
-140.0
 30
721.335175
 11
-4.796342
 21
-140.0
 31
721.335175
  0
LINE
  5
FA
  8
TEAM-NET
 10
7.45291
 20
-140.0
 30
721.335175
 11
34.789872
 21
-140.0
 31
721.335175
  0
POLYLINE
  5
FB
  8
TEAM-NET
 66
     1
 10
0.0
 20
0.0
 30
723.637495
 70
   128
210
0.0
220
-0.017208
230
0.999852
  0
VERTEX
  5
CE7
  8
TEAM-NET
 10
7.45291
 20
-127.566498
 30
723.637495
  0
VERTEX
  5
CE8
  8
TEAM-NET
 10
1.328306
 20
-127.045626
 30
723.637495
  0
VERTEX
  5
CE9
  8
TEAM-NET
 10
-4.796342
 20
-127.566498
 30
723.637495
  0
SEQEND
  5
CEA
  8
TEAM-NET
  0
LINE
  5
FC
  8
TEAM-NET
 10
34.789872
 20
-295.934402
 30
721.335175
 11
-32.133304
 21
-295.934402
 31
721.335175
  0
LINE
  5
FD
  8
TEAM-NET
 10
34.789872
 20
-140.0
 30
721.335175
 11
34.789872
 21
-295.934402
 31
721.335175
  0
LINE
  5
FE
  8
TEAM-NET
 10
-32.133304
 20
-140.0
 30
721.335175
 11
-32.133304
 21
-295.934402
 31
721.335175
  0
ARC
  5
FF
  8
TEAM-NET
 10
-170.646429
 20
642.224414
 30
1.328284
 40
91.7912
210
1.0
220
-0.0
230
0.0
 50
89.596498
 51
108.650003
  0
ARC
  5
57A
  8
TEAM-NET
 10
1.328284
 20
-170.0
 30
729.195629
 40
30.0
 50
270.0
 51
360.0
1001
ACAD
1000
R13OBJECT
1002
{
1005
FF
1002
}
  0
ARC
  5
57B
  8
TEAM-NET
 10
1.328284
 20
-170.0
 30
729.195629
 40
30.0
 50
0.0
 51
90.0
1001
ACAD
1000
R13OBJECT
1002
{
1005
FF
1002
}
  0
ARC
  5
57C
  8
TEAM-NET
 10
169.353571
 20
642.224414
 30
-1.328284
 40
91.7912
210
-1.0
220
0.0
230
0.0
 50
89.596498
 51
108.650003
1001
ACAD
1000
R13OBJECT
1002
{
1005
FF
1002
}
  0
ARC
  5
100
  8
TEAM-NET
 10
-170.646429
 20
642.224414
 30
1.328284
 40
91.7912
210
1.0
220
-0.0
230
0.0
 50
89.596498
 51
108.650003
  0
ARC
  5
57D
  8
TEAM-NET
 10
169.353571
 20
642.224414
 30
-1.328284
 40
91.7912
210
-1.0
220
0.0
230
0.0
 50
89.596498
 51
108.650003
1001
ACAD
1000
R13OBJECT
1002
{
1005
100
1002
}
  0
ARC
  5
57E
  8
TEAM-NET
 10
1.328284
 20
-170.0
 30
729.195629
 40
30.0
 50
90.0
 51
180.0
1001
ACAD
1000
R13OBJECT
1002
{
1005
100
1002
}
  0
ARC
  5
57F
  8
TEAM-NET
 10
1.328284
 20
-170.0
 30
729.195629
 40
30.0
 50
180.0
 51
270.0
1001
ACAD
1000
R13OBJECT
1002
{
1005
100
1002
}
  0
LINE
  5
101
  8
TEAM-NET
 10
34.789872
 20
-125.0
 30
736.335175
 11
-32.133304
 21
-125.0
 31
736.335175
  0
LINE
  5
102
  8
TEAM-NET
 10
-32.133304
 20
-310.877322
 30
735.027839
 11
34.789872
 21
-310.877322
 31
735.027839
  0
LINE
  5
103
  8
TEAM-NET
 10
34.789872
 20
-125.0
 30
736.335175
 11
-32.133304
 21
-125.0
 31
736.335175
210
0.0
220
-1.0
230
0.0
  0
LINE
  5
104
  8
TEAM-NET
 10
-32.133304
 20
-310.877322
 30
735.027839
 11
34.789872
 21
-310.877322
 31
735.027839
210
0.0
220
0.996195
230
0.087156
  0
LINE
  5
105
  8
TEAM-NET
 10
128.828284
 20
0.0
 30
780.0
 11
128.828284
 21
-35.0
 31
780.0
  0
ARC
  5
106
  8
TEAM-NET
 10
121.328284
 20
780.0
 30
0.0
 40
7.5
210
0.0
220
-1.0
230
0.0
 50
180.0
 51
0.0
  0
ARC
  5
107
  8
TEAM-NET
 10
-121.328284
 20
780.0
 30
-35.0
 40
7.5
210
0.0
220
1.0
230
0.0
 50
180.0
 51
0.0
  0
LINE
  5
108
  8
TEAM-NET
 10
113.828284
 20
0.0
 30
780.0
 11
113.828284
 21
-35.0
 31
780.0
  0
LINE
  5
109
  8
TEAM-NET
 10
-111.171716
 20
0.0
 30
780.0
 11
-111.171716
 21
-35.0
 31
780.0
  0
ARC
  5
10A
  8
TEAM-NET
 10
-118.671716
 20
780.0
 30
0.0
 40
7.5
210
0.0
220
-1.0
230
0.0
 50
180.0
 51
0.0
  0
ARC
  5
10B
  8
TEAM-NET
 10
118.671716
 20
780.0
 30
-35.0
 40
7.5
210
0.0
220
1.0
230
0.0
 50
180.0
 51
0.0
  0
LINE
  5
10C
  8
TEAM-NET
 10
-126.171716
 20
0.0
 30
780.0
 11
-126.171716
 21
-35.0
 31
780.0
  0
LINE
  5
10D
  8
TEAM-NET
 10
-111.171716
 20
0.0
 30
780.0
 11
-111.171716
 21
-35.0
 31
780.0
  0
ARC
  5
10E
  8
TEAM-NET
 10
118.671716
 20
780.0
 30
-35.0
 40
7.5
210
0.0
220
1.0
230
0.0
 50
0.0
 51
180.0
  0
ARC
  5
10F
  8
TEAM-NET
 10
-118.671716
 20
780.0
 30
0.0
 40
7.5
210
0.0
220
-1.0
230
0.0
 50
360.0
 51
180.0
  0
LINE
  5
110
  8
TEAM-NET
 10
-126.171716
 20
0.0
 30
780.0
 11
-126.171716
 21
-35.0
 31
780.0
  0
LINE
  5
111
  8
TEAM-NET
 10
128.828284
 20
0.0
 30
780.0
 11
128.828284
 21
-35.0
 31
780.0
  0
ARC
  5
112
  8
TEAM-NET
 10
-121.328284
 20
780.0
 30
-35.0
 40
7.5
210
0.0
220
1.0
230
0.0
 50
0.0
 51
180.0
  0
ARC
  5
113
  8
TEAM-NET
 10
121.328284
 20
780.0
 30
0.0
 40
7.5
210
0.0
220
-1.0
230
0.0
 50
360.0
 51
180.0
  0
LINE
  5
114
  8
TEAM-NET
 10
113.828284
 20
0.0
 30
780.0
 11
113.828284
 21
-35.0
 31
780.0
  0
ARC
  5
115
  8
TEAM-NET
 10
-121.328284
 20
780.0
 30
0.0
 40
7.5
210
0.0
220
1.0
230
0.0
 50
180.0
 51
0.0
  0
ARC
  5
116
  8
TEAM-NET
 10
-121.328284
 20
780.0
 30
0.0
 40
7.5
210
0.0
220
1.0
230
0.0
 50
0.0
 51
180.0
  0
ARC
  5
117
  8
TEAM-NET
 10
118.671716
 20
780.0
 30
0.0
 40
7.5
210
0.0
220
1.0
230
0.0
 50
180.0
 51
0.0
  0
ARC
  5
118
  8
TEAM-NET
 10
118.671716
 20
780.0
 30
0.0
 40
7.5
210
0.0
220
1.0
230
0.0
 50
0.0
 51
180.0
  0
ARC
  5
119
  8
TEAM-NET
 10
121.328284
 20
780.0
 30
35.0
 40
7.5
210
0.0
220
-1.0
230
0.0
 50
360.0
 51
180.0
  0
ARC
  5
11A
  8
TEAM-NET
 10
121.328284
 20
780.0
 30
35.0
 40
7.5
210
0.0
220
-1.0
230
0.0
 50
180.0
 51
0.0
  0
ARC
  5
11B
  8
TEAM-NET
 10
-118.671716
 20
780.0
 30
35.0
 40
7.5
210
0.0
220
-1.0
230
0.0
 50
360.0
 51
180.0
  0
ARC
  5
11C
  8
TEAM-NET
 10
-118.671716
 20
780.0
 30
35.0
 40
7.5
210
0.0
220
-1.0
230
0.0
 50
180.0
 51
0.0
  0
ARC
  5
11D
  8
TEAM-NET
 10
122.0
 20
802.0
 30
-1.328284
 40
3.0
210
-1.0
220
0.0
230
0.0
 50
0.0
 51
90.0
  0
ARC
  5
11E
  8
TEAM-NET
 10
122.0
 20
802.0
 30
-1.328284
 40
3.0
210
-1.0
220
0.0
230
0.0
 50
0.0
 51
90.0
  0
LINE
  5
11F
  8
TEAM-NET
 10
1.328284
 20
-125.040962
 30
942.514685
 11
1.328284
 21
-107.317511
 31
842.0
  0
ARC
  5
580
  8
TEAM-NET
 10
-1.328284
 20
63.024648
 30
-949.908904
 40
22.5
210
0.0
220
0.173648
230
-0.984808
 50
270.0
 51
90.0
1001
ACAD
1000
R13OBJECT
1002
{
1005
11F
1002
}
  0
LINE
  5
581
  8
TEAM-NET
 10
1.328284
 20
-80.724613
 30
950.328853
 11
1.328284
 21
-61.623314
 31
842.0
1001
ACAD
1000
R13OBJECT
1002
{
1005
11F
1002
}
  0
POLYLINE
  5
582
  8
TEAM-NET
 66
     1
 10
0.0
 20
0.0
 30
842.0
 70
   128
1001
ACAD
1000
R13OBJECT
1002
{
1005
A02533040000011F
1002
}
  0
VERTEX
  5
D37
  8
TEAM-NET
 10
1.328284
 20
-61.623314
 30
842.0
  0
VERTEX
  5
D38
  8
TEAM-NET
 10
-5.010698
 20
-62.548782
 30
842.0
  0
VERTEX
  5
D39
  8
TEAM-NET
 10
-10.836134
 20
-65.25021
 30
842.0
  0
VERTEX
  5
D3A
  8
TEAM-NET
 10
-15.676081
 20
-69.508745
 30
842.0
  0
VERTEX
  5
D3B
  8
TEAM-NET
 10
-19.138436
 20
-74.979385
 30
842.0
  0
VERTEX
  5
D3C
  8
TEAM-NET
 10
-20.942698
 20
-81.218931
 30
842.0
  0
VERTEX
  5
D3D
  8
TEAM-NET
 10
-20.942698
 20
-87.721894
 30
842.0
  0
VERTEX
  5
D3E
  8
TEAM-NET
 10
-19.138436
 20
-93.96144
 30
842.0
  0
VERTEX
  5
D3F
  8
TEAM-NET
 10
-15.676081
 20
-99.432081
 30
842.0
  0
VERTEX
  5
D40
  8
TEAM-NET
 10
-10.836134
 20
-103.690615
 30
842.0
  0
VERTEX
  5
D41
  8
TEAM-NET
 10
-5.010698
 20
-106.392043
 30
842.0
  0
VERTEX
  5
D42
  8
TEAM-NET
 10
1.328284
 20
-107.317511
 30
842.0
  0
SEQEND
  5
D43
  8
TEAM-NET
  0
ARC
  5
590
  8
TEAM-NET
 10
129.669978
 20
980.284676
 30
-1.328284
 40
2.0
210
-1.0
220
0.0
230
-0.0
 50
31.409622
 51
80.0
1001
ACAD
1000
R13OBJECT
1002
{
1005
11F
1002
}
  0
ARC
  5
591
  8
TEAM-NET
 10
1.328284
 20
63.024648
 30
989.23178
 40
22.0
210
0.0
220
-0.173648
230
0.984808
 50
270.0
 51
90.0
1001
ACAD
1000
R13OBJECT
1002
{
1005
11F
1002
}
  0
ARC
  5
592
  8
TEAM-NET
 10
-89.29286
 20
987.404251
 30
1.328284
 40
2.0
210
1.0
220
-0.0
230
-0.0
 50
51.409622
 51
100.0
1001
ACAD
1000
R13OBJECT
1002
{
1005
11F
1002
}
  0
ARC
  5
593
  8
TEAM-NET
 10
-1.328284
 20
63.024648
 30
-989.908904
 40
20.5
210
0.0
220
0.173648
230
-0.984808
 50
90.0
 51
270.0
1001
ACAD
1000
R13OBJECT
1002
{
1005
11F
1002
}
  0
LINE
  5
594
  8
TEAM-NET
 10
1.328284
 20
-131.376904
 30
981.326982
 11
1.328284
 21
-124.548558
 31
942.601509
1001
ACAD
1000
R13OBJECT
1002
{
1005
11F
1002
}
  0
ARC
  5
595
  8
TEAM-NET
 10
1.328284
 20
63.024648
 30
989.23178
 40
22.0
210
-0.0
220
-0.173648
230
0.984808
 50
90.0
 51
270.0
1001
ACAD
1000
R13OBJECT
1002
{
1005
11F
1002
}
  0
LINE
  5
596
  8
TEAM-NET
 10
1.328284
 20
-88.045363
 30
988.967502
 11
1.328284
 21
-81.217017
 31
950.242029
1001
ACAD
1000
R13OBJECT
1002
{
1005
11F
1002
}
  0
ARC
  5
597
  8
TEAM-NET
 10
1.328284
 20
63.024648
 30
949.908904
 40
22.0
210
-0.0
220
-0.173648
230
0.984808
 50
90.0
 51
270.0
1001
ACAD
1000
R13OBJECT
1002
{
1005
11F
1002
}
  0
ARC
  5
598
  8
TEAM-NET
 10
1.328284
 20
63.024648
 30
949.908904
 40
22.0
210
0.0
220
-0.173648
230
0.984808
 50
270.0
 51
90.0
1001
ACAD
1000
R13OBJECT
1002
{
1005
11F
1002
}
  0
ARC
  5
599
  8
TEAM-NET
 10
-1.328284
 20
63.024648
 30
-949.908904
 40
22.5
210
-0.0
220
0.173648
230
-0.984808
 50
90.0
 51
270.0
1001
ACAD
1000
R13OBJECT
1002
{
1005
11F
1002
}
  0
POLYLINE
  5
59A
  8
TEAM-NET
 66
     1
 10
0.0
 20
0.0
 30
842.0
 70
   128
1001
ACAD
1000
R13OBJECT
1002
{
1005
942533040000011F
1002
}
  0
VERTEX
  5
D44
  8
TEAM-NET
 10
1.328284
 20
-107.317511
 30
842.0
  0
VERTEX
  5
D45
  8
TEAM-NET
 10
7.667267
 20
-106.392043
 30
842.0
  0
VERTEX
  5
D46
  8
TEAM-NET
 10
13.492702
 20
-103.690615
 30
842.0
  0
VERTEX
  5
D47
  8
TEAM-NET
 10
18.33265
 20
-99.432081
 30
842.0
  0
VERTEX
  5
D48
  8
TEAM-NET
 10
21.795004
 20
-93.96144
 30
842.0
  0
VERTEX
  5
D49
  8
TEAM-NET
 10
23.599267
 20
-87.721894
 30
842.0
  0
VERTEX
  5
D4A
  8
TEAM-NET
 10
23.599267
 20
-81.218931
 30
842.0
  0
VERTEX
  5
D4B
  8
TEAM-NET
 10
21.795004
 20
-74.979385
 30
842.0
  0
VERTEX
  5
D4C
  8
TEAM-NET
 10
18.33265
 20
-69.508745
 30
842.0
  0
VERTEX
  5
D4D
  8
TEAM-NET
 10
13.492702
 20
-65.25021
 30
842.0
  0
VERTEX
  5
D4E
  8
TEAM-NET
 10
7.667267
 20
-62.548782
 30
842.0
  0
VERTEX
  5
D4F
  8
TEAM-NET
 10
1.328284
 20
-61.623314
 30
842.0
  0
SEQEND
  5
D50
  8
TEAM-NET
  0
ARC
  5
5A8
  8
TEAM-NET
 10
-1.328284
 20
63.024648
 30
-989.908904
 40
20.5
210
-0.0
220
0.173648
230
-0.984808
 50
270.0
 51
90.0
1001
ACAD
1000
R13OBJECT
1002
{
1005
11F
1002
}
  0
LINE
  5
5A9
  8
TEAM-NET
 10
-21.171716
 20
-84.470413
 30
842.0
 11
-21.171716
 21
-102.882788
 31
946.421769
1001
ACAD
1000
R13OBJECT
1002
{
1005
11F
1002
}
  0
LINE
  5
5AA
  8
TEAM-NET
 10
1.328284
 20
-61.623314
 30
842.0
 11
1.328284
 21
-80.724613
 31
950.328853
1001
ACAD
1000
R13OBJECT
1002
{
1005
11F
1002
}
  0
ARC
  5
5AB
  8
TEAM-NET
 10
-21.828284
 20
987.908904
 30
63.024648
 40
2.0
210
-0.0
220
0.984808
230
0.173648
 50
90.0
 51
138.590378
1001
ACAD
1000
R13OBJECT
1002
{
1005
11F
1002
}
  0
ARC
  5
5AC
  8
TEAM-NET
 10
89.29286
 20
987.404251
 30
-1.328284
 40
2.0
210
-1.0
220
0.0
230
0.0
 50
80.0
 51
128.590378
1001
ACAD
1000
R13OBJECT
1002
{
1005
11F
1002
}
  0
ARC
  5
5AD
  8
TEAM-NET
 10
-1.328284
 20
63.024648
 30
-989.73178
 40
21.322876
210
0.0
220
0.173648
230
-0.984808
 50
90.0
 51
270.0
1001
ACAD
1000
R13OBJECT
1002
{
1005
11F
1002
}
  0
LINE
  5
5AE
  8
TEAM-NET
 10
-20.671716
 20
-102.882788
 30
946.421769
 11
-20.671716
 21
-109.711134
 31
985.147242
1001
ACAD
1000
R13OBJECT
1002
{
1005
11F
1002
}
  0
LINE
  5
5AF
  8
TEAM-NET
 10
1.328284
 20
-124.548558
 30
942.601509
 11
1.328284
 21
-131.376904
 31
981.326982
1001
ACAD
1000
R13OBJECT
1002
{
1005
11F
1002
}
  0
LINE
  5
5B0
  8
TEAM-NET
 10
1.328284
 20
-81.217017
 30
950.242029
 11
1.328284
 21
-88.045363
 31
988.967502
1001
ACAD
1000
R13OBJECT
1002
{
1005
11F
1002
}
  0
LINE
  5
5B1
  8
TEAM-NET
 10
1.328284
 20
-124.548558
 30
942.601509
 11
1.328284
 21
-131.376904
 31
981.326982
1001
ACAD
1000
R13OBJECT
1002
{
1005
11F
1002
}
  0
LINE
  5
5B2
  8
TEAM-NET
 10
23.328284
 20
-102.882788
 30
946.421769
 11
23.328284
 21
-109.711134
 31
985.147242
1001
ACAD
1000
R13OBJECT
1002
{
1005
11F
1002
}
  0
LINE
  5
5B3
  8
TEAM-NET
 10
1.328284
 20
-81.217017
 30
950.242029
 11
1.328284
 21
-88.045363
 31
988.967502
1001
ACAD
1000
R13OBJECT
1002
{
1005
11F
1002
}
  0
ARC
  5
5B4
  8
TEAM-NET
 10
-19.171716
 20
987.908904
 30
-63.024648
 40
2.0
210
-0.0
220
-0.984808
230
-0.173648
 50
90.0
 51
138.590378
1001
ACAD
1000
R13OBJECT
1002
{
1005
11F
1002
}
  0
ARC
  5
5B5
  8
TEAM-NET
 10
89.29286
 20
987.404251
 30
-1.328284
 40
2.0
210
-1.0
220
0.0
230
0.0
 50
80.0
 51
128.590378
1001
ACAD
1000
R13OBJECT
1002
{
1005
11F
1002
}
  0
ARC
  5
5B6
  8
TEAM-NET
 10
-1.328284
 20
63.024648
 30
-989.73178
 40
21.322876
210
-0.0
220
0.173648
230
-0.984808
 50
270.0
 51
90.0
1001
ACAD
1000
R13OBJECT
1002
{
1005
11F
1002
}
  0
LINE
  5
5B7
  8
TEAM-NET
 10
23.828284
 20
-84.470413
 30
842.0
 11
23.828284
 21
-102.882788
 31
946.421769
1001
ACAD
1000
R13OBJECT
1002
{
1005
11F
1002
}
  0
LINE
  5
5B8
  8
TEAM-NET
 10
1.328284
 20
-61.623314
 30
842.0
 11
1.328284
 21
-80.724613
 31
950.328853
1001
ACAD
1000
R13OBJECT
1002
{
1005
11F
1002
}
  0
ARC
  5
120
  8
TEAM-NET
 10
-244.328284
 20
883.0
 30
-28.806923
 40
7.0
210
0.0
220
1.0
230
0.0
 50
90.0
 51
180.0
  0
ARC
  5
121
  8
TEAM-NET
 10
244.328284
 20
883.0
 30
0.0
 40
7.0
210
0.0
220
-1.0
230
0.0
 50
0.0
 51
90.0
  0
ARC
  5
122
  8
TEAM-NET
 10
-28.806923
 20
883.0
 30
-241.671716
 40
7.0
210
1.0
220
0.0
230
0.0
 50
90.0
 51
173.0
  0
ARC
  5
123
  8
TEAM-NET
 10
28.806923
 20
883.0
 30
-244.328284
 40
7.0
210
-1.0
220
0.0
230
0.0
 50
7.0
 51
90.0
  0
ARC
  5
124
  8
TEAM-NET
 10
-244.328284
 20
883.0
 30
-28.806923
 40
7.0
210
0.0
220
1.0
230
0.0
 50
90.0
 51
180.0
  0
ARC
  5
125
  8
TEAM-NET
 10
28.806923
 20
883.0
 30
-244.328284
 40
7.0
210
-1.0
220
0.0
230
0.0
 50
7.0
 51
90.0
  0
ARC
  5
126
  8
TEAM-NET
 10
241.671716
 20
883.0
 30
-28.806923
 40
7.0
210
0.0
220
1.0
230
0.0
 50
0.0
 51
90.0
  0
ARC
  5
127
  8
TEAM-NET
 10
-241.671716
 20
883.0
 30
0.0
 40
7.0
210
0.0
220
-1.0
230
0.0
 50
90.0
 51
180.0
  0
ARC
  5
128
  8
TEAM-NET
 10
-28.806923
 20
883.0
 30
-241.671716
 40
7.0
210
1.0
220
0.0
230
0.0
 50
90.0
 51
173.0
  0
ARC
  5
129
  8
TEAM-NET
 10
241.671716
 20
883.0
 30
-28.806923
 40
7.0
210
0.0
220
1.0
230
0.0
 50
0.0
 51
90.0
  0
ARC
  5
12A
  8
TEAM-NET
 10
-0.671716
 20
214.822226
 30
-867.352295
 40
1.0
210
-0.0
220
-0.184559
230
-0.982821
 50
180.0
 51
270.0
  0
LINE
  5
5B9
  8
TEAM-NET
 10
-0.671716
 20
-50.071638
 30
891.91523
 11
-0.671716
 21
-50.257875
 31
890.923476
1001
ACAD
1000
R13OBJECT
1002
{
1005
12A
1002
}
  0
ARC
  5
5BA
  8
TEAM-NET
 10
0.671716
 20
214.822226
 30
866.343206
 40
1.0
210
-0.0
220
0.184559
230
0.982821
 50
270.0
 51
360.0
1001
ACAD
1000
R13OBJECT
1002
{
1005
12A
1002
}
  0
LINE
  5
5BB
  8
TEAM-NET
 10
-1.671716
 20
-51.240696
 30
891.108035
 11
-1.671716
 21
-51.05446
 31
892.099789
1001
ACAD
1000
R13OBJECT
1002
{
1005
12A
1002
}
  0
ARC
  5
5BC
  8
TEAM-NET
 10
51.426504
 20
890.118562
 30
-0.328284
 40
1.0
210
-1.0
220
-0.0
230
0.0
 50
190.635407
 51
273.78782
1001
ACAD
1000
R13OBJECT
1002
{
1005
12A
1002
}
  0
POLYLINE
  5
5BD
  8
TEAM-NET
 66
     1
 10
0.0
 20
0.0
 30
0.0
 70
     8
1001
ACAD
1000
R13OBJECT
1002
{
1005
12A
1002
}
  0
VERTEX
  5
5BE
  8
TEAM-NET
 10
0.328284
 20
-51.492566
 30
889.120747
 70
    32
  0
VERTEX
  5
5BF
  8
TEAM-NET
 10
-0.116769
 20
-51.486401
 30
889.170799
 70
    32
  0
VERTEX
  5
5C0
  8
TEAM-NET
 10
-0.539201
 20
-51.468263
 30
889.317633
 70
    32
  0
VERTEX
  5
5C1
  8
TEAM-NET
 10
-0.920076
 20
-51.438672
 30
889.555738
 70
    32
  0
VERTEX
  5
5C2
  8
TEAM-NET
 10
-1.164026
 20
-51.40994
 30
889.7853
 70
    32
  0
VERTEX
  5
5C3
  8
TEAM-NET
 10
-1.23636
 20
-51.399228
 30
889.870494
 70
    32
  0
VERTEX
  5
5C4
  8
TEAM-NET
 10
-1.474658
 20
-51.351435
 30
890.248032
 70
    32
  0
VERTEX
  5
5C5
  8
TEAM-NET
 10
-1.621624
 20
-51.297873
 30
890.666452
 70
    32
  0
VERTEX
  5
5C6
  8
TEAM-NET
 10
-1.659258
 20
-51.269461
 30
890.886515
 70
    32
  0
VERTEX
  5
5C7
  8
TEAM-NET
 10
-1.671716
 20
-51.240696
 30
891.108035
 70
    32
  0
SEQEND
  5
5C8
  8
TEAM-NET
  0
POLYLINE
  5
5C9
  8
TEAM-NET
 66
     1
 10
0.0
 20
0.0
 30
0.0
 70
     8
1001
ACAD
1000
R13OBJECT
1002
{
1005
12A
1002
}
  0
VERTEX
  5
5CA
  8
TEAM-NET
 10
-0.671716
 20
-50.257875
 30
890.923476
 70
    32
  0
VERTEX
  5
5CB
  8
TEAM-NET
 10
-0.665487
 20
-50.278587
 30
890.813177
 70
    32
  0
VERTEX
  5
5CC
  8
TEAM-NET
 10
-0.64667
 20
-50.299163
 30
890.703604
 70
    32
  0
VERTEX
  5
5CD
  8
TEAM-NET
 10
-0.573187
 20
-50.338285
 30
890.49527
 70
    32
  0
VERTEX
  5
5CE
  8
TEAM-NET
 10
-0.454038
 20
-50.373584
 30
890.307294
 70
    32
  0
VERTEX
  5
5CF
  8
TEAM-NET
 10
-0.417871
 20
-50.381549
 30
890.264877
 70
    32
  0
VERTEX
  5
5D0
  8
TEAM-NET
 10
-0.295896
 20
-50.403013
 30
890.15058
 70
    32
  0
VERTEX
  5
5D1
  8
TEAM-NET
 10
-0.105459
 20
-50.425274
 30
890.03203
 70
    32
  0
VERTEX
  5
5D2
  8
TEAM-NET
 10
0.105757
 20
-50.439003
 30
889.958924
 70
    32
  0
VERTEX
  5
5D3
  8
TEAM-NET
 10
0.328284
 20
-50.443682
 30
889.934004
 70
    32
  0
SEQEND
  5
5D4
  8
TEAM-NET
  0
ARC
  5
5D5
  8
TEAM-NET
 10
3.328284
 20
214.822226
 30
-867.352295
 40
1.0
210
0.0
220
-0.184559
230
-0.982821
 50
270.0
 51
0.0
1001
ACAD
1000
R13OBJECT
1002
{
1005
12A
1002
}
  0
LINE
  5
5D6
  8
TEAM-NET
 10
4.328284
 20
-51.05446
 30
892.099789
 11
4.328284
 21
-51.240696
 31
891.108035
1001
ACAD
1000
R13OBJECT
1002
{
1005
12A
1002
}
  0
ARC
  5
5D7
  8
TEAM-NET
 10
-3.328284
 20
214.822226
 30
866.343206
 40
1.0
210
0.0
220
0.184559
230
0.982821
 50
180.0
 51
270.0
1001
ACAD
1000
R13OBJECT
1002
{
1005
12A
1002
}
  0
LINE
  5
5D8
  8
TEAM-NET
 10
3.328284
 20
-50.257875
 30
890.923476
 11
3.328284
 21
-50.071638
 31
891.91523
1001
ACAD
1000
R13OBJECT
1002
{
1005
12A
1002
}
  0
POLYLINE
  5
5D9
  8
TEAM-NET
 66
     1
 10
0.0
 20
0.0
 30
0.0
 70
     8
1001
ACAD
1000
R13OBJECT
1002
{
1005
12A
1002
}
  0
VERTEX
  5
5DA
  8
TEAM-NET
 10
4.328284
 20
-51.240696
 30
891.108035
 70
    32
  0
VERTEX
  5
5DB
  8
TEAM-NET
 10
4.278071
 20
-51.297909
 30
890.666173
 70
    32
  0
VERTEX
  5
5DC
  8
TEAM-NET
 10
4.130821
 20
-51.351528
 30
890.247296
 70
    32
  0
VERTEX
  5
5DD
  8
TEAM-NET
 10
4.079385
 20
-51.364125
 30
890.148186
 70
    32
  0
VERTEX
  5
5DE
  8
TEAM-NET
 10
3.576275
 20
-51.43875
 30
889.555126
 70
    32
  0
VERTEX
  5
5DF
  8
TEAM-NET
 10
3.195677
 20
-51.468285
 30
889.31746
 70
    32
  0
VERTEX
  5
5E0
  8
TEAM-NET
 10
2.773198
 20
-51.486425
 30
889.170615
 70
    32
  0
VERTEX
  5
5E1
  8
TEAM-NET
 10
2.328284
 20
-51.492566
 30
889.120747
 70
    32
  0
SEQEND
  5
5E2
  8
TEAM-NET
  0
ARC
  5
5E3
  8
TEAM-NET
 10
-51.426504
 20
890.118562
 30
2.328284
 40
1.0
210
1.0
220
0.0
230
0.0
 50
266.21218
 51
349.364593
1001
ACAD
1000
R13OBJECT
1002
{
1005
12A
1002
}
  0
POLYLINE
  5
5E4
  8
TEAM-NET
 66
     1
 10
0.0
 20
0.0
 30
0.0
 70
     8
1001
ACAD
1000
R13OBJECT
1002
{
1005
12A
1002
}
  0
VERTEX
  5
5E5
  8
TEAM-NET
 10
2.328284
 20
-50.443682
 30
889.934004
 70
    32
  0
VERTEX
  5
5E6
  8
TEAM-NET
 10
2.550741
 20
-50.43902
 30
889.958832
 70
    32
  0
VERTEX
  5
5E7
  8
TEAM-NET
 10
2.761981
 20
-50.425291
 30
890.031944
 70
    32
  0
VERTEX
  5
5E8
  8
TEAM-NET
 10
2.95228
 20
-50.40307
 30
890.150275
 70
    32
  0
VERTEX
  5
5E9
  8
TEAM-NET
 10
3.203834
 20
-50.347621
 30
890.445556
 70
    32
  0
VERTEX
  5
5EA
  8
TEAM-NET
 10
3.229552
 20
-50.338354
 30
890.494904
 70
    32
  0
VERTEX
  5
5EB
  8
TEAM-NET
 10
3.303178
 20
-50.299189
 30
890.703465
 70
    32
  0
VERTEX
  5
5EC
  8
TEAM-NET
 10
3.328284
 20
-50.257875
 30
890.923476
 70
    32
  0
SEQEND
  5
5ED
  8
TEAM-NET
  0
LINE
  5
5EE
  8
TEAM-NET
 10
2.328284
 20
-51.492566
 30
889.120747
 11
0.328284
 21
-51.492566
 31
889.120747
1001
ACAD
1000
R13OBJECT
1002
{
1005
12A
1002
}
  0
LINE
  5
5EF
  8
TEAM-NET
 10
0.328284
 20
-50.443682
 30
889.934004
 11
2.328284
 21
-50.443682
 31
889.934004
1001
ACAD
1000
R13OBJECT
1002
{
1005
12A
1002
}
  0
ARC
  5
5F0
  8
TEAM-NET
 10
51.05446
 20
892.099789
 30
0.671716
 40
1.0
210
-1.0
220
0.0
230
-0.0
 50
94.287959
 51
190.635407
1001
ACAD
1000
R13OBJECT
1002
{
1005
12A
1002
}
  0
ARC
  5
5F1
  8
TEAM-NET
 10
0.671716
 20
885.785385
 30
-117.613112
 40
1.0
210
0.0
220
0.997201
230
-0.074769
 50
360.0
 51
90.0
1001
ACAD
1000
R13OBJECT
1002
{
1005
12A
1002
}
  0
ARC
  5
5F2
  8
TEAM-NET
 10
-51.05446
 20
892.099789
 30
3.328284
 40
1.0
210
1.0
220
-0.0
230
0.0
 50
349.364593
 51
85.712041
1001
ACAD
1000
R13OBJECT
1002
{
1005
12A
1002
}
  0
ARC
  5
5F3
  8
TEAM-NET
 10
-3.328284
 20
885.785385
 30
-117.613112
 40
1.0
210
-0.0
220
0.997201
230
-0.074769
 50
90.0
 51
180.0
1001
ACAD
1000
R13OBJECT
1002
{
1005
12A
1002
}
  0
LINE
  5
5F4
  8
TEAM-NET
 10
3.328284
 20
-50.071638
 30
891.91523
 11
-0.671716
 21
-50.071638
 31
891.91523
1001
ACAD
1000
R13OBJECT
1002
{
1005
12A
1002
}
  0
LINE
  5
5F5
  8
TEAM-NET
 10
-0.671716
 20
-50.979691
 30
893.09699
 11
3.328284
 21
-50.979691
 31
893.09699
1001
ACAD
1000
R13OBJECT
1002
{
1005
12A
1002
}
  0
ARC
  5
5F6
  8
TEAM-NET
 10
-52.510438
 20
873.746523
 30
0.328284
 40
15.407882
210
1.0
220
-0.0
230
0.0
 50
86.21218
 51
169.364593
1001
ACAD
1000
R13OBJECT
1002
{
1005
12A
1002
}
  0
ARC
  5
5F7
  8
TEAM-NET
 10
0.328284
 20
230.273818
 30
-849.045597
 40
2.0
210
-0.0
220
-0.184559
230
-0.982821
 50
180.0
 51
270.0
1001
ACAD
1000
R13OBJECT
1002
{
1005
12A
1002
}
  0
ARC
  5
5F8
  8
TEAM-NET
 10
52.510438
 20
873.746523
 30
1.671716
 40
17.407882
210
-1.0
220
0.0
230
-0.0
 50
10.635407
 51
94.182905
1001
ACAD
1000
R13OBJECT
1002
{
1005
12A
1002
}
  0
ARC
  5
5F9
  8
TEAM-NET
 10
52.510438
 20
873.746523
 30
-2.328284
 40
15.407882
210
-1.0
220
0.0
230
-0.0
 50
10.635407
 51
93.78782
1001
ACAD
1000
R13OBJECT
1002
{
1005
12A
1002
}
  0
LINE
  5
5FA
  8
TEAM-NET
 10
0.328284
 20
-67.653635
 30
876.590182
 11
2.328284
 21
-67.653635
 31
876.590182
1001
ACAD
1000
R13OBJECT
1002
{
1005
12A
1002
}
  0
ARC
  5
5FB
  8
TEAM-NET
 10
-52.510438
 20
873.746523
 30
4.328284
 40
17.407882
210
1.0
220
-0.0
230
0.0
 50
85.817095
 51
169.364593
1001
ACAD
1000
R13OBJECT
1002
{
1005
12A
1002
}
  0
ARC
  5
5FC
  8
TEAM-NET
 10
2.328284
 20
230.273818
 30
-849.045597
 40
2.0
210
0.0
220
-0.184559
230
-0.982821
 50
270.0
 51
0.0
1001
ACAD
1000
R13OBJECT
1002
{
1005
12A
1002
}
  0
ARC
  5
5FD
  8
TEAM-NET
 10
52.43743
 20
873.65504
 30
-4.328284
 40
18.496523
210
-1.0
220
0.0
230
-0.0
 50
10.635407
 51
94.287959
1001
ACAD
1000
R13OBJECT
1002
{
1005
12A
1002
}
  0
LINE
  5
5FE
  8
TEAM-NET
 10
4.328284
 20
-77.061658
 30
842.745107
 11
4.328284
 21
-70.61621
 31
877.068735
1001
ACAD
1000
R13OBJECT
1002
{
1005
12A
1002
}
  0
LINE
  5
5FF
  8
TEAM-NET
 10
4.328284
 20
-77.061658
 30
842.745107
 11
4.328284
 21
-76.078834
 31
842.560548
1001
ACAD
1000
R13OBJECT
1002
{
1005
12A
1002
}
  0
LINE
  5
600
  8
TEAM-NET
 10
4.328284
 20
-69.619278
 30
876.9593
 11
4.328284
 21
-76.078834
 31
842.560548
1001
ACAD
1000
R13OBJECT
1002
{
1005
12A
1002
}
  0
LINE
  5
601
  8
TEAM-NET
 10
-0.671716
 20
-78.04448
 30
842.929666
 11
3.328284
 21
-78.04448
 31
842.929666
1001
ACAD
1000
R13OBJECT
1002
{
1005
12A
1002
}
  0
ARC
  5
602
  8
TEAM-NET
 10
0.671716
 20
231.273821
 30
814.045597
 40
1.0
210
0.0
220
0.184559
230
0.982821
 50
0.0
 51
90.0
1001
ACAD
1000
R13OBJECT
1002
{
1005
12A
1002
}
  0
LINE
  5
603
  8
TEAM-NET
 10
-1.671716
 20
-76.078834
 30
842.560548
 11
-1.671716
 21
-77.061658
 31
842.745107
1001
ACAD
1000
R13OBJECT
1002
{
1005
12A
1002
}
  0
ARC
  5
604
  8
TEAM-NET
 10
-0.328284
 20
230.273818
 30
814.045597
 40
2.0
210
-0.0
220
0.184559
230
0.982821
 50
270.0
 51
360.0
1001
ACAD
1000
R13OBJECT
1002
{
1005
12A
1002
}
  0
LINE
  5
605
  8
TEAM-NET
 10
2.328284
 20
-74.113191
 30
842.19143
 11
0.328284
 21
-74.113191
 31
842.19143
1001
ACAD
1000
R13OBJECT
1002
{
1005
12A
1002
}
  0
ARC
  5
606
  8
TEAM-NET
 10
-2.328284
 20
230.273818
 30
814.045597
 40
2.0
210
0.0
220
0.184559
230
0.982821
 50
180.0
 51
270.0
1001
ACAD
1000
R13OBJECT
1002
{
1005
12A
1002
}
  0
ARC
  5
607
  8
TEAM-NET
 10
-3.328284
 20
231.273821
 30
814.045597
 40
1.0
210
-0.0
220
0.184559
230
0.982821
 50
90.0
 51
180.0
1001
ACAD
1000
R13OBJECT
1002
{
1005
12A
1002
}
  0
LINE
  5
608
  8
TEAM-NET
 10
-0.671716
 20
-78.04448
 30
842.929666
 11
-0.671716
 21
-71.599031
 31
877.253294
1001
ACAD
1000
R13OBJECT
1002
{
1005
12A
1002
}
  0
ARC
  5
609
  8
TEAM-NET
 10
-0.671716
 20
231.273821
 30
-848.96916
 40
1.0
210
-0.0
220
-0.184559
230
-0.982821
 50
90.0
 51
180.0
1001
ACAD
1000
R13OBJECT
1002
{
1005
12A
1002
}
  0
LINE
  5
60A
  8
TEAM-NET
 10
-1.671716
 20
-70.61621
 30
877.068735
 11
-1.671716
 21
-77.061658
 31
842.745107
1001
ACAD
1000
R13OBJECT
1002
{
1005
12A
1002
}
  0
ARC
  5
60B
  8
TEAM-NET
 10
-52.43743
 20
873.65504
 30
-1.671716
 40
18.496523
210
1.0
220
-0.0
230
0.0
 50
85.712041
 51
169.364593
1001
ACAD
1000
R13OBJECT
1002
{
1005
12A
1002
}
  0
ARC
  5
60C
  8
TEAM-NET
 10
52.43743
 20
873.65504
 30
0.671716
 40
19.496523
210
-1.0
220
0.0
230
-0.0
 50
10.635407
 51
94.287959
1001
ACAD
1000
R13OBJECT
1002
{
1005
12A
1002
}
  0
LINE
  5
60D
  8
TEAM-NET
 10
3.328284
 20
-71.599031
 30
877.253294
 11
-0.671716
 21
-71.599031
 31
877.253294
1001
ACAD
1000
R13OBJECT
1002
{
1005
12A
1002
}
  0
ARC
  5
60E
  8
TEAM-NET
 10
-52.43743
 20
873.65504
 30
3.328284
 40
19.496523
210
1.0
220
-0.0
230
0.0
 50
85.712041
 51
169.364593
1001
ACAD
1000
R13OBJECT
1002
{
1005
12A
1002
}
  0
LINE
  5
60F
  8
TEAM-NET
 10
3.328284
 20
-71.599031
 30
877.253294
 11
3.328284
 21
-78.04448
 31
842.929666
1001
ACAD
1000
R13OBJECT
1002
{
1005
12A
1002
}
  0
ARC
  5
610
  8
TEAM-NET
 10
3.328284
 20
231.273821
 30
-848.96916
 40
1.0
210
0.0
220
-0.184559
230
-0.982821
 50
0.0
 51
90.0
1001
ACAD
1000
R13OBJECT
1002
{
1005
12A
1002
}
  0
LINE
  5
611
  8
TEAM-NET
 10
-1.671716
 20
-69.619278
 30
876.9593
 11
-1.671716
 21
-76.078834
 31
842.560548
1001
ACAD
1000
R13OBJECT
1002
{
1005
12A
1002
}
  0
LINE
  5
612
  8
TEAM-NET
 10
0.328284
 20
-67.653635
 30
876.590182
 11
0.328284
 21
-74.113191
 31
842.19143
1001
ACAD
1000
R13OBJECT
1002
{
1005
12A
1002
}
  0
LINE
  5
613
  8
TEAM-NET
 10
2.328284
 20
-74.113191
 30
842.19143
 11
2.328284
 21
-67.653635
 31
876.590182
1001
ACAD
1000
R13OBJECT
1002
{
1005
12A
1002
}
  0
LINE
  5
614
  8
TEAM-NET
 10
-1.378823
 20
-50.3595
 30
891.969286
 11
-1.378823
 21
-50.545736
 31
890.977532
1001
ACAD
1000
R13OBJECT
1002
{
1005
12A
1002
}
  0
LINE
  5
615
  8
TEAM-NET
 10
4.035391
 20
-50.3595
 30
891.969286
 11
4.035391
 21
-50.545736
 31
890.977532
1001
ACAD
1000
R13OBJECT
1002
{
1005
12A
1002
}
  0
LINE
  5
616
  8
TEAM-NET
 10
0.328284
 20
-51.134127
 30
889.162259
 11
2.328284
 21
-51.134127
 31
889.162259
1001
ACAD
1000
R13OBJECT
1002
{
1005
12A
1002
}
  0
LINE
  5
617
  8
TEAM-NET
 10
0.328284
 20
-50.813757
 30
889.328283
 11
2.328284
 21
-50.813757
 31
889.328283
1001
ACAD
1000
R13OBJECT
1002
{
1005
12A
1002
}
  0
LINE
  5
618
  8
TEAM-NET
 10
0.328284
 20
-50.573167
 30
889.597203
 11
2.328284
 21
-50.573167
 31
889.597203
1001
ACAD
1000
R13OBJECT
1002
{
1005
12A
1002
}
  0
LINE
  5
619
  8
TEAM-NET
 10
0.328284
 20
-50.443682
 30
889.934004
 11
2.328284
 21
-50.443682
 31
889.934004
1001
ACAD
1000
R13OBJECT
1002
{
1005
12A
1002
}
  0
ARC
  5
61A
  8
TEAM-NET
 10
0.671716
 20
867.352295
 30
-214.822225
 40
1.0
210
-0.0
220
0.982821
230
-0.184559
 50
0.0
 51
90.0
1001
ACAD
1000
R13OBJECT
1002
{
1005
12A
1002
}
  0
ARC
  5
61B
  8
TEAM-NET
 10
-51.05446
 20
892.099789
 30
-1.595595
 40
0.382683
210
1.0
220
0.0
230
0.0
 50
349.364593
 51
85.712041
1001
ACAD
1000
R13OBJECT
1002
{
1005
12A
1002
}
  0
ARC
  5
61C
  8
TEAM-NET
 10
-51.05446
 20
892.099789
 30
-1.378823
 40
0.707107
210
1.0
220
-0.0
230
0.0
 50
349.364593
 51
85.712041
1001
ACAD
1000
R13OBJECT
1002
{
1005
12A
1002
}
  0
ARC
  5
61D
  8
TEAM-NET
 10
-51.05446
 20
892.099789
 30
-1.054399
 40
0.92388
210
1.0
220
-0.0
230
0.0
 50
349.364593
 51
85.712041
1001
ACAD
1000
R13OBJECT
1002
{
1005
12A
1002
}
  0
ARC
  5
61E
  8
TEAM-NET
 10
-3.328284
 20
867.352295
 30
-214.822225
 40
1.0
210
0.0
220
0.982821
230
-0.184559
 50
90.0
 51
180.0
1001
ACAD
1000
R13OBJECT
1002
{
1005
12A
1002
}
  0
ARC
  5
61F
  8
TEAM-NET
 10
-51.05446
 20
892.099789
 30
3.710968
 40
0.92388
210
1.0
220
0.0
230
0.0
 50
349.364593
 51
85.712041
1001
ACAD
1000
R13OBJECT
1002
{
1005
12A
1002
}
  0
ARC
  5
620
  8
TEAM-NET
 10
-51.05446
 20
892.099789
 30
4.035391
 40
0.707107
210
1.0
220
0.0
230
0.0
 50
349.364593
 51
85.712041
1001
ACAD
1000
R13OBJECT
1002
{
1005
12A
1002
}
  0
ARC
  5
621
  8
TEAM-NET
 10
-51.05446
 20
892.099789
 30
4.252164
 40
0.382683
210
1.0
220
0.0
230
0.0
 50
349.364593
 51
85.712041
1001
ACAD
1000
R13OBJECT
1002
{
1005
12A
1002
}
  0
LINE
  5
622
  8
TEAM-NET
 10
-0.671716
 20
-50.261514
 30
892.709081
 11
3.328284
 21
-50.261514
 31
892.709081
1001
ACAD
1000
R13OBJECT
1002
{
1005
12A
1002
}
  0
ARC
  5
623
  8
TEAM-NET
 10
-0.328284
 20
870.392289
 30
196.489019
 40
2.0
210
0.0
220
0.959258
230
0.282531
 50
270.0
 51
0.0
1001
ACAD
1000
R13OBJECT
1002
{
1005
12A
1002
}
  0
ARC
  5
624
  8
TEAM-NET
 10
-0.328284
 20
743.454927
 30
488.923329
 40
2.0
210
-0.0
220
0.79446
230
0.607317
 50
270.0
 51
360.0
1001
ACAD
1000
R13OBJECT
1002
{
1005
12A
1002
}
  0
ARC
  5
625
  8
TEAM-NET
 10
-0.328284
 20
520.21143
 30
716.504657
 40
2.0
210
0.0
220
0.524281
230
0.851545
 50
270.0
 51
0.0
1001
ACAD
1000
R13OBJECT
1002
{
1005
12A
1002
}
  0
ARC
  5
626
  8
TEAM-NET
 10
-52.510438
 20
873.746523
 30
-1.085929
 40
15.993668
210
1.0
220
-0.0
230
0.0
 50
85.426861
 51
169.364593
1001
ACAD
1000
R13OBJECT
1002
{
1005
12A
1002
}
  0
ARC
  5
627
  8
TEAM-NET
 10
-2.328284
 20
870.392289
 30
196.489019
 40
2.0
210
-0.0
220
0.959258
230
0.282531
 50
180.0
 51
270.0
1001
ACAD
1000
R13OBJECT
1002
{
1005
12A
1002
}
  0
ARC
  5
628
  8
TEAM-NET
 10
-2.328284
 20
743.454927
 30
488.923329
 40
2.0
210
0.0
220
0.79446
230
0.607317
 50
180.0
 51
270.0
1001
ACAD
1000
R13OBJECT
1002
{
1005
12A
1002
}
  0
ARC
  5
629
  8
TEAM-NET
 10
-2.328284
 20
520.21143
 30
716.504657
 40
2.0
210
-0.0
220
0.524281
230
0.851545
 50
180.0
 51
270.0
1001
ACAD
1000
R13OBJECT
1002
{
1005
12A
1002
}
  0
ARC
  5
62A
  8
TEAM-NET
 10
-52.510438
 20
873.746523
 30
3.742498
 40
15.993668
210
1.0
220
-0.0
230
0.0
 50
85.426861
 51
169.364593
1001
ACAD
1000
R13OBJECT
1002
{
1005
12A
1002
}
  0
LINE
  5
62B
  8
TEAM-NET
 10
-1.378823
 20
-77.756618
 30
842.87561
 11
-1.378823
 21
-71.311169
 31
877.199238
1001
ACAD
1000
R13OBJECT
1002
{
1005
12A
1002
}
  0
ARC
  5
62C
  8
TEAM-NET
 10
-0.671716
 20
521.308511
 30
-716.381824
 40
1.0
210
0.0
220
-0.524422
230
-0.851459
 50
90.0
 51
180.0
1001
ACAD
1000
R13OBJECT
1002
{
1005
12A
1002
}
  0
ARC
  5
62D
  8
TEAM-NET
 10
-0.671716
 20
744.588349
 30
-488.685455
 40
1.0
210
-0.0
220
-0.794661
230
-0.607054
 50
90.0
 51
180.0
1001
ACAD
1000
R13OBJECT
1002
{
1005
12A
1002
}
  0
ARC
  5
62E
  8
TEAM-NET
 10
-0.671716
 20
871.470024
 30
-196.109715
 40
1.0
210
0.0
220
-0.959398
230
-0.282054
 50
90.0
 51
180.0
1001
ACAD
1000
R13OBJECT
1002
{
1005
12A
1002
}
  0
ARC
  5
62F
  8
TEAM-NET
 10
52.43743
 20
873.65504
 30
1.378823
 40
19.20363
210
-1.0
220
0.0
230
-0.0
 50
10.635407
 51
94.287959
1001
ACAD
1000
R13OBJECT
1002
{
1005
12A
1002
}
  0
LINE
  5
630
  8
TEAM-NET
 10
3.328284
 20
-69.052311
 30
883.856027
 11
-0.671716
 21
-69.052311
 31
883.856027
1001
ACAD
1000
R13OBJECT
1002
{
1005
12A
1002
}
  0
LINE
  5
631
  8
TEAM-NET
 10
3.328284
 20
-64.316502
 30
889.114731
 11
-0.671716
 21
-64.316502
 31
889.114731
1001
ACAD
1000
R13OBJECT
1002
{
1005
12A
1002
}
  0
LINE
  5
632
  8
TEAM-NET
 10
3.328284
 20
-58.01557
 30
892.336549
 11
-0.671716
 21
-58.01557
 31
892.336549
1001
ACAD
1000
R13OBJECT
1002
{
1005
12A
1002
}
  0
LINE
  5
633
  8
TEAM-NET
 10
3.328284
 20
-50.979691
 30
893.09699
 11
-0.671716
 21
-50.979691
 31
893.09699
1001
ACAD
1000
R13OBJECT
1002
{
1005
12A
1002
}
  0
LINE
  5
634
  8
TEAM-NET
 10
4.035391
 20
-71.311169
 30
877.199238
 11
4.035391
 21
-77.756618
 31
842.87561
1001
ACAD
1000
R13OBJECT
1002
{
1005
12A
1002
}
  0
ARC
  5
635
  8
TEAM-NET
 10
-3.328284
 20
871.470024
 30
196.109715
 40
1.0
210
0.0
220
0.959398
230
0.282054
 50
90.0
 51
180.0
1001
ACAD
1000
R13OBJECT
1002
{
1005
12A
1002
}
  0
ARC
  5
636
  8
TEAM-NET
 10
-3.328284
 20
744.588349
 30
488.685455
 40
1.0
210
-0.0
220
0.794661
230
0.607054
 50
90.0
 51
180.0
1001
ACAD
1000
R13OBJECT
1002
{
1005
12A
1002
}
  0
ARC
  5
637
  8
TEAM-NET
 10
-3.328284
 20
521.308511
 30
716.381824
 40
1.0
210
0.0
220
0.524422
230
0.851459
 50
90.0
 51
180.0
1001
ACAD
1000
R13OBJECT
1002
{
1005
12A
1002
}
  0
ARC
  5
638
  8
TEAM-NET
 10
-3.328284
 20
231.273821
 30
848.96916
 40
1.0
210
0.0
220
0.184559
230
0.982821
 50
90.0
 51
180.0
1001
ACAD
1000
R13OBJECT
1002
{
1005
12A
1002
}
  0
ARC
  5
639
  8
TEAM-NET
 10
-52.43743
 20
873.65504
 30
4.035391
 40
19.20363
210
1.0
220
-0.0
230
0.0
 50
85.712041
 51
169.364593
1001
ACAD
1000
R13OBJECT
1002
{
1005
12A
1002
}
  0
LINE
  5
63A
  8
TEAM-NET
 10
-1.085929
 20
-68.229359
 30
876.698294
 11
-1.085929
 21
-74.688914
 31
842.299542
1001
ACAD
1000
R13OBJECT
1002
{
1005
12A
1002
}
  0
LINE
  5
63B
  8
TEAM-NET
 10
3.742498
 20
-68.229359
 30
876.698294
 11
3.742498
 21
-74.688914
 31
842.299542
1001
ACAD
1000
R13OBJECT
1002
{
1005
12A
1002
}
  0
LINE
  5
12B
  8
TEAM-NET
 10
-3.355526
 20
-106.623874
 30
932.652518
 11
-3.355526
 21
-180.938006
 31
872.622005
  0
ARC
  5
63C
  8
TEAM-NET
 10
-1.328284
 20
792.513563
 30
503.121876
 40
4.68381
210
0.0
220
0.777902
230
0.628385
 50
0.0
 51
180.0
1001
ACAD
1000
R13OBJECT
1002
{
1005
12B
1002
}
  0
LINE
  5
63D
  8
TEAM-NET
 10
6.012094
 20
-106.623874
 30
932.652518
 11
6.012094
 21
-180.938006
 31
872.622005
1001
ACAD
1000
R13OBJECT
1002
{
1005
12B
1002
}
  0
POLYLINE
  5
63E
  8
TEAM-NET
 66
     1
 10
0.0
 20
0.0
 30
0.0
 70
     8
1001
ACAD
1000
R13OBJECT
1002
{
1005
12B
1002
}
  0
VERTEX
  5
63F
  8
TEAM-NET
 10
1.328284
 20
-184.523697
 30
875.746581
 70
    32
  0
VERTEX
  5
640
  8
TEAM-NET
 10
1.939644
 20
-184.493021
 30
875.71985
 70
    32
  0
VERTEX
  5
641
  8
TEAM-NET
 10
2.540543
 20
-184.401518
 30
875.640114
 70
    32
  0
VERTEX
  5
642
  8
TEAM-NET
 10
3.120701
 20
-184.250753
 30
875.508737
 70
    32
  0
VERTEX
  5
643
  8
TEAM-NET
 10
3.670189
 20
-184.043306
 30
875.327967
 70
    32
  0
VERTEX
  5
644
  8
TEAM-NET
 10
4.179607
 20
-183.782726
 30
875.100898
 70
    32
  0
VERTEX
  5
645
  8
TEAM-NET
 10
4.640238
 20
-183.473473
 30
874.831414
 70
    32
  0
VERTEX
  5
646
  8
TEAM-NET
 10
5.0442
 20
-183.120837
 30
874.524127
 70
    32
  0
VERTEX
  5
647
  8
TEAM-NET
 10
5.384583
 20
-182.730852
 30
874.184293
 70
    32
  0
VERTEX
  5
648
  8
TEAM-NET
 10
5.65556
 20
-182.310191
 30
873.817729
 70
    32
  0
VERTEX
  5
649
  8
TEAM-NET
 10
5.852497
 20
-181.866051
 30
873.430705
 70
    32
  0
VERTEX
  5
64A
  8
TEAM-NET
 10
5.972023
 20
-181.406032
 30
873.029844
 70
    32
  0
VERTEX
  5
64B
  8
TEAM-NET
 10
6.012094
 20
-180.938006
 30
872.622005
 70
    32
  0
SEQEND
  5
64C
  8
TEAM-NET
  0
POLYLINE
  5
64D
  8
TEAM-NET
 66
     1
 10
0.0
 20
0.0
 30
0.0
 70
     8
1001
ACAD
1000
R13OBJECT
1002
{
1005
12B
1002
}
  0
VERTEX
  5
64E
  8
TEAM-NET
 10
-3.355526
 20
-180.938006
 30
872.622005
 70
    32
  0
VERTEX
  5
64F
  8
TEAM-NET
 10
-3.315455
 20
-181.406032
 30
873.029844
 70
    32
  0
VERTEX
  5
650
  8
TEAM-NET
 10
-3.195929
 20
-181.866051
 30
873.430705
 70
    32
  0
VERTEX
  5
651
  8
TEAM-NET
 10
-2.998992
 20
-182.310191
 30
873.817729
 70
    32
  0
VERTEX
  5
652
  8
TEAM-NET
 10
-2.728014
 20
-182.730852
 30
874.184293
 70
    32
  0
VERTEX
  5
653
  8
TEAM-NET
 10
-2.387632
 20
-183.120837
 30
874.524127
 70
    32
  0
VERTEX
  5
654
  8
TEAM-NET
 10
-1.98367
 20
-183.473473
 30
874.831414
 70
    32
  0
VERTEX
  5
655
  8
TEAM-NET
 10
-1.523039
 20
-183.782726
 30
875.100898
 70
    32
  0
VERTEX
  5
656
  8
TEAM-NET
 10
-1.013621
 20
-184.043306
 30
875.327967
 70
    32
  0
VERTEX
  5
657
  8
TEAM-NET
 10
-0.464132
 20
-184.250753
 30
875.508737
 70
    32
  0
VERTEX
  5
658
  8
TEAM-NET
 10
0.116025
 20
-184.401518
 30
875.640114
 70
    32
  0
VERTEX
  5
659
  8
TEAM-NET
 10
0.716924
 20
-184.493021
 30
875.71985
 70
    32
  0
VERTEX
  5
65A
  8
TEAM-NET
 10
1.328284
 20
-184.523697
 30
875.746581
 70
    32
  0
SEQEND
  5
65B
  8
TEAM-NET
  0
LINE
  5
65C
  8
TEAM-NET
 10
15.328284
 20
-179.3582
 30
873.898163
 11
15.328284
 21
-105.068069
 31
933.909288
1001
ACAD
1000
R13OBJECT
1002
{
1005
12B
1002
}
  0
POLYLINE
  5
65D
  8
TEAM-NET
 66
     1
 10
0.0
 20
0.0
 30
-523.454998
 70
   128
210
-0.0
220
-0.675261
230
-0.737579
1001
ACAD
1000
R13OBJECT
1002
{
1005
580333040000012B
1002
}
  0
VERTEX
  5
D51
  8
TEAM-NET
 10
-12.671716
 20
722.400324
 30
-523.454998
  0
VERTEX
  5
D52
  8
TEAM-NET
 10
-12.459024
 20
719.941641
 30
-523.454998
  0
VERTEX
  5
D53
  8
TEAM-NET
 10
-11.827413
 20
717.557663
 30
-523.454998
  0
VERTEX
  5
D54
  8
TEAM-NET
 10
-10.796072
 20
715.320827
 30
-523.454998
  0
VERTEX
  5
D55
  8
TEAM-NET
 10
-9.396338
 20
713.299098
 30
-523.454998
  0
VERTEX
  5
D56
  8
TEAM-NET
 10
-7.670742
 20
711.553905
 30
-523.454998
  0
VERTEX
  5
D57
  8
TEAM-NET
 10
-5.671716
 20
710.138275
 30
-523.454998
  0
VERTEX
  5
D58
  8
TEAM-NET
 10
-3.459998
 20
709.095221
 30
-523.454998
  0
VERTEX
  5
D59
  8
TEAM-NET
 10
-1.10279
 20
708.456437
 30
-523.454998
  0
VERTEX
  5
D5A
  8
TEAM-NET
 10
1.328284
 20
708.24133
 30
-523.454998
  0
VERTEX
  5
D5B
  8
TEAM-NET
 10
3.759359
 20
708.456437
 30
-523.454998
  0
VERTEX
  5
D5C
  8
TEAM-NET
 10
6.116566
 20
709.095221
 30
-523.454998
  0
VERTEX
  5
D5D
  8
TEAM-NET
 10
8.328284
 20
710.138275
 30
-523.454998
  0
VERTEX
  5
D5E
  8
TEAM-NET
 10
10.327311
 20
711.553905
 30
-523.454998
  0
VERTEX
  5
D5F
  8
TEAM-NET
 10
12.052906
 20
713.299098
 30
-523.454998
  0
VERTEX
  5
D60
  8
TEAM-NET
 10
13.45264
 20
715.320827
 30
-523.454998
  0
VERTEX
  5
D61
  8
TEAM-NET
 10
14.483981
 20
717.557663
 30
-523.454998
  0
VERTEX
  5
D62
  8
TEAM-NET
 10
15.115593
 20
719.941641
 30
-523.454998
  0
VERTEX
  5
D63
  8
TEAM-NET
 10
15.328284
 20
722.400324
 30
-523.454998
  0
SEQEND
  5
D64
  8
TEAM-NET
  0
LINE
  5
672
  8
TEAM-NET
 10
-12.671716
 20
-179.3582
 30
873.898163
 11
-12.671716
 21
-105.068069
 31
933.909288
1001
ACAD
1000
R13OBJECT
1002
{
1005
12B
1002
}
  0
ARC
  5
673
  8
TEAM-NET
 10
-1.328284
 20
792.513563
 30
505.121876
 40
14.0
210
0.0
220
0.777902
230
0.628385
 50
180.0
 51
0.0
1001
ACAD
1000
R13OBJECT
1002
{
1005
12B
1002
}
  0
LINE
  5
674
  8
TEAM-NET
 10
-4.16676
 20
-103.278962
 30
928.51172
 11
-4.16676
 21
-110.102647
 31
936.959028
1001
ACAD
1000
R13OBJECT
1002
{
1005
12B
1002
}
  0
LINE
  5
675
  8
TEAM-NET
 10
-4.16676
 20
-101.723157
 30
929.76849
 11
-4.16676
 21
-103.278962
 31
928.51172
1001
ACAD
1000
R13OBJECT
1002
{
1005
12B
1002
}
  0
LINE
  5
676
  8
TEAM-NET
 10
-4.16676
 20
-108.546842
 30
938.215798
 11
-4.16676
 21
-101.723157
 31
929.76849
1001
ACAD
1000
R13OBJECT
1002
{
1005
12B
1002
}
  0
LINE
  5
677
  8
TEAM-NET
 10
-4.16676
 20
-108.546842
 30
938.215798
 11
-4.16676
 21
-110.102647
 31
936.959028
1001
ACAD
1000
R13OBJECT
1002
{
1005
12B
1002
}
  0
LINE
  5
678
  8
TEAM-NET
 10
-4.16676
 20
-110.102647
 30
936.959028
 11
7.179276
 21
-110.102647
 31
936.959028
1001
ACAD
1000
R13OBJECT
1002
{
1005
12B
1002
}
  0
LINE
  5
679
  8
TEAM-NET
 10
7.179276
 20
-108.546842
 30
938.215798
 11
-4.16676
 21
-108.546842
 31
938.215798
1001
ACAD
1000
R13OBJECT
1002
{
1005
12B
1002
}
  0
LINE
  5
67A
  8
TEAM-NET
 10
7.179276
 20
-108.546842
 30
938.215798
 11
7.179276
 21
-110.102647
 31
936.959028
1001
ACAD
1000
R13OBJECT
1002
{
1005
12B
1002
}
  0
LINE
  5
67B
  8
TEAM-NET
 10
7.179276
 20
-110.102647
 30
936.959028
 11
7.179276
 21
-103.278962
 31
928.51172
1001
ACAD
1000
R13OBJECT
1002
{
1005
12B
1002
}
  0
LINE
  5
67C
  8
TEAM-NET
 10
7.179276
 20
-101.723157
 30
929.76849
 11
7.179276
 21
-108.546842
 31
938.215798
1001
ACAD
1000
R13OBJECT
1002
{
1005
12B
1002
}
  0
LINE
  5
67D
  8
TEAM-NET
 10
7.179276
 20
-101.723157
 30
929.76849
 11
7.179276
 21
-103.278962
 31
928.51172
1001
ACAD
1000
R13OBJECT
1002
{
1005
12B
1002
}
  0
LINE
  5
67E
  8
TEAM-NET
 10
7.179276
 20
-103.278962
 30
928.51172
 11
-4.16676
 21
-103.278962
 31
928.51172
1001
ACAD
1000
R13OBJECT
1002
{
1005
12B
1002
}
  0
LINE
  5
67F
  8
TEAM-NET
 10
-4.16676
 20
-101.723157
 30
929.76849
 11
7.179276
 21
-101.723157
 31
929.76849
1001
ACAD
1000
R13OBJECT
1002
{
1005
12B
1002
}
  0
ARC
  5
680
  8
TEAM-NET
 10
-1.328284
 20
792.513563
 30
503.121876
 40
4.68381
210
0.0
220
0.777902
230
0.628385
 50
180.0
 51
0.0
1001
ACAD
1000
R13OBJECT
1002
{
1005
12B
1002
}
  0
ARC
  5
681
  8
TEAM-NET
 10
-188.544802
 20
881.903378
 30
1.328284
 40
2.0
210
1.0
220
-0.0
230
0.0
 50
128.931071
 51
228.931071
1001
ACAD
1000
R13OBJECT
1002
{
1005
12B
1002
}
  0
POLYLINE
  5
682
  8
TEAM-NET
 66
     1
 10
0.0
 20
0.0
 30
539.016775
 70
   129
210
0.0
220
0.656966
230
0.75392
1001
ACAD
1000
R13OBJECT
1002
{
1005
982833040000012B
1002
}
  0
VERTEX
  5
D65
  8
TEAM-NET
 10
-1.328284
 20
721.528627
 30
539.016775
  0
VERTEX
  5
D66
  8
TEAM-NET
 10
-5.663184
 20
720.705793
 30
539.016775
  0
VERTEX
  5
D67
  8
TEAM-NET
 10
-9.412632
 20
718.34842
 30
539.016775
  0
VERTEX
  5
D68
  8
TEAM-NET
 10
-12.070244
 20
714.774883
 30
539.016775
  0
VERTEX
  5
D69
  8
TEAM-NET
 10
-13.277094
 20
710.467809
 30
539.016775
  0
VERTEX
  5
D6A
  8
TEAM-NET
 10
-12.870192
 20
706.008892
 30
539.016775
  0
VERTEX
  5
D6B
  8
TEAM-NET
 10
-10.904491
 20
702.000333
 30
539.016775
  0
VERTEX
  5
D6C
  8
TEAM-NET
 10
-7.64547
 20
698.983511
 30
539.016775
  0
VERTEX
  5
D6D
  8
TEAM-NET
 10
-3.533278
 20
697.365864
 30
539.016775
  0
VERTEX
  5
D6E
  8
TEAM-NET
 10
0.87671
 20
697.365864
 30
539.016775
  0
VERTEX
  5
D6F
  8
TEAM-NET
 10
4.988902
 20
698.983511
 30
539.016775
  0
VERTEX
  5
D70
  8
TEAM-NET
 10
8.247923
 20
702.000333
 30
539.016775
  0
VERTEX
  5
D71
  8
TEAM-NET
 10
10.213624
 20
706.008892
 30
539.016775
  0
VERTEX
  5
D72
  8
TEAM-NET
 10
10.620526
 20
710.467809
 30
539.016775
  0
VERTEX
  5
D73
  8
TEAM-NET
 10
9.413675
 20
714.774883
 30
539.016775
  0
VERTEX
  5
D74
  8
TEAM-NET
 10
6.756064
 20
718.34842
 30
539.016775
  0
VERTEX
  5
D75
  8
TEAM-NET
 10
3.006616
 20
720.705793
 30
539.016775
  0
SEQEND
  5
D76
  8
TEAM-NET
  0
POLYLINE
  5
695
  8
TEAM-NET
 66
     1
 10
0.0
 20
0.0
 30
-523.454998
 70
   128
210
0.0
220
-0.675261
230
-0.737579
1001
ACAD
1000
R13OBJECT
1002
{
1005
F00333040000012B
1002
}
  0
VERTEX
  5
D77
  8
TEAM-NET
 10
1.328284
 20
736.559319
 30
-523.454998
  0
VERTEX
  5
D78
  8
TEAM-NET
 10
0.108104
 20
736.50544
 30
-523.454998
  0
VERTEX
  5
D79
  8
TEAM-NET
 10
-1.10279
 20
736.344212
 30
-523.454998
  0
VERTEX
  5
D7A
  8
TEAM-NET
 10
-2.295183
 20
736.076863
 30
-523.454998
  0
VERTEX
  5
D7B
  8
TEAM-NET
 10
-3.459998
 20
735.705427
 30
-523.454998
  0
VERTEX
  5
D7C
  8
TEAM-NET
 10
-4.588372
 20
735.232732
 30
-523.454998
  0
VERTEX
  5
D7D
  8
TEAM-NET
 10
-5.671716
 20
734.662374
 30
-523.454998
  0
VERTEX
  5
D7E
  8
TEAM-NET
 10
-6.701786
 20
733.998694
 30
-523.454998
  0
VERTEX
  5
D7F
  8
TEAM-NET
 10
-7.670742
 20
733.246744
 30
-523.454998
  0
VERTEX
  5
D80
  8
TEAM-NET
 10
-8.571211
 20
732.412246
 30
-523.454998
  0
VERTEX
  5
D81
  8
TEAM-NET
 10
-9.396338
 20
731.501551
 30
-523.454998
  0
VERTEX
  5
D82
  8
TEAM-NET
 10
-10.139845
 20
730.52159
 30
-523.454998
  0
VERTEX
  5
D83
  8
TEAM-NET
 10
-10.796072
 20
729.479822
 30
-523.454998
  0
VERTEX
  5
D84
  8
TEAM-NET
 10
-11.360025
 20
728.384174
 30
-523.454998
  0
VERTEX
  5
D85
  8
TEAM-NET
 10
-11.827413
 20
727.242986
 30
-523.454998
  0
VERTEX
  5
D86
  8
TEAM-NET
 10
-12.194677
 20
726.064942
 30
-523.454998
  0
VERTEX
  5
D87
  8
TEAM-NET
 10
-12.459024
 20
724.859008
 30
-523.454998
  0
VERTEX
  5
D88
  8
TEAM-NET
 10
-12.618442
 20
723.634362
 30
-523.454998
  0
VERTEX
  5
D89
  8
TEAM-NET
 10
-12.671716
 20
722.400324
 30
-523.454998
  0
SEQEND
  5
D8A
  8
TEAM-NET
  0
POLYLINE
  5
6AA
  8
TEAM-NET
 66
     1
 10
0.0
 20
0.0
 30
-523.454998
 70
   128
210
-0.0
220
-0.675261
230
-0.737579
1001
ACAD
1000
R13OBJECT
1002
{
1005
340333040000012B
1002
}
  0
VERTEX
  5
D8B
  8
TEAM-NET
 10
15.328284
 20
722.400324
 30
-523.454998
  0
VERTEX
  5
D8C
  8
TEAM-NET
 10
15.27501
 20
723.634362
 30
-523.454998
  0
VERTEX
  5
D8D
  8
TEAM-NET
 10
15.115593
 20
724.859008
 30
-523.454998
  0
VERTEX
  5
D8E
  8
TEAM-NET
 10
14.851246
 20
726.064942
 30
-523.454998
  0
VERTEX
  5
D8F
  8
TEAM-NET
 10
14.483981
 20
727.242986
 30
-523.454998
  0
VERTEX
  5
D90
  8
TEAM-NET
 10
14.016593
 20
728.384174
 30
-523.454998
  0
VERTEX
  5
D91
  8
TEAM-NET
 10
13.45264
 20
729.479822
 30
-523.454998
  0
VERTEX
  5
D92
  8
TEAM-NET
 10
12.796413
 20
730.52159
 30
-523.454998
  0
VERTEX
  5
D93
  8
TEAM-NET
 10
12.052906
 20
731.501551
 30
-523.454998
  0
VERTEX
  5
D94
  8
TEAM-NET
 10
11.227779
 20
732.412246
 30
-523.454998
  0
VERTEX
  5
D95
  8
TEAM-NET
 10
10.327311
 20
733.246744
 30
-523.454998
  0
VERTEX
  5
D96
  8
TEAM-NET
 10
9.358354
 20
733.998694
 30
-523.454998
  0
VERTEX
  5
D97
  8
TEAM-NET
 10
8.328284
 20
734.662374
 30
-523.454998
  0
VERTEX
  5
D98
  8
TEAM-NET
 10
7.24494
 20
735.232732
 30
-523.454998
  0
VERTEX
  5
D99
  8
TEAM-NET
 10
6.116566
 20
735.705427
 30
-523.454998
  0
VERTEX
  5
D9A
  8
TEAM-NET
 10
4.951751
 20
736.076863
 30
-523.454998
  0
VERTEX
  5
D9B
  8
TEAM-NET
 10
3.759359
 20
736.344212
 30
-523.454998
  0
VERTEX
  5
D9C
  8
TEAM-NET
 10
2.548464
 20
736.50544
 30
-523.454998
  0
VERTEX
  5
D9D
  8
TEAM-NET
 10
1.328284
 20
736.559319
 30
-523.454998
  0
SEQEND
  5
D9E
  8
TEAM-NET
  0
POLYLINE
  5
6BF
  8
TEAM-NET
 66
     1
 10
0.0
 20
0.0
 30
539.016775
 70
   128
210
-0.0
220
0.656966
230
0.75392
1001
ACAD
1000
R13OBJECT
1002
{
1005
742833040000012B
1002
}
  0
VERTEX
  5
D9F
  8
TEAM-NET
 10
-6.012094
 20
709.696162
 30
539.016775
  0
VERTEX
  5
DA0
  8
TEAM-NET
 10
-5.822367
 20
708.356224
 30
539.016775
  0
VERTEX
  5
DA1
  8
TEAM-NET
 10
-5.268556
 20
707.124839
 30
539.016775
  0
VERTEX
  5
DA2
  8
TEAM-NET
 10
-4.395527
 20
706.101768
 30
539.016775
  0
VERTEX
  5
DA3
  8
TEAM-NET
 10
-3.274009
 20
705.369893
 30
539.016775
  0
VERTEX
  5
DA4
  8
TEAM-NET
 10
-1.99486
 20
704.988507
 30
539.016775
  0
VERTEX
  5
DA5
  8
TEAM-NET
 10
-0.661708
 20
704.988507
 30
539.016775
  0
VERTEX
  5
DA6
  8
TEAM-NET
 10
0.617441
 20
705.369893
 30
539.016775
  0
VERTEX
  5
DA7
  8
TEAM-NET
 10
1.738959
 20
706.101768
 30
539.016775
  0
VERTEX
  5
DA8
  8
TEAM-NET
 10
2.611988
 20
707.124839
 30
539.016775
  0
VERTEX
  5
DA9
  8
TEAM-NET
 10
3.165799
 20
708.356224
 30
539.016775
  0
VERTEX
  5
DAA
  8
TEAM-NET
 10
3.355526
 20
709.696162
 30
539.016775
  0
SEQEND
  5
DAB
  8
TEAM-NET
  0
ARC
  5
6CD
  8
TEAM-NET
 10
-1.328284
 20
792.513563
 30
505.121876
 40
14.0
210
0.0
220
0.777902
230
0.628385
 50
360.0
 51
180.0
1001
ACAD
1000
R13OBJECT
1002
{
1005
12B
1002
}
  0
LINE
  5
6CE
  8
TEAM-NET
 10
1.328284
 20
-96.270679
 30
923.018653
 11
1.328284
 21
-168.914828
 31
864.337143
1001
ACAD
1000
R13OBJECT
1002
{
1005
12B
1002
}
  0
LINE
  5
6CF
  8
TEAM-NET
 10
1.328284
 20
-113.865459
 30
944.799923
 11
1.328284
 21
-189.80161
 31
883.459153
1001
ACAD
1000
R13OBJECT
1002
{
1005
12B
1002
}
  0
ARC
  5
12C
  8
TEAM-NET
 10
-244.328284
 20
883.0
 30
0.0
 40
7.0
210
0.0
220
1.0
230
0.0
 50
90.0
 51
180.0
  0
ARC
  5
12D
  8
TEAM-NET
 10
241.671716
 20
883.0
 30
0.0
 40
7.0
210
0.0
220
1.0
230
0.0
 50
0.0
 51
90.0
  0
ARC
  5
12E
  8
TEAM-NET
 10
-213.701799
 20
843.0
 30
57.605888
 40
7.0
210
0.0
220
-1.0
230
0.0
 50
19.354963
 51
90.0
  0
ARC
  5
12F
  8
TEAM-NET
 10
213.701799
 20
843.0
 30
-305.904265
 40
7.0
210
0.0
220
1.0
230
0.0
 50
90.0
 51
160.645037
  0
ARC
  5
130
  8
TEAM-NET
 10
213.701799
 20
843.0
 30
-305.904265
 40
7.0
210
0.0
220
1.0
230
0.0
 50
90.0
 51
160.645037
  0
ARC
  5
131
  8
TEAM-NET
 10
327.350401
 20
843.0
 30
190.955397
 40
7.0
210
-1.0
220
0.0
230
0.0
 50
90.0
 51
175.0
  0
ARC
  5
132
  8
TEAM-NET
 10
-213.701799
 20
843.0
 30
57.605888
 40
7.0
210
0.0
220
-1.0
230
0.0
 50
19.354963
 51
90.0
  0
ARC
  5
133
  8
TEAM-NET
 10
-219.318211
 20
753.302642
 30
-385.418244
 40
7.0
210
0.153668
220
-0.873001
230
-0.462878
 50
20.820694
 51
94.657992
  0
ARC
  5
134
  8
TEAM-NET
 10
327.350401
 20
843.0
 30
190.955397
 40
7.0
210
-1.0
220
0.0
230
0.0
 50
90.0
 51
175.0
  0
ARC
  5
135
  8
TEAM-NET
 10
327.350401
 20
843.0
 30
-193.611965
 40
7.0
210
-1.0
220
0.0
230
0.0
 50
90.0
 51
175.0
  0
ARC
  5
136
  8
TEAM-NET
 10
327.350401
 20
843.0
 30
-193.611965
 40
7.0
210
-1.0
220
0.0
230
0.0
 50
90.0
 51
175.0
  0
ARC
  5
137
  8
TEAM-NET
 10
216.358367
 20
843.0
 30
305.904265
 40
7.0
210
0.0
220
-1.0
230
0.0
 50
90.0
 51
160.645037
  0
ARC
  5
138
  8
TEAM-NET
 10
216.358367
 20
843.0
 30
305.904265
 40
7.0
210
0.0
220
-1.0
230
0.0
 50
90.0
 51
160.645037
  0
ARC
  5
139
  8
TEAM-NET
 10
216.358367
 20
843.0
 30
57.605888
 40
7.0
210
0.0
220
-1.0
230
0.0
 50
90.0
 51
160.645037
  0
ARC
  5
13A
  8
TEAM-NET
 10
221.934556
 20
753.089471
 30
-385.826472
 40
7.0
210
-0.153668
220
-0.873001
230
-0.462878
 50
85.342008
 51
159.179306
  0
ARC
  5
13B
  8
TEAM-NET
 10
216.358367
 20
843.0
 30
57.605888
 40
7.0
210
0.0
220
-1.0
230
0.0
 50
90.0
 51
160.645037
  0
ARC
  5
13C
  8
TEAM-NET
 10
-353.0
 20
843.0
 30
-208.671716
 40
7.0
210
1.0
220
0.0
230
0.0
 50
90.0
 51
180.0
  0
ARC
  5
13D
  8
TEAM-NET
 10
353.0
 20
843.0
 30
-211.328284
 40
7.0
210
-1.0
220
0.0
230
0.0
 50
0.0
 51
90.0
  0
ARC
  5
13E
  8
TEAM-NET
 10
353.0
 20
843.0
 30
-211.328284
 40
7.0
210
-1.0
220
0.0
230
0.0
 50
0.0
 51
90.0
  0
ARC
  5
13F
  8
TEAM-NET
 10
244.328284
 20
843.0
 30
320.0
 40
7.0
210
0.0
220
-1.0
230
0.0
 50
0.0
 51
90.0
  0
ARC
  5
140
  8
TEAM-NET
 10
-353.0
 20
843.0
 30
-208.671716
 40
7.0
210
1.0
220
0.0
230
0.0
 50
90.0
 51
180.0
  0
ARC
  5
141
  8
TEAM-NET
 10
-241.671716
 20
843.0
 30
320.0
 40
7.0
210
0.0
220
-1.0
230
0.0
 50
90.0
 51
180.0
  0
ARC
  5
142
  8
TEAM-NET
 10
244.328284
 20
843.0
 30
320.0
 40
7.0
210
0.0
220
-1.0
230
0.0
 50
0.0
 51
90.0
  0
ARC
  5
143
  8
TEAM-NET
 10
244.328284
 20
843.0
 30
57.605888
 40
7.0
210
0.0
220
-1.0
230
0.0
 50
0.0
 51
90.0
  0
ARC
  5
144
  8
TEAM-NET
 10
-241.671716
 20
843.0
 30
320.0
 40
7.0
210
0.0
220
-1.0
230
0.0
 50
90.0
 51
180.0
  0
ARC
  5
145
  8
TEAM-NET
 10
-241.671716
 20
843.0
 30
57.605888
 40
7.0
210
0.0
220
-1.0
230
0.0
 50
90.0
 51
180.0
  0
POLYLINE
  5
146
  8
TEAM-NET
 66
     1
 10
0.0
 20
0.0
 30
0.0
 70
     8
  0
VERTEX
  5
6D0
  8
TEAM-NET
 10
-208.132882
 20
-44.957951
 30
848.351174
 70
    32
  0
VERTEX
  5
6D1
  8
TEAM-NET
 10
-208.878402
 20
-42.38101
 30
852.22052
 70
    32
  0
VERTEX
  5
6D2
  8
TEAM-NET
 10
-209.046305
 20
-40.266781
 30
856.8993
 70
    32
  0
VERTEX
  5
6D3
  8
TEAM-NET
 10
-208.839474
 20
-38.724319
 30
862.078584
 70
    32
  0
VERTEX
  5
6D4
  8
TEAM-NET
 10
-208.399438
 20
-37.754965
 30
867.562613
 70
    32
  0
SEQEND
  5
6D5
  8
TEAM-NET
  0
ARC
  5
147
  8
TEAM-NET
 10
-219.318211
 20
753.302642
 30
-385.418244
 40
7.0
210
0.153668
220
-0.873001
230
-0.462878
 50
20.820694
 51
94.657992
  0
ARC
  5
148
  8
TEAM-NET
 10
221.934556
 20
753.089471
 30
-385.826472
 40
7.0
210
-0.153668
220
-0.873001
230
-0.462878
 50
85.342008
 51
159.179306
  0
POLYLINE
  5
149
  8
TEAM-NET
 66
     1
 10
0.0
 20
0.0
 30
0.0
 70
     8
  0
VERTEX
  5
6D6
  8
TEAM-NET
 10
211.056006
 20
-37.754965
 30
867.562613
 70
    32
  0
VERTEX
  5
6D7
  8
TEAM-NET
 10
211.496042
 20
-38.724319
 30
862.078585
 70
    32
  0
VERTEX
  5
6D8
  8
TEAM-NET
 10
211.702873
 20
-40.26678
 30
856.899298
 70
    32
  0
VERTEX
  5
6D9
  8
TEAM-NET
 10
211.53497
 20
-42.38101
 30
852.22052
 70
    32
  0
VERTEX
  5
6DA
  8
TEAM-NET
 10
210.789451
 20
-44.957951
 30
848.351174
 70
    32
  0
SEQEND
  5
6DB
  8
TEAM-NET
  0
POLYLINE
  5
14A
  8
TEAM-NET
 66
     1
 10
0.0
 20
0.0
 30
-143.202831
 70
   128
210
-0.0
220
0.992546
230
-0.121869
  0
VERTEX
  5
CEB
  8
TEAM-NET
 10
-211.056006
 20
856.49476
 30
-143.202831
  0
VERTEX
  5
CEC
  8
TEAM-NET
 10
-208.373412
 20
845.736856
 30
-143.202831
  0
VERTEX
  5
CED
  8
TEAM-NET
 10
-205.044631
 20
835.163803
 30
-143.202831
  0
SEQEND
  5
CEE
  8
TEAM-NET
  0
POLYLINE
  5
14B
  8
TEAM-NET
 66
     1
 10
0.0
 20
0.0
 30
0.0
 70
     8
  0
VERTEX
  5
6E0
  8
TEAM-NET
 10
211.056006
 20
-37.754965
 30
867.562613
 70
    32
  0
VERTEX
  5
6E1
  8
TEAM-NET
 10
211.496042
 20
-38.724319
 30
862.078585
 70
    32
  0
VERTEX
  5
6E2
  8
TEAM-NET
 10
211.702873
 20
-40.26678
 30
856.899298
 70
    32
  0
VERTEX
  5
6E3
  8
TEAM-NET
 10
211.53497
 20
-42.38101
 30
852.22052
 70
    32
  0
VERTEX
  5
6E4
  8
TEAM-NET
 10
210.789451
 20
-44.957951
 30
848.351174
 70
    32
  0
SEQEND
  5
6E5
  8
TEAM-NET
  0
ARC
  5
14C
  8
TEAM-NET
 10
57.605888
 20
870.0
 30
-244.328284
 40
20.0
210
-1.0
220
0.0
230
0.0
 50
187.0
 51
270.0
  0
POLYLINE
  5
14D
  8
TEAM-NET
 66
     1
 10
0.0
 20
0.0
 30
-143.202831
 70
   128
210
0.0
220
0.992546
230
-0.121869
  0
VERTEX
  5
CEF
  8
TEAM-NET
 10
202.388063
 20
835.163803
 30
-143.202831
  0
VERTEX
  5
CF0
  8
TEAM-NET
 10
205.716844
 20
845.736856
 30
-143.202831
  0
VERTEX
  5
CF1
  8
TEAM-NET
 10
208.399438
 20
856.49476
 30
-143.202831
  0
SEQEND
  5
CF2
  8
TEAM-NET
  0
POLYLINE
  5
14E
  8
TEAM-NET
 66
     1
 10
0.0
 20
0.0
 30
0.0
 70
     8
  0
VERTEX
  5
6EA
  8
TEAM-NET
 10
-208.132882
 20
-44.957951
 30
848.351174
 70
    32
  0
VERTEX
  5
6EB
  8
TEAM-NET
 10
-208.878402
 20
-42.38101
 30
852.22052
 70
    32
  0
VERTEX
  5
6EC
  8
TEAM-NET
 10
-209.046305
 20
-40.266781
 30
856.8993
 70
    32
  0
VERTEX
  5
6ED
  8
TEAM-NET
 10
-208.839474
 20
-38.724319
 30
862.078584
 70
    32
  0
VERTEX
  5
6EE
  8
TEAM-NET
 10
-208.399438
 20
-37.754965
 30
867.562613
 70
    32
  0
SEQEND
  5
6EF
  8
TEAM-NET
  0
ARC
  5
14F
  8
TEAM-NET
 10
-57.605888
 20
870.0
 30
-241.671716
 40
20.0
210
1.0
220
0.0
230
0.0
 50
270.0
 51
353.0
  0
ARC
  5
150
  8
TEAM-NET
 10
244.328284
 20
843.0
 30
57.605888
 40
7.0
210
0.0
220
-1.0
230
0.0
 50
0.0
 51
90.0
  0
ARC
  5
151
  8
TEAM-NET
 10
-57.605888
 20
870.0
 30
251.328284
 40
27.0
210
1.0
220
0.0
230
0.0
 50
270.0
 51
353.0
  0
ARC
  5
152
  8
TEAM-NET
 10
57.605888
 20
870.0
 30
-244.328284
 40
20.0
210
-1.0
220
0.0
230
0.0
 50
187.0
 51
270.0
  0
ARC
  5
153
  8
TEAM-NET
 10
-241.671716
 20
843.0
 30
57.605888
 40
7.0
210
0.0
220
-1.0
230
0.0
 50
90.0
 51
180.0
  0
ARC
  5
154
  8
TEAM-NET
 10
-57.605888
 20
870.0
 30
-241.671716
 40
20.0
210
1.0
220
0.0
230
0.0
 50
270.0
 51
353.0
  0
ARC
  5
155
  8
TEAM-NET
 10
57.605888
 20
870.0
 30
248.671716
 40
27.0
210
-1.0
220
0.0
230
0.0
 50
187.0
 51
270.0
  0
ARC
  5
156
  8
TEAM-NET
 10
57.605888
 20
870.0
 30
248.671716
 40
27.0
210
-1.0
220
0.0
230
0.0
 50
187.0
 51
270.0
  0
LINE
  5
157
  8
TEAM-NET
 10
-248.671716
 20
0.0
 30
825.00089
 11
-248.671716
 21
0.0
 31
883.0
210
-1.0
220
0.0
230
0.0
  0
ARC
  5
158
  8
TEAM-NET
 10
-57.605888
 20
870.0
 30
251.328284
 40
27.0
210
1.0
220
0.0
230
0.0
 50
270.0
 51
353.0
  0
LINE
  5
159
  8
TEAM-NET
 10
251.328284
 20
0.0
 30
825.00089
 11
251.328284
 21
0.0
 31
883.0
210
1.0
220
0.0
230
0.0
  0
POLYLINE
  5
15A
  8
TEAM-NET
 66
     1
 10
0.0
 20
0.0
 30
143.202831
 70
   128
210
-0.0
220
-0.992546
230
0.121869
  0
VERTEX
  5
CF3
  8
TEAM-NET
 10
205.044631
 20
835.163803
 30
143.202831
  0
VERTEX
  5
CF4
  8
TEAM-NET
 10
208.373412
 20
845.736856
 30
143.202831
  0
VERTEX
  5
CF5
  8
TEAM-NET
 10
211.056006
 20
856.49476
 30
143.202831
  0
SEQEND
  5
CF6
  8
TEAM-NET
  0
POLYLINE
  5
15B
  8
TEAM-NET
 66
     1
 10
0.0
 20
0.0
 30
143.202831
 70
   128
210
-0.0
220
-0.992546
230
0.121869
  0
VERTEX
  5
CF7
  8
TEAM-NET
 10
-208.399438
 20
856.49476
 30
143.202831
  0
VERTEX
  5
CF8
  8
TEAM-NET
 10
-205.716844
 20
845.736856
 30
143.202831
  0
VERTEX
  5
CF9
  8
TEAM-NET
 10
-202.388063
 20
835.163803
 30
143.202831
  0
SEQEND
  5
CFA
  8
TEAM-NET
  0
LINE
  5
15C
  8
TEAM-NET
 10
251.328284
 20
0.0
 30
825.00089
 11
251.328284
 21
0.0
 31
883.0
210
0.0
220
1.0
230
0.0
  0
LINE
  5
15D
  8
TEAM-NET
 10
-248.671716
 20
0.0
 30
825.00089
 11
-248.671716
 21
0.0
 31
883.0
210
0.0
220
1.0
230
0.0
  0
LINE
  5
15E
  8
TEAM-NET
 10
-248.671716
 20
-320.0
 30
843.0
 11
-248.671716
 21
-320.0
 31
825.00089
  0
LINE
  5
15F
  8
TEAM-NET
 10
-208.671716
 20
-360.0
 30
825.00089
 11
-208.671716
 21
-360.0
 31
843.0
  0
LINE
  5
160
  8
TEAM-NET
 10
-208.671716
 20
-360.0
 30
825.00089
 11
-208.671716
 21
-360.0
 31
843.0
210
0.0
220
-1.0
230
0.0
  0
LINE
  5
161
  8
TEAM-NET
 10
211.328284
 20
-360.0
 30
843.0
 11
211.328284
 21
-360.0
 31
825.00089
210
0.0
220
-1.0
230
0.0
  0
LINE
  5
162
  8
TEAM-NET
 10
211.328284
 20
-360.0
 30
843.0
 11
211.328284
 21
-360.0
 31
825.00089
  0
LINE
  5
163
  8
TEAM-NET
 10
251.328284
 20
-320.0
 30
825.00089
 11
251.328284
 21
-320.0
 31
843.0
  0
LINE
  5
164
  8
TEAM-NET
 10
-248.671716
 20
-320.0
 30
843.0
 11
-248.671716
 21
-320.0
 31
825.00089
210
-1.0
220
0.0
230
0.0
  0
LINE
  5
165
  8
TEAM-NET
 10
251.328284
 20
-320.0
 30
825.00089
 11
251.328284
 21
-320.0
 31
843.0
210
1.0
220
0.0
230
0.0
  0
ARC
  5
166
  8
TEAM-NET
 10
1.328284
 20
815.0
 30
125.0
 40
13.0
210
0.0
220
-1.0
230
0.0
 50
360.0
 51
90.0
  0
ARC
  5
167
  8
TEAM-NET
 10
1.328284
 20
815.0
 30
125.0
 40
13.0
210
0.0
220
-1.0
230
0.0
 50
360.0
 51
90.0
  0
LINE
  5
168
  8
TEAM-NET
 10
241.328284
 20
0.0
 30
820.00089
 11
241.328284
 21
-314.477747
 31
820.00089
210
0.0
220
0.0
230
-1.0
  0
LINE
  5
169
  8
TEAM-NET
 10
246.328284
 20
0.0
 30
820.00089
 11
241.328284
 21
0.0
 31
820.00089
210
0.0
220
0.0
230
-1.0
  0
POLYLINE
  5
16A
  8
TEAM-NET
 66
     1
 10
0.0
 20
0.0
 30
0.0
 70
     8
  0
VERTEX
  5
6F8
  8
TEAM-NET
 10
241.328284
 20
-314.477747
 30
820.00089
 70
    32
  0
VERTEX
  5
6F9
  8
TEAM-NET
 10
240.698386
 20
-320.720866
 30
820.00089
 70
    32
  0
VERTEX
  5
6FA
  8
TEAM-NET
 10
238.845218
 20
-326.721404
 30
820.00089
 70
    32
  0
VERTEX
  5
6FB
  8
TEAM-NET
 10
235.857122
 20
-332.242387
 30
820.00089
 70
    32
  0
VERTEX
  5
6FC
  8
TEAM-NET
 10
231.850494
 20
-337.085092
 30
820.00089
 70
    32
  0
VERTEX
  5
6FD
  8
TEAM-NET
 10
226.99379
 20
-341.054399
 30
820.00089
 70
    32
  0
VERTEX
  5
6FE
  8
TEAM-NET
 10
221.463477
 20
-344.010388
 30
820.00089
 70
    32
  0
VERTEX
  5
6FF
  8
TEAM-NET
 10
215.464587
 20
-345.837882
 30
820.00089
 70
    32
  0
VERTEX
  5
700
  8
TEAM-NET
 10
209.226874
 20
-346.457513
 30
820.00089
 70
    32
  0
SEQEND
  5
701
  8
TEAM-NET
  0
LINE
  5
16B
  8
TEAM-NET
 10
246.328284
 20
-320.0
 30
820.00089
 11
246.328284
 21
0.0
 31
820.00089
210
0.0
220
0.0
230
-1.0
  0
LINE
  5
16C
  8
TEAM-NET
 10
209.226874
 20
-346.457513
 30
820.00089
 11
-207.429655
 21
-346.457513
 31
820.00089
210
0.0
220
0.0
230
-1.0
  0
ARC
  5
16D
  8
TEAM-NET
 10
-211.328284
 20
-320.0
 30
-820.00089
 40
35.0
210
0.0
220
0.0
230
-1.0
 50
180.0
 51
270.0
  0
POLYLINE
  5
16E
  8
TEAM-NET
 66
     1
 10
0.0
 20
0.0
 30
0.0
 70
     8
  0
VERTEX
  5
702
  8
TEAM-NET
 10
-238.671716
 20
-315.061878
 30
820.00089
 70
    32
  0
VERTEX
  5
703
  8
TEAM-NET
 10
-238.069716
 20
-321.164551
 30
820.00089
 70
    32
  0
VERTEX
  5
704
  8
TEAM-NET
 10
-236.291333
 20
-327.035286
 30
820.00089
 70
    32
  0
VERTEX
  5
705
  8
TEAM-NET
 10
-233.409464
 20
-332.449363
 30
820.00089
 70
    32
  0
VERTEX
  5
706
  8
TEAM-NET
 10
-229.533346
 20
-337.204177
 30
820.00089
 70
    32
  0
VERTEX
  5
707
  8
TEAM-NET
 10
-224.810616
 20
-341.116117
 30
820.00089
 70
    32
  0
VERTEX
  5
708
  8
TEAM-NET
 10
-219.416507
 20
-344.034818
 30
820.00089
 70
    32
  0
VERTEX
  5
709
  8
TEAM-NET
 10
-213.543658
 20
-345.84404
 30
820.00089
 70
    32
  0
VERTEX
  5
70A
  8
TEAM-NET
 10
-207.429655
 20
-346.457513
 30
820.00089
 70
    32
  0
SEQEND
  5
70B
  8
TEAM-NET
  0
LINE
  5
16F
  8
TEAM-NET
 10
-208.671716
 20
-355.0
 30
820.00089
 11
211.328284
 21
-355.0
 31
820.00089
210
0.0
220
0.0
230
-1.0
  0
LINE
  5
170
  8
TEAM-NET
 10
-238.671716
 20
-315.061878
 30
820.00089
 11
-238.671716
 21
0.0
 31
820.00089
210
0.0
220
0.0
230
-1.0
  0
ARC
  5
171
  8
TEAM-NET
 10
208.671716
 20
-320.0
 30
-820.00089
 40
35.0
210
0.0
220
0.0
230
-1.0
 50
270.0
 51
0.0
  0
LINE
  5
172
  8
TEAM-NET
 10
-238.671716
 20
0.0
 30
820.00089
 11
-243.671716
 21
0.0
 31
820.00089
210
0.0
220
0.0
230
-1.0
  0
LINE
  5
173
  8
TEAM-NET
 10
-243.671716
 20
0.0
 30
820.00089
 11
-243.671716
 21
-320.0
 31
820.00089
210
0.0
220
0.0
230
-1.0
  0
LINE
  5
174
  8
TEAM-NET
 10
11.328284
 20
-122.0
 30
815.0
 11
11.328284
 21
-120.0
 31
815.0
  0
LINE
  5
175
  8
TEAM-NET
 10
-8.671716
 20
-122.0
 30
815.0
 11
-8.671716
 21
-120.0
 31
815.0
  0
ARC
  5
176
  8
TEAM-NET
 10
-1.328284
 20
815.0
 30
-122.0
 40
10.0
210
0.0
220
1.0
230
0.0
 50
0.0
 51
90.0
  0
ARC
  5
177
  8
TEAM-NET
 10
-122.0
 20
828.0
 30
1.328284
 40
3.0
210
1.0
220
0.0
230
0.0
 50
180.0
 51
270.0
  0
ARC
  5
178
  8
TEAM-NET
 10
355.0
 20
825.00089
 30
-211.328284
 40
5.0
210
-1.0
220
0.0
230
0.0
 50
270.0
 51
0.0
  0
LINE
  5
179
  8
TEAM-NET
 10
211.328284
 20
-360.0
 30
825.00089
 11
-208.671716
 21
-360.0
 31
825.00089
  0
LINE
  5
17A
  8
TEAM-NET
 10
-208.671716
 20
-355.0
 30
820.00089
 11
211.328284
 21
-355.0
 31
820.00089
  0
ARC
  5
17B
  8
TEAM-NET
 10
-355.0
 20
825.00089
 30
-208.671716
 40
5.0
210
1.0
220
0.0
230
0.0
 50
180.0
 51
270.0
  0
ARC
  5
17C
  8
TEAM-NET
 10
-355.0
 20
825.00089
 30
-208.671716
 40
5.0
210
1.0
220
0.0
230
0.0
 50
180.0
 51
270.0
  0
ARC
  5
17D
  8
TEAM-NET
 10
208.671716
 20
-320.0
 30
-825.00089
 40
40.0
210
0.0
220
0.0
230
-1.0
 50
270.0
 51
0.0
  0
ARC
  5
17E
  8
TEAM-NET
 10
-208.671716
 20
-320.0
 30
820.00089
 40
35.0
 50
180.0
 51
270.0
  0
ARC
  5
17F
  8
TEAM-NET
 10
-243.671716
 20
825.00089
 30
320.0
 40
5.0
210
0.0
220
-1.0
230
0.0
 50
180.0
 51
270.0
  0
ARC
  5
180
  8
TEAM-NET
 10
355.0
 20
825.00089
 30
-211.328284
 40
5.0
210
-1.0
220
0.0
230
0.0
 50
270.0
 51
0.0
  0
ARC
  5
181
  8
TEAM-NET
 10
211.328284
 20
-320.0
 30
820.00089
 40
35.0
 50
270.0
 51
0.0
  0
ARC
  5
182
  8
TEAM-NET
 10
-211.328284
 20
-320.0
 30
-825.00089
 40
40.0
210
0.0
220
0.0
230
-1.0
 50
180.0
 51
270.0
  0
ARC
  5
183
  8
TEAM-NET
 10
246.328284
 20
825.00089
 30
320.0
 40
5.0
210
0.0
220
-1.0
230
0.0
 50
270.0
 51
0.0
  0
ARC
  5
184
  8
TEAM-NET
 10
-243.671716
 20
825.00089
 30
320.0
 40
5.0
210
0.0
220
-1.0
230
0.0
 50
180.0
 51
270.0
  0
LINE
  5
185
  8
TEAM-NET
 10
-248.671716
 20
-320.0
 30
825.00089
 11
-248.671716
 21
0.0
 31
825.00089
  0
LINE
  5
186
  8
TEAM-NET
 10
-243.671716
 20
0.0
 30
820.00089
 11
-243.671716
 21
-320.0
 31
820.00089
  0
ARC
  5
187
  8
TEAM-NET
 10
-243.671716
 20
825.00089
 30
0.0
 40
5.0
210
0.0
220
-1.0
230
0.0
 50
180.0
 51
270.0
  0
ARC
  5
188
  8
TEAM-NET
 10
246.328284
 20
825.00089
 30
320.0
 40
5.0
210
0.0
220
-1.0
230
0.0
 50
270.0
 51
0.0
  0
LINE
  5
189
  8
TEAM-NET
 10
246.328284
 20
-320.0
 30
820.00089
 11
246.328284
 21
0.0
 31
820.00089
  0
LINE
  5
18A
  8
TEAM-NET
 10
251.328284
 20
0.0
 30
825.00089
 11
251.328284
 21
-320.0
 31
825.00089
  0
ARC
  5
18B
  8
TEAM-NET
 10
246.328284
 20
825.00089
 30
0.0
 40
5.0
210
0.0
220
-1.0
230
0.0
 50
270.0
 51
0.0
  0
ARC
  5
18C
  8
TEAM-NET
 10
-1.328284
 20
815.0
 30
-122.0
 40
10.0
210
0.0
220
1.0
230
0.0
 50
90.0
 51
180.0
  0
LINE
  5
18D
  8
TEAM-NET
 10
11.328284
 20
-122.0
 30
815.0
 11
11.328284
 21
-120.0
 31
815.0
  0
ARC
  5
18E
  8
TEAM-NET
 10
-1.328284
 20
815.0
 30
-122.0
 40
10.0
210
0.0
220
1.0
230
0.0
 50
0.0
 51
90.0
  0
LINE
  5
18F
  8
TEAM-NET
 10
-8.671716
 20
-122.0
 30
815.0
 11
-8.671716
 21
-120.0
 31
815.0
  0
ARC
  5
190
  8
TEAM-NET
 10
208.671716
 20
-320.0
 30
-825.00089
 40
40.0
210
0.0
220
0.0
230
-1.0
 50
270.0
 51
0.0
  0
LINE
  5
191
  8
TEAM-NET
 10
211.328284
 20
-360.0
 30
825.00089
 11
-208.671716
 21
-360.0
 31
825.00089
210
0.0
220
-1.0
230
0.0
  0
ARC
  5
192
  8
TEAM-NET
 10
-211.328284
 20
-320.0
 30
-825.00089
 40
40.0
210
0.0
220
0.0
230
-1.0
 50
180.0
 51
270.0
  0
LINE
  5
193
  8
TEAM-NET
 10
-248.671716
 20
-320.0
 30
825.00089
 11
-248.671716
 21
0.0
 31
825.00089
210
-1.0
220
0.0
230
0.0
  0
LINE
  5
194
  8
TEAM-NET
 10
251.328284
 20
0.0
 30
825.00089
 11
251.328284
 21
-320.0
 31
825.00089
210
1.0
220
0.0
230
0.0
  0
POLYLINE
  5
195
  8
TEAM-NET
 66
     1
 10
0.0
 20
0.0
 30
0.0
 70
     8
  0
VERTEX
  5
70C
  8
TEAM-NET
 10
-238.671716
 20
-315.061878
 30
820.00089
 70
    32
  0
VERTEX
  5
70D
  8
TEAM-NET
 10
-238.069716
 20
-321.164551
 30
820.00089
 70
    32
  0
VERTEX
  5
70E
  8
TEAM-NET
 10
-236.291333
 20
-327.035286
 30
820.00089
 70
    32
  0
VERTEX
  5
70F
  8
TEAM-NET
 10
-233.409464
 20
-332.449363
 30
820.00089
 70
    32
  0
VERTEX
  5
710
  8
TEAM-NET
 10
-229.533346
 20
-337.204177
 30
820.00089
 70
    32
  0
VERTEX
  5
711
  8
TEAM-NET
 10
-224.810616
 20
-341.116117
 30
820.00089
 70
    32
  0
VERTEX
  5
712
  8
TEAM-NET
 10
-219.416507
 20
-344.034818
 30
820.00089
 70
    32
  0
VERTEX
  5
713
  8
TEAM-NET
 10
-213.543658
 20
-345.84404
 30
820.00089
 70
    32
  0
VERTEX
  5
714
  8
TEAM-NET
 10
-207.429655
 20
-346.457513
 30
820.00089
 70
    32
  0
SEQEND
  5
715
  8
TEAM-NET
  0
LINE
  5
196
  8
TEAM-NET
 10
246.328284
 20
0.0
 30
820.00089
 11
241.328284
 21
0.0
 31
820.00089
210
0.0
220
1.0
230
0.0
  0
ARC
  5
197
  8
TEAM-NET
 10
-246.328284
 20
825.00089
 30
0.0
 40
5.0
210
0.0
220
1.0
230
0.0
 50
180.0
 51
270.0
  0
LINE
  5
198
  8
TEAM-NET
 10
-238.671716
 20
0.0
 30
820.00089
 11
-243.671716
 21
0.0
 31
820.00089
210
0.0
220
1.0
230
0.0
  0
ARC
  5
199
  8
TEAM-NET
 10
243.671716
 20
825.00089
 30
0.0
 40
5.0
210
0.0
220
1.0
230
0.0
 50
270.0
 51
0.0
  0
LINE
  5
19A
  8
TEAM-NET
 10
-238.671716
 20
-315.061878
 30
820.00089
 11
-238.671716
 21
0.0
 31
820.00089
  0
POLYLINE
  5
19B
  8
TEAM-NET
 66
     1
 10
0.0
 20
0.0
 30
0.0
 70
     8
  0
VERTEX
  5
716
  8
TEAM-NET
 10
241.328284
 20
-314.477747
 30
820.00089
 70
    32
  0
VERTEX
  5
717
  8
TEAM-NET
 10
240.698386
 20
-320.720866
 30
820.00089
 70
    32
  0
VERTEX
  5
718
  8
TEAM-NET
 10
238.845218
 20
-326.721404
 30
820.00089
 70
    32
  0
VERTEX
  5
719
  8
TEAM-NET
 10
235.857122
 20
-332.242387
 30
820.00089
 70
    32
  0
VERTEX
  5
71A
  8
TEAM-NET
 10
231.850494
 20
-337.085092
 30
820.00089
 70
    32
  0
VERTEX
  5
71B
  8
TEAM-NET
 10
226.99379
 20
-341.054399
 30
820.00089
 70
    32
  0
VERTEX
  5
71C
  8
TEAM-NET
 10
221.463477
 20
-344.010388
 30
820.00089
 70
    32
  0
VERTEX
  5
71D
  8
TEAM-NET
 10
215.464587
 20
-345.837882
 30
820.00089
 70
    32
  0
VERTEX
  5
71E
  8
TEAM-NET
 10
209.226874
 20
-346.457513
 30
820.00089
 70
    32
  0
SEQEND
  5
71F
  8
TEAM-NET
  0
LINE
  5
19C
  8
TEAM-NET
 10
209.226874
 20
-346.457513
 30
820.00089
 11
-207.429655
 21
-346.457513
 31
820.00089
  0
LINE
  5
19D
  8
TEAM-NET
 10
241.328284
 20
0.0
 30
820.00089
 11
241.328284
 21
-314.477747
 31
820.00089
  0
ARC
  5
19E
  8
TEAM-NET
 10
-1.328284
 20
815.0
 30
-122.0
 40
10.0
210
0.0
220
1.0
230
0.0
 50
90.0
 51
180.0
  0
ARC
  5
19F
  8
TEAM-NET
 10
-122.0
 20
828.0
 30
1.328284
 40
3.0
210
1.0
220
0.0
230
0.0
 50
180.0
 51
270.0
  0
LINE
  5
1A0
  8
TEAM-NET
 10
-207.097415
 20
-305.904265
 30
845.319937
 11
-207.097415
 21
-57.605888
 31
845.319937
  0
POLYLINE
  5
1A1
  8
TEAM-NET
 66
     1
 10
0.0
 20
0.0
 30
0.0
 70
     8
  0
VERTEX
  5
720
  8
TEAM-NET
 10
-190.955397
 20
-320.377038
 30
843.61009
 70
    32
  0
VERTEX
  5
721
  8
TEAM-NET
 10
-194.065129
 20
-320.159933
 30
844.05233
 70
    32
  0
VERTEX
  5
722
  8
TEAM-NET
 10
-197.061019
 20
-319.422999
 30
844.445301
 70
    32
  0
VERTEX
  5
723
  8
TEAM-NET
 10
-199.846854
 20
-318.168629
 30
844.779458
 70
    32
  0
VERTEX
  5
724
  8
TEAM-NET
 10
-202.320386
 20
-316.4154
 30
845.046251
 70
    32
  0
VERTEX
  5
725
  8
TEAM-NET
 10
-204.358498
 20
-314.227081
 30
845.236637
 70
    32
  0
VERTEX
  5
726
  8
TEAM-NET
 10
-205.881014
 20
-311.668534
 30
845.34708
 70
    32
  0
VERTEX
  5
727
  8
TEAM-NET
 10
-206.806823
 20
-308.856332
 30
845.374613
 70
    32
  0
VERTEX
  5
728
  8
TEAM-NET
 10
-207.097415
 20
-305.904265
 30
845.319937
 70
    32
  0
SEQEND
  5
729
  8
TEAM-NET
  0
POLYLINE
  5
1A2
  8
TEAM-NET
 66
     1
 10
0.0
 20
0.0
 30
0.0
 70
     8
  0
VERTEX
  5
72A
  8
TEAM-NET
 10
-207.097415
 20
-57.605888
 30
845.319937
 70
    32
  0
VERTEX
  5
72B
  8
TEAM-NET
 10
-207.165696
 20
-54.309755
 30
845.514633
 70
    32
  0
VERTEX
  5
72C
  8
TEAM-NET
 10
-207.367473
 20
-51.068379
 30
846.094182
 70
    32
  0
VERTEX
  5
72D
  8
TEAM-NET
 10
-207.694207
 20
-47.935607
 30
847.046003
 70
    32
  0
VERTEX
  5
72E
  8
TEAM-NET
 10
-208.132882
 20
-44.957951
 30
848.351174
 70
    32
  0
SEQEND
  5
72F
  8
TEAM-NET
  0
LINE
  5
1A3
  8
TEAM-NET
 10
193.611965
 20
-320.377038
 30
843.61009
 11
-190.955397
 21
-320.377038
 31
843.61009
  0
POLYLINE
  5
1A4
  8
TEAM-NET
 66
     1
 10
0.0
 20
0.0
 30
0.0
 70
     8
  0
VERTEX
  5
730
  8
TEAM-NET
 10
209.753983
 20
-305.904265
 30
845.319937
 70
    32
  0
VERTEX
  5
731
  8
TEAM-NET
 10
209.464798
 20
-308.850417
 30
845.374602
 70
    32
  0
VERTEX
  5
732
  8
TEAM-NET
 10
208.542577
 20
-311.657859
 30
845.347369
 70
    32
  0
VERTEX
  5
733
  8
TEAM-NET
 10
207.024039
 20
-314.215412
 30
845.237401
 70
    32
  0
VERTEX
  5
734
  8
TEAM-NET
 10
204.991245
 20
-316.403099
 30
845.0477
 70
    32
  0
VERTEX
  5
735
  8
TEAM-NET
 10
202.522256
 20
-318.158034
 30
844.78161
 70
    32
  0
VERTEX
  5
736
  8
TEAM-NET
 10
199.739356
 20
-319.415617
 30
844.448036
 70
    32
  0
VERTEX
  5
737
  8
TEAM-NET
 10
196.731163
 20
-320.158501
 30
844.05362
 70
    32
  0
VERTEX
  5
738
  8
TEAM-NET
 10
193.611965
 20
-320.377038
 30
843.61009
 70
    32
  0
SEQEND
  5
739
  8
TEAM-NET
  0
LINE
  5
1A5
  8
TEAM-NET
 10
209.753983
 20
-57.605888
 30
845.319937
 11
209.753983
 21
-305.904265
 31
845.319937
  0
POLYLINE
  5
1A6
  8
TEAM-NET
 66
     1
 10
0.0
 20
0.0
 30
0.0
 70
     8
  0
VERTEX
  5
73A
  8
TEAM-NET
 10
210.789451
 20
-44.957951
 30
848.351174
 70
    32
  0
VERTEX
  5
73B
  8
TEAM-NET
 10
210.350804
 20
-47.935488
 30
847.046068
 70
    32
  0
VERTEX
  5
73C
  8
TEAM-NET
 10
210.024098
 20
-51.068221
 30
846.094314
 70
    32
  0
VERTEX
  5
73D
  8
TEAM-NET
 10
209.822577
 20
-54.309344
 30
845.515335
 70
    32
  0
VERTEX
  5
73E
  8
TEAM-NET
 10
209.753983
 20
-57.605888
 30
845.319937
 70
    32
  0
SEQEND
  5
73F
  8
TEAM-NET
  0
ARC
  5
1A7
  8
TEAM-NET
 10
205.751893
 20
846.0
 30
45.39894
 40
4.0
210
0.0
220
-1.0
230
0.0
 50
270.0
 51
340.428811
  0
LINE
  5
1A8
  8
TEAM-NET
 10
205.751893
 20
-45.39894
 30
842.0
 11
205.751893
 21
-123.882939
 31
842.0
  0
LINE
  5
1A9
  8
TEAM-NET
 10
209.520797
 20
-140.0
 30
844.660089
 11
209.520797
 21
-45.39894
 31
844.660089
  0
POLYLINE
  5
1AA
  8
TEAM-NET
 66
     1
 10
0.0
 20
0.0
 30
0.0
 70
     8
  0
VERTEX
  5
740
  8
TEAM-NET
 10
209.520797
 20
-140.0
 30
844.660089
 70
    32
  0
VERTEX
  5
741
  8
TEAM-NET
 10
208.185658
 20
-131.578326
 30
842.825608
 70
    32
  0
VERTEX
  5
742
  8
TEAM-NET
 10
207.09858
 20
-127.569383
 30
842.233513
 70
    32
  0
VERTEX
  5
743
  8
TEAM-NET
 10
205.751893
 20
-123.882939
 30
842.0
 70
    32
  0
SEQEND
  5
744
  8
TEAM-NET
  0
ARC
  5
1AB
  8
TEAM-NET
 10
201.094149
 20
846.0
 30
62.826721
 40
4.0
210
0.085916
220
-0.996302
230
0.0
 50
270.0
 51
339.963009
  0
POLYLINE
  5
1AC
  8
TEAM-NET
 66
     1
 10
0.0
 20
0.0
 30
0.0
 70
     8
  0
VERTEX
  5
745
  8
TEAM-NET
 10
205.044631
 20
-40.354554
 30
846.390653
 70
    32
  0
VERTEX
  5
746
  8
TEAM-NET
 10
205.277463
 20
-40.828806
 30
844.79692
 70
    32
  0
VERTEX
  5
747
  8
TEAM-NET
 10
205.491421
 20
-41.845597
 30
843.401753
 70
    32
  0
VERTEX
  5
748
  8
TEAM-NET
 10
205.66041
 20
-43.38421
 30
842.388795
 70
    32
  0
VERTEX
  5
749
  8
TEAM-NET
 10
205.748384
 20
-45.317285
 30
842.0
 70
    32
  0
SEQEND
  5
74A
  8
TEAM-NET
  0
POLYLINE
  5
1AD
  8
TEAM-NET
 66
     1
 10
0.0
 20
0.0
 30
0.0
 70
     8
  0
VERTEX
  5
74B
  8
TEAM-NET
 10
209.492375
 20
-44.994424
 30
844.629493
 70
    32
  0
VERTEX
  5
74C
  8
TEAM-NET
 10
208.936097
 20
-43.101589
 30
844.690556
 70
    32
  0
VERTEX
  5
74D
  8
TEAM-NET
 10
207.867763
 20
-41.64037
 30
845.073193
 70
    32
  0
VERTEX
  5
74E
  8
TEAM-NET
 10
206.515567
 20
-40.721748
 30
845.66884
 70
    32
  0
VERTEX
  5
74F
  8
TEAM-NET
 10
205.044631
 20
-40.354554
 30
846.390653
 70
    32
  0
SEQEND
  5
750
  8
TEAM-NET
  0
ARC
  5
1AE
  8
TEAM-NET
 10
205.751893
 20
846.0
 30
45.39894
 40
4.0
210
0.0
220
-1.0
230
0.0
 50
270.0
 51
340.428811
  0
LINE
  5
1AF
  8
TEAM-NET
 10
209.520797
 20
-45.39894
 30
844.660089
 11
209.492375
 21
-44.994424
 31
844.629493
  0
LINE
  5
1B0
  8
TEAM-NET
 10
205.748384
 20
-45.317285
 30
842.0
 11
205.751893
 21
-45.39894
 31
842.0
  0
ARC
  5
1B1
  8
TEAM-NET
 10
201.094149
 20
846.0
 30
62.826721
 40
4.0
210
0.085916
220
-0.996302
230
0.0
 50
270.0
 51
339.963009
  0
ARC
  5
1B2
  8
TEAM-NET
 10
1.328284
 20
-84.470413
 30
842.0
 40
22.5
 50
180.0
 51
0.0
  0
ARC
  5
1B3
  8
TEAM-NET
 10
1.328284
 20
-84.470413
 30
842.0
 40
22.5
 50
360.0
 51
180.0
  0
LINE
  5
1B4
  8
TEAM-NET
 10
-203.095325
 20
-45.39894
 30
842.0
 11
-203.091816
 21
-45.317285
 31
842.0
  0
LINE
  5
1B5
  8
TEAM-NET
 10
-203.095325
 20
-123.882939
 30
842.0
 11
-203.095325
 21
-45.39894
 31
842.0
  0
LINE
  5
1B6
  8
TEAM-NET
 10
-203.091816
 20
-45.317285
 30
842.0
 11
205.748384
 21
-45.317285
 31
842.0
  0
POLYLINE
  5
1B7
  8
TEAM-NET
 66
     1
 10
0.0
 20
0.0
 30
842.0
 70
   128
  0
VERTEX
  5
CFB
  8
TEAM-NET
 10
-186.726535
 20
-118.0
 30
842.0
  0
VERTEX
  5
CFC
  8
TEAM-NET
 10
-191.145257
 20
-118.36986
 30
842.0
  0
VERTEX
  5
CFD
  8
TEAM-NET
 10
-195.437262
 20
-119.481901
 30
842.0
  0
VERTEX
  5
CFE
  8
TEAM-NET
 10
-199.469559
 20
-121.32999
 30
842.0
  0
VERTEX
  5
CFF
  8
TEAM-NET
 10
-203.095325
 20
-123.882939
 30
842.0
  0
SEQEND
  5
D00
  8
TEAM-NET
  0
LINE
  5
1B8
  8
TEAM-NET
 10
205.748384
 20
-45.317285
 30
842.0
 11
205.751893
 21
-45.39894
 31
842.0
  0
LINE
  5
1B9
  8
TEAM-NET
 10
189.383103
 20
-118.0
 30
842.0
 11
-186.726535
 21
-118.0
 31
842.0
  0
LINE
  5
1BA
  8
TEAM-NET
 10
205.751893
 20
-45.39894
 30
842.0
 11
205.751893
 21
-123.882939
 31
842.0
  0
POLYLINE
  5
1BB
  8
TEAM-NET
 66
     1
 10
0.0
 20
0.0
 30
842.0
 70
   128
  0
VERTEX
  5
D01
  8
TEAM-NET
 10
205.751893
 20
-123.882939
 30
842.0
  0
VERTEX
  5
D02
  8
TEAM-NET
 10
202.126135
 20
-121.329995
 30
842.0
  0
VERTEX
  5
D03
  8
TEAM-NET
 10
198.093847
 20
-119.481907
 30
842.0
  0
VERTEX
  5
D04
  8
TEAM-NET
 10
193.801839
 20
-118.369862
 30
842.0
  0
VERTEX
  5
D05
  8
TEAM-NET
 10
189.383103
 20
-118.0
 30
842.0
  0
SEQEND
  5
D06
  8
TEAM-NET
  0
POLYLINE
  5
1BC
  8
TEAM-NET
 66
     1
 10
0.0
 20
0.0
 30
0.0
 70
     8
  0
VERTEX
  5
75D
  8
TEAM-NET
 10
-203.091816
 20
-45.317285
 30
842.0
 70
    32
  0
VERTEX
  5
75E
  8
TEAM-NET
 10
-203.003842
 20
-43.38421
 30
842.388794
 70
    32
  0
VERTEX
  5
75F
  8
TEAM-NET
 10
-202.834853
 20
-41.8456
 30
843.401746
 70
    32
  0
VERTEX
  5
760
  8
TEAM-NET
 10
-202.620894
 20
-40.828805
 30
844.796923
 70
    32
  0
VERTEX
  5
761
  8
TEAM-NET
 10
-202.388063
 20
-40.354554
 30
846.390653
 70
    32
  0
SEQEND
  5
762
  8
TEAM-NET
  0
LINE
  5
1BD
  8
TEAM-NET
 10
-203.091816
 20
-45.317285
 30
842.0
 11
205.748384
 21
-45.317285
 31
842.0
  0
LINE
  5
1BE
  8
TEAM-NET
 10
205.044631
 20
-40.354554
 30
846.390653
 11
-202.388063
 21
-40.354554
 31
846.390653
  0
POLYLINE
  5
1BF
  8
TEAM-NET
 66
     1
 10
0.0
 20
0.0
 30
0.0
 70
     8
  0
VERTEX
  5
763
  8
TEAM-NET
 10
205.044631
 20
-40.354554
 30
846.390653
 70
    32
  0
VERTEX
  5
764
  8
TEAM-NET
 10
205.277463
 20
-40.828806
 30
844.79692
 70
    32
  0
VERTEX
  5
765
  8
TEAM-NET
 10
205.491421
 20
-41.845597
 30
843.401753
 70
    32
  0
VERTEX
  5
766
  8
TEAM-NET
 10
205.66041
 20
-43.38421
 30
842.388795
 70
    32
  0
VERTEX
  5
767
  8
TEAM-NET
 10
205.748384
 20
-45.317285
 30
842.0
 70
    32
  0
SEQEND
  5
768
  8
TEAM-NET
  0
ARC
  5
1C0
  8
TEAM-NET
 10
203.095325
 20
846.0
 30
-45.39894
 40
4.0
210
0.0
220
1.0
230
0.0
 50
270.0
 51
340.428811
  0
LINE
  5
1C1
  8
TEAM-NET
 10
-206.864229
 20
-45.39894
 30
844.660089
 11
-206.864229
 21
-140.0
 31
844.660089
  0
LINE
  5
1C2
  8
TEAM-NET
 10
-203.095325
 20
-123.882939
 30
842.0
 11
-203.095325
 21
-45.39894
 31
842.0
  0
POLYLINE
  5
1C3
  8
TEAM-NET
 66
     1
 10
0.0
 20
0.0
 30
0.0
 70
     8
  0
VERTEX
  5
769
  8
TEAM-NET
 10
-203.095325
 20
-123.882939
 30
842.0
 70
    32
  0
VERTEX
  5
76A
  8
TEAM-NET
 10
-204.441999
 20
-127.569337
 30
842.233507
 70
    32
  0
VERTEX
  5
76B
  8
TEAM-NET
 10
-205.529098
 20
-131.578353
 30
842.825611
 70
    32
  0
VERTEX
  5
76C
  8
TEAM-NET
 10
-206.864229
 20
-140.0
 30
844.660089
 70
    32
  0
SEQEND
  5
76D
  8
TEAM-NET
  0
ARC
  5
1C4
  8
TEAM-NET
 10
198.447404
 20
846.0
 30
-62.59848
 40
4.0
210
0.085916
220
0.996302
230
0.0
 50
270.0
 51
339.963009
  0
LINE
  5
1C5
  8
TEAM-NET
 10
-206.835807
 20
-44.994424
 30
844.629493
 11
-206.864229
 21
-45.39894
 31
844.660089
  0
LINE
  5
1C6
  8
TEAM-NET
 10
-203.095325
 20
-45.39894
 30
842.0
 11
-203.091816
 21
-45.317285
 31
842.0
  0
ARC
  5
1C7
  8
TEAM-NET
 10
203.095325
 20
846.0
 30
-45.39894
 40
4.0
210
0.0
220
1.0
230
0.0
 50
270.0
 51
340.428811
  0
POLYLINE
  5
1C8
  8
TEAM-NET
 66
     1
 10
0.0
 20
0.0
 30
0.0
 70
     8
  0
VERTEX
  5
76E
  8
TEAM-NET
 10
-202.388063
 20
-40.354554
 30
846.390653
 70
    32
  0
VERTEX
  5
76F
  8
TEAM-NET
 10
-203.858996
 20
-40.721747
 30
845.668841
 70
    32
  0
VERTEX
  5
770
  8
TEAM-NET
 10
-205.211201
 20
-41.640373
 30
845.07319
 70
    32
  0
VERTEX
  5
771
  8
TEAM-NET
 10
-206.27953
 20
-43.101589
 30
844.690555
 70
    32
  0
VERTEX
  5
772
  8
TEAM-NET
 10
-206.835807
 20
-44.994424
 30
844.629493
 70
    32
  0
SEQEND
  5
773
  8
TEAM-NET
  0
POLYLINE
  5
1C9
  8
TEAM-NET
 66
     1
 10
0.0
 20
0.0
 30
0.0
 70
     8
  0
VERTEX
  5
774
  8
TEAM-NET
 10
-203.091816
 20
-45.317285
 30
842.0
 70
    32
  0
VERTEX
  5
775
  8
TEAM-NET
 10
-203.003842
 20
-43.38421
 30
842.388794
 70
    32
  0
VERTEX
  5
776
  8
TEAM-NET
 10
-202.834853
 20
-41.8456
 30
843.401746
 70
    32
  0
VERTEX
  5
777
  8
TEAM-NET
 10
-202.620894
 20
-40.828805
 30
844.796923
 70
    32
  0
VERTEX
  5
778
  8
TEAM-NET
 10
-202.388063
 20
-40.354554
 30
846.390653
 70
    32
  0
SEQEND
  5
779
  8
TEAM-NET
  0
ARC
  5
1CA
  8
TEAM-NET
 10
198.447404
 20
846.0
 30
-62.59848
 40
4.0
210
0.085916
220
0.996302
230
0.0
 50
270.0
 51
339.963009
  0
LINE
  5
1CB
  8
TEAM-NET
 10
-208.671716
 20
-360.0
 30
843.0
 11
211.328284
 21
-360.0
 31
843.0
  0
ARC
  5
1CC
  8
TEAM-NET
 10
211.328284
 20
-320.0
 30
843.0
 40
40.0
 50
270.0
 51
0.0
  0
ARC
  5
1CD
  8
TEAM-NET
 10
-208.671716
 20
-320.0
 30
843.0
 40
40.0
 50
180.0
 51
270.0
  0
LINE
  5
1CE
  8
TEAM-NET
 10
251.328284
 20
-320.0
 30
843.0
 11
251.328284
 21
-57.605888
 31
843.0
  0
LINE
  5
1CF
  8
TEAM-NET
 10
-248.671716
 20
-57.605888
 30
843.0
 11
-248.671716
 21
-320.0
 31
843.0
  0
LINE
  5
1D0
  8
TEAM-NET
 10
209.520797
 20
-45.39894
 30
844.660089
 11
209.492375
 21
-44.994424
 31
844.629493
  0
POLYLINE
  5
1D1
  8
TEAM-NET
 66
     1
 10
0.0
 20
0.0
 30
0.0
 70
     8
  0
VERTEX
  5
77A
  8
TEAM-NET
 10
209.492375
 20
-44.994424
 30
844.629493
 70
    32
  0
VERTEX
  5
77B
  8
TEAM-NET
 10
208.936097
 20
-43.101589
 30
844.690556
 70
    32
  0
VERTEX
  5
77C
  8
TEAM-NET
 10
207.867763
 20
-41.64037
 30
845.073193
 70
    32
  0
VERTEX
  5
77D
  8
TEAM-NET
 10
206.515567
 20
-40.721748
 30
845.66884
 70
    32
  0
VERTEX
  5
77E
  8
TEAM-NET
 10
205.044631
 20
-40.354554
 30
846.390653
 70
    32
  0
SEQEND
  5
77F
  8
TEAM-NET
  0
LINE
  5
1D2
  8
TEAM-NET
 10
209.520797
 20
-45.39894
 30
844.660089
 11
210.789451
 21
-44.957951
 31
848.351174
  0
POLYLINE
  5
1D3
  8
TEAM-NET
 66
     1
 10
0.0
 20
0.0
 30
0.0
 70
     8
  0
VERTEX
  5
780
  8
TEAM-NET
 10
-202.388063
 20
-40.354554
 30
846.390653
 70
    32
  0
VERTEX
  5
781
  8
TEAM-NET
 10
-203.858996
 20
-40.721747
 30
845.668841
 70
    32
  0
VERTEX
  5
782
  8
TEAM-NET
 10
-205.211201
 20
-41.640373
 30
845.07319
 70
    32
  0
VERTEX
  5
783
  8
TEAM-NET
 10
-206.27953
 20
-43.101589
 30
844.690555
 70
    32
  0
VERTEX
  5
784
  8
TEAM-NET
 10
-206.835807
 20
-44.994424
 30
844.629493
 70
    32
  0
SEQEND
  5
785
  8
TEAM-NET
  0
LINE
  5
1D4
  8
TEAM-NET
 10
-206.835807
 20
-44.994424
 30
844.629493
 11
-206.864229
 21
-45.39894
 31
844.660089
  0
LINE
  5
1D5
  8
TEAM-NET
 10
-208.132882
 20
-44.957951
 30
848.351174
 11
-206.864229
 21
-45.39894
 31
844.660089
  0
LINE
  5
1D6
  8
TEAM-NET
 10
18.828284
 20
-84.470413
 30
837.0
 11
18.828284
 21
-84.470413
 31
835.0
  0
ARC
  5
1D7
  8
TEAM-NET
 10
-1.328284
 20
-84.470413
 30
-835.0
 40
17.5
210
0.0
220
0.0
230
-1.0
 50
180.0
 51
0.0
  0
ARC
  5
1D8
  8
TEAM-NET
 10
-1.328284
 20
-84.470413
 30
-837.0
 40
17.5
210
0.0
220
0.0
230
-1.0
 50
180.0
 51
0.0
  0
LINE
  5
1D9
  8
TEAM-NET
 10
-16.171716
 20
-84.470413
 30
837.0
 11
-16.171716
 21
-84.470413
 31
835.0
  0
LINE
  5
1DA
  8
TEAM-NET
 10
18.828284
 20
-84.470413
 30
837.0
 11
18.828284
 21
-84.470413
 31
835.0
  0
ARC
  5
1DB
  8
TEAM-NET
 10
-1.328284
 20
-84.470413
 30
-837.0
 40
17.5
210
0.0
220
0.0
230
-1.0
 50
0.0
 51
180.0
  0
ARC
  5
1DC
  8
TEAM-NET
 10
-1.328284
 20
-84.470413
 30
-835.0
 40
17.5
210
0.0
220
0.0
230
-1.0
 50
0.0
 51
180.0
  0
LINE
  5
1DD
  8
TEAM-NET
 10
-16.171716
 20
-84.470413
 30
837.0
 11
-16.171716
 21
-84.470413
 31
835.0
  0
ARC
  5
1DE
  8
TEAM-NET
 10
-1.328284
 20
-84.470413
 30
-835.0
 40
17.5
210
0.0
220
0.0
230
-1.0
 50
0.0
 51
180.0
  0
ARC
  5
1DF
  8
TEAM-NET
 10
-1.328284
 20
-84.470413
 30
-835.0
 40
17.5
210
0.0
220
0.0
230
-1.0
 50
180.0
 51
0.0
  0
LINE
  5
1E0
  8
TEAM-NET
 10
-140.274321
 20
-120.0
 30
835.0
 11
-140.274321
 21
-35.0
 31
835.0
210
0.0
220
0.0
230
-1.0
  0
LINE
  5
1E1
  8
TEAM-NET
 10
-140.274321
 20
-35.0
 30
835.0
 11
142.930889
 21
-35.0
 31
835.0
210
0.0
220
0.0
230
-1.0
  0
LINE
  5
1E2
  8
TEAM-NET
 10
142.930889
 20
-120.0
 30
835.0
 11
-140.274321
 21
-120.0
 31
835.0
210
0.0
220
0.0
230
-1.0
  0
LINE
  5
1E3
  8
TEAM-NET
 10
142.930889
 20
-35.0
 30
835.0
 11
142.930889
 21
-120.0
 31
835.0
210
0.0
220
0.0
230
-1.0
  0
ARC
  5
1E4
  8
TEAM-NET
 10
23.828284
 20
837.0
 30
84.470413
 40
5.0
210
0.0
220
-1.0
230
0.0
 50
90.0
 51
180.0
  0
ARC
  5
1E5
  8
TEAM-NET
 10
-1.328284
 20
-84.470413
 30
-837.0
 40
17.5
210
0.0
220
0.0
230
-1.0
 50
180.0
 51
0.0
  0
ARC
  5
1E6
  8
TEAM-NET
 10
1.328284
 20
-84.470413
 30
842.0
 40
22.5
 50
180.0
 51
0.0
  0
ARC
  5
1E7
  8
TEAM-NET
 10
21.171716
 20
837.0
 30
-84.470413
 40
5.0
210
0.0
220
1.0
230
0.0
 50
90.0
 51
180.0
  0
ARC
  5
1E8
  8
TEAM-NET
 10
-208.671716
 20
-320.0
 30
843.0
 40
40.0
 50
180.0
 51
270.0
  0
LINE
  5
1E9
  8
TEAM-NET
 10
-208.671716
 20
-360.0
 30
843.0
 11
211.328284
 21
-360.0
 31
843.0
210
0.0
220
-1.0
230
0.0
  0
ARC
  5
1EA
  8
TEAM-NET
 10
211.328284
 20
-320.0
 30
843.0
 40
40.0
 50
270.0
 51
0.0
  0
ARC
  5
1EB
  8
TEAM-NET
 10
118.0
 20
835.0
 30
-189.383103
 40
7.0
210
-1.0
220
0.0
230
0.0
 50
0.0
 51
90.0
  0
LINE
  5
1EC
  8
TEAM-NET
 10
189.383103
 20
-118.0
 30
842.0
 11
-186.726535
 21
-118.0
 31
842.0
  0
LINE
  5
1ED
  8
TEAM-NET
 10
-186.726535
 20
-125.0
 30
835.0
 11
189.383103
 21
-125.0
 31
835.0
  0
ARC
  5
1EE
  8
TEAM-NET
 10
-118.0
 20
835.0
 30
-186.726535
 40
7.0
210
1.0
220
0.0
230
0.0
 50
90.0
 51
180.0
  0
ARC
  5
1EF
  8
TEAM-NET
 10
-118.0
 20
835.0
 30
-186.726535
 40
7.0
210
1.0
220
0.0
230
0.0
 50
90.0
 51
180.0
  0
POLYLINE
  5
1F0
  8
TEAM-NET
 66
     1
 10
0.0
 20
0.0
 30
842.0
 70
   128
  0
VERTEX
  5
D07
  8
TEAM-NET
 10
-186.726535
 20
-118.0
 30
842.0
  0
VERTEX
  5
D08
  8
TEAM-NET
 10
-191.145257
 20
-118.36986
 30
842.0
  0
VERTEX
  5
D09
  8
TEAM-NET
 10
-195.437262
 20
-119.481901
 30
842.0
  0
VERTEX
  5
D0A
  8
TEAM-NET
 10
-199.469559
 20
-121.32999
 30
842.0
  0
VERTEX
  5
D0B
  8
TEAM-NET
 10
-203.095325
 20
-123.882939
 30
842.0
  0
SEQEND
  5
D0C
  8
TEAM-NET
  0
POLYLINE
  5
1F1
  8
TEAM-NET
 66
     1
 10
0.0
 20
0.0
 30
0.0
 70
     8
  0
VERTEX
  5
78C
  8
TEAM-NET
 10
-198.702169
 20
-129.011095
 30
836.844507
 70
    32
  0
VERTEX
  5
78D
  8
TEAM-NET
 10
-196.066725
 20
-127.270448
 30
836.459659
 70
    32
  0
VERTEX
  5
78E
  8
TEAM-NET
 10
-193.124945
 20
-126.010387
 30
836.016383
 70
    32
  0
VERTEX
  5
78F
  8
TEAM-NET
 10
-189.980113
 20
-125.252177
 30
835.525965
 70
    32
  0
VERTEX
  5
790
  8
TEAM-NET
 10
-186.726535
 20
-125.0
 30
835.0
 70
    32
  0
SEQEND
  5
791
  8
TEAM-NET
  0
ARC
  5
1F2
  8
TEAM-NET
 10
38.050199
 20
835.0
 30
-234.83372
 40
7.0
210
0.759433
220
0.650586
230
0.0
 50
90.0
 51
164.7221
  0
ARC
  5
1F3
  8
TEAM-NET
 10
-39.778525
 20
835.0
 30
-236.851204
 40
7.0
210
-0.759433
220
0.650586
230
0.0
 50
15.2779
 51
90.0
  0
POLYLINE
  5
1F4
  8
TEAM-NET
 66
     1
 10
0.0
 20
0.0
 30
842.0
 70
   128
  0
VERTEX
  5
D0D
  8
TEAM-NET
 10
205.751893
 20
-123.882939
 30
842.0
  0
VERTEX
  5
D0E
  8
TEAM-NET
 10
202.126135
 20
-121.329995
 30
842.0
  0
VERTEX
  5
D0F
  8
TEAM-NET
 10
198.093847
 20
-119.481907
 30
842.0
  0
VERTEX
  5
D10
  8
TEAM-NET
 10
193.801839
 20
-118.369862
 30
842.0
  0
VERTEX
  5
D11
  8
TEAM-NET
 10
189.383103
 20
-118.0
 30
842.0
  0
SEQEND
  5
D12
  8
TEAM-NET
  0
POLYLINE
  5
1F5
  8
TEAM-NET
 66
     1
 10
0.0
 20
0.0
 30
0.0
 70
     8
  0
VERTEX
  5
798
  8
TEAM-NET
 10
189.383103
 20
-125.0
 30
835.0
 70
    32
  0
VERTEX
  5
799
  8
TEAM-NET
 10
192.636691
 20
-125.252179
 30
835.525966
 70
    32
  0
VERTEX
  5
79A
  8
TEAM-NET
 10
195.781526
 20
-126.010391
 30
836.016385
 70
    32
  0
VERTEX
  5
79B
  8
TEAM-NET
 10
198.723299
 20
-127.270451
 30
836.45966
 70
    32
  0
VERTEX
  5
79C
  8
TEAM-NET
 10
201.358738
 20
-129.011095
 30
836.844507
 70
    32
  0
SEQEND
  5
79D
  8
TEAM-NET
  0
ARC
  5
1F6
  8
TEAM-NET
 10
118.0
 20
835.0
 30
-189.383103
 40
7.0
210
-1.0
220
0.0
230
0.0
 50
0.0
 51
90.0
  0
POLYLINE
  5
1F7
  8
TEAM-NET
 66
     1
 10
0.0
 20
0.0
 30
0.0
 70
     8
  0
VERTEX
  5
79E
  8
TEAM-NET
 10
-206.864229
 20
-140.0
 30
844.660089
 70
    32
  0
VERTEX
  5
79F
  8
TEAM-NET
 10
-205.582961
 20
-137.104408
 30
841.969239
 70
    32
  0
VERTEX
  5
7A0
  8
TEAM-NET
 10
-203.765943
 20
-134.257968
 30
839.626709
 70
    32
  0
VERTEX
  5
7A1
  8
TEAM-NET
 10
-201.449803
 20
-131.524548
 30
837.820638
 70
    32
  0
VERTEX
  5
7A2
  8
TEAM-NET
 10
-198.702169
 20
-129.011095
 30
836.844507
 70
    32
  0
SEQEND
  5
7A3
  8
TEAM-NET
  0
POLYLINE
  5
1F8
  8
TEAM-NET
 66
     1
 10
0.0
 20
0.0
 30
0.0
 70
     8
  0
VERTEX
  5
7A4
  8
TEAM-NET
 10
-203.095325
 20
-123.882939
 30
842.0
 70
    32
  0
VERTEX
  5
7A5
  8
TEAM-NET
 10
-204.441999
 20
-127.569337
 30
842.233507
 70
    32
  0
VERTEX
  5
7A6
  8
TEAM-NET
 10
-205.529098
 20
-131.578353
 30
842.825611
 70
    32
  0
VERTEX
  5
7A7
  8
TEAM-NET
 10
-206.864229
 20
-140.0
 30
844.660089
 70
    32
  0
SEQEND
  5
7A8
  8
TEAM-NET
  0
ARC
  5
1F9
  8
TEAM-NET
 10
38.050199
 20
835.0
 30
-234.83372
 40
7.0
210
0.759433
220
0.650586
230
0.0
 50
90.0
 51
164.7221
  0
ARC
  5
1FA
  8
TEAM-NET
 10
-39.778525
 20
835.0
 30
-236.851204
 40
7.0
210
-0.759433
220
0.650586
230
0.0
 50
15.2779
 51
90.0
  0
POLYLINE
  5
1FB
  8
TEAM-NET
 66
     1
 10
0.0
 20
0.0
 30
0.0
 70
     8
  0
VERTEX
  5
7A9
  8
TEAM-NET
 10
209.520797
 20
-140.0
 30
844.660089
 70
    32
  0
VERTEX
  5
7AA
  8
TEAM-NET
 10
208.185658
 20
-131.578326
 30
842.825608
 70
    32
  0
VERTEX
  5
7AB
  8
TEAM-NET
 10
207.09858
 20
-127.569383
 30
842.233513
 70
    32
  0
VERTEX
  5
7AC
  8
TEAM-NET
 10
205.751893
 20
-123.882939
 30
842.0
 70
    32
  0
SEQEND
  5
7AD
  8
TEAM-NET
  0
POLYLINE
  5
1FC
  8
TEAM-NET
 66
     1
 10
0.0
 20
0.0
 30
0.0
 70
     8
  0
VERTEX
  5
7AE
  8
TEAM-NET
 10
201.358738
 20
-129.011095
 30
836.844507
 70
    32
  0
VERTEX
  5
7AF
  8
TEAM-NET
 10
204.106399
 20
-131.524579
 30
837.820658
 70
    32
  0
VERTEX
  5
7B0
  8
TEAM-NET
 10
206.422493
 20
-134.25795
 30
839.626699
 70
    32
  0
VERTEX
  5
7B1
  8
TEAM-NET
 10
208.23952
 20
-137.104396
 30
841.96923
 70
    32
  0
VERTEX
  5
7B2
  8
TEAM-NET
 10
209.520797
 20
-140.0
 30
844.660089
 70
    32
  0
SEQEND
  5
7B3
  8
TEAM-NET
  0
ARC
  5
1FD
  8
TEAM-NET
 10
23.828284
 20
837.0
 30
84.470413
 40
5.0
210
0.0
220
-1.0
230
0.0
 50
90.0
 51
180.0
  0
ARC
  5
1FE
  8
TEAM-NET
 10
1.328284
 20
-84.470413
 30
842.0
 40
22.5
 50
360.0
 51
180.0
  0
ARC
  5
1FF
  8
TEAM-NET
 10
-1.328284
 20
-84.470413
 30
-837.0
 40
17.5
210
0.0
220
0.0
230
-1.0
 50
0.0
 51
180.0
  0
ARC
  5
200
  8
TEAM-NET
 10
21.171716
 20
837.0
 30
-84.470413
 40
5.0
210
0.0
220
1.0
230
0.0
 50
90.0
 51
180.0
  0
LINE
  5
201
  8
TEAM-NET
 10
-248.671716
 20
-57.605888
 30
843.0
 11
-248.671716
 21
-320.0
 31
843.0
210
-1.0
220
0.0
230
0.0
  0
LINE
  5
202
  8
TEAM-NET
 10
251.328284
 20
-320.0
 30
843.0
 11
251.328284
 21
-57.605888
 31
843.0
210
1.0
220
0.0
230
0.0
  0
LINE
  5
203
  8
TEAM-NET
 10
205.044631
 20
-40.354554
 30
846.390653
 11
-202.388063
 21
-40.354554
 31
846.390653
210
0.0
220
-0.992546
230
0.121869
  0
LINE
  5
204
  8
TEAM-NET
 10
-186.726535
 20
-125.0
 30
835.0
 11
189.383103
 21
-125.0
 31
835.0
210
0.0
220
-1.0
230
0.0
  0
LINE
  5
205
  8
TEAM-NET
 10
209.520797
 20
-140.0
 30
844.660089
 11
209.520797
 21
-45.39894
 31
844.660089
  0
LINE
  5
206
  8
TEAM-NET
 10
209.520797
 20
-45.39894
 30
844.660089
 11
210.789451
 21
-44.957951
 31
848.351174
  0
POLYLINE
  5
207
  8
TEAM-NET
 66
     1
 10
0.0
 20
0.0
 30
0.0
 70
     8
  0
VERTEX
  5
7B4
  8
TEAM-NET
 10
210.789451
 20
-44.957951
 30
848.351174
 70
    32
  0
VERTEX
  5
7B5
  8
TEAM-NET
 10
210.350804
 20
-47.935488
 30
847.046068
 70
    32
  0
VERTEX
  5
7B6
  8
TEAM-NET
 10
210.024098
 20
-51.068221
 30
846.094314
 70
    32
  0
VERTEX
  5
7B7
  8
TEAM-NET
 10
209.822577
 20
-54.309344
 30
845.515335
 70
    32
  0
VERTEX
  5
7B8
  8
TEAM-NET
 10
209.753983
 20
-57.605888
 30
845.319937
 70
    32
  0
SEQEND
  5
7B9
  8
TEAM-NET
  0
LINE
  5
208
  8
TEAM-NET
 10
209.753983
 20
-57.605888
 30
845.319937
 11
209.753983
 21
-305.904265
 31
845.319937
  0
POLYLINE
  5
209
  8
TEAM-NET
 66
     1
 10
0.0
 20
0.0
 30
0.0
 70
     8
  0
VERTEX
  5
7BA
  8
TEAM-NET
 10
189.383103
 20
-125.0
 30
835.0
 70
    32
  0
VERTEX
  5
7BB
  8
TEAM-NET
 10
192.636691
 20
-125.252179
 30
835.525966
 70
    32
  0
VERTEX
  5
7BC
  8
TEAM-NET
 10
195.781526
 20
-126.010391
 30
836.016385
 70
    32
  0
VERTEX
  5
7BD
  8
TEAM-NET
 10
198.723299
 20
-127.270451
 30
836.45966
 70
    32
  0
VERTEX
  5
7BE
  8
TEAM-NET
 10
201.358738
 20
-129.011095
 30
836.844507
 70
    32
  0
SEQEND
  5
7BF
  8
TEAM-NET
  0
POLYLINE
  5
20A
  8
TEAM-NET
 66
     1
 10
0.0
 20
0.0
 30
0.0
 70
     8
  0
VERTEX
  5
7C0
  8
TEAM-NET
 10
201.358738
 20
-129.011095
 30
836.844507
 70
    32
  0
VERTEX
  5
7C1
  8
TEAM-NET
 10
204.106399
 20
-131.524579
 30
837.820658
 70
    32
  0
VERTEX
  5
7C2
  8
TEAM-NET
 10
206.422493
 20
-134.25795
 30
839.626699
 70
    32
  0
VERTEX
  5
7C3
  8
TEAM-NET
 10
208.23952
 20
-137.104396
 30
841.96923
 70
    32
  0
VERTEX
  5
7C4
  8
TEAM-NET
 10
209.520797
 20
-140.0
 30
844.660089
 70
    32
  0
SEQEND
  5
7C5
  8
TEAM-NET
  0
POLYLINE
  5
20B
  8
TEAM-NET
 66
     1
 10
0.0
 20
0.0
 30
0.0
 70
     8
  0
VERTEX
  5
7C6
  8
TEAM-NET
 10
-198.702169
 20
-129.011095
 30
836.844507
 70
    32
  0
VERTEX
  5
7C7
  8
TEAM-NET
 10
-196.066725
 20
-127.270448
 30
836.459659
 70
    32
  0
VERTEX
  5
7C8
  8
TEAM-NET
 10
-193.124945
 20
-126.010387
 30
836.016383
 70
    32
  0
VERTEX
  5
7C9
  8
TEAM-NET
 10
-189.980113
 20
-125.252177
 30
835.525965
 70
    32
  0
VERTEX
  5
7CA
  8
TEAM-NET
 10
-186.726535
 20
-125.0
 30
835.0
 70
    32
  0
SEQEND
  5
7CB
  8
TEAM-NET
  0
POLYLINE
  5
20C
  8
TEAM-NET
 66
     1
 10
0.0
 20
0.0
 30
0.0
 70
     8
  0
VERTEX
  5
7CC
  8
TEAM-NET
 10
-206.864229
 20
-140.0
 30
844.660089
 70
    32
  0
VERTEX
  5
7CD
  8
TEAM-NET
 10
-205.582961
 20
-137.104408
 30
841.969239
 70
    32
  0
VERTEX
  5
7CE
  8
TEAM-NET
 10
-203.765943
 20
-134.257968
 30
839.626709
 70
    32
  0
VERTEX
  5
7CF
  8
TEAM-NET
 10
-201.449803
 20
-131.524548
 30
837.820638
 70
    32
  0
VERTEX
  5
7D0
  8
TEAM-NET
 10
-198.702169
 20
-129.011095
 30
836.844507
 70
    32
  0
SEQEND
  5
7D1
  8
TEAM-NET
  0
LINE
  5
20D
  8
TEAM-NET
 10
-206.864229
 20
-45.39894
 30
844.660089
 11
-206.864229
 21
-140.0
 31
844.660089
  0
LINE
  5
20E
  8
TEAM-NET
 10
-208.132882
 20
-44.957951
 30
848.351174
 11
-206.864229
 21
-45.39894
 31
844.660089
  0
POLYLINE
  5
20F
  8
TEAM-NET
 66
     1
 10
0.0
 20
0.0
 30
0.0
 70
     8
  0
VERTEX
  5
7D2
  8
TEAM-NET
 10
-207.097415
 20
-57.605888
 30
845.319937
 70
    32
  0
VERTEX
  5
7D3
  8
TEAM-NET
 10
-207.165696
 20
-54.309755
 30
845.514633
 70
    32
  0
VERTEX
  5
7D4
  8
TEAM-NET
 10
-207.367473
 20
-51.068379
 30
846.094182
 70
    32
  0
VERTEX
  5
7D5
  8
TEAM-NET
 10
-207.694207
 20
-47.935607
 30
847.046003
 70
    32
  0
VERTEX
  5
7D6
  8
TEAM-NET
 10
-208.132882
 20
-44.957951
 30
848.351174
 70
    32
  0
SEQEND
  5
7D7
  8
TEAM-NET
  0
LINE
  5
210
  8
TEAM-NET
 10
-207.097415
 20
-305.904265
 30
845.319937
 11
-207.097415
 21
-57.605888
 31
845.319937
  0
POLYLINE
  5
211
  8
TEAM-NET
 66
     1
 10
0.0
 20
0.0
 30
0.0
 70
     8
  0
VERTEX
  5
7D8
  8
TEAM-NET
 10
209.753983
 20
-305.904265
 30
845.319937
 70
    32
  0
VERTEX
  5
7D9
  8
TEAM-NET
 10
209.464798
 20
-308.850417
 30
845.374602
 70
    32
  0
VERTEX
  5
7DA
  8
TEAM-NET
 10
208.542577
 20
-311.657859
 30
845.347369
 70
    32
  0
VERTEX
  5
7DB
  8
TEAM-NET
 10
207.024039
 20
-314.215412
 30
845.237401
 70
    32
  0
VERTEX
  5
7DC
  8
TEAM-NET
 10
204.991245
 20
-316.403099
 30
845.0477
 70
    32
  0
VERTEX
  5
7DD
  8
TEAM-NET
 10
202.522256
 20
-318.158034
 30
844.78161
 70
    32
  0
VERTEX
  5
7DE
  8
TEAM-NET
 10
199.739356
 20
-319.415617
 30
844.448036
 70
    32
  0
VERTEX
  5
7DF
  8
TEAM-NET
 10
196.731163
 20
-320.158501
 30
844.05362
 70
    32
  0
VERTEX
  5
7E0
  8
TEAM-NET
 10
193.611965
 20
-320.377038
 30
843.61009
 70
    32
  0
SEQEND
  5
7E1
  8
TEAM-NET
  0
LINE
  5
212
  8
TEAM-NET
 10
193.611965
 20
-320.377038
 30
843.61009
 11
-190.955397
 21
-320.377038
 31
843.61009
210
0.0
220
0.996195
230
0.087156
  0
POLYLINE
  5
213
  8
TEAM-NET
 66
     1
 10
0.0
 20
0.0
 30
0.0
 70
     8
  0
VERTEX
  5
7E2
  8
TEAM-NET
 10
-190.955397
 20
-320.377038
 30
843.61009
 70
    32
  0
VERTEX
  5
7E3
  8
TEAM-NET
 10
-194.065129
 20
-320.159933
 30
844.05233
 70
    32
  0
VERTEX
  5
7E4
  8
TEAM-NET
 10
-197.061019
 20
-319.422999
 30
844.445301
 70
    32
  0
VERTEX
  5
7E5
  8
TEAM-NET
 10
-199.846854
 20
-318.168629
 30
844.779458
 70
    32
  0
VERTEX
  5
7E6
  8
TEAM-NET
 10
-202.320386
 20
-316.4154
 30
845.046251
 70
    32
  0
VERTEX
  5
7E7
  8
TEAM-NET
 10
-204.358498
 20
-314.227081
 30
845.236637
 70
    32
  0
VERTEX
  5
7E8
  8
TEAM-NET
 10
-205.881014
 20
-311.668534
 30
845.34708
 70
    32
  0
VERTEX
  5
7E9
  8
TEAM-NET
 10
-206.806823
 20
-308.856332
 30
845.374613
 70
    32
  0
VERTEX
  5
7EA
  8
TEAM-NET
 10
-207.097415
 20
-305.904265
 30
845.319937
 70
    32
  0
SEQEND
  5
7EB
  8
TEAM-NET
  0
LINE
  5
214
  8
TEAM-NET
 10
-140.274321
 20
-35.0
 30
835.0
 11
142.930889
 21
-35.0
 31
835.0
210
0.0
220
-1.0
230
0.0
  0
LINE
  5
215
  8
TEAM-NET
 10
142.930889
 20
-35.0
 30
835.0
 11
142.930889
 21
-120.0
 31
835.0
210
-1.0
220
0.0
230
0.0
  0
LINE
  5
216
  8
TEAM-NET
 10
142.930889
 20
-120.0
 30
835.0
 11
-140.274321
 21
-120.0
 31
835.0
210
0.0
220
1.0
230
0.0
  0
LINE
  5
217
  8
TEAM-NET
 10
-140.274321
 20
-120.0
 30
835.0
 11
-140.274321
 21
-35.0
 31
835.0
210
1.0
220
0.0
230
0.0
  0
LINE
  5
218
  8
TEAM-NET
 10
-6.739136
 20
-184.39053
 30
868.765899
 11
-6.739136
 21
-177.820865
 31
876.305097
  0
ARC
  5
7EC
  8
TEAM-NET
 10
-1.256548
 20
709.50301
 30
533.841388
 40
8.0
210
0.0
220
0.656966
230
0.75392
 50
181.882117
 51
1.882117
1001
ACAD
1000
R13OBJECT
1002
{
1005
218
1002
}
  0
LINE
  5
7ED
  8
TEAM-NET
 10
9.252232
 20
-183.994351
 30
868.420669
 11
9.252232
 21
-177.424686
 31
875.959866
1001
ACAD
1000
R13OBJECT
1002
{
1005
218
1002
}
  0
ARC
  5
7EE
  8
TEAM-NET
 10
1.256548
 20
709.50301
 30
-543.841388
 40
8.0
210
0.0
220
-0.656966
230
-0.75392
 50
178.117883
 51
358.117883
1001
ACAD
1000
R13OBJECT
1002
{
1005
218
1002
}
  0
ARC
  5
7EF
  8
TEAM-NET
 10
15.504237
 20
543.507384
 30
-709.161513
 40
1.0
210
-0.032843
220
0.753513
230
-0.656612
 50
1.639337
 51
91.639337
1001
ACAD
1000
R13OBJECT
1002
{
1005
218
1002
}
  0
ARC
  5
7F0
  8
TEAM-NET
 10
-1.256548
 20
709.50301
 30
542.841388
 40
10.0
210
0.0
220
0.656966
230
0.75392
 50
1.882117
 51
181.882117
1001
ACAD
1000
R13OBJECT
1002
{
1005
218
1002
}
  0
ARC
  5
7F1
  8
TEAM-NET
 10
2.488396
 20
542.992441
 30
709.161513
 40
1.0
210
0.032843
220
-0.753513
230
0.656612
 50
358.360663
 51
88.360663
1001
ACAD
1000
R13OBJECT
1002
{
1005
218
1002
}
  0
ARC
  5
7F2
  8
TEAM-NET
 10
1.256548
 20
709.50301
 30
-543.841388
 40
9.0
210
-0.0
220
-0.656966
230
-0.75392
 50
358.117883
 51
178.117883
1001
ACAD
1000
R13OBJECT
1002
{
1005
218
1002
}
  0
LINE
  5
7F3
  8
TEAM-NET
 10
-8.738057
 20
-178.527354
 30
875.594331
 11
-8.738057
 21
-183.783086
 31
869.562973
1001
ACAD
1000
R13OBJECT
1002
{
1005
218
1002
}
  0
ARC
  5
7F4
  8
TEAM-NET
 10
-1.256548
 20
709.50301
 30
542.841388
 40
10.0
210
0.0
220
0.656966
230
0.75392
 50
181.882117
 51
1.882117
1001
ACAD
1000
R13OBJECT
1002
{
1005
218
1002
}
  0
LINE
  5
7F5
  8
TEAM-NET
 10
11.251153
 20
-178.03213
 30
875.162793
 11
11.251153
 21
-183.287862
 31
869.131435
1001
ACAD
1000
R13OBJECT
1002
{
1005
218
1002
}
  0
ARC
  5
7F6
  8
TEAM-NET
 10
1.256548
 20
709.50301
 30
-534.841388
 40
10.0
210
0.0
220
-0.656966
230
-0.75392
 50
178.117883
 51
358.117883
1001
ACAD
1000
R13OBJECT
1002
{
1005
218
1002
}
  0
ARC
  5
7F7
  8
TEAM-NET
 10
15.7331
 20
535.510658
 30
-709.161513
 40
1.0
210
-0.032843
220
0.753513
230
-0.656612
 50
271.639337
 51
1.639337
1001
ACAD
1000
R13OBJECT
1002
{
1005
218
1002
}
  0
ARC
  5
7F8
  8
TEAM-NET
 10
-1.256548
 20
709.50301
 30
533.841388
 40
9.0
210
0.0
220
0.656966
230
0.75392
 50
1.882117
 51
181.882117
1001
ACAD
1000
R13OBJECT
1002
{
1005
218
1002
}
  0
ARC
  5
7F9
  8
TEAM-NET
 10
2.259533
 20
534.995716
 30
709.161513
 40
1.0
210
0.032843
220
-0.753513
230
0.656612
 50
268.360663
 51
358.360663
1001
ACAD
1000
R13OBJECT
1002
{
1005
218
1002
}
  0
ARC
  5
7FA
  8
TEAM-NET
 10
1.256548
 20
709.50301
 30
-534.841388
 40
10.0
210
0.0
220
-0.656966
230
-0.75392
 50
358.117883
 51
178.117883
1001
ACAD
1000
R13OBJECT
1002
{
1005
218
1002
}
  0
ARC
  5
7FB
  8
TEAM-NET
 10
-1.256548
 20
709.50301
 30
533.841388
 40
9.0
210
0.0
220
0.656966
230
0.75392
 50
181.882117
 51
1.882117
1001
ACAD
1000
R13OBJECT
1002
{
1005
218
1002
}
  0
ARC
  5
7FC
  8
TEAM-NET
 10
-1.256548
 20
709.50301
 30
533.841388
 40
8.0
210
0.0
220
0.656966
230
0.75392
 50
1.882117
 51
181.882117
1001
ACAD
1000
R13OBJECT
1002
{
1005
218
1002
}
  0
ARC
  5
7FD
  8
TEAM-NET
 10
1.256548
 20
709.50301
 30
-543.841388
 40
9.0
210
-0.0
220
-0.656966
230
-0.75392
 50
178.117883
 51
358.117883
1001
ACAD
1000
R13OBJECT
1002
{
1005
218
1002
}
  0
ARC
  5
7FE
  8
TEAM-NET
 10
1.256548
 20
709.50301
 30
-543.841388
 40
8.0
210
0.0
220
-0.656966
230
-0.75392
 50
358.117883
 51
178.117883
1001
ACAD
1000
R13OBJECT
1002
{
1005
218
1002
}
  0
ARC
  5
7FF
  8
TEAM-NET
 10
-185.043034
 20
881.017484
 30
-22.046506
 40
1.0
210
0.999461
220
0.024761
230
-0.021577
 50
48.946384
 51
138.946384
1001
ACAD
1000
R13OBJECT
1002
{
1005
218
1002
}
  0
ARC
  5
800
  8
TEAM-NET
 10
-2.488396
 20
542.992441
 30
-709.161513
 40
1.0
210
-0.032843
220
0.753513
230
-0.656612
 50
91.639337
 51
181.639337
1001
ACAD
1000
R13OBJECT
1002
{
1005
218
1002
}
  0
ARC
  5
801
  8
TEAM-NET
 10
1.256548
 20
709.50301
 30
-543.548495
 40
9.707107
210
0.0
220
-0.656966
230
-0.75392
 50
358.117883
 51
178.117883
1001
ACAD
1000
R13OBJECT
1002
{
1005
218
1002
}
  0
LINE
  5
802
  8
TEAM-NET
 10
0.928116
 20
-176.000344
 30
862.781083
 11
0.928116
 21
-170.744612
 31
868.812441
1001
ACAD
1000
R13OBJECT
1002
{
1005
218
1002
}
  0
LINE
  5
803
  8
TEAM-NET
 10
-8.738057
 20
-183.783086
 30
869.562973
 11
-8.738057
 21
-178.527354
 31
875.594331
1001
ACAD
1000
R13OBJECT
1002
{
1005
218
1002
}
  0
LINE
  5
804
  8
TEAM-NET
 10
11.251153
 20
-183.287862
 30
869.131435
 11
11.251153
 21
-178.03213
 31
875.162793
1001
ACAD
1000
R13OBJECT
1002
{
1005
218
1002
}
  0
ARC
  5
805
  8
TEAM-NET
 10
-190.297154
 20
874.984721
 30
-22.046506
 40
1.0
210
0.999461
220
0.024761
230
-0.021577
 50
138.946384
 51
228.946384
1001
ACAD
1000
R13OBJECT
1002
{
1005
218
1002
}
  0
ARC
  5
806
  8
TEAM-NET
 10
1.256548
 20
709.50301
 30
-534.134281
 40
9.707107
210
-0.0
220
-0.656966
230
-0.75392
 50
358.117883
 51
178.117883
1001
ACAD
1000
R13OBJECT
1002
{
1005
218
1002
}
  0
ARC
  5
807
  8
TEAM-NET
 10
176.723438
 20
863.162951
 30
22.046506
 40
1.0
210
-0.999461
220
-0.024761
230
0.021577
 50
221.053616
 51
311.053616
1001
ACAD
1000
R13OBJECT
1002
{
1005
218
1002
}
  0
ARC
  5
808
  8
TEAM-NET
 10
1.256548
 20
709.50301
 30
-534.134281
 40
9.707107
210
-0.0
220
-0.656966
230
-0.75392
 50
178.117883
 51
358.117883
1001
ACAD
1000
R13OBJECT
1002
{
1005
218
1002
}
  0
LINE
  5
809
  8
TEAM-NET
 10
-8.738057
 20
-183.783086
 30
869.562973
 11
-8.738057
 21
-178.527354
 31
875.594331
1001
ACAD
1000
R13OBJECT
1002
{
1005
218
1002
}
  0
LINE
  5
80A
  8
TEAM-NET
 10
1.58498
 20
-191.070604
 30
875.913325
 11
1.58498
 21
-185.814873
 31
881.944683
1001
ACAD
1000
R13OBJECT
1002
{
1005
218
1002
}
  0
LINE
  5
80B
  8
TEAM-NET
 10
11.251153
 20
-183.287862
 30
869.131435
 11
11.251153
 21
-178.03213
 31
875.162793
1001
ACAD
1000
R13OBJECT
1002
{
1005
218
1002
}
  0
ARC
  5
80C
  8
TEAM-NET
 10
171.469318
 20
869.195714
 30
22.046506
 40
1.0
210
-0.999461
220
-0.024761
230
0.021577
 50
131.053616
 51
221.053616
1001
ACAD
1000
R13OBJECT
1002
{
1005
218
1002
}
  0
ARC
  5
80D
  8
TEAM-NET
 10
-2.488396
 20
542.992441
 30
-709.161513
 40
1.0
210
-0.032843
220
0.753513
230
-0.656612
 50
91.639337
 51
181.639337
1001
ACAD
1000
R13OBJECT
1002
{
1005
218
1002
}
  0
ARC
  5
80E
  8
TEAM-NET
 10
1.256548
 20
709.50301
 30
-543.548495
 40
9.707107
210
0.0
220
-0.656966
230
-0.75392
 50
178.117883
 51
358.117883
1001
ACAD
1000
R13OBJECT
1002
{
1005
218
1002
}
  0
LINE
  5
219
  8
TEAM-NET
 10
-248.671716
 20
-28.806923
 30
883.0
 11
-248.671716
 21
-30.807142
 31
866.709528
210
-1.0
220
0.0
230
0.0
  0
LINE
  5
21A
  8
TEAM-NET
 10
251.328284
 20
-30.807142
 30
866.709528
 11
251.328284
 21
-28.806923
 31
883.0
210
1.0
220
0.0
230
0.0
  0
LINE
  5
21B
  8
TEAM-NET
 10
251.328284
 20
-30.807142
 30
866.709528
 11
251.328284
 21
-28.806923
 31
883.0
  0
LINE
  5
21C
  8
TEAM-NET
 10
244.328284
 20
-35.754746
 30
883.853085
 11
244.328284
 21
-37.754965
 31
867.562613
  0
LINE
  5
21D
  8
TEAM-NET
 10
244.328284
 20
-35.754746
 30
883.853085
 11
244.328284
 21
-37.754965
 31
867.562613
210
0.0
220
-0.992546
230
0.121869
  0
LINE
  5
21E
  8
TEAM-NET
 10
-241.671716
 20
-37.754965
 30
867.562613
 11
-241.671716
 21
-35.754746
 31
883.853085
210
0.0
220
-0.992546
230
0.121869
  0
LINE
  5
21F
  8
TEAM-NET
 10
-241.671716
 20
-37.754965
 30
867.562613
 11
-241.671716
 21
-35.754746
 31
883.853085
  0
LINE
  5
220
  8
TEAM-NET
 10
-248.671716
 20
-28.806923
 30
883.0
 11
-248.671716
 21
-30.807142
 31
866.709528
  0
LINE
  5
221
  8
TEAM-AXE
 10
-102.5
 20
-102.371193
 30
850.0
 11
-102.5
 21
-62.371193
 31
850.0
  0
LINE
  5
224
  8
TEAM-AXE
 10
-122.5
 20
-82.371193
 30
850.0
 11
-82.5
 21
-82.371193
 31
850.0
  0
CIRCLE
  5
225
  8
TEAM-HIDE
 10
-102.5
 20
-82.371193
 30
850.0
 40
15.0
  0
LINE
  5
228
  8
TEAM-AXE
 10
107.5
 20
-102.371193
 30
850.0
 11
107.5
 21
-62.371193
 31
850.0
  0
LINE
  5
229
  8
TEAM-AXE
 10
87.5
 20
-82.371193
 30
850.0
 11
127.5
 21
-82.371193
 31
850.0
  0
CIRCLE
  5
22A
  8
TEAM-HIDE
 10
107.5
 20
-82.371193
 30
850.0
 40
15.0
  0
TEXT
  5
22B
  8
TEAM-TXT
 10
-156.718433
 20
-288.420242
 30
851.0
 40
30.0
  1
team 212201
 41
0.8
 51
15.0
  7
TEAM
  0
LINE
  5
22E
  8
TEAM-NET
 10
-213.701799
 20
-57.605888
 30
850.0
 11
-213.701799
 21
-305.904265
 31
850.0
  0
POLYLINE
  5
22F
  8
TEAM-NET
 66
     1
 10
0.0
 20
0.0
 30
0.0
 70
     8
  0
VERTEX
  5
80F
  8
TEAM-NET
 10
-213.701799
 20
-305.904265
 30
850.0
 70
    32
  0
VERTEX
  5
810
  8
TEAM-NET
 10
-213.247476
 20
-310.226948
 30
850.0
 70
    32
  0
VERTEX
  5
811
  8
TEAM-NET
 10
-211.903772
 20
-314.355043
 30
850.0
 70
    32
  0
VERTEX
  5
812
  8
TEAM-NET
 10
-209.727748
 20
-318.121751
 30
850.0
 70
    32
  0
VERTEX
  5
813
  8
TEAM-NET
 10
-206.837701
 20
-321.355715
 30
850.0
 70
    32
  0
VERTEX
  5
814
  8
TEAM-NET
 10
-203.350818
 20
-323.961352
 30
850.0
 70
    32
  0
VERTEX
  5
815
  8
TEAM-NET
 10
-199.444756
 20
-325.843972
 30
850.0
 70
    32
  0
VERTEX
  5
816
  8
TEAM-NET
 10
-195.266952
 20
-326.975234
 30
850.0
 70
    32
  0
VERTEX
  5
817
  8
TEAM-NET
 10
-190.955397
 20
-327.350401
 30
850.0
 70
    32
  0
SEQEND
  5
818
  8
TEAM-NET
  0
POLYLINE
  5
230
  8
TEAM-NET
 66
     1
 10
0.0
 20
0.0
 30
-154.996011
 70
   128
210
-0.911353
220
-0.002153
230
-0.411621
  0
VERTEX
  5
D13
  8
TEAM-NET
 10
47.729483
 20
865.228556
 30
-154.996011
  0
VERTEX
  5
D14
  8
TEAM-NET
 10
52.25759
 20
863.324849
 30
-154.996011
  0
VERTEX
  5
D15
  8
TEAM-NET
 10
57.100838
 20
862.671796
 30
-154.996011
  0
SEQEND
  5
D16
  8
TEAM-NET
  0
LINE
  5
231
  8
TEAM-NET
 10
-190.955397
 20
-327.350401
 30
850.0
 11
193.611965
 21
-327.350401
 31
850.0
  0
POLYLINE
  5
232
  8
TEAM-NET
 66
     1
 10
0.0
 20
0.0
 30
850.0
 70
   128
  0
VERTEX
  5
D17
  8
TEAM-NET
 10
193.611965
 20
-327.350401
 30
850.0
  0
VERTEX
  5
D18
  8
TEAM-NET
 10
197.936688
 20
-326.972968
 30
850.0
  0
VERTEX
  5
D19
  8
TEAM-NET
 10
202.131766
 20
-325.832794
 30
850.0
  0
VERTEX
  5
D1A
  8
TEAM-NET
 10
206.033863
 20
-323.945535
 30
850.0
  0
VERTEX
  5
D1B
  8
TEAM-NET
 10
209.51447
 20
-321.337488
 30
850.0
  0
VERTEX
  5
D1C
  8
TEAM-NET
 10
212.397081
 20
-318.104538
 30
850.0
  0
VERTEX
  5
D1D
  8
TEAM-NET
 10
214.567518
 20
-314.339349
 30
850.0
  0
VERTEX
  5
D1E
  8
TEAM-NET
 10
215.906113
 20
-310.218274
 30
850.0
  0
VERTEX
  5
D1F
  8
TEAM-NET
 10
216.358367
 20
-305.904265
 30
850.0
  0
SEQEND
  5
D20
  8
TEAM-NET
  0
LINE
  5
233
  8
TEAM-NET
 10
216.358367
 20
-305.904265
 30
850.0
 11
216.358367
 21
-57.605888
 31
850.0
  0
POLYLINE
  5
234
  8
TEAM-NET
 66
     1
 10
0.0
 20
0.0
 30
-152.559885
 70
   128
210
0.91136
220
-0.002158
230
-0.411605
  0
VERTEX
  5
D21
  8
TEAM-NET
 10
-57.093452
 20
863.768025
 30
-152.559885
  0
VERTEX
  5
D22
  8
TEAM-NET
 10
-52.250086
 20
864.421184
 30
-152.559885
  0
VERTEX
  5
D23
  8
TEAM-NET
 10
-47.722092
 20
866.324765
 30
-152.559885
  0
SEQEND
  5
D24
  8
TEAM-NET
  0
LINE
  5
235
  8
TEAM-NET
 10
-241.671716
 20
-320.0
 30
850.0
 11
-241.671716
 21
-57.605888
 31
850.0
  0
ARC
  5
236
  8
TEAM-NET
 10
-208.671716
 20
-320.0
 30
850.0
 40
33.0
 50
180.0
 51
270.0
  0
LINE
  5
237
  8
TEAM-NET
 10
-241.671716
 20
-57.605888
 30
850.0
 11
-213.701799
 21
-57.605888
 31
850.0
  0
LINE
  5
238
  8
TEAM-NET
 10
211.328284
 20
-353.0
 30
850.0
 11
-208.671716
 21
-353.0
 31
850.0
  0
LINE
  5
239
  8
TEAM-NET
 10
-213.701799
 20
-57.605888
 30
850.0
 11
-213.701799
 21
-305.904265
 31
850.0
  0
ARC
  5
23A
  8
TEAM-NET
 10
211.328284
 20
-320.0
 30
850.0
 40
33.0
 50
270.0
 51
0.0
  0
POLYLINE
  5
23B
  8
TEAM-NET
 66
     1
 10
0.0
 20
0.0
 30
0.0
 70
     8
  0
VERTEX
  5
82B
  8
TEAM-NET
 10
-213.701799
 20
-305.904265
 30
850.0
 70
    32
  0
VERTEX
  5
82C
  8
TEAM-NET
 10
-213.247476
 20
-310.226948
 30
850.0
 70
    32
  0
VERTEX
  5
82D
  8
TEAM-NET
 10
-211.903772
 20
-314.355043
 30
850.0
 70
    32
  0
VERTEX
  5
82E
  8
TEAM-NET
 10
-209.727748
 20
-318.121751
 30
850.0
 70
    32
  0
VERTEX
  5
82F
  8
TEAM-NET
 10
-206.837701
 20
-321.355715
 30
850.0
 70
    32
  0
VERTEX
  5
830
  8
TEAM-NET
 10
-203.350818
 20
-323.961352
 30
850.0
 70
    32
  0
VERTEX
  5
831
  8
TEAM-NET
 10
-199.444756
 20
-325.843972
 30
850.0
 70
    32
  0
VERTEX
  5
832
  8
TEAM-NET
 10
-195.266952
 20
-326.975234
 30
850.0
 70
    32
  0
VERTEX
  5
833
  8
TEAM-NET
 10
-190.955397
 20
-327.350401
 30
850.0
 70
    32
  0
SEQEND
  5
834
  8
TEAM-NET
  0
LINE
  5
23C
  8
TEAM-NET
 10
244.328284
 20
-57.605888
 30
850.0
 11
244.328284
 21
-320.0
 31
850.0
  0
LINE
  5
23D
  8
TEAM-NET
 10
-190.955397
 20
-327.350401
 30
850.0
 11
193.611965
 21
-327.350401
 31
850.0
  0
LINE
  5
23E
  8
TEAM-NET
 10
216.358367
 20
-57.605888
 30
850.0
 11
244.328284
 21
-57.605888
 31
850.0
  0
POLYLINE
  5
23F
  8
TEAM-NET
 66
     1
 10
0.0
 20
0.0
 30
850.0
 70
   128
  0
VERTEX
  5
D25
  8
TEAM-NET
 10
193.611965
 20
-327.350401
 30
850.0
  0
VERTEX
  5
D26
  8
TEAM-NET
 10
197.936688
 20
-326.972968
 30
850.0
  0
VERTEX
  5
D27
  8
TEAM-NET
 10
202.131766
 20
-325.832794
 30
850.0
  0
VERTEX
  5
D28
  8
TEAM-NET
 10
206.033863
 20
-323.945535
 30
850.0
  0
VERTEX
  5
D29
  8
TEAM-NET
 10
209.51447
 20
-321.337488
 30
850.0
  0
VERTEX
  5
D2A
  8
TEAM-NET
 10
212.397081
 20
-318.104538
 30
850.0
  0
VERTEX
  5
D2B
  8
TEAM-NET
 10
214.567518
 20
-314.339349
 30
850.0
  0
VERTEX
  5
D2C
  8
TEAM-NET
 10
215.906113
 20
-310.218274
 30
850.0
  0
VERTEX
  5
D2D
  8
TEAM-NET
 10
216.358367
 20
-305.904265
 30
850.0
  0
SEQEND
  5
D2E
  8
TEAM-NET
  0
LINE
  5
240
  8
TEAM-NET
 10
216.358367
 20
-305.904265
 30
850.0
 11
216.358367
 21
-57.605888
 31
850.0
  0
LINE
  5
241
  8
TEAM-NET
 10
211.328284
 20
-353.0
 30
850.0
 11
-208.671716
 21
-353.0
 31
850.0
  0
ARC
  5
242
  8
TEAM-NET
 10
-211.328284
 20
-320.0
 30
-850.0
 40
33.0
210
0.0
220
0.0
230
-1.0
 50
180.0
 51
270.0
  0
ARC
  5
243
  8
TEAM-NET
 10
208.671716
 20
-320.0
 30
-850.0
 40
33.0
210
0.0
220
0.0
230
-1.0
 50
270.0
 51
0.0
  0
LINE
  5
244
  8
TEAM-NET
 10
244.328284
 20
-57.605888
 30
850.0
 11
244.328284
 21
-320.0
 31
850.0
  0
LINE
  5
245
  8
TEAM-NET
 10
-241.671716
 20
-320.0
 30
850.0
 11
-241.671716
 21
-57.605888
 31
850.0
  0
POLYLINE
  5
246
  8
TEAM-NET
 66
     1
 10
0.0
 20
0.0
 30
0.0
 70
     8
  0
VERTEX
  5
83F
  8
TEAM-NET
 10
-208.399438
 20
-37.754965
 30
867.562613
 70
    32
  0
VERTEX
  5
840
  8
TEAM-NET
 10
-211.134163
 20
-38.826762
 30
863.119273
 70
    32
  0
VERTEX
  5
841
  8
TEAM-NET
 10
-213.420133
 20
-40.953609
 30
858.922928
 70
    32
  0
VERTEX
  5
842
  8
TEAM-NET
 10
-214.272987
 20
-42.423599
 30
856.980857
 70
    32
  0
VERTEX
  5
843
  8
TEAM-NET
 10
-214.838619
 20
-44.14734
 30
855.205829
 70
    32
  0
VERTEX
  5
844
  8
TEAM-NET
 10
-215.037245
 20
-46.10397
 30
853.638281
 70
    32
  0
VERTEX
  5
845
  8
TEAM-NET
 10
-214.776352
 20
-48.237046
 30
852.330116
 70
    32
  0
SEQEND
  5
846
  8
TEAM-NET
  0
POLYLINE
  5
247
  8
TEAM-NET
 66
     1
 10
0.0
 20
0.0
 30
0.0
 70
     8
  0
VERTEX
  5
847
  8
TEAM-NET
 10
217.432921
 20
-48.237046
 30
852.330116
 70
    32
  0
VERTEX
  5
848
  8
TEAM-NET
 10
217.693814
 20
-46.10397
 30
853.638281
 70
    32
  0
VERTEX
  5
849
  8
TEAM-NET
 10
217.495187
 20
-44.14734
 30
855.205829
 70
    32
  0
VERTEX
  5
84A
  8
TEAM-NET
 10
216.929555
 20
-42.423601
 30
856.980858
 70
    32
  0
VERTEX
  5
84B
  8
TEAM-NET
 10
216.076702
 20
-40.953608
 30
858.922926
 70
    32
  0
VERTEX
  5
84C
  8
TEAM-NET
 10
213.790731
 20
-38.826761
 30
863.119273
 70
    32
  0
VERTEX
  5
84D
  8
TEAM-NET
 10
211.056006
 20
-37.754965
 30
867.562613
 70
    32
  0
SEQEND
  5
84E
  8
TEAM-NET
  0
LINE
  5
248
  8
TEAM-NET
 10
216.358367
 20
-57.605888
 30
850.0
 11
244.328284
 21
-57.605888
 31
850.0
  0
LINE
  5
249
  8
TEAM-NET
 10
211.056006
 20
-37.754965
 30
867.562613
 11
244.328284
 21
-37.754965
 31
867.562613
  0
POLYLINE
  5
24A
  8
TEAM-NET
 66
     1
 10
0.0
 20
0.0
 30
-152.559885
 70
   128
210
0.91136
220
-0.002158
230
-0.411605
  0
VERTEX
  5
D2F
  8
TEAM-NET
 10
-57.093452
 20
863.768025
 30
-152.559885
  0
VERTEX
  5
D30
  8
TEAM-NET
 10
-52.250086
 20
864.421184
 30
-152.559885
  0
VERTEX
  5
D31
  8
TEAM-NET
 10
-47.722092
 20
866.324765
 30
-152.559885
  0
SEQEND
  5
D32
  8
TEAM-NET
  0
POLYLINE
  5
24B
  8
TEAM-NET
 66
     1
 10
0.0
 20
0.0
 30
0.0
 70
     8
  0
VERTEX
  5
853
  8
TEAM-NET
 10
217.432921
 20
-48.237046
 30
852.330116
 70
    32
  0
VERTEX
  5
854
  8
TEAM-NET
 10
217.693814
 20
-46.10397
 30
853.638281
 70
    32
  0
VERTEX
  5
855
  8
TEAM-NET
 10
217.495187
 20
-44.14734
 30
855.205829
 70
    32
  0
VERTEX
  5
856
  8
TEAM-NET
 10
216.929555
 20
-42.423601
 30
856.980858
 70
    32
  0
VERTEX
  5
857
  8
TEAM-NET
 10
216.076702
 20
-40.953608
 30
858.922926
 70
    32
  0
VERTEX
  5
858
  8
TEAM-NET
 10
213.790731
 20
-38.826761
 30
863.119273
 70
    32
  0
VERTEX
  5
859
  8
TEAM-NET
 10
211.056006
 20
-37.754965
 30
867.562613
 70
    32
  0
SEQEND
  5
85A
  8
TEAM-NET
  0
LINE
  5
24C
  8
TEAM-NET
 10
-241.671716
 20
-57.605888
 30
850.0
 11
-213.701799
 21
-57.605888
 31
850.0
  0
POLYLINE
  5
24D
  8
TEAM-NET
 66
     1
 10
0.0
 20
0.0
 30
-154.996011
 70
   128
210
-0.911353
220
-0.002153
230
-0.411621
  0
VERTEX
  5
D33
  8
TEAM-NET
 10
47.729483
 20
865.228556
 30
-154.996011
  0
VERTEX
  5
D34
  8
TEAM-NET
 10
52.25759
 20
863.324849
 30
-154.996011
  0
VERTEX
  5
D35
  8
TEAM-NET
 10
57.100838
 20
862.671796
 30
-154.996011
  0
SEQEND
  5
D36
  8
TEAM-NET
  0
LINE
  5
24E
  8
TEAM-NET
 10
-241.671716
 20
-37.754965
 30
867.562613
 11
-208.399438
 21
-37.754965
 31
867.562613
  0
POLYLINE
  5
24F
  8
TEAM-NET
 66
     1
 10
0.0
 20
0.0
 30
0.0
 70
     8
  0
VERTEX
  5
85F
  8
TEAM-NET
 10
-208.399438
 20
-37.754965
 30
867.562613
 70
    32
  0
VERTEX
  5
860
  8
TEAM-NET
 10
-211.134163
 20
-38.826762
 30
863.119273
 70
    32
  0
VERTEX
  5
861
  8
TEAM-NET
 10
-213.420133
 20
-40.953609
 30
858.922928
 70
    32
  0
VERTEX
  5
862
  8
TEAM-NET
 10
-214.272987
 20
-42.423599
 30
856.980857
 70
    32
  0
VERTEX
  5
863
  8
TEAM-NET
 10
-214.838619
 20
-44.14734
 30
855.205829
 70
    32
  0
VERTEX
  5
864
  8
TEAM-NET
 10
-215.037245
 20
-46.10397
 30
853.638281
 70
    32
  0
VERTEX
  5
865
  8
TEAM-NET
 10
-214.776352
 20
-48.237046
 30
852.330116
 70
    32
  0
SEQEND
  5
866
  8
TEAM-NET
  0
ARC
  5
250
  8
TEAM-NET
 10
244.328284
 20
136.202831
 30
-856.49476
 40
7.0
210
0.0
220
-0.121869
230
-0.992546
 50
0.0
 51
90.0
  0
ARC
  5
251
  8
TEAM-NET
 10
-241.671716
 20
136.202831
 30
-856.49476
 40
7.0
210
0.0
220
-0.121869
230
-0.992546
 50
90.0
 51
180.0
  0
ARC
  5
252
  8
TEAM-NET
 10
244.328284
 20
136.202831
 30
-856.49476
 40
7.0
210
0.0
220
-0.121869
230
-0.992546
 50
0.0
 51
90.0
  0
LINE
  5
253
  8
TEAM-NET
 10
211.056006
 20
-37.754965
 30
867.562613
 11
244.328284
 21
-37.754965
 31
867.562613
210
0.0
220
-0.992546
230
0.121869
  0
LINE
  5
254
  8
TEAM-NET
 10
-241.671716
 20
-37.754965
 30
867.562613
 11
-208.399438
 21
-37.754965
 31
867.562613
210
0.0
220
-0.992546
230
0.121869
  0
ARC
  5
255
  8
TEAM-NET
 10
-241.671716
 20
136.202831
 30
-856.49476
 40
7.0
210
0.0
220
-0.121869
230
-0.992546
 50
90.0
 51
180.0
  0
LINE
  5
256
  8
TEAM-NET
 10
251.328284
 20
-28.806923
 30
883.0
 11
251.328284
 21
0.0
 31
883.0
  0
LINE
  5
257
  8
TEAM-NET
 10
-241.671716
 20
-35.754746
 30
883.853085
 11
244.328284
 21
-35.754746
 31
883.853085
  0
ARC
  5
258
  8
TEAM-NET
 10
-244.328284
 20
136.202831
 30
872.907571
 40
7.0
210
-0.0
220
0.121869
230
0.992546
 50
90.0
 51
180.0
  0
LINE
  5
259
  8
TEAM-NET
 10
-248.671716
 20
0.0
 30
883.0
 11
-248.671716
 21
-28.806923
 31
883.0
  0
ARC
  5
25A
  8
TEAM-NET
 10
241.671716
 20
136.202831
 30
872.907571
 40
7.0
210
0.0
220
0.121869
230
0.992546
 50
0.0
 51
90.0
  0
LINE
  5
25B
  8
TEAM-NET
 10
-248.671716
 20
0.0
 30
883.0
 11
-248.671716
 21
-28.806923
 31
883.0
210
-1.0
220
0.0
230
0.0
  0
LINE
  5
25C
  8
TEAM-NET
 10
251.328284
 20
-28.806923
 30
883.0
 11
251.328284
 21
0.0
 31
883.0
210
1.0
220
0.0
230
0.0
  0
ARC
  5
25D
  8
TEAM-NET
 10
-244.328284
 20
136.202831
 30
872.907571
 40
7.0
210
-0.0
220
0.121869
230
0.992546
 50
90.0
 51
180.0
  0
LINE
  5
25E
  8
TEAM-NET
 10
-241.671716
 20
-35.754746
 30
883.853085
 11
244.328284
 21
-35.754746
 31
883.853085
210
0.0
220
-0.992546
230
0.121869
  0
ARC
  5
25F
  8
TEAM-NET
 10
241.671716
 20
136.202831
 30
872.907571
 40
7.0
210
0.0
220
0.121869
230
0.992546
 50
0.0
 51
90.0
  0
LINE
  5
260
  8
TEAM-NET
 10
244.328284
 20
0.0
 30
890.0
 11
244.328284
 21
-28.806923
 31
890.0
  0
LINE
  5
261
  8
TEAM-NET
 10
244.328284
 20
-28.806923
 30
890.0
 11
-241.671716
 21
-28.806923
 31
890.0
  0
LINE
  5
262
  8
TEAM-NET
 10
-241.671716
 20
-28.806923
 30
890.0
 11
-241.671716
 21
0.0
 31
890.0
  0
LINE
  5
263
  8
TEAM-NET
 10
-241.671716
 20
-28.806923
 30
890.0
 11
-241.671716
 21
0.0
 31
890.0
  0
LINE
  5
264
  8
TEAM-NET
 10
244.328284
 20
-28.806923
 30
890.0
 11
-241.671716
 21
-28.806923
 31
890.0
  0
LINE
  5
265
  8
TEAM-NET
 10
-241.671716
 20
0.0
 30
890.0
 11
244.328284
 21
0.0
 31
890.0
  0
LINE
  5
266
  8
TEAM-NET
 10
244.328284
 20
0.0
 30
890.0
 11
244.328284
 21
-28.806923
 31
890.0
  0
LINE
  5
267
  8
TEAM-NET
 10
-241.671716
 20
0.0
 30
890.0
 11
244.328284
 21
0.0
 31
890.0
210
0.0
220
1.0
230
0.0
  0
LINE
  5
268
  8
TEAM-NET
 10
-2.18046
 20
-179.325182
 30
981.974744
 11
-2.18046
 21
-106.360231
 31
979.712896
  0
ARC
  5
867
  8
TEAM-NET
 10
1.328284
 20
974.02642
 30
209.664799
 40
4.0
210
0.0
220
-0.99952
230
0.030984
 50
331.304767
 51
151.304767
1001
ACAD
1000
R13OBJECT
1002
{
1005
268
1002
}
  0
LINE
  5
868
  8
TEAM-NET
 10
4.837029
 20
-179.444198
 30
978.135384
 11
4.837029
 21
-106.479248
 31
975.873536
1001
ACAD
1000
R13OBJECT
1002
{
1005
268
1002
}
  0
ARC
  5
869
  8
TEAM-NET
 10
-1.328284
 20
974.02642
 30
-136.664799
 40
4.0
210
-0.0
220
0.99952
230
-0.030984
 50
28.695233
 51
208.695233
1001
ACAD
1000
R13OBJECT
1002
{
1005
268
1002
}
  0
ARC
  5
86A
  8
TEAM-NET
 10
-179.044206
 20
481.048845
 30
855.040231
 40
2.0
210
0.480151
220
0.027179
230
0.876765
 50
86.306042
 51
176.306042
1001
ACAD
1000
R13OBJECT
1002
{
1005
268
1002
}
  0
ARC
  5
86B
  8
TEAM-NET
 10
1.328284
 20
974.02642
 30
209.664799
 40
4.0
210
0.0
220
-0.99952
230
0.030984
 50
151.304767
 51
331.304767
1001
ACAD
1000
R13OBJECT
1002
{
1005
268
1002
}
  0
ARC
  5
86C
  8
TEAM-NET
 10
179.301915
 20
477.057155
 30
-855.040231
 40
2.0
210
-0.480151
220
-0.027179
230
-0.876765
 50
273.693958
 51
3.693958
1001
ACAD
1000
R13OBJECT
1002
{
1005
268
1002
}
  0
ARC
  5
86D
  8
TEAM-NET
 10
-1.328284
 20
974.02642
 30
-211.664799
 40
2.0
210
-0.0
220
0.99952
230
-0.030984
 50
208.695233
 51
28.695233
1001
ACAD
1000
R13OBJECT
1002
{
1005
268
1002
}
  0
ARC
  5
86E
  8
TEAM-NET
 10
-1.328284
 20
974.02642
 30
-211.664799
 40
2.0
210
-0.0
220
0.99952
230
-0.030984
 50
28.695233
 51
208.695233
1001
ACAD
1000
R13OBJECT
1002
{
1005
268
1002
}
  0
ARC
  5
86F
  8
TEAM-NET
 10
-1.328284
 20
974.02642
 30
-136.664799
 40
4.0
210
-0.0
220
0.99952
230
-0.030984
 50
208.695233
 51
28.695233
1001
ACAD
1000
R13OBJECT
1002
{
1005
268
1002
}
  0
LINE
  5
870
  8
TEAM-NET
 10
3.248886
 20
-106.311024
 30
981.300276
 11
3.248886
 21
-179.275974
 31
983.562124
1001
ACAD
1000
R13OBJECT
1002
{
1005
268
1002
}
  0
LINE
  5
871
  8
TEAM-NET
 10
-2.18046
 20
-106.360231
 30
979.712896
 11
-2.18046
 21
-179.325182
 31
981.974744
1001
ACAD
1000
R13OBJECT
1002
{
1005
268
1002
}
  0
LINE
  5
872
  8
TEAM-NET
 10
4.837029
 20
-106.479248
 30
975.873536
 11
4.837029
 21
-179.444198
 31
978.135384
1001
ACAD
1000
R13OBJECT
1002
{
1005
268
1002
}
  0
LINE
  5
873
  8
TEAM-NET
 10
-2.18046
 20
-106.360231
 30
979.712896
 11
-2.18046
 21
-179.325182
 31
981.974744
1001
ACAD
1000
R13OBJECT
1002
{
1005
268
1002
}
  0
LINE
  5
874
  8
TEAM-NET
 10
-0.592318
 20
-106.528455
 30
974.286156
 11
-0.592318
 21
-179.493406
 31
976.548004
1001
ACAD
1000
R13OBJECT
1002
{
1005
268
1002
}
  0
LINE
  5
875
  8
TEAM-NET
 10
4.837029
 20
-106.479248
 30
975.873536
 11
4.837029
 21
-179.444198
 31
978.135384
1001
ACAD
1000
R13OBJECT
1002
{
1005
268
1002
}
  0
ENDSEC
  0
EOF
