  0
SECTION
  2
HEADER
  9
$ACADVER
  1
AC1009
  9
$INSBASE
 10
0.0
 20
0.0
 30
0.0
  9
$EXTMIN
 10
-433.291284
 20
-491.737628
 30
-0.019175
  9
$EXTMAX
 10
433.312959
 20
10.020607
 30
989.59975
  9
$LIMMIN
 10
-433.291284
 20
-491.737628
  9
$LIMMAX
 10
433.312959
 20
10.020607
  9
$ORTHOMODE
 70
     1
  9
$REGENMODE
 70
     1
  9
$FILLMODE
 70
     1
  9
$QTEXTMODE
 70
     0
  9
$MIRRTEXT
 70
     0
  9
$DRAGMODE
 70
     2
  9
$LTSCALE
 40
25.0
  9
$OSMODE
 70
     0
  9
$ATTMODE
 70
     1
  9
$TEXTSIZE
 40
200.0
  9
$TRACEWID
 40
1.0
  9
$TEXTSTYLE
  7
STANDARD
  9
$CLAYER
  8
TEAM-MAS
  9
$CELTYPE
  6
BYLAYER
  9
$CECOLOR
 62
   256
  9
$DIMSCALE
 40
1.0
  9
$DIMASZ
 40
20.0
  9
$DIMEXO
 40
10.0
  9
$DIMDLI
 40
1.0
  9
$DIMRND
 40
0.0
  9
$DIMDLE
 40
0.0
  9
$DIMEXE
 40
1.0
  9
$DIMTP
 40
0.0
  9
$DIMTM
 40
0.0
  9
$DIMTXT
 40
35.0
  9
$DIMCEN
 40
1.0
  9
$DIMTSZ
 40
0.0
  9
$DIMTOL
 70
     0
  9
$DIMLIM
 70
     0
  9
$DIMTIH
 70
     0
  9
$DIMTOH
 70
     0
  9
$DIMSE1
 70
     0
  9
$DIMSE2
 70
     0
  9
$DIMTAD
 70
     0
  9
$DIMZIN
 70
     0
  9
$DIMBLK
  1

  9
$DIMASO
 70
     1
  9
$DIMSHO
 70
     0
  9
$DIMPOST
  1

  9
$DIMAPOST
  1

  9
$DIMALT
 70
     0
  9
$DIMALTD
 70
     2
  9
$DIMALTF
 40
25.4
  9
$DIMLFAC
 40
1.0
  9
$DIMTOFL
 70
     0
  9
$DIMTVP
 40
0.0
  9
$DIMTIX
 70
     0
  9
$DIMSOXD
 70
     0
  9
$DIMSAH
 70
     0
  9
$DIMBLK1
  1

  9
$DIMBLK2
  1

  9
$DIMSTYLE
  2
TEAM
  9
$DIMCLRD
 70
     9
  9
$DIMCLRE
 70
     9
  9
$DIMCLRT
 70
    11
  9
$DIMTFAC
 40
1.0
  9
$DIMGAP
 40
15.0
  9
$LUNITS
 70
     2
  9
$LUPREC
 70
     1
  9
$SKETCHINC
 40
1.0
  9
$FILLETRAD
 40
10.0
  9
$AUNITS
 70
     0
  9
$AUPREC
 70
     0
  9
$MENU
  1
ROPLANS
  9
$ELEVATION
 40
0.0
  9
$PELEVATION
 40
0.0
  9
$THICKNESS
 40
0.0
  9
$LIMCHECK
 70
     0
  9
$BLIPMODE
 70
     1
  9
$CHAMFERA
 40
0.0
  9
$CHAMFERB
 40
0.0
  9
$SKPOLY
 70
     0
  9
$TDCREATE
 40
2450392.957851
  9
$TDUPDATE
 40
2455509.933601
  9
$TDINDWG
 40
2.904676
  9
$TDUSRTIMER
 40
2.904676
  9
$USRTIMER
 70
     1
  9
$ANGBASE
 50
0.0
  9
$ANGDIR
 70
     0
  9
$PDMODE
 70
     0
  9
$PDSIZE
 40
0.0
  9
$PLINEWID
 40
0.0
  9
$COORDS
 70
     2
  9
$SPLFRAME
 70
     0
  9
$SPLINETYPE
 70
     6
  9
$SPLINESEGS
 70
     8
  9
$ATTDIA
 70
     0
  9
$ATTREQ
 70
     0
  9
$HANDLING
 70
     1
  9
$HANDSEED
  5
10F1
  9
$SURFTAB1
 70
    24
  9
$SURFTAB2
 70
    24
  9
$SURFTYPE
 70
     6
  9
$SURFU
 70
     6
  9
$SURFV
 70
     6
  9
$UCSNAME
  2

  9
$UCSORG
 10
0.0
 20
0.0
 30
0.0
  9
$UCSXDIR
 10
1.0
 20
0.0
 30
0.0
  9
$UCSYDIR
 10
0.0
 20
1.0
 30
0.0
  9
$PUCSNAME
  2

  9
$PUCSORG
 10
0.0
 20
0.0
 30
0.0
  9
$PUCSXDIR
 10
1.0
 20
0.0
 30
0.0
  9
$PUCSYDIR
 10
0.0
 20
1.0
 30
0.0
  9
$USERI1
 70
     0
  9
$USERI2
 70
     0
  9
$USERI3
 70
     0
  9
$USERI4
 70
     0
  9
$USERI5
 70
     0
  9
$USERR1
 40
0.0
  9
$USERR2
 40
0.0
  9
$USERR3
 40
0.0
  9
$USERR4
 40
0.0
  9
$USERR5
 40
0.0
  9
$WORLDVIEW
 70
     1
  9
$SHADEDGE
 70
     0
  9
$SHADEDIF
 70
    70
  9
$TILEMODE
 70
     1
  9
$MAXACTVP
 70
    16
  9
$PLIMCHECK
 70
     0
  9
$PEXTMIN
 10
-0.805942
 20
0.005011
 30
0.0
  9
$PEXTMAX
 10
20.250094
 20
11.356329
 30
0.0
  9
$PLIMMIN
 10
0.0
 20
0.0
  9
$PLIMMAX
 10
12.0
 20
9.0
  9
$UNITMODE
 70
     0
  9
$VISRETAIN
 70
     0
  9
$PLINEGEN
 70
     0
  9
$PSLTSCALE
 70
     0
  0
ENDSEC
  0
SECTION
  2
TABLES
  0
TABLE
  2
VPORT
 70
     2
  0
VPORT
  2
*ACTIVE
 70
     0
 10
0.0
 20
0.0
 11
1.0
 21
1.0
 12
0.010837
 22
-240.858511
 13
0.0
 23
0.0
 14
1.0
 24
1.0
 15
50.0
 25
50.0
 16
0.0
 26
0.0
 36
1.0
 17
0.0
 27
0.0
 37
0.0
 40
504.839657
 41
1.865779
 42
50.0
 43
0.0
 44
0.0
 50
0.0
 51
0.0
 71
     0
 72
   100
 73
     1
 74
     1
 75
     0
 76
     0
 77
     0
 78
     0
  0
ENDTAB
  0
TABLE
  2
LTYPE
 70
     3
  0
LTYPE
  2
CONTINUOUS
 70
     0
  3
Solid Line
 72
    65
 73
     0
 40
0.0
  0
LTYPE
  2
31
 70
     0
  3

 72
    65
 73
     4
 40
2.1
 49
1.5
 49
-0.3
 49
0.0
 49
-0.3
  0
LTYPE
  2
22
 70
     0
  3

 72
    65
 73
     2
 40
1.4
 49
1.2
 49
-0.2
  0
ENDTAB
  0
TABLE
  2
LAYER
 70
     7
  0
LAYER
  2
0
 70
     0
 62
     7
  6
CONTINUOUS
  0
LAYER
  2
TEAM-AXE
 70
     0
 62
    10
  6
31
  0
LAYER
  2
TEAM-MAS
 70
     0
 62
     9
  6
CONTINUOUS
  0
LAYER
  2
TEAM-TXT
 70
     0
 62
    11
  6
CONTINUOUS
  0
LAYER
  2
TEAM-HIDE
 70
     0
 62
     8
  6
22
  0
LAYER
  2
TEAM-NET
 70
     0
 62
    15
  6
CONTINUOUS
  0
LAYER
  2
TEAM-INSP
 70
     0
 62
     5
  6
CONTINUOUS
  0
ENDTAB
  0
TABLE
  2
STYLE
 70
     2
  0
STYLE
  2
STANDARD
 70
     0
 40
0.0
 41
1.0
 50
0.0
 71
     0
 42
200.0
  3
txt
  4

  0
STYLE
  2
TEAM
 70
     0
 40
0.0
 41
0.8
 50
15.0
 71
     0
 42
7.0
  3
ROMANS.shx
  4

  0
ENDTAB
  0
TABLE
  2
VIEW
 70
     0
  0
ENDTAB
  0
TABLE
  2
UCS
 70
     0
  0
ENDTAB
  0
TABLE
  2
APPID
 70
     1
  0
APPID
  2
ACAD
 70
     0
  0
ENDTAB
  0
TABLE
  2
DIMSTYLE
 70
     1
  0
DIMSTYLE
  2
TEAM
 70
     0
  3

  4

  5

  6

  7

 40
1.0
 41
20.0
 42
10.0
 43
1.0
 44
1.0
 45
0.0
 46
0.0
 47
0.0
 48
0.0
140
35.0
141
1.0
142
0.0
143
25.4
144
1.0
145
0.0
146
1.0
147
15.0
 71
     0
 72
     0
 73
     0
 74
     0
 75
     0
 76
     0
 77
     0
 78
     0
170
     0
171
     2
172
     0
173
     0
174
     0
175
     0
176
     9
177
     9
178
    11
  0
ENDTAB
  0
ENDSEC
  0
SECTION
  2
BLOCKS
  0
BLOCK
  8
0
  2
$MODEL_SPACE
 70
     0
 10
0.0
 20
0.0
 30
0.0
  3
$MODEL_SPACE
  1

  0
ENDBLK
  5
EEE
  8
0
  0
BLOCK
 67
     1
  8
0
  2
$PAPER_SPACE
 70
     0
 10
0.0
 20
0.0
 30
0.0
  3
$PAPER_SPACE
  1

  0
ENDBLK
  5
EEC
 67
     1
  8
0
  0
ENDSEC
  0
SECTION
  2
ENTITIES
  0
CIRCLE
  5
20
  8
TEAM-INSP
 10
0.0
 20
0.0
 30
0.0
 40
10.0
  0
ARC
  5
22
  8
TEAM-NET
 10
-40.0
 20
815.0
 30
-120.440306
 40
10.0
210
0.0
220
1.0
230
0.0
 50
180.0
 51
270.0
  0
ARC
  5
24
  8
TEAM-NET
 10
-40.0
 20
815.0
 30
-120.440306
 40
10.0
210
0.0
220
1.0
230
0.0
 50
270.0
 51
0.0
  0
ARC
  5
25
  8
TEAM-NET
 10
-40.0
 20
815.0
 30
-120.440306
 40
10.0
210
0.0
220
1.0
230
0.0
 50
270.0
 51
0.0
  0
ARC
  5
26
  8
TEAM-NET
 10
-40.0
 20
815.0
 30
-120.440306
 40
10.0
210
0.0
220
1.0
230
0.0
 50
180.0
 51
270.0
  0
ARC
  5
27
  8
TEAM-NET
 10
40.0
 20
815.0
 30
118.440306
 40
10.0
210
0.0
220
-1.0
230
0.0
 50
180.0
 51
0.0
  0
ARC
  5
28
  8
TEAM-NET
 10
40.0
 20
815.0
 30
123.440306
 40
13.0
210
0.0
220
-1.0
230
0.0
 50
90.0
 51
270.0
  0
ARC
  5
29
  8
TEAM-NET
 10
40.0
 20
815.0
 30
118.440306
 40
10.0
210
0.0
220
-1.0
230
0.0
 50
360.0
 51
180.0
  0
ARC
  5
2A
  8
TEAM-NET
 10
40.0
 20
815.0
 30
118.440306
 40
10.0
210
0.0
220
-1.0
230
0.0
 50
180.0
 51
0.0
  0
ARC
  5
2B
  8
TEAM-NET
 10
40.0
 20
815.0
 30
118.440306
 40
10.0
210
0.0
220
-1.0
230
0.0
 50
360.0
 51
180.0
  0
ARC
  5
2C
  8
TEAM-NET
 10
40.0
 20
815.0
 30
123.440306
 40
13.0
210
0.0
220
-1.0
230
0.0
 50
90.0
 51
270.0
  0
ARC
  5
2D
  8
TEAM-NET
 10
40.0
 20
815.0
 30
123.440306
 40
13.0
210
0.0
220
-1.0
230
0.0
 50
270.0
 51
0.0
  0
ARC
  5
2E
  8
TEAM-NET
 10
40.0
 20
815.0
 30
123.440306
 40
13.0
210
0.0
220
-1.0
230
0.0
 50
270.0
 51
0.0
  0
LINE
  5
2F
  8
TEAM-NET
 10
185.0
 20
-108.440306
 30
702.0
 11
185.0
 21
-108.440306
 31
840.0
210
0.0
220
1.0
230
0.0
  0
LINE
  5
30
  8
TEAM-NET
 10
185.0
 20
-33.440306
 30
702.0
 11
185.0
 21
-33.440306
 31
840.0
210
-1.0
220
0.0
230
0.0
  0
LINE
  5
31
  8
TEAM-NET
 10
185.0
 20
-108.440306
 30
702.0
 11
185.0
 21
-108.440306
 31
840.0
210
-1.0
220
0.0
230
0.0
  0
LINE
  5
32
  8
TEAM-NET
 10
185.0
 20
-33.440306
 30
702.0
 11
185.0
 21
-33.440306
 31
840.0
210
0.0
220
-1.0
230
0.0
  0
ARC
  5
33
  8
TEAM-NET
 10
-92.398825
 20
1156.515127
 30
1.559694
 40
472.19201
210
0.0
220
1.0
230
0.0
 50
227.178412
 51
255.557978
  0
ARC
  5
34
  8
TEAM-NET
 10
-92.398825
 20
1156.515127
 30
1.559694
 40
472.19201
210
0.0
220
1.0
230
0.0
 50
227.178412
 51
255.557978
  0
ARC
  5
35
  8
TEAM-NET
 10
93.730732
 20
893.946846
 30
138.440306
 40
172.635397
210
0.0
220
-1.0
230
0.0
 50
269.05879
 51
343.675284
  0
ARC
  5
36
  8
TEAM-NET
 10
93.730732
 20
893.946846
 30
138.440306
 40
172.635397
210
0.0
220
-1.0
230
0.0
 50
269.05879
 51
343.675284
  0
ARC
  5
37
  8
TEAM-NET
 10
-93.39806
 20
897.15782
 30
-123.440306
 40
160.842557
210
0.0
220
1.0
230
0.0
 50
201.963559
 51
270.891704
  0
ARC
  5
38
  8
TEAM-NET
 10
93.39806
 20
897.15782
 30
123.440306
 40
160.842557
210
0.0
220
-1.0
230
0.0
 50
269.108296
 51
338.036441
  0
LINE
  5
39
  8
TEAM-NET
 10
-185.0
 20
-108.440306
 30
702.0
 11
-185.0
 21
-108.440306
 31
840.0
210
0.0
220
1.0
230
0.0
  0
LINE
  5
3A
  8
TEAM-NET
 10
-185.0
 20
-108.440306
 30
702.0
 11
-185.0
 21
-108.440306
 31
840.0
210
1.0
220
0.0
230
0.0
  0
LINE
  5
3B
  8
TEAM-NET
 10
-185.0
 20
-33.440306
 30
702.0
 11
-185.0
 21
-33.440306
 31
840.0
210
1.0
220
0.0
230
0.0
  0
LINE
  5
3C
  8
TEAM-NET
 10
-185.0
 20
-33.440306
 30
702.0
 11
-185.0
 21
-33.440306
 31
840.0
210
0.0
220
-1.0
230
0.0
  0
ARC
  5
3D
  8
TEAM-NET
 10
63.962929
 20
1184.670073
 30
1.559694
 40
506.172538
210
0.0
220
1.0
230
0.0
 50
286.852743
 51
313.908815
  0
ARC
  5
3E
  8
TEAM-NET
 10
63.962929
 20
1184.670073
 30
1.559694
 40
506.172538
210
0.0
220
1.0
230
0.0
 50
286.852743
 51
313.908815
  0
ARC
  5
3F
  8
TEAM-NET
 10
-93.730732
 20
893.946846
 30
138.440306
 40
172.635397
210
0.0
220
-1.0
230
0.0
 50
196.324716
 51
270.94121
  0
ARC
  5
40
  8
TEAM-NET
 10
-93.730732
 20
893.946846
 30
138.440306
 40
172.635397
210
0.0
220
-1.0
230
0.0
 50
196.324716
 51
270.94121
  0
ARC
  5
41
  8
TEAM-NET
 10
93.39806
 20
897.15782
 30
-123.440306
 40
160.842557
210
0.0
220
1.0
230
0.0
 50
269.108296
 51
338.036441
  0
ARC
  5
42
  8
TEAM-NET
 10
-93.39806
 20
897.15782
 30
123.440306
 40
160.842557
210
0.0
220
-1.0
230
0.0
 50
201.963559
 51
270.891704
  0
POLYLINE
  5
43
  8
TEAM-NET
 66
     1
 10
0.0
 20
0.0
 30
0.0
 70
     8
  0
VERTEX
  5
3DF
  8
TEAM-NET
 10
-414.999997
 20
-440.389815
 30
820.000891
 70
    32
  0
VERTEX
  5
3E0
  8
TEAM-NET
 10
-412.500345
 20
-439.048249
 30
809.210524
 70
    32
  0
VERTEX
  5
3E1
  8
TEAM-NET
 10
-409.440259
 20
-437.07327
 30
798.774004
 70
    32
  0
VERTEX
  5
3E2
  8
TEAM-NET
 10
-405.84548
 20
-434.494706
 30
788.671831
 70
    32
  0
VERTEX
  5
3E3
  8
TEAM-NET
 10
-403.832689
 20
-432.989756
 30
783.756253
 70
    32
  0
VERTEX
  5
3E4
  8
TEAM-NET
 10
-402.111549
 20
-432.185886
 30
781.336097
 70
    32
  0
VERTEX
  5
3E5
  8
TEAM-NET
 10
-400.614152
 20
-431.771457
 30
780.135869
 70
    32
  0
VERTEX
  5
3E6
  8
TEAM-NET
 10
-398.484856
 20
-431.348838
 30
778.94237
 70
    32
  0
VERTEX
  5
3E7
  8
TEAM-NET
 10
-395.568151
 20
-430.918131
 30
777.755723
 70
    32
  0
VERTEX
  5
3E8
  8
TEAM-NET
 10
-391.708526
 20
-430.479441
 30
776.57605
 70
    32
  0
VERTEX
  5
3E9
  8
TEAM-NET
 10
-386.750472
 20
-430.032871
 30
775.403474
 70
    32
  0
VERTEX
  5
3EA
  8
TEAM-NET
 10
-380.538478
 20
-429.578525
 30
774.238117
 70
    32
  0
VERTEX
  5
3EB
  8
TEAM-NET
 10
-372.958976
 20
-429.116507
 30
773.080099
 70
    32
  0
VERTEX
  5
3EC
  8
TEAM-NET
 10
-364.177771
 20
-428.646934
 30
771.929521
 70
    32
  0
VERTEX
  5
3ED
  8
TEAM-NET
 10
-354.474826
 20
-428.169925
 30
770.786478
 70
    32
  0
VERTEX
  5
3EE
  8
TEAM-NET
 10
-344.130449
 20
-427.685601
 30
769.651064
 70
    32
  0
VERTEX
  5
3EF
  8
TEAM-NET
 10
-322.638612
 20
-426.695483
 30
767.403495
 70
    32
  0
VERTEX
  5
3F0
  8
TEAM-NET
 10
-301.944703
 20
-425.67754
 30
765.187566
 70
    32
  0
VERTEX
  5
3F1
  8
TEAM-NET
 10
-292.597733
 20
-425.158434
 30
764.091702
 70
    32
  0
VERTEX
  5
3F2
  8
TEAM-NET
 10
-284.291161
 20
-424.63273
 30
763.00403
 70
    32
  0
VERTEX
  5
3F3
  8
TEAM-NET
 10
-277.305291
 20
-424.10055
 30
761.924643
 70
    32
  0
VERTEX
  5
3F4
  8
TEAM-NET
 10
-271.920428
 20
-423.562013
 30
760.853637
 70
    32
  0
VERTEX
  5
3F5
  8
TEAM-NET
 10
-268.385179
 20
-423.01724
 30
759.791103
 70
    32
  0
VERTEX
  5
3F6
  8
TEAM-NET
 10
-266.451278
 20
-422.466372
 30
758.737131
 70
    32
  0
VERTEX
  5
3F7
  8
TEAM-NET
 10
-264.822087
 20
-421.346959
 30
756.655178
 70
    32
  0
VERTEX
  5
3F8
  8
TEAM-NET
 10
-262.211345
 20
-419.03596
 30
752.588541
 70
    32
  0
VERTEX
  5
3F9
  8
TEAM-NET
 10
-256.791208
 20
-414.114511
 30
744.805479
 70
    32
  0
VERTEX
  5
3FA
  8
TEAM-NET
 10
-251.15051
 20
-408.816222
 30
737.497387
 70
    32
  0
VERTEX
  5
3FB
  8
TEAM-NET
 10
-245.346792
 20
-403.16989
 30
730.678022
 70
    32
  0
VERTEX
  5
3FC
  8
TEAM-NET
 10
-233.509676
 20
-390.931585
 30
718.543994
 70
    32
  0
VERTEX
  5
3FD
  8
TEAM-NET
 10
-221.760524
 20
-377.452381
 30
708.392747
 70
    32
  0
VERTEX
  5
3FE
  8
TEAM-NET
 10
-216.084531
 20
-370.193521
 30
704.050007
 70
    32
  0
VERTEX
  5
3FF
  8
TEAM-NET
 10
-210.708892
 20
-362.591569
 30
700.236114
 70
    32
  0
SEQEND
  5
400
  8
TEAM-NET
  0
POLYLINE
  5
44
  8
TEAM-NET
 66
     1
 10
0.0
 20
0.0
 30
0.0
 70
     8
  0
VERTEX
  5
401
  8
TEAM-NET
 10
-193.775199
 20
-373.334473
 30
696.989466
 70
    32
  0
VERTEX
  5
402
  8
TEAM-NET
 10
-198.237092
 20
-382.666371
 30
700.929228
 70
    32
  0
VERTEX
  5
403
  8
TEAM-NET
 10
-202.946429
 20
-391.583295
 30
705.408359
 70
    32
  0
VERTEX
  5
404
  8
TEAM-NET
 10
-207.796545
 20
-400.083731
 30
710.39592
 70
    32
  0
VERTEX
  5
405
  8
TEAM-NET
 10
-212.698258
 20
-408.160304
 30
715.862148
 70
    32
  0
VERTEX
  5
406
  8
TEAM-NET
 10
-217.626074
 20
-415.876522
 30
721.839013
 70
    32
  0
VERTEX
  5
407
  8
TEAM-NET
 10
-222.531927
 20
-423.232282
 30
728.333406
 70
    32
  0
VERTEX
  5
408
  8
TEAM-NET
 10
-227.361577
 20
-430.199931
 30
735.336789
 70
    32
  0
VERTEX
  5
409
  8
TEAM-NET
 10
-232.062857
 20
-436.750003
 30
742.839454
 70
    32
  0
VERTEX
  5
40A
  8
TEAM-NET
 10
-236.588998
 20
-442.848486
 30
750.827845
 70
    32
  0
VERTEX
  5
40B
  8
TEAM-NET
 10
-237.687841
 20
-444.298431
 30
752.89914
 70
    32
  0
VERTEX
  5
40C
  8
TEAM-NET
 10
-238.263846
 20
-445.01183
 30
753.94577
 70
    32
  0
VERTEX
  5
40D
  8
TEAM-NET
 10
-239.835056
 20
-445.717587
 30
754.999944
 70
    32
  0
VERTEX
  5
40E
  8
TEAM-NET
 10
-241.624104
 20
-446.067683
 30
755.530019
 70
    32
  0
VERTEX
  5
40F
  8
TEAM-NET
 10
-244.429719
 20
-446.415972
 30
756.062175
 70
    32
  0
VERTEX
  5
410
  8
TEAM-NET
 10
-248.512607
 20
-446.762488
 30
756.596476
 70
    32
  0
VERTEX
  5
411
  8
TEAM-NET
 10
-254.099148
 20
-447.107263
 30
757.132985
 70
    32
  0
VERTEX
  5
412
  8
TEAM-NET
 10
-261.049283
 20
-447.450295
 30
757.671719
 70
    32
  0
VERTEX
  5
413
  8
TEAM-NET
 10
-269.001134
 20
-447.791561
 30
758.212668
 70
    32
  0
VERTEX
  5
414
  8
TEAM-NET
 10
-286.450102
 20
-448.468704
 30
759.30117
 70
    32
  0
VERTEX
  5
415
  8
TEAM-NET
 10
-303.533409
 20
-449.138504
 30
760.398408
 70
    32
  0
VERTEX
  5
416
  8
TEAM-NET
 10
-318.30165
 20
-449.80079
 30
761.504298
 70
    32
  0
VERTEX
  5
417
  8
TEAM-NET
 10
-330.733505
 20
-450.455416
 30
762.618746
 70
    32
  0
VERTEX
  5
418
  8
TEAM-NET
 10
-341.037395
 20
-451.102239
 30
763.741657
 70
    32
  0
VERTEX
  5
419
  8
TEAM-NET
 10
-349.421739
 20
-451.741116
 30
764.872937
 70
    32
  0
VERTEX
  5
41A
  8
TEAM-NET
 10
-356.094958
 20
-452.371904
 30
766.012492
 70
    32
  0
VERTEX
  5
41B
  8
TEAM-NET
 10
-361.265474
 20
-452.994461
 30
767.160227
 70
    32
  0
VERTEX
  5
41C
  8
TEAM-NET
 10
-365.141705
 20
-453.608643
 30
768.316048
 70
    32
  0
VERTEX
  5
41D
  8
TEAM-NET
 10
-367.932073
 20
-454.214308
 30
769.47986
 70
    32
  0
VERTEX
  5
41E
  8
TEAM-NET
 10
-369.844999
 20
-454.811313
 30
770.65157
 70
    32
  0
VERTEX
  5
41F
  8
TEAM-NET
 10
-371.872204
 20
-455.97877
 30
773.018305
 70
    32
  0
VERTEX
  5
420
  8
TEAM-NET
 10
-373.793155
 20
-458.203551
 30
777.842284
 70
    32
  0
VERTEX
  5
421
  8
TEAM-NET
 10
-377.255842
 20
-462.184166
 30
787.825849
 70
    32
  0
VERTEX
  5
422
  8
TEAM-NET
 10
-380.324913
 20
-465.489452
 30
798.202796
 70
    32
  0
VERTEX
  5
423
  8
TEAM-NET
 10
-382.960444
 20
-468.070944
 30
808.917464
 70
    32
  0
VERTEX
  5
424
  8
TEAM-NET
 10
-385.145019
 20
-469.897795
 30
820.000897
 70
    32
  0
SEQEND
  5
425
  8
TEAM-NET
  0
POLYLINE
  5
45
  8
TEAM-NET
 66
     1
 10
0.0
 20
0.0
 30
0.0
 70
     8
  0
VERTEX
  5
426
  8
TEAM-NET
 10
-378.315388
 20
-469.897819
 30
820.00089
 70
    32
  0
VERTEX
  5
427
  8
TEAM-NET
 10
-374.154827
 20
-468.114029
 30
809.130509
 70
    32
  0
VERTEX
  5
428
  8
TEAM-NET
 10
-369.316432
 20
-465.702214
 30
798.971523
 70
    32
  0
VERTEX
  5
429
  8
TEAM-NET
 10
-363.606987
 20
-462.621238
 30
789.062953
 70
    32
  0
VERTEX
  5
42A
  8
TEAM-NET
 10
-356.990106
 20
-458.896192
 30
779.441891
 70
    32
  0
VERTEX
  5
42B
  8
TEAM-NET
 10
-353.396202
 20
-456.841517
 30
774.837082
 70
    32
  0
VERTEX
  5
42C
  8
TEAM-NET
 10
-352.935484
 20
-456.577395
 30
774.273643
 70
    32
  0
VERTEX
  5
42D
  8
TEAM-NET
 10
-352.877725
 20
-456.544276
 30
774.203418
 70
    32
  0
VERTEX
  5
42E
  8
TEAM-NET
 10
-352.079306
 20
-456.511134
 30
774.133238
 70
    32
  0
VERTEX
  5
42F
  8
TEAM-NET
 10
-349.54521
 20
-456.444781
 30
773.993017
 70
    32
  0
VERTEX
  5
430
  8
TEAM-NET
 10
-344.635239
 20
-456.311809
 30
773.713126
 70
    32
  0
VERTEX
  5
431
  8
TEAM-NET
 10
-335.431728
 20
-456.044817
 30
773.155576
 70
    32
  0
VERTEX
  5
432
  8
TEAM-NET
 10
-327.018761
 20
-455.776479
 30
772.601039
 70
    32
  0
VERTEX
  5
433
  8
TEAM-NET
 10
-319.358708
 20
-455.506853
 30
772.049559
 70
    32
  0
VERTEX
  5
434
  8
TEAM-NET
 10
-312.413936
 20
-455.235999
 30
771.501182
 70
    32
  0
VERTEX
  5
435
  8
TEAM-NET
 10
-306.146814
 20
-454.963975
 30
770.955952
 70
    32
  0
VERTEX
  5
436
  8
TEAM-NET
 10
-300.519711
 20
-454.690842
 30
770.413915
 70
    32
  0
VERTEX
  5
437
  8
TEAM-NET
 10
-291.035033
 20
-454.141484
 30
769.3396
 70
    32
  0
VERTEX
  5
438
  8
TEAM-NET
 10
-283.658847
 20
-453.588397
 30
768.278595
 70
    32
  0
VERTEX
  5
439
  8
TEAM-NET
 10
-278.090101
 20
-453.032055
 30
767.231263
 70
    32
  0
VERTEX
  5
43A
  8
TEAM-NET
 10
-274.02774
 20
-452.472933
 30
766.197962
 70
    32
  0
VERTEX
  5
43B
  8
TEAM-NET
 10
-271.170712
 20
-451.911504
 30
765.179055
 70
    32
  0
VERTEX
  5
43C
  8
TEAM-NET
 10
-269.217963
 20
-451.348242
 30
764.174901
 70
    32
  0
VERTEX
  5
43D
  8
TEAM-NET
 10
-266.821086
 20
-450.218114
 30
762.212294
 70
    32
  0
VERTEX
  5
43E
  8
TEAM-NET
 10
-265.439333
 20
-449.652228
 30
761.254473
 70
    32
  0
VERTEX
  5
43F
  8
TEAM-NET
 10
-264.009649
 20
-449.369308
 30
760.781521
 70
    32
  0
VERTEX
  5
440
  8
TEAM-NET
 10
-261.687332
 20
-449.086487
 30
760.312581
 70
    32
  0
VERTEX
  5
441
  8
TEAM-NET
 10
-258.172312
 20
-448.80383
 30
759.847682
 70
    32
  0
VERTEX
  5
442
  8
TEAM-NET
 10
-253.164517
 20
-448.521398
 30
759.386855
 70
    32
  0
VERTEX
  5
443
  8
TEAM-NET
 10
-246.363876
 20
-448.239256
 30
758.930128
 70
    32
  0
VERTEX
  5
444
  8
TEAM-NET
 10
-237.470318
 20
-447.957465
 30
758.477532
 70
    32
  0
VERTEX
  5
445
  8
TEAM-NET
 10
-232.144923
 20
-447.816721
 30
758.252792
 70
    32
  0
VERTEX
  5
446
  8
TEAM-NET
 10
-226.183771
 20
-447.676089
 30
758.029096
 70
    32
  0
VERTEX
  5
447
  8
TEAM-NET
 10
-219.549355
 20
-447.535576
 30
757.806448
 70
    32
  0
VERTEX
  5
448
  8
TEAM-NET
 10
-212.204165
 20
-447.395191
 30
757.58485
 70
    32
  0
VERTEX
  5
449
  8
TEAM-NET
 10
-210.812941
 20
-446.835081
 30
756.709026
 70
    32
  0
VERTEX
  5
44A
  8
TEAM-NET
 10
-208.807909
 20
-445.720961
 30
755.005051
 70
    32
  0
VERTEX
  5
44B
  8
TEAM-NET
 10
-200.389082
 20
-441.148522
 30
748.490442
 70
    32
  0
VERTEX
  5
44C
  8
TEAM-NET
 10
-191.311701
 20
-436.459952
 30
742.485494
 70
    32
  0
VERTEX
  5
44D
  8
TEAM-NET
 10
-181.648836
 20
-431.814933
 30
737.097561
 70
    32
  0
VERTEX
  5
44E
  8
TEAM-NET
 10
-171.476686
 20
-427.395435
 30
732.408056
 70
    32
  0
VERTEX
  5
44F
  8
TEAM-NET
 10
-160.871054
 20
-423.392758
 30
728.485046
 70
    32
  0
VERTEX
  5
450
  8
TEAM-NET
 10
-155.429378
 20
-421.609592
 30
726.827137
 70
    32
  0
VERTEX
  5
451
  8
TEAM-NET
 10
-154.743359
 20
-421.398735
 30
726.634585
 70
    32
  0
VERTEX
  5
452
  8
TEAM-NET
 10
-153.438676
 20
-421.294368
 30
726.539548
 70
    32
  0
VERTEX
  5
453
  8
TEAM-NET
 10
-151.688909
 20
-421.190725
 30
726.445341
 70
    32
  0
VERTEX
  5
454
  8
TEAM-NET
 10
-145.234792
 20
-420.78349
 30
726.076831
 70
    32
  0
VERTEX
  5
455
  8
TEAM-NET
 10
-139.598273
 20
-420.38824
 30
725.721676
 70
    32
  0
VERTEX
  5
456
  8
TEAM-NET
 10
-134.706931
 20
-420.005301
 30
725.379939
 70
    32
  0
VERTEX
  5
457
  8
TEAM-NET
 10
-126.870086
 20
-419.277662
 30
724.73696
 70
    32
  0
VERTEX
  5
458
  8
TEAM-NET
 10
-121.144872
 20
-418.603185
 30
724.148386
 70
    32
  0
VERTEX
  5
459
  8
TEAM-NET
 10
-116.951907
 20
-417.984483
 30
723.614707
 70
    32
  0
VERTEX
  5
45A
  8
TEAM-NET
 10
-113.711808
 20
-417.424167
 30
723.136415
 70
    32
  0
VERTEX
  5
45B
  8
TEAM-NET
 10
-102.304267
 20
-415.811014
 30
721.784408
 70
    32
  0
VERTEX
  5
45C
  8
TEAM-NET
 10
-90.89494
 20
-415.263734
 30
721.334742
 70
    32
  0
SEQEND
  5
45D
  8
TEAM-NET
  0
POLYLINE
  5
46
  8
TEAM-NET
 66
     1
 10
0.0
 20
0.0
 30
0.0
 70
     8
  0
VERTEX
  5
45E
  8
TEAM-NET
 10
-414.999997
 20
-440.389815
 30
820.000891
 70
    32
  0
VERTEX
  5
45F
  8
TEAM-NET
 10
-412.500345
 20
-439.048249
 30
809.210524
 70
    32
  0
VERTEX
  5
460
  8
TEAM-NET
 10
-409.440259
 20
-437.07327
 30
798.774004
 70
    32
  0
VERTEX
  5
461
  8
TEAM-NET
 10
-405.84548
 20
-434.494706
 30
788.671831
 70
    32
  0
VERTEX
  5
462
  8
TEAM-NET
 10
-403.832689
 20
-432.989756
 30
783.756253
 70
    32
  0
VERTEX
  5
463
  8
TEAM-NET
 10
-402.111549
 20
-432.185886
 30
781.336097
 70
    32
  0
VERTEX
  5
464
  8
TEAM-NET
 10
-400.614152
 20
-431.771457
 30
780.135869
 70
    32
  0
VERTEX
  5
465
  8
TEAM-NET
 10
-398.484856
 20
-431.348838
 30
778.94237
 70
    32
  0
VERTEX
  5
466
  8
TEAM-NET
 10
-395.568151
 20
-430.918131
 30
777.755723
 70
    32
  0
VERTEX
  5
467
  8
TEAM-NET
 10
-391.708526
 20
-430.479441
 30
776.57605
 70
    32
  0
VERTEX
  5
468
  8
TEAM-NET
 10
-386.750472
 20
-430.032871
 30
775.403474
 70
    32
  0
VERTEX
  5
469
  8
TEAM-NET
 10
-380.538478
 20
-429.578525
 30
774.238117
 70
    32
  0
VERTEX
  5
46A
  8
TEAM-NET
 10
-372.958976
 20
-429.116507
 30
773.080099
 70
    32
  0
VERTEX
  5
46B
  8
TEAM-NET
 10
-364.177771
 20
-428.646934
 30
771.929521
 70
    32
  0
VERTEX
  5
46C
  8
TEAM-NET
 10
-354.474826
 20
-428.169925
 30
770.786478
 70
    32
  0
VERTEX
  5
46D
  8
TEAM-NET
 10
-344.130449
 20
-427.685601
 30
769.651064
 70
    32
  0
VERTEX
  5
46E
  8
TEAM-NET
 10
-322.638612
 20
-426.695483
 30
767.403495
 70
    32
  0
VERTEX
  5
46F
  8
TEAM-NET
 10
-301.944703
 20
-425.67754
 30
765.187566
 70
    32
  0
VERTEX
  5
470
  8
TEAM-NET
 10
-292.597733
 20
-425.158434
 30
764.091702
 70
    32
  0
VERTEX
  5
471
  8
TEAM-NET
 10
-284.291161
 20
-424.63273
 30
763.00403
 70
    32
  0
VERTEX
  5
472
  8
TEAM-NET
 10
-277.305291
 20
-424.10055
 30
761.924643
 70
    32
  0
VERTEX
  5
473
  8
TEAM-NET
 10
-271.920428
 20
-423.562013
 30
760.853637
 70
    32
  0
VERTEX
  5
474
  8
TEAM-NET
 10
-268.385179
 20
-423.01724
 30
759.791103
 70
    32
  0
VERTEX
  5
475
  8
TEAM-NET
 10
-266.451278
 20
-422.466372
 30
758.737131
 70
    32
  0
VERTEX
  5
476
  8
TEAM-NET
 10
-264.822087
 20
-421.346959
 30
756.655178
 70
    32
  0
VERTEX
  5
477
  8
TEAM-NET
 10
-262.211345
 20
-419.03596
 30
752.588541
 70
    32
  0
VERTEX
  5
478
  8
TEAM-NET
 10
-256.791208
 20
-414.114511
 30
744.805479
 70
    32
  0
VERTEX
  5
479
  8
TEAM-NET
 10
-251.15051
 20
-408.816222
 30
737.497387
 70
    32
  0
VERTEX
  5
47A
  8
TEAM-NET
 10
-245.346792
 20
-403.16989
 30
730.678022
 70
    32
  0
VERTEX
  5
47B
  8
TEAM-NET
 10
-233.509676
 20
-390.931585
 30
718.543994
 70
    32
  0
VERTEX
  5
47C
  8
TEAM-NET
 10
-221.760524
 20
-377.452381
 30
708.392747
 70
    32
  0
VERTEX
  5
47D
  8
TEAM-NET
 10
-216.084531
 20
-370.193521
 30
704.050007
 70
    32
  0
VERTEX
  5
47E
  8
TEAM-NET
 10
-210.708892
 20
-362.591569
 30
700.236114
 70
    32
  0
SEQEND
  5
47F
  8
TEAM-NET
  0
POLYLINE
  5
47
  8
TEAM-NET
 66
     1
 10
0.0
 20
0.0
 30
0.0
 70
     8
  0
VERTEX
  5
480
  8
TEAM-NET
 10
-193.775199
 20
-373.334473
 30
696.989466
 70
    32
  0
VERTEX
  5
481
  8
TEAM-NET
 10
-198.237092
 20
-382.666371
 30
700.929228
 70
    32
  0
VERTEX
  5
482
  8
TEAM-NET
 10
-202.946429
 20
-391.583295
 30
705.408359
 70
    32
  0
VERTEX
  5
483
  8
TEAM-NET
 10
-207.796545
 20
-400.083731
 30
710.39592
 70
    32
  0
VERTEX
  5
484
  8
TEAM-NET
 10
-212.698258
 20
-408.160304
 30
715.862148
 70
    32
  0
VERTEX
  5
485
  8
TEAM-NET
 10
-217.626074
 20
-415.876522
 30
721.839013
 70
    32
  0
VERTEX
  5
486
  8
TEAM-NET
 10
-222.531927
 20
-423.232282
 30
728.333406
 70
    32
  0
VERTEX
  5
487
  8
TEAM-NET
 10
-227.361577
 20
-430.199931
 30
735.336789
 70
    32
  0
VERTEX
  5
488
  8
TEAM-NET
 10
-232.062857
 20
-436.750003
 30
742.839454
 70
    32
  0
VERTEX
  5
489
  8
TEAM-NET
 10
-236.588998
 20
-442.848486
 30
750.827845
 70
    32
  0
VERTEX
  5
48A
  8
TEAM-NET
 10
-237.687841
 20
-444.298431
 30
752.89914
 70
    32
  0
VERTEX
  5
48B
  8
TEAM-NET
 10
-238.263846
 20
-445.01183
 30
753.94577
 70
    32
  0
VERTEX
  5
48C
  8
TEAM-NET
 10
-239.835056
 20
-445.717587
 30
754.999944
 70
    32
  0
VERTEX
  5
48D
  8
TEAM-NET
 10
-241.624104
 20
-446.067683
 30
755.530019
 70
    32
  0
VERTEX
  5
48E
  8
TEAM-NET
 10
-244.429719
 20
-446.415972
 30
756.062175
 70
    32
  0
VERTEX
  5
48F
  8
TEAM-NET
 10
-248.512607
 20
-446.762488
 30
756.596476
 70
    32
  0
VERTEX
  5
490
  8
TEAM-NET
 10
-254.099148
 20
-447.107263
 30
757.132985
 70
    32
  0
VERTEX
  5
491
  8
TEAM-NET
 10
-261.049283
 20
-447.450295
 30
757.671719
 70
    32
  0
VERTEX
  5
492
  8
TEAM-NET
 10
-269.001134
 20
-447.791561
 30
758.212668
 70
    32
  0
VERTEX
  5
493
  8
TEAM-NET
 10
-286.450102
 20
-448.468704
 30
759.30117
 70
    32
  0
VERTEX
  5
494
  8
TEAM-NET
 10
-303.533409
 20
-449.138504
 30
760.398408
 70
    32
  0
VERTEX
  5
495
  8
TEAM-NET
 10
-318.30165
 20
-449.80079
 30
761.504298
 70
    32
  0
VERTEX
  5
496
  8
TEAM-NET
 10
-330.733505
 20
-450.455416
 30
762.618746
 70
    32
  0
VERTEX
  5
497
  8
TEAM-NET
 10
-341.037395
 20
-451.102239
 30
763.741657
 70
    32
  0
VERTEX
  5
498
  8
TEAM-NET
 10
-349.421739
 20
-451.741116
 30
764.872937
 70
    32
  0
VERTEX
  5
499
  8
TEAM-NET
 10
-356.094958
 20
-452.371904
 30
766.012492
 70
    32
  0
VERTEX
  5
49A
  8
TEAM-NET
 10
-361.265474
 20
-452.994461
 30
767.160227
 70
    32
  0
VERTEX
  5
49B
  8
TEAM-NET
 10
-365.141705
 20
-453.608643
 30
768.316048
 70
    32
  0
VERTEX
  5
49C
  8
TEAM-NET
 10
-367.932073
 20
-454.214308
 30
769.47986
 70
    32
  0
VERTEX
  5
49D
  8
TEAM-NET
 10
-369.844999
 20
-454.811313
 30
770.65157
 70
    32
  0
VERTEX
  5
49E
  8
TEAM-NET
 10
-371.872204
 20
-455.97877
 30
773.018305
 70
    32
  0
VERTEX
  5
49F
  8
TEAM-NET
 10
-373.793155
 20
-458.203551
 30
777.842284
 70
    32
  0
VERTEX
  5
4A0
  8
TEAM-NET
 10
-377.255842
 20
-462.184166
 30
787.825849
 70
    32
  0
VERTEX
  5
4A1
  8
TEAM-NET
 10
-380.324913
 20
-465.489452
 30
798.202796
 70
    32
  0
VERTEX
  5
4A2
  8
TEAM-NET
 10
-382.960444
 20
-468.070944
 30
808.917464
 70
    32
  0
VERTEX
  5
4A3
  8
TEAM-NET
 10
-385.145019
 20
-469.897795
 30
820.000897
 70
    32
  0
SEQEND
  5
4A4
  8
TEAM-NET
  0
POLYLINE
  5
48
  8
TEAM-NET
 66
     1
 10
0.0
 20
0.0
 30
0.0
 70
     8
  0
VERTEX
  5
4A5
  8
TEAM-NET
 10
-378.315388
 20
-469.897819
 30
820.00089
 70
    32
  0
VERTEX
  5
4A6
  8
TEAM-NET
 10
-374.154032
 20
-468.116746
 30
809.128657
 70
    32
  0
VERTEX
  5
4A7
  8
TEAM-NET
 10
-369.314959
 20
-465.706972
 30
798.968716
 70
    32
  0
VERTEX
  5
4A8
  8
TEAM-NET
 10
-363.606693
 20
-462.628546
 30
789.062513
 70
    32
  0
VERTEX
  5
4A9
  8
TEAM-NET
 10
-356.990354
 20
-458.905267
 30
779.442229
 70
    32
  0
VERTEX
  5
4AA
  8
TEAM-NET
 10
-353.396427
 20
-456.85111
 30
774.83737
 70
    32
  0
VERTEX
  5
4AB
  8
TEAM-NET
 10
-352.935695
 20
-456.587038
 30
774.273902
 70
    32
  0
VERTEX
  5
4AC
  8
TEAM-NET
 10
-352.820137
 20
-456.520789
 30
774.133489
 70
    32
  0
VERTEX
  5
4AD
  8
TEAM-NET
 10
-352.193378
 20
-456.48763
 30
774.063352
 70
    32
  0
VERTEX
  5
4AE
  8
TEAM-NET
 10
-350.916813
 20
-456.454449
 30
773.99326
 70
    32
  0
VERTEX
  5
4AF
  8
TEAM-NET
 10
-345.943206
 20
-456.321499
 30
773.713353
 70
    32
  0
VERTEX
  5
4B0
  8
TEAM-NET
 10
-336.617402
 20
-456.054549
 30
773.155769
 70
    32
  0
VERTEX
  5
4B1
  8
TEAM-NET
 10
-328.088712
 20
-455.786247
 30
772.601196
 70
    32
  0
VERTEX
  5
4B2
  8
TEAM-NET
 10
-320.319415
 20
-455.516654
 30
772.049677
 70
    32
  0
VERTEX
  5
4B3
  8
TEAM-NET
 10
-313.271791
 20
-455.245827
 30
771.50126
 70
    32
  0
VERTEX
  5
4B4
  8
TEAM-NET
 10
-306.908121
 20
-454.973828
 30
770.955987
 70
    32
  0
VERTEX
  5
4B5
  8
TEAM-NET
 10
-301.190685
 20
-454.700714
 30
770.413905
 70
    32
  0
VERTEX
  5
4B6
  8
TEAM-NET
 10
-291.543632
 20
-454.151381
 30
769.339492
 70
    32
  0
VERTEX
  5
4B7
  8
TEAM-NET
 10
-284.028875
 20
-453.598303
 30
768.278381
 70
    32
  0
VERTEX
  5
4B8
  8
TEAM-NET
 10
-278.344652
 20
-453.041954
 30
767.230931
 70
    32
  0
VERTEX
  5
4B9
  8
TEAM-NET
 10
-274.189205
 20
-452.482809
 30
766.197502
 70
    32
  0
VERTEX
  5
4BA
  8
TEAM-NET
 10
-271.260773
 20
-451.921342
 30
765.178455
 70
    32
  0
VERTEX
  5
4BB
  8
TEAM-NET
 10
-269.257598
 20
-451.358027
 30
764.174149
 70
    32
  0
VERTEX
  5
4BC
  8
TEAM-NET
 10
-266.819979
 20
-450.227751
 30
762.211201
 70
    32
  0
VERTEX
  5
4BD
  8
TEAM-NET
 10
-265.505583
 20
-449.661766
 30
761.253201
 70
    32
  0
VERTEX
  5
4BE
  8
TEAM-NET
 10
-264.164069
 20
-449.378791
 30
760.780158
 70
    32
  0
VERTEX
  5
4BF
  8
TEAM-NET
 10
-261.965365
 20
-449.095912
 30
760.311125
 70
    32
  0
VERTEX
  5
4C0
  8
TEAM-NET
 10
-258.608694
 20
-448.813192
 30
759.846132
 70
    32
  0
VERTEX
  5
4C1
  8
TEAM-NET
 10
-253.793284
 20
-448.530694
 30
759.385208
 70
    32
  0
VERTEX
  5
4C2
  8
TEAM-NET
 10
-247.21836
 20
-448.248482
 30
758.928384
 70
    32
  0
VERTEX
  5
4C3
  8
TEAM-NET
 10
-238.583147
 20
-447.966618
 30
758.475688
 70
    32
  0
VERTEX
  5
4C4
  8
TEAM-NET
 10
-233.39894
 20
-447.825836
 30
758.250898
 70
    32
  0
VERTEX
  5
4C5
  8
TEAM-NET
 10
-227.58687
 20
-447.685165
 30
758.027151
 70
    32
  0
VERTEX
  5
4C6
  8
TEAM-NET
 10
-221.109341
 20
-447.544613
 30
757.804451
 70
    32
  0
VERTEX
  5
4C7
  8
TEAM-NET
 10
-213.928756
 20
-447.404187
 30
757.582802
 70
    32
  0
VERTEX
  5
4C8
  8
TEAM-NET
 10
-212.019351
 20
-447.369101
 30
757.527554
 70
    32
  0
VERTEX
  5
4C9
  8
TEAM-NET
 10
-211.687723
 20
-447.334024
 30
757.472372
 70
    32
  0
VERTEX
  5
4CA
  8
TEAM-NET
 10
-211.562345
 20
-447.263896
 30
757.362206
 70
    32
  0
VERTEX
  5
4CB
  8
TEAM-NET
 10
-211.31162
 20
-447.123747
 30
757.142667
 70
    32
  0
VERTEX
  5
4CC
  8
TEAM-NET
 10
-210.810332
 20
-446.843907
 30
756.706767
 70
    32
  0
VERTEX
  5
4CD
  8
TEAM-NET
 10
-208.805513
 20
-445.729866
 30
755.003061
 70
    32
  0
VERTEX
  5
4CE
  8
TEAM-NET
 10
-200.387155
 20
-441.157277
 30
748.489062
 70
    32
  0
VERTEX
  5
4CF
  8
TEAM-NET
 10
-191.310473
 20
-436.468269
 30
742.484749
 70
    32
  0
VERTEX
  5
4D0
  8
TEAM-NET
 10
-181.648091
 20
-431.822321
 30
737.097178
 70
    32
  0
VERTEX
  5
4D1
  8
TEAM-NET
 10
-171.476253
 20
-427.401501
 30
732.407879
 70
    32
  0
VERTEX
  5
4D2
  8
TEAM-NET
 10
-160.870832
 20
-423.397282
 30
728.484973
 70
    32
  0
VERTEX
  5
4D3
  8
TEAM-NET
 10
-155.429217
 20
-421.613322
 30
726.827091
 70
    32
  0
VERTEX
  5
4D4
  8
TEAM-NET
 10
-154.743203
 20
-421.402366
 30
726.634542
 70
    32
  0
VERTEX
  5
4D5
  8
TEAM-NET
 10
-151.500409
 20
-421.19426
 30
726.445301
 70
    32
  0
VERTEX
  5
4D6
  8
TEAM-NET
 10
-145.07689
 20
-420.786833
 30
726.076797
 70
    32
  0
VERTEX
  5
4D7
  8
TEAM-NET
 10
-139.46807
 20
-420.39139
 30
725.721647
 70
    32
  0
VERTEX
  5
4D8
  8
TEAM-NET
 10
-134.601583
 20
-420.008261
 30
725.379913
 70
    32
  0
VERTEX
  5
4D9
  8
TEAM-NET
 10
-126.806147
 20
-419.280249
 30
724.736939
 70
    32
  0
VERTEX
  5
4DA
  8
TEAM-NET
 10
-121.111654
 20
-418.605415
 30
724.148368
 70
    32
  0
VERTEX
  5
4DB
  8
TEAM-NET
 10
-116.939179
 20
-417.986377
 30
723.614691
 70
    32
  0
VERTEX
  5
4DC
  8
TEAM-NET
 10
-113.709797
 20
-417.425755
 30
723.136401
 70
    32
  0
VERTEX
  5
4DD
  8
TEAM-NET
 10
-102.30421
 20
-415.811678
 30
721.784403
 70
    32
  0
VERTEX
  5
4DE
  8
TEAM-NET
 10
-90.89494
 20
-415.26408
 30
721.334742
 70
    32
  0
SEQEND
  5
4DF
  8
TEAM-NET
  0
POLYLINE
  5
49
  8
TEAM-NET
 66
     1
 10
0.0
 20
0.0
 30
0.0
 70
     8
  0
VERTEX
  5
4E0
  8
TEAM-NET
 10
-378.315388
 20
-469.897819
 30
820.00089
 70
    32
  0
VERTEX
  5
4E1
  8
TEAM-NET
 10
-374.154827
 20
-468.114029
 30
809.130509
 70
    32
  0
VERTEX
  5
4E2
  8
TEAM-NET
 10
-369.316432
 20
-465.702214
 30
798.971523
 70
    32
  0
VERTEX
  5
4E3
  8
TEAM-NET
 10
-363.606987
 20
-462.621238
 30
789.062953
 70
    32
  0
VERTEX
  5
4E4
  8
TEAM-NET
 10
-356.990106
 20
-458.896192
 30
779.441891
 70
    32
  0
VERTEX
  5
4E5
  8
TEAM-NET
 10
-353.396202
 20
-456.841517
 30
774.837082
 70
    32
  0
VERTEX
  5
4E6
  8
TEAM-NET
 10
-352.935484
 20
-456.577395
 30
774.273643
 70
    32
  0
VERTEX
  5
4E7
  8
TEAM-NET
 10
-352.877725
 20
-456.544276
 30
774.203418
 70
    32
  0
VERTEX
  5
4E8
  8
TEAM-NET
 10
-352.079306
 20
-456.511134
 30
774.133238
 70
    32
  0
VERTEX
  5
4E9
  8
TEAM-NET
 10
-349.54521
 20
-456.444781
 30
773.993017
 70
    32
  0
VERTEX
  5
4EA
  8
TEAM-NET
 10
-344.635239
 20
-456.311809
 30
773.713126
 70
    32
  0
VERTEX
  5
4EB
  8
TEAM-NET
 10
-335.431728
 20
-456.044817
 30
773.155576
 70
    32
  0
VERTEX
  5
4EC
  8
TEAM-NET
 10
-327.018761
 20
-455.776479
 30
772.601039
 70
    32
  0
VERTEX
  5
4ED
  8
TEAM-NET
 10
-319.358708
 20
-455.506853
 30
772.049559
 70
    32
  0
VERTEX
  5
4EE
  8
TEAM-NET
 10
-312.413936
 20
-455.235999
 30
771.501182
 70
    32
  0
VERTEX
  5
4EF
  8
TEAM-NET
 10
-306.146814
 20
-454.963975
 30
770.955952
 70
    32
  0
VERTEX
  5
4F0
  8
TEAM-NET
 10
-300.519711
 20
-454.690842
 30
770.413915
 70
    32
  0
VERTEX
  5
4F1
  8
TEAM-NET
 10
-291.035033
 20
-454.141484
 30
769.3396
 70
    32
  0
VERTEX
  5
4F2
  8
TEAM-NET
 10
-283.658847
 20
-453.588397
 30
768.278595
 70
    32
  0
VERTEX
  5
4F3
  8
TEAM-NET
 10
-278.090101
 20
-453.032055
 30
767.231263
 70
    32
  0
VERTEX
  5
4F4
  8
TEAM-NET
 10
-274.02774
 20
-452.472933
 30
766.197962
 70
    32
  0
VERTEX
  5
4F5
  8
TEAM-NET
 10
-271.170712
 20
-451.911504
 30
765.179055
 70
    32
  0
VERTEX
  5
4F6
  8
TEAM-NET
 10
-269.217963
 20
-451.348242
 30
764.174901
 70
    32
  0
VERTEX
  5
4F7
  8
TEAM-NET
 10
-266.821086
 20
-450.218114
 30
762.212294
 70
    32
  0
VERTEX
  5
4F8
  8
TEAM-NET
 10
-265.439333
 20
-449.652228
 30
761.254473
 70
    32
  0
VERTEX
  5
4F9
  8
TEAM-NET
 10
-264.009649
 20
-449.369308
 30
760.781521
 70
    32
  0
VERTEX
  5
4FA
  8
TEAM-NET
 10
-261.687332
 20
-449.086487
 30
760.312581
 70
    32
  0
VERTEX
  5
4FB
  8
TEAM-NET
 10
-258.172312
 20
-448.80383
 30
759.847682
 70
    32
  0
VERTEX
  5
4FC
  8
TEAM-NET
 10
-253.164517
 20
-448.521398
 30
759.386855
 70
    32
  0
VERTEX
  5
4FD
  8
TEAM-NET
 10
-246.363876
 20
-448.239256
 30
758.930128
 70
    32
  0
VERTEX
  5
4FE
  8
TEAM-NET
 10
-237.470318
 20
-447.957465
 30
758.477532
 70
    32
  0
VERTEX
  5
4FF
  8
TEAM-NET
 10
-232.144923
 20
-447.816721
 30
758.252792
 70
    32
  0
VERTEX
  5
500
  8
TEAM-NET
 10
-226.183771
 20
-447.676089
 30
758.029096
 70
    32
  0
VERTEX
  5
501
  8
TEAM-NET
 10
-219.549355
 20
-447.535576
 30
757.806448
 70
    32
  0
VERTEX
  5
502
  8
TEAM-NET
 10
-212.204165
 20
-447.395191
 30
757.58485
 70
    32
  0
VERTEX
  5
503
  8
TEAM-NET
 10
-210.812941
 20
-446.835081
 30
756.709026
 70
    32
  0
VERTEX
  5
504
  8
TEAM-NET
 10
-208.807909
 20
-445.720961
 30
755.005051
 70
    32
  0
VERTEX
  5
505
  8
TEAM-NET
 10
-200.389082
 20
-441.148522
 30
748.490442
 70
    32
  0
VERTEX
  5
506
  8
TEAM-NET
 10
-191.311701
 20
-436.459952
 30
742.485494
 70
    32
  0
VERTEX
  5
507
  8
TEAM-NET
 10
-181.648836
 20
-431.814933
 30
737.097561
 70
    32
  0
VERTEX
  5
508
  8
TEAM-NET
 10
-171.476686
 20
-427.395435
 30
732.408056
 70
    32
  0
VERTEX
  5
509
  8
TEAM-NET
 10
-160.871054
 20
-423.392758
 30
728.485046
 70
    32
  0
VERTEX
  5
50A
  8
TEAM-NET
 10
-155.429378
 20
-421.609592
 30
726.827137
 70
    32
  0
VERTEX
  5
50B
  8
TEAM-NET
 10
-154.743359
 20
-421.398735
 30
726.634585
 70
    32
  0
VERTEX
  5
50C
  8
TEAM-NET
 10
-153.438676
 20
-421.294368
 30
726.539548
 70
    32
  0
VERTEX
  5
50D
  8
TEAM-NET
 10
-151.688909
 20
-421.190725
 30
726.445341
 70
    32
  0
VERTEX
  5
50E
  8
TEAM-NET
 10
-145.234792
 20
-420.78349
 30
726.076831
 70
    32
  0
VERTEX
  5
50F
  8
TEAM-NET
 10
-139.598273
 20
-420.38824
 30
725.721676
 70
    32
  0
VERTEX
  5
510
  8
TEAM-NET
 10
-134.706931
 20
-420.005301
 30
725.379939
 70
    32
  0
VERTEX
  5
511
  8
TEAM-NET
 10
-126.870086
 20
-419.277662
 30
724.73696
 70
    32
  0
VERTEX
  5
512
  8
TEAM-NET
 10
-121.144872
 20
-418.603185
 30
724.148386
 70
    32
  0
VERTEX
  5
513
  8
TEAM-NET
 10
-116.951907
 20
-417.984483
 30
723.614707
 70
    32
  0
VERTEX
  5
514
  8
TEAM-NET
 10
-113.711808
 20
-417.424167
 30
723.136415
 70
    32
  0
VERTEX
  5
515
  8
TEAM-NET
 10
-102.304267
 20
-415.811014
 30
721.784408
 70
    32
  0
VERTEX
  5
516
  8
TEAM-NET
 10
-90.89494
 20
-415.263734
 30
721.334742
 70
    32
  0
SEQEND
  5
517
  8
TEAM-NET
  0
POLYLINE
  5
4A
  8
TEAM-NET
 66
     1
 10
0.0
 20
0.0
 30
0.0
 70
     8
  0
VERTEX
  5
518
  8
TEAM-NET
 10
-378.315388
 20
-469.897819
 30
820.00089
 70
    32
  0
VERTEX
  5
519
  8
TEAM-NET
 10
-374.154032
 20
-468.116746
 30
809.128657
 70
    32
  0
VERTEX
  5
51A
  8
TEAM-NET
 10
-369.314959
 20
-465.706972
 30
798.968716
 70
    32
  0
VERTEX
  5
51B
  8
TEAM-NET
 10
-363.606693
 20
-462.628546
 30
789.062513
 70
    32
  0
VERTEX
  5
51C
  8
TEAM-NET
 10
-356.990354
 20
-458.905267
 30
779.442229
 70
    32
  0
VERTEX
  5
51D
  8
TEAM-NET
 10
-353.396427
 20
-456.85111
 30
774.83737
 70
    32
  0
VERTEX
  5
51E
  8
TEAM-NET
 10
-352.935695
 20
-456.587038
 30
774.273902
 70
    32
  0
VERTEX
  5
51F
  8
TEAM-NET
 10
-352.820137
 20
-456.520789
 30
774.133489
 70
    32
  0
VERTEX
  5
520
  8
TEAM-NET
 10
-352.193378
 20
-456.48763
 30
774.063352
 70
    32
  0
VERTEX
  5
521
  8
TEAM-NET
 10
-350.916813
 20
-456.454449
 30
773.99326
 70
    32
  0
VERTEX
  5
522
  8
TEAM-NET
 10
-345.943206
 20
-456.321499
 30
773.713353
 70
    32
  0
VERTEX
  5
523
  8
TEAM-NET
 10
-336.617402
 20
-456.054549
 30
773.155769
 70
    32
  0
VERTEX
  5
524
  8
TEAM-NET
 10
-328.088712
 20
-455.786247
 30
772.601196
 70
    32
  0
VERTEX
  5
525
  8
TEAM-NET
 10
-320.319415
 20
-455.516654
 30
772.049677
 70
    32
  0
VERTEX
  5
526
  8
TEAM-NET
 10
-313.271791
 20
-455.245827
 30
771.50126
 70
    32
  0
VERTEX
  5
527
  8
TEAM-NET
 10
-306.908121
 20
-454.973828
 30
770.955987
 70
    32
  0
VERTEX
  5
528
  8
TEAM-NET
 10
-301.190685
 20
-454.700714
 30
770.413905
 70
    32
  0
VERTEX
  5
529
  8
TEAM-NET
 10
-291.543632
 20
-454.151381
 30
769.339492
 70
    32
  0
VERTEX
  5
52A
  8
TEAM-NET
 10
-284.028875
 20
-453.598303
 30
768.278381
 70
    32
  0
VERTEX
  5
52B
  8
TEAM-NET
 10
-278.344652
 20
-453.041954
 30
767.230931
 70
    32
  0
VERTEX
  5
52C
  8
TEAM-NET
 10
-274.189205
 20
-452.482809
 30
766.197502
 70
    32
  0
VERTEX
  5
52D
  8
TEAM-NET
 10
-271.260773
 20
-451.921342
 30
765.178455
 70
    32
  0
VERTEX
  5
52E
  8
TEAM-NET
 10
-269.257598
 20
-451.358027
 30
764.174149
 70
    32
  0
VERTEX
  5
52F
  8
TEAM-NET
 10
-266.819979
 20
-450.227751
 30
762.211201
 70
    32
  0
VERTEX
  5
530
  8
TEAM-NET
 10
-265.505583
 20
-449.661766
 30
761.253201
 70
    32
  0
VERTEX
  5
531
  8
TEAM-NET
 10
-264.164069
 20
-449.378791
 30
760.780158
 70
    32
  0
VERTEX
  5
532
  8
TEAM-NET
 10
-261.965365
 20
-449.095912
 30
760.311125
 70
    32
  0
VERTEX
  5
533
  8
TEAM-NET
 10
-258.608694
 20
-448.813192
 30
759.846132
 70
    32
  0
VERTEX
  5
534
  8
TEAM-NET
 10
-253.793284
 20
-448.530694
 30
759.385208
 70
    32
  0
VERTEX
  5
535
  8
TEAM-NET
 10
-247.21836
 20
-448.248482
 30
758.928384
 70
    32
  0
VERTEX
  5
536
  8
TEAM-NET
 10
-238.583147
 20
-447.966618
 30
758.475688
 70
    32
  0
VERTEX
  5
537
  8
TEAM-NET
 10
-233.39894
 20
-447.825836
 30
758.250898
 70
    32
  0
VERTEX
  5
538
  8
TEAM-NET
 10
-227.58687
 20
-447.685165
 30
758.027151
 70
    32
  0
VERTEX
  5
539
  8
TEAM-NET
 10
-221.109341
 20
-447.544613
 30
757.804451
 70
    32
  0
VERTEX
  5
53A
  8
TEAM-NET
 10
-213.928756
 20
-447.404187
 30
757.582802
 70
    32
  0
VERTEX
  5
53B
  8
TEAM-NET
 10
-212.019351
 20
-447.369101
 30
757.527554
 70
    32
  0
VERTEX
  5
53C
  8
TEAM-NET
 10
-211.687723
 20
-447.334024
 30
757.472372
 70
    32
  0
VERTEX
  5
53D
  8
TEAM-NET
 10
-211.562345
 20
-447.263896
 30
757.362206
 70
    32
  0
VERTEX
  5
53E
  8
TEAM-NET
 10
-211.31162
 20
-447.123747
 30
757.142667
 70
    32
  0
VERTEX
  5
53F
  8
TEAM-NET
 10
-210.810332
 20
-446.843907
 30
756.706767
 70
    32
  0
VERTEX
  5
540
  8
TEAM-NET
 10
-208.805513
 20
-445.729866
 30
755.003061
 70
    32
  0
VERTEX
  5
541
  8
TEAM-NET
 10
-200.387155
 20
-441.157277
 30
748.489062
 70
    32
  0
VERTEX
  5
542
  8
TEAM-NET
 10
-191.310473
 20
-436.468269
 30
742.484749
 70
    32
  0
VERTEX
  5
543
  8
TEAM-NET
 10
-181.648091
 20
-431.822321
 30
737.097178
 70
    32
  0
VERTEX
  5
544
  8
TEAM-NET
 10
-171.476253
 20
-427.401501
 30
732.407879
 70
    32
  0
VERTEX
  5
545
  8
TEAM-NET
 10
-160.870832
 20
-423.397282
 30
728.484973
 70
    32
  0
VERTEX
  5
546
  8
TEAM-NET
 10
-155.429217
 20
-421.613322
 30
726.827091
 70
    32
  0
VERTEX
  5
547
  8
TEAM-NET
 10
-154.743203
 20
-421.402366
 30
726.634542
 70
    32
  0
VERTEX
  5
548
  8
TEAM-NET
 10
-151.500409
 20
-421.19426
 30
726.445301
 70
    32
  0
VERTEX
  5
549
  8
TEAM-NET
 10
-145.07689
 20
-420.786833
 30
726.076797
 70
    32
  0
VERTEX
  5
54A
  8
TEAM-NET
 10
-139.46807
 20
-420.39139
 30
725.721647
 70
    32
  0
VERTEX
  5
54B
  8
TEAM-NET
 10
-134.601583
 20
-420.008261
 30
725.379913
 70
    32
  0
VERTEX
  5
54C
  8
TEAM-NET
 10
-126.806147
 20
-419.280249
 30
724.736939
 70
    32
  0
VERTEX
  5
54D
  8
TEAM-NET
 10
-121.111654
 20
-418.605415
 30
724.148368
 70
    32
  0
VERTEX
  5
54E
  8
TEAM-NET
 10
-116.939179
 20
-417.986377
 30
723.614691
 70
    32
  0
VERTEX
  5
54F
  8
TEAM-NET
 10
-113.709797
 20
-417.425755
 30
723.136401
 70
    32
  0
VERTEX
  5
550
  8
TEAM-NET
 10
-102.30421
 20
-415.811678
 30
721.784403
 70
    32
  0
VERTEX
  5
551
  8
TEAM-NET
 10
-90.89494
 20
-415.26408
 30
721.334742
 70
    32
  0
SEQEND
  5
552
  8
TEAM-NET
  0
POLYLINE
  5
4B
  8
TEAM-NET
 66
     1
 10
0.0
 20
0.0
 30
0.0
 70
     8
  0
VERTEX
  5
553
  8
TEAM-NET
 10
-244.163309
 20
-438.075141
 30
845.006588
 70
    32
  0
VERTEX
  5
554
  8
TEAM-NET
 10
-241.751122
 20
-437.699947
 30
832.779914
 70
    32
  0
VERTEX
  5
555
  8
TEAM-NET
 10
-238.337605
 20
-436.636121
 30
820.833388
 70
    32
  0
VERTEX
  5
556
  8
TEAM-NET
 10
-233.9732
 20
-434.947931
 30
809.31888
 70
    32
  0
VERTEX
  5
557
  8
TEAM-NET
 10
-228.737068
 20
-432.726446
 30
798.376174
 70
    32
  0
VERTEX
  5
558
  8
TEAM-NET
 10
-222.649322
 20
-430.046186
 30
788.001413
 70
    32
  0
VERTEX
  5
559
  8
TEAM-NET
 10
-215.76878
 20
-427.005437
 30
778.274655
 70
    32
  0
VERTEX
  5
55A
  8
TEAM-NET
 10
-208.174029
 20
-423.718516
 30
769.282245
 70
    32
  0
VERTEX
  5
55B
  8
TEAM-NET
 10
-199.955761
 20
-420.309425
 30
761.098258
 70
    32
  0
VERTEX
  5
55C
  8
TEAM-NET
 10
-191.109292
 20
-416.867137
 30
753.701202
 70
    32
  0
VERTEX
  5
55D
  8
TEAM-NET
 10
-181.643449
 20
-413.496892
 30
747.114314
 70
    32
  0
VERTEX
  5
55E
  8
TEAM-NET
 10
-171.639906
 20
-410.334442
 30
741.411068
 70
    32
  0
VERTEX
  5
55F
  8
TEAM-NET
 10
-161.18236
 20
-407.514041
 30
736.654782
 70
    32
  0
VERTEX
  5
560
  8
TEAM-NET
 10
-158.507089
 20
-406.877343
 30
735.619596
 70
    32
  0
VERTEX
  5
561
  8
TEAM-NET
 10
-156.947742
 20
-406.570406
 30
735.12536
 70
    32
  0
VERTEX
  5
562
  8
TEAM-NET
 10
-154.444844
 20
-406.271124
 30
734.646403
 70
    32
  0
VERTEX
  5
563
  8
TEAM-NET
 10
-150.351118
 20
-405.979507
 30
734.182466
 70
    32
  0
VERTEX
  5
564
  8
TEAM-NET
 10
-144.989
 20
-405.695767
 30
733.733632
 70
    32
  0
VERTEX
  5
565
  8
TEAM-NET
 10
-133.2583
 20
-405.153071
 30
732.882158
 70
    32
  0
VERTEX
  5
566
  8
TEAM-NET
 10
-128.288829
 20
-404.894692
 30
732.479959
 70
    32
  0
VERTEX
  5
567
  8
TEAM-NET
 10
-124.560246
 20
-404.645336
 30
732.093728
 70
    32
  0
VERTEX
  5
568
  8
TEAM-NET
 10
-121.855516
 20
-404.405257
 30
731.723634
 70
    32
  0
VERTEX
  5
569
  8
TEAM-NET
 10
-119.874953
 20
-404.17471
 30
731.369841
 70
    32
  0
VERTEX
  5
56A
  8
TEAM-NET
 10
-114.04631
 20
-403.352666
 30
730.120754
 70
    32
  0
VERTEX
  5
56B
  8
TEAM-NET
 10
-102.509912
 20
-402.227144
 30
728.441855
 70
    32
  0
VERTEX
  5
56C
  8
TEAM-NET
 10
-90.89494
 20
-401.846467
 30
727.881832
 70
    32
  0
SEQEND
  5
56D
  8
TEAM-NET
  0
POLYLINE
  5
4C
  8
TEAM-NET
 66
     1
 10
0.0
 20
0.0
 30
0.0
 70
     8
  0
VERTEX
  5
56E
  8
TEAM-NET
 10
-244.163309
 20
-438.075141
 30
845.006588
 70
    32
  0
VERTEX
  5
56F
  8
TEAM-NET
 10
-241.751122
 20
-437.699947
 30
832.779914
 70
    32
  0
VERTEX
  5
570
  8
TEAM-NET
 10
-238.337605
 20
-436.636121
 30
820.833388
 70
    32
  0
VERTEX
  5
571
  8
TEAM-NET
 10
-233.9732
 20
-434.947931
 30
809.31888
 70
    32
  0
VERTEX
  5
572
  8
TEAM-NET
 10
-228.737068
 20
-432.726446
 30
798.376174
 70
    32
  0
VERTEX
  5
573
  8
TEAM-NET
 10
-222.649322
 20
-430.046186
 30
788.001413
 70
    32
  0
VERTEX
  5
574
  8
TEAM-NET
 10
-215.76878
 20
-427.005437
 30
778.274655
 70
    32
  0
VERTEX
  5
575
  8
TEAM-NET
 10
-208.174029
 20
-423.718516
 30
769.282245
 70
    32
  0
VERTEX
  5
576
  8
TEAM-NET
 10
-199.955761
 20
-420.309425
 30
761.098258
 70
    32
  0
VERTEX
  5
577
  8
TEAM-NET
 10
-191.109292
 20
-416.867137
 30
753.701202
 70
    32
  0
VERTEX
  5
578
  8
TEAM-NET
 10
-181.643449
 20
-413.496892
 30
747.114314
 70
    32
  0
VERTEX
  5
579
  8
TEAM-NET
 10
-171.639906
 20
-410.334442
 30
741.411068
 70
    32
  0
VERTEX
  5
57A
  8
TEAM-NET
 10
-161.18236
 20
-407.514041
 30
736.654782
 70
    32
  0
VERTEX
  5
57B
  8
TEAM-NET
 10
-158.507089
 20
-406.877343
 30
735.619596
 70
    32
  0
VERTEX
  5
57C
  8
TEAM-NET
 10
-156.947742
 20
-406.570406
 30
735.12536
 70
    32
  0
VERTEX
  5
57D
  8
TEAM-NET
 10
-154.444844
 20
-406.271124
 30
734.646403
 70
    32
  0
VERTEX
  5
57E
  8
TEAM-NET
 10
-150.351118
 20
-405.979507
 30
734.182466
 70
    32
  0
VERTEX
  5
57F
  8
TEAM-NET
 10
-144.989
 20
-405.695767
 30
733.733632
 70
    32
  0
VERTEX
  5
580
  8
TEAM-NET
 10
-133.2583
 20
-405.153071
 30
732.882158
 70
    32
  0
VERTEX
  5
581
  8
TEAM-NET
 10
-128.288829
 20
-404.894692
 30
732.479959
 70
    32
  0
VERTEX
  5
582
  8
TEAM-NET
 10
-124.560246
 20
-404.645336
 30
732.093728
 70
    32
  0
VERTEX
  5
583
  8
TEAM-NET
 10
-121.855516
 20
-404.405257
 30
731.723634
 70
    32
  0
VERTEX
  5
584
  8
TEAM-NET
 10
-119.874953
 20
-404.17471
 30
731.369841
 70
    32
  0
VERTEX
  5
585
  8
TEAM-NET
 10
-114.04631
 20
-403.352666
 30
730.120754
 70
    32
  0
VERTEX
  5
586
  8
TEAM-NET
 10
-102.509912
 20
-402.227144
 30
728.441855
 70
    32
  0
VERTEX
  5
587
  8
TEAM-NET
 10
-90.89494
 20
-401.846467
 30
727.881832
 70
    32
  0
SEQEND
  5
588
  8
TEAM-NET
  0
POLYLINE
  5
4D
  8
TEAM-NET
 66
     1
 10
0.0
 20
0.0
 30
0.0
 70
     8
  0
VERTEX
  5
589
  8
TEAM-NET
 10
-90.89494
 20
-389.455006
 30
721.334742
 70
    32
  0
VERTEX
  5
58A
  8
TEAM-NET
 10
-104.048511
 20
-389.81917
 30
721.932346
 70
    32
  0
VERTEX
  5
58B
  8
TEAM-NET
 10
-110.857705
 20
-390.271281
 30
722.680202
 70
    32
  0
VERTEX
  5
58C
  8
TEAM-NET
 10
-115.113187
 20
-390.562409
 30
723.165336
 70
    32
  0
VERTEX
  5
58D
  8
TEAM-NET
 10
-120.623753
 20
-390.895183
 30
723.723517
 70
    32
  0
VERTEX
  5
58E
  8
TEAM-NET
 10
-127.909343
 20
-391.268292
 30
724.353916
 70
    32
  0
VERTEX
  5
58F
  8
TEAM-NET
 10
-137.160564
 20
-391.680354
 30
725.055647
 70
    32
  0
VERTEX
  5
590
  8
TEAM-NET
 10
-146.534688
 20
-392.129564
 30
725.827437
 70
    32
  0
VERTEX
  5
591
  8
TEAM-NET
 10
-150.450073
 20
-392.367484
 30
726.239161
 70
    32
  0
VERTEX
  5
592
  8
TEAM-NET
 10
-153.543811
 20
-392.613943
 30
726.667854
 70
    32
  0
VERTEX
  5
593
  8
TEAM-NET
 10
-157.88472
 20
-393.13137
 30
727.575208
 70
    32
  0
VERTEX
  5
594
  8
TEAM-NET
 10
-161.0631
 20
-393.67961
 30
728.547613
 70
    32
  0
VERTEX
  5
595
  8
TEAM-NET
 10
-167.135577
 20
-394.863864
 30
730.688255
 70
    32
  0
VERTEX
  5
596
  8
TEAM-NET
 10
-178.946177
 20
-397.547454
 30
735.757416
 70
    32
  0
VERTEX
  5
597
  8
TEAM-NET
 10
-190.227078
 20
-400.548545
 30
741.83215
 70
    32
  0
VERTEX
  5
598
  8
TEAM-NET
 10
-200.880948
 20
-403.736547
 30
748.843422
 70
    32
  0
VERTEX
  5
599
  8
TEAM-NET
 10
-210.814216
 20
-406.979876
 30
756.710005
 70
    32
  0
VERTEX
  5
59A
  8
TEAM-NET
 10
-220.033529
 20
-410.183189
 30
765.424158
 70
    32
  0
VERTEX
  5
59B
  8
TEAM-NET
 10
-228.52223
 20
-413.253353
 30
774.992188
 70
    32
  0
VERTEX
  5
59C
  8
TEAM-NET
 10
-236.175301
 20
-416.070639
 30
785.33072
 70
    32
  0
VERTEX
  5
59D
  8
TEAM-NET
 10
-242.902283
 20
-418.525531
 30
796.34304
 70
    32
  0
VERTEX
  5
59E
  8
TEAM-NET
 10
-248.646118
 20
-420.528083
 30
807.96074
 70
    32
  0
VERTEX
  5
59F
  8
TEAM-NET
 10
-253.372695
 20
-422.003266
 30
820.170776
 70
    32
  0
VERTEX
  5
5A0
  8
TEAM-NET
 10
-256.988854
 20
-422.865414
 30
832.800646
 70
    32
  0
VERTEX
  5
5A1
  8
TEAM-NET
 10
-259.448161
 20
-423.058313
 30
845.712057
 70
    32
  0
SEQEND
  5
5A2
  8
TEAM-NET
  0
POLYLINE
  5
4E
  8
TEAM-NET
 66
     1
 10
0.0
 20
0.0
 30
0.0
 70
     8
  0
VERTEX
  5
5A3
  8
TEAM-NET
 10
-90.89494
 20
-389.455006
 30
721.334742
 70
    32
  0
VERTEX
  5
5A4
  8
TEAM-NET
 10
-104.048511
 20
-389.81917
 30
721.932346
 70
    32
  0
VERTEX
  5
5A5
  8
TEAM-NET
 10
-110.857705
 20
-390.271281
 30
722.680202
 70
    32
  0
VERTEX
  5
5A6
  8
TEAM-NET
 10
-115.113187
 20
-390.562409
 30
723.165336
 70
    32
  0
VERTEX
  5
5A7
  8
TEAM-NET
 10
-120.623753
 20
-390.895183
 30
723.723517
 70
    32
  0
VERTEX
  5
5A8
  8
TEAM-NET
 10
-127.909343
 20
-391.268292
 30
724.353916
 70
    32
  0
VERTEX
  5
5A9
  8
TEAM-NET
 10
-137.160564
 20
-391.680354
 30
725.055647
 70
    32
  0
VERTEX
  5
5AA
  8
TEAM-NET
 10
-146.534688
 20
-392.129564
 30
725.827437
 70
    32
  0
VERTEX
  5
5AB
  8
TEAM-NET
 10
-150.450073
 20
-392.367484
 30
726.239161
 70
    32
  0
VERTEX
  5
5AC
  8
TEAM-NET
 10
-153.543811
 20
-392.613943
 30
726.667854
 70
    32
  0
VERTEX
  5
5AD
  8
TEAM-NET
 10
-157.88472
 20
-393.13137
 30
727.575208
 70
    32
  0
VERTEX
  5
5AE
  8
TEAM-NET
 10
-161.0631
 20
-393.67961
 30
728.547613
 70
    32
  0
VERTEX
  5
5AF
  8
TEAM-NET
 10
-167.135577
 20
-394.863864
 30
730.688255
 70
    32
  0
VERTEX
  5
5B0
  8
TEAM-NET
 10
-178.946177
 20
-397.547454
 30
735.757416
 70
    32
  0
VERTEX
  5
5B1
  8
TEAM-NET
 10
-190.227078
 20
-400.548545
 30
741.83215
 70
    32
  0
VERTEX
  5
5B2
  8
TEAM-NET
 10
-200.880948
 20
-403.736547
 30
748.843422
 70
    32
  0
VERTEX
  5
5B3
  8
TEAM-NET
 10
-210.814216
 20
-406.979876
 30
756.710005
 70
    32
  0
VERTEX
  5
5B4
  8
TEAM-NET
 10
-220.033529
 20
-410.183189
 30
765.424158
 70
    32
  0
VERTEX
  5
5B5
  8
TEAM-NET
 10
-228.52223
 20
-413.253353
 30
774.992188
 70
    32
  0
VERTEX
  5
5B6
  8
TEAM-NET
 10
-236.175301
 20
-416.070639
 30
785.33072
 70
    32
  0
VERTEX
  5
5B7
  8
TEAM-NET
 10
-242.902283
 20
-418.525531
 30
796.34304
 70
    32
  0
VERTEX
  5
5B8
  8
TEAM-NET
 10
-248.646118
 20
-420.528083
 30
807.96074
 70
    32
  0
VERTEX
  5
5B9
  8
TEAM-NET
 10
-253.372695
 20
-422.003266
 30
820.170776
 70
    32
  0
VERTEX
  5
5BA
  8
TEAM-NET
 10
-256.988854
 20
-422.865414
 30
832.800646
 70
    32
  0
VERTEX
  5
5BB
  8
TEAM-NET
 10
-259.448161
 20
-423.058313
 30
845.712057
 70
    32
  0
SEQEND
  5
5BC
  8
TEAM-NET
  0
POLYLINE
  5
4F
  8
TEAM-NET
 66
     1
 10
0.0
 20
0.0
 30
0.0
 70
     8
  0
VERTEX
  5
5BD
  8
TEAM-NET
 10
210.163607
 20
-362.591569
 30
699.244146
 70
    32
  0
VERTEX
  5
5BE
  8
TEAM-NET
 10
221.625098
 20
-376.114399
 30
706.743927
 70
    32
  0
VERTEX
  5
5BF
  8
TEAM-NET
 10
233.438589
 20
-388.589666
 30
716.015194
 70
    32
  0
VERTEX
  5
5C0
  8
TEAM-NET
 10
245.139269
 20
-400.136685
 30
727.106751
 70
    32
  0
VERTEX
  5
5C1
  8
TEAM-NET
 10
256.336624
 20
-410.696311
 30
740.066252
 70
    32
  0
VERTEX
  5
5C2
  8
TEAM-NET
 10
261.613582
 20
-415.545329
 30
747.234493
 70
    32
  0
VERTEX
  5
5C3
  8
TEAM-NET
 10
266.616951
 20
-420.076289
 30
754.860434
 70
    32
  0
VERTEX
  5
5C4
  8
TEAM-NET
 10
268.081638
 20
-421.160578
 30
756.846203
 70
    32
  0
VERTEX
  5
5C5
  8
TEAM-NET
 10
269.554337
 20
-421.695223
 30
757.851351
 70
    32
  0
VERTEX
  5
5C6
  8
TEAM-NET
 10
271.939702
 20
-422.224699
 30
758.864603
 70
    32
  0
VERTEX
  5
5C7
  8
TEAM-NET
 10
275.20281
 20
-422.748895
 30
759.885879
 70
    32
  0
VERTEX
  5
5C8
  8
TEAM-NET
 10
279.253841
 20
-423.267703
 30
760.915098
 70
    32
  0
VERTEX
  5
5C9
  8
TEAM-NET
 10
289.360399
 20
-424.288725
 30
762.997028
 70
    32
  0
VERTEX
  5
5CA
  8
TEAM-NET
 10
301.540821
 20
-425.286901
 30
765.109731
 70
    32
  0
VERTEX
  5
5CB
  8
TEAM-NET
 10
315.076554
 20
-426.261367
 30
767.252545
 70
    32
  0
VERTEX
  5
5CC
  8
TEAM-NET
 10
343.33974
 20
-428.135714
 30
771.625854
 70
    32
  0
VERTEX
  5
5CD
  8
TEAM-NET
 10
356.631701
 20
-429.033869
 30
773.855023
 70
    32
  0
VERTEX
  5
5CE
  8
TEAM-NET
 10
368.602539
 20
-429.904902
 30
776.111563
 70
    32
  0
VERTEX
  5
5CF
  8
TEAM-NET
 10
379.10715
 20
-430.748075
 30
778.394547
 70
    32
  0
VERTEX
  5
5D0
  8
TEAM-NET
 10
388.043699
 20
-431.562657
 30
780.703033
 70
    32
  0
VERTEX
  5
5D1
  8
TEAM-NET
 10
395.310355
 20
-432.347919
 30
783.036075
 70
    32
  0
VERTEX
  5
5D2
  8
TEAM-NET
 10
400.809442
 20
-433.103132
 30
785.39273
 70
    32
  0
VERTEX
  5
5D3
  8
TEAM-NET
 10
404.630999
 20
-433.827641
 30
787.772127
 70
    32
  0
VERTEX
  5
5D4
  8
TEAM-NET
 10
407.125118
 20
-434.520884
 30
790.173491
 70
    32
  0
VERTEX
  5
5D5
  8
TEAM-NET
 10
409.607874
 20
-435.811372
 30
795.039055
 70
    32
  0
VERTEX
  5
5D6
  8
TEAM-NET
 10
411.004287
 20
-436.971216
 30
799.98788
 70
    32
  0
VERTEX
  5
5D7
  8
TEAM-NET
 10
413.3561
 20
-438.892348
 30
810.174657
 70
    32
  0
SEQEND
  5
5D8
  8
TEAM-NET
  0
POLYLINE
  5
50
  8
TEAM-NET
 66
     1
 10
0.0
 20
0.0
 30
0.0
 70
     8
  0
VERTEX
  5
5D9
  8
TEAM-NET
 10
385.237991
 20
-469.897816
 30
820.000891
 70
    32
  0
VERTEX
  5
5DA
  8
TEAM-NET
 10
383.668123
 20
-468.030437
 30
808.718496
 70
    32
  0
VERTEX
  5
5DB
  8
TEAM-NET
 10
381.539392
 20
-465.374936
 30
797.795132
 70
    32
  0
VERTEX
  5
5DC
  8
TEAM-NET
 10
378.898773
 20
-461.990248
 30
787.287999
 70
    32
  0
VERTEX
  5
5DD
  8
TEAM-NET
 10
375.776959
 20
-457.911871
 30
777.183683
 70
    32
  0
VERTEX
  5
5DE
  8
TEAM-NET
 10
374.05132
 20
-455.631686
 30
772.303337
 70
    32
  0
VERTEX
  5
5DF
  8
TEAM-NET
 10
372.794247
 20
-454.435134
 30
769.910008
 70
    32
  0
VERTEX
  5
5E0
  8
TEAM-NET
 10
369.857885
 20
-453.202562
 30
767.549095
 70
    32
  0
VERTEX
  5
5E1
  8
TEAM-NET
 10
367.305771
 20
-452.573166
 30
766.381045
 70
    32
  0
VERTEX
  5
5E2
  8
TEAM-NET
 10
363.788796
 20
-451.93524
 30
765.221397
 70
    32
  0
VERTEX
  5
5E3
  8
TEAM-NET
 10
359.12528
 20
-451.288945
 30
764.070253
 70
    32
  0
VERTEX
  5
5E4
  8
TEAM-NET
 10
353.133543
 20
-450.634437
 30
762.927712
 70
    32
  0
VERTEX
  5
5E5
  8
TEAM-NET
 10
345.631906
 20
-449.971876
 30
761.793873
 70
    32
  0
VERTEX
  5
5E6
  8
TEAM-NET
 10
336.438688
 20
-449.30142
 30
760.668838
 70
    32
  0
VERTEX
  5
5E7
  8
TEAM-NET
 10
325.37221
 20
-448.623228
 30
759.552704
 70
    32
  0
VERTEX
  5
5E8
  8
TEAM-NET
 10
312.250793
 20
-447.937459
 30
758.445573
 70
    32
  0
VERTEX
  5
5E9
  8
TEAM-NET
 10
296.892756
 20
-447.24427
 30
757.347543
 70
    32
  0
VERTEX
  5
5EA
  8
TEAM-NET
 10
279.1862
 20
-446.543822
 30
756.258715
 70
    32
  0
VERTEX
  5
5EB
  8
TEAM-NET
 10
261.246684
 20
-445.836288
 30
755.179169
 70
    32
  0
VERTEX
  5
5EC
  8
TEAM-NET
 10
253.666259
 20
-445.479923
 30
754.642895
 70
    32
  0
VERTEX
  5
5ED
  8
TEAM-NET
 10
247.827208
 20
-445.121859
 30
754.108964
 70
    32
  0
VERTEX
  5
5EE
  8
TEAM-NET
 10
243.992132
 20
-444.762119
 30
753.577383
 70
    32
  0
VERTEX
  5
5EF
  8
TEAM-NET
 10
241.758683
 20
-444.400721
 30
753.048159
 70
    32
  0
VERTEX
  5
5F0
  8
TEAM-NET
 10
240.64961
 20
-444.037685
 30
752.521298
 70
    32
  0
VERTEX
  5
5F1
  8
TEAM-NET
 10
240.187665
 20
-443.673031
 30
751.996808
 70
    32
  0
VERTEX
  5
5F2
  8
TEAM-NET
 10
239.108839
 20
-442.198144
 30
749.922065
 70
    32
  0
VERTEX
  5
5F3
  8
TEAM-NET
 10
234.645866
 20
-436.017937
 30
741.95018
 70
    32
  0
VERTEX
  5
5F4
  8
TEAM-NET
 10
229.951861
 20
-429.410333
 30
734.496316
 70
    32
  0
VERTEX
  5
5F5
  8
TEAM-NET
 10
225.072847
 20
-422.412984
 30
727.567486
 70
    32
  0
VERTEX
  5
5F6
  8
TEAM-NET
 10
220.060929
 20
-415.061627
 30
721.169652
 70
    32
  0
VERTEX
  5
5F7
  8
TEAM-NET
 10
214.97047
 20
-407.390888
 30
715.308286
 70
    32
  0
VERTEX
  5
5F8
  8
TEAM-NET
 10
204.73004
 20
-391.087746
 30
705.139937
 70
    32
  0
VERTEX
  5
5F9
  8
TEAM-NET
 10
199.672204
 20
-382.394169
 30
700.803794
 70
    32
  0
VERTEX
  5
5FA
  8
TEAM-NET
 10
194.78063
 20
-373.334473
 30
696.989466
 70
    32
  0
SEQEND
  5
5FB
  8
TEAM-NET
  0
POLYLINE
  5
51
  8
TEAM-NET
 66
     1
 10
0.0
 20
0.0
 30
0.0
 70
     8
  0
VERTEX
  5
5FC
  8
TEAM-NET
 10
91.24954
 20
-415.264264
 30
721.335175
 70
    32
  0
VERTEX
  5
5FD
  8
TEAM-NET
 10
102.637754
 20
-415.843159
 30
721.811063
 70
    32
  0
VERTEX
  5
5FE
  8
TEAM-NET
 10
113.992239
 20
-417.482942
 30
723.186021
 70
    32
  0
VERTEX
  5
5FF
  8
TEAM-NET
 10
125.365959
 20
-420.081456
 30
725.447911
 70
    32
  0
VERTEX
  5
600
  8
TEAM-NET
 10
130.246773
 20
-420.863452
 30
726.149023
 70
    32
  0
VERTEX
  5
601
  8
TEAM-NET
 10
136.890541
 20
-421.692634
 30
726.903183
 70
    32
  0
VERTEX
  5
602
  8
TEAM-NET
 10
152.327087
 20
-423.480253
 30
728.567687
 70
    32
  0
VERTEX
  5
603
  8
TEAM-NET
 10
159.549937
 20
-424.432539
 30
729.476547
 70
    32
  0
VERTEX
  5
604
  8
TEAM-NET
 10
165.395888
 20
-425.419707
 30
730.435492
 70
    32
  0
VERTEX
  5
605
  8
TEAM-NET
 10
167.557225
 20
-425.925411
 30
730.933515
 70
    32
  0
VERTEX
  5
606
  8
TEAM-NET
 10
169.093289
 20
-426.438683
 30
731.443782
 70
    32
  0
VERTEX
  5
607
  8
TEAM-NET
 10
171.699398
 20
-427.486358
 30
732.500788
 70
    32
  0
VERTEX
  5
608
  8
TEAM-NET
 10
181.842161
 20
-431.904016
 30
737.195931
 70
    32
  0
VERTEX
  5
609
  8
TEAM-NET
 10
191.476034
 20
-436.542078
 30
742.585908
 70
    32
  0
VERTEX
  5
60A
  8
TEAM-NET
 10
200.525575
 20
-441.221332
 30
748.588033
 70
    32
  0
VERTEX
  5
60B
  8
TEAM-NET
 10
208.918396
 20
-445.782133
 30
755.097337
 70
    32
  0
VERTEX
  5
60C
  8
TEAM-NET
 10
209.919416
 20
-446.337539
 30
755.941904
 70
    32
  0
VERTEX
  5
60D
  8
TEAM-NET
 10
210.418571
 20
-446.615283
 30
756.368892
 70
    32
  0
VERTEX
  5
60E
  8
TEAM-NET
 10
210.668322
 20
-446.754443
 30
756.58401
 70
    32
  0
VERTEX
  5
60F
  8
TEAM-NET
 10
210.730803
 20
-446.789276
 30
756.63798
 70
    32
  0
VERTEX
  5
610
  8
TEAM-NET
 10
211.295736
 20
-446.824128
 30
756.692028
 70
    32
  0
VERTEX
  5
611
  8
TEAM-NET
 10
213.065745
 20
-446.893863
 30
756.800327
 70
    32
  0
VERTEX
  5
612
  8
TEAM-NET
 10
225.934519
 20
-447.453122
 30
757.676286
 70
    32
  0
VERTEX
  5
613
  8
TEAM-NET
 10
236.658627
 20
-448.014475
 30
758.569072
 70
    32
  0
VERTEX
  5
614
  8
TEAM-NET
 10
245.451224
 20
-448.577426
 30
759.478419
 70
    32
  0
VERTEX
  5
615
  8
TEAM-NET
 10
252.525463
 20
-449.141478
 30
760.404065
 70
    32
  0
VERTEX
  5
616
  8
TEAM-NET
 10
258.094498
 20
-449.706136
 30
761.345744
 70
    32
  0
VERTEX
  5
617
  8
TEAM-NET
 10
262.371483
 20
-450.270902
 30
762.303191
 70
    32
  0
VERTEX
  5
618
  8
TEAM-NET
 10
265.569573
 20
-450.835281
 30
763.276143
 70
    32
  0
VERTEX
  5
619
  8
TEAM-NET
 10
267.90192
 20
-451.398777
 30
764.264335
 70
    32
  0
VERTEX
  5
61A
  8
TEAM-NET
 10
270.822004
 20
-452.521132
 30
766.285382
 70
    32
  0
VERTEX
  5
61B
  8
TEAM-NET
 10
271.836049
 20
-453.079
 30
767.317707
 70
    32
  0
VERTEX
  5
61C
  8
TEAM-NET
 10
291.295789
 20
-453.633978
 30
768.364176
 70
    32
  0
VERTEX
  5
61D
  8
TEAM-NET
 10
300.013492
 20
-453.910232
 30
768.892588
 70
    32
  0
VERTEX
  5
61E
  8
TEAM-NET
 10
307.887667
 20
-454.18559
 30
769.42438
 70
    32
  0
VERTEX
  5
61F
  8
TEAM-NET
 10
314.963634
 20
-454.459999
 30
769.959499
 70
    32
  0
VERTEX
  5
620
  8
TEAM-NET
 10
321.286716
 20
-454.733405
 30
770.497892
 70
    32
  0
VERTEX
  5
621
  8
TEAM-NET
 10
326.902233
 20
-455.005754
 30
771.039507
 70
    32
  0
VERTEX
  5
622
  8
TEAM-NET
 10
331.855507
 20
-455.276993
 30
771.584289
 70
    32
  0
VERTEX
  5
623
  8
TEAM-NET
 10
339.95661
 20
-455.815923
 30
772.683146
 70
    32
  0
VERTEX
  5
624
  8
TEAM-NET
 10
345.952596
 20
-456.349766
 30
773.794037
 70
    32
  0
VERTEX
  5
625
  8
TEAM-NET
 10
350.206035
 20
-456.87809
 30
774.916539
 70
    32
  0
VERTEX
  5
626
  8
TEAM-NET
 10
353.079497
 20
-457.400467
 30
776.050226
 70
    32
  0
VERTEX
  5
627
  8
TEAM-NET
 10
354.935552
 20
-457.916466
 30
777.194674
 70
    32
  0
VERTEX
  5
628
  8
TEAM-NET
 10
357.04503
 20
-458.927606
 30
779.514155
 70
    32
  0
VERTEX
  5
629
  8
TEAM-NET
 10
363.643141
 20
-462.641281
 30
789.120276
 70
    32
  0
VERTEX
  5
62A
  8
TEAM-NET
 10
369.336725
 20
-465.712804
 30
799.010208
 70
    32
  0
VERTEX
  5
62B
  8
TEAM-NET
 10
374.163018
 20
-468.117688
 30
809.15134
 70
    32
  0
VERTEX
  5
62C
  8
TEAM-NET
 10
378.315388
 20
-469.897819
 30
820.00089
 70
    32
  0
SEQEND
  5
62D
  8
TEAM-NET
  0
POLYLINE
  5
52
  8
TEAM-NET
 66
     1
 10
0.0
 20
0.0
 30
0.0
 70
     8
  0
VERTEX
  5
62E
  8
TEAM-NET
 10
210.163607
 20
-362.591569
 30
699.244146
 70
    32
  0
VERTEX
  5
62F
  8
TEAM-NET
 10
221.625098
 20
-376.114399
 30
706.743927
 70
    32
  0
VERTEX
  5
630
  8
TEAM-NET
 10
233.438589
 20
-388.589666
 30
716.015194
 70
    32
  0
VERTEX
  5
631
  8
TEAM-NET
 10
245.139269
 20
-400.136685
 30
727.106751
 70
    32
  0
VERTEX
  5
632
  8
TEAM-NET
 10
256.336624
 20
-410.696311
 30
740.066252
 70
    32
  0
VERTEX
  5
633
  8
TEAM-NET
 10
261.613582
 20
-415.545329
 30
747.234493
 70
    32
  0
VERTEX
  5
634
  8
TEAM-NET
 10
266.616951
 20
-420.076289
 30
754.860434
 70
    32
  0
VERTEX
  5
635
  8
TEAM-NET
 10
268.081638
 20
-421.160578
 30
756.846203
 70
    32
  0
VERTEX
  5
636
  8
TEAM-NET
 10
269.554337
 20
-421.695223
 30
757.851351
 70
    32
  0
VERTEX
  5
637
  8
TEAM-NET
 10
271.939702
 20
-422.224699
 30
758.864603
 70
    32
  0
VERTEX
  5
638
  8
TEAM-NET
 10
275.20281
 20
-422.748895
 30
759.885879
 70
    32
  0
VERTEX
  5
639
  8
TEAM-NET
 10
279.253841
 20
-423.267703
 30
760.915098
 70
    32
  0
VERTEX
  5
63A
  8
TEAM-NET
 10
289.360399
 20
-424.288725
 30
762.997028
 70
    32
  0
VERTEX
  5
63B
  8
TEAM-NET
 10
301.540821
 20
-425.286901
 30
765.109731
 70
    32
  0
VERTEX
  5
63C
  8
TEAM-NET
 10
315.076554
 20
-426.261367
 30
767.252545
 70
    32
  0
VERTEX
  5
63D
  8
TEAM-NET
 10
343.33974
 20
-428.135714
 30
771.625854
 70
    32
  0
VERTEX
  5
63E
  8
TEAM-NET
 10
356.631701
 20
-429.033869
 30
773.855023
 70
    32
  0
VERTEX
  5
63F
  8
TEAM-NET
 10
368.602539
 20
-429.904902
 30
776.111563
 70
    32
  0
VERTEX
  5
640
  8
TEAM-NET
 10
379.10715
 20
-430.748075
 30
778.394547
 70
    32
  0
VERTEX
  5
641
  8
TEAM-NET
 10
388.043699
 20
-431.562657
 30
780.703033
 70
    32
  0
VERTEX
  5
642
  8
TEAM-NET
 10
395.310355
 20
-432.347919
 30
783.036075
 70
    32
  0
VERTEX
  5
643
  8
TEAM-NET
 10
400.809442
 20
-433.103132
 30
785.39273
 70
    32
  0
VERTEX
  5
644
  8
TEAM-NET
 10
404.630999
 20
-433.827641
 30
787.772127
 70
    32
  0
VERTEX
  5
645
  8
TEAM-NET
 10
407.125118
 20
-434.520884
 30
790.173491
 70
    32
  0
VERTEX
  5
646
  8
TEAM-NET
 10
409.607874
 20
-435.811372
 30
795.039055
 70
    32
  0
VERTEX
  5
647
  8
TEAM-NET
 10
411.004287
 20
-436.971216
 30
799.98788
 70
    32
  0
VERTEX
  5
648
  8
TEAM-NET
 10
413.3561
 20
-438.892348
 30
810.174657
 70
    32
  0
SEQEND
  5
649
  8
TEAM-NET
  0
POLYLINE
  5
53
  8
TEAM-NET
 66
     1
 10
0.0
 20
0.0
 30
0.0
 70
     8
  0
VERTEX
  5
64A
  8
TEAM-NET
 10
385.237991
 20
-469.897816
 30
820.000891
 70
    32
  0
VERTEX
  5
64B
  8
TEAM-NET
 10
383.668123
 20
-468.030437
 30
808.718496
 70
    32
  0
VERTEX
  5
64C
  8
TEAM-NET
 10
381.539392
 20
-465.374936
 30
797.795132
 70
    32
  0
VERTEX
  5
64D
  8
TEAM-NET
 10
378.898773
 20
-461.990248
 30
787.287999
 70
    32
  0
VERTEX
  5
64E
  8
TEAM-NET
 10
375.776959
 20
-457.911871
 30
777.183683
 70
    32
  0
VERTEX
  5
64F
  8
TEAM-NET
 10
374.05132
 20
-455.631686
 30
772.303337
 70
    32
  0
VERTEX
  5
650
  8
TEAM-NET
 10
372.794247
 20
-454.435134
 30
769.910008
 70
    32
  0
VERTEX
  5
651
  8
TEAM-NET
 10
369.857885
 20
-453.202562
 30
767.549095
 70
    32
  0
VERTEX
  5
652
  8
TEAM-NET
 10
367.305771
 20
-452.573166
 30
766.381045
 70
    32
  0
VERTEX
  5
653
  8
TEAM-NET
 10
363.788796
 20
-451.93524
 30
765.221397
 70
    32
  0
VERTEX
  5
654
  8
TEAM-NET
 10
359.12528
 20
-451.288945
 30
764.070253
 70
    32
  0
VERTEX
  5
655
  8
TEAM-NET
 10
353.133543
 20
-450.634437
 30
762.927712
 70
    32
  0
VERTEX
  5
656
  8
TEAM-NET
 10
345.631906
 20
-449.971876
 30
761.793873
 70
    32
  0
VERTEX
  5
657
  8
TEAM-NET
 10
336.438688
 20
-449.30142
 30
760.668838
 70
    32
  0
VERTEX
  5
658
  8
TEAM-NET
 10
325.37221
 20
-448.623228
 30
759.552704
 70
    32
  0
VERTEX
  5
659
  8
TEAM-NET
 10
312.250793
 20
-447.937459
 30
758.445573
 70
    32
  0
VERTEX
  5
65A
  8
TEAM-NET
 10
296.892756
 20
-447.24427
 30
757.347543
 70
    32
  0
VERTEX
  5
65B
  8
TEAM-NET
 10
279.1862
 20
-446.543822
 30
756.258715
 70
    32
  0
VERTEX
  5
65C
  8
TEAM-NET
 10
261.246684
 20
-445.836288
 30
755.179169
 70
    32
  0
VERTEX
  5
65D
  8
TEAM-NET
 10
253.666259
 20
-445.479923
 30
754.642895
 70
    32
  0
VERTEX
  5
65E
  8
TEAM-NET
 10
247.827208
 20
-445.121859
 30
754.108964
 70
    32
  0
VERTEX
  5
65F
  8
TEAM-NET
 10
243.992132
 20
-444.762119
 30
753.577383
 70
    32
  0
VERTEX
  5
660
  8
TEAM-NET
 10
241.758683
 20
-444.400721
 30
753.048159
 70
    32
  0
VERTEX
  5
661
  8
TEAM-NET
 10
240.64961
 20
-444.037685
 30
752.521298
 70
    32
  0
VERTEX
  5
662
  8
TEAM-NET
 10
240.187665
 20
-443.673031
 30
751.996808
 70
    32
  0
VERTEX
  5
663
  8
TEAM-NET
 10
239.108839
 20
-442.198144
 30
749.922065
 70
    32
  0
VERTEX
  5
664
  8
TEAM-NET
 10
234.645866
 20
-436.017937
 30
741.95018
 70
    32
  0
VERTEX
  5
665
  8
TEAM-NET
 10
229.951861
 20
-429.410333
 30
734.496316
 70
    32
  0
VERTEX
  5
666
  8
TEAM-NET
 10
225.072847
 20
-422.412984
 30
727.567486
 70
    32
  0
VERTEX
  5
667
  8
TEAM-NET
 10
220.060929
 20
-415.061627
 30
721.169652
 70
    32
  0
VERTEX
  5
668
  8
TEAM-NET
 10
214.97047
 20
-407.390888
 30
715.308286
 70
    32
  0
VERTEX
  5
669
  8
TEAM-NET
 10
204.73004
 20
-391.087746
 30
705.139937
 70
    32
  0
VERTEX
  5
66A
  8
TEAM-NET
 10
199.672204
 20
-382.394169
 30
700.803794
 70
    32
  0
VERTEX
  5
66B
  8
TEAM-NET
 10
194.78063
 20
-373.334473
 30
696.989466
 70
    32
  0
SEQEND
  5
66C
  8
TEAM-NET
  0
POLYLINE
  5
54
  8
TEAM-NET
 66
     1
 10
0.0
 20
0.0
 30
0.0
 70
     8
  0
VERTEX
  5
66D
  8
TEAM-NET
 10
90.89494
 20
-415.26408
 30
721.334742
 70
    32
  0
VERTEX
  5
66E
  8
TEAM-NET
 10
102.315389
 20
-415.812528
 30
721.785237
 70
    32
  0
VERTEX
  5
66F
  8
TEAM-NET
 10
113.734611
 20
-417.435987
 30
723.144739
 70
    32
  0
VERTEX
  5
670
  8
TEAM-NET
 10
119.398895
 20
-418.622669
 30
724.163496
 70
    32
  0
VERTEX
  5
671
  8
TEAM-NET
 10
122.212592
 20
-419.302088
 30
724.756433
 70
    32
  0
VERTEX
  5
672
  8
TEAM-NET
 10
123.711224
 20
-419.662335
 30
725.073636
 70
    32
  0
VERTEX
  5
673
  8
TEAM-NET
 10
125.853148
 20
-420.035761
 30
725.404567
 70
    32
  0
VERTEX
  5
674
  8
TEAM-NET
 10
131.90563
 20
-420.82052
 30
726.107203
 70
    32
  0
VERTEX
  5
675
  8
TEAM-NET
 10
139.517512
 20
-421.653164
 30
726.863531
 70
    32
  0
VERTEX
  5
676
  8
TEAM-NET
 10
155.585329
 20
-423.449336
 30
728.534027
 70
    32
  0
VERTEX
  5
677
  8
TEAM-NET
 10
162.124191
 20
-424.406481
 30
729.446574
 70
    32
  0
VERTEX
  5
678
  8
TEAM-NET
 10
164.6005
 20
-424.898421
 30
729.921819
 70
    32
  0
VERTEX
  5
679
  8
TEAM-NET
 10
166.388306
 20
-425.398742
 30
730.409575
 70
    32
  0
VERTEX
  5
67A
  8
TEAM-NET
 10
171.658091
 20
-427.475659
 30
732.483824
 70
    32
  0
VERTEX
  5
67B
  8
TEAM-NET
 10
181.836745
 20
-431.909469
 30
737.192953
 70
    32
  0
VERTEX
  5
67C
  8
TEAM-NET
 10
191.469998
 20
-436.548086
 30
742.582126
 70
    32
  0
VERTEX
  5
67D
  8
TEAM-NET
 10
200.474099
 20
-441.20398
 30
748.550727
 70
    32
  0
VERTEX
  5
67E
  8
TEAM-NET
 10
204.715085
 20
-443.485197
 30
751.714096
 70
    32
  0
VERTEX
  5
67F
  8
TEAM-NET
 10
206.77087
 20
-444.608301
 30
753.336602
 70
    32
  0
VERTEX
  5
680
  8
TEAM-NET
 10
207.979707
 20
-445.170282
 30
754.165694
 70
    32
  0
VERTEX
  5
681
  8
TEAM-NET
 10
210.343011
 20
-445.733417
 30
755.008508
 70
    32
  0
VERTEX
  5
682
  8
TEAM-NET
 10
213.832568
 20
-446.297253
 30
755.864776
 70
    32
  0
VERTEX
  5
683
  8
TEAM-NET
 10
218.250938
 20
-446.861477
 30
756.734413
 70
    32
  0
VERTEX
  5
684
  8
TEAM-NET
 10
229.084361
 20
-447.989836
 30
758.513464
 70
    32
  0
VERTEX
  5
685
  8
TEAM-NET
 10
253.209627
 20
-450.237433
 30
762.228339
 70
    32
  0
VERTEX
  5
686
  8
TEAM-NET
 10
258.601383
 20
-450.795606
 30
763.189233
 70
    32
  0
VERTEX
  5
687
  8
TEAM-NET
 10
263.342435
 20
-451.351662
 30
764.162831
 70
    32
  0
VERTEX
  5
688
  8
TEAM-NET
 10
267.235345
 20
-451.905288
 30
765.149048
 70
    32
  0
VERTEX
  5
689
  8
TEAM-NET
 10
270.082671
 20
-452.456171
 30
766.147803
 70
    32
  0
VERTEX
  5
68A
  8
TEAM-NET
 10
272.098678
 20
-453.003998
 30
767.159011
 70
    32
  0
VERTEX
  5
68B
  8
TEAM-NET
 10
287.790435
 20
-453.548447
 30
768.182583
 70
    32
  0
VERTEX
  5
68C
  8
TEAM-NET
 10
301.392356
 20
-454.089219
 30
769.218379
 70
    32
  0
VERTEX
  5
68D
  8
TEAM-NET
 10
313.062796
 20
-454.626031
 30
770.266241
 70
    32
  0
VERTEX
  5
68E
  8
TEAM-NET
 10
322.960113
 20
-455.158598
 30
771.326013
 70
    32
  0
VERTEX
  5
68F
  8
TEAM-NET
 10
331.242665
 20
-455.686639
 30
772.397536
 70
    32
  0
VERTEX
  5
690
  8
TEAM-NET
 10
338.06881
 20
-456.209869
 30
773.480654
 70
    32
  0
VERTEX
  5
691
  8
TEAM-NET
 10
343.596905
 20
-456.728007
 30
774.57521
 70
    32
  0
VERTEX
  5
692
  8
TEAM-NET
 10
347.985307
 20
-457.240768
 30
775.681045
 70
    32
  0
VERTEX
  5
693
  8
TEAM-NET
 10
351.392375
 20
-457.74787
 30
776.798003
 70
    32
  0
VERTEX
  5
694
  8
TEAM-NET
 10
353.976465
 20
-458.249029
 30
777.925926
 70
    32
  0
VERTEX
  5
695
  8
TEAM-NET
 10
355.895935
 20
-458.743962
 30
779.064658
 70
    32
  0
VERTEX
  5
696
  8
TEAM-NET
 10
358.374446
 20
-459.71402
 30
781.373915
 70
    32
  0
VERTEX
  5
697
  8
TEAM-NET
 10
360.077427
 20
-460.655788
 30
783.724507
 70
    32
  0
VERTEX
  5
698
  8
TEAM-NET
 10
363.278264
 20
-462.446626
 30
788.5437
 70
    32
  0
VERTEX
  5
699
  8
TEAM-NET
 10
369.125209
 20
-465.607861
 30
798.608418
 70
    32
  0
VERTEX
  5
69A
  8
TEAM-NET
 10
374.159446
 20
-468.119037
 30
809.142462
 70
    32
  0
VERTEX
  5
69B
  8
TEAM-NET
 10
378.315388
 20
-469.897819
 30
820.00089
 70
    32
  0
SEQEND
  5
69C
  8
TEAM-NET
  0
POLYLINE
  5
55
  8
TEAM-NET
 66
     1
 10
0.0
 20
0.0
 30
0.0
 70
     8
  0
VERTEX
  5
69D
  8
TEAM-NET
 10
91.24954
 20
-415.264264
 30
721.335175
 70
    32
  0
VERTEX
  5
69E
  8
TEAM-NET
 10
102.637754
 20
-415.843159
 30
721.811063
 70
    32
  0
VERTEX
  5
69F
  8
TEAM-NET
 10
113.992239
 20
-417.482942
 30
723.186021
 70
    32
  0
VERTEX
  5
6A0
  8
TEAM-NET
 10
125.365959
 20
-420.081456
 30
725.447911
 70
    32
  0
VERTEX
  5
6A1
  8
TEAM-NET
 10
130.246773
 20
-420.863452
 30
726.149023
 70
    32
  0
VERTEX
  5
6A2
  8
TEAM-NET
 10
136.890541
 20
-421.692634
 30
726.903183
 70
    32
  0
VERTEX
  5
6A3
  8
TEAM-NET
 10
152.327087
 20
-423.480253
 30
728.567687
 70
    32
  0
VERTEX
  5
6A4
  8
TEAM-NET
 10
159.549937
 20
-424.432539
 30
729.476547
 70
    32
  0
VERTEX
  5
6A5
  8
TEAM-NET
 10
165.395888
 20
-425.419707
 30
730.435492
 70
    32
  0
VERTEX
  5
6A6
  8
TEAM-NET
 10
167.557225
 20
-425.925411
 30
730.933515
 70
    32
  0
VERTEX
  5
6A7
  8
TEAM-NET
 10
169.093289
 20
-426.438683
 30
731.443782
 70
    32
  0
VERTEX
  5
6A8
  8
TEAM-NET
 10
171.699398
 20
-427.486358
 30
732.500788
 70
    32
  0
VERTEX
  5
6A9
  8
TEAM-NET
 10
181.842161
 20
-431.904016
 30
737.195931
 70
    32
  0
VERTEX
  5
6AA
  8
TEAM-NET
 10
191.476034
 20
-436.542078
 30
742.585908
 70
    32
  0
VERTEX
  5
6AB
  8
TEAM-NET
 10
200.525575
 20
-441.221332
 30
748.588033
 70
    32
  0
VERTEX
  5
6AC
  8
TEAM-NET
 10
208.918396
 20
-445.782133
 30
755.097337
 70
    32
  0
VERTEX
  5
6AD
  8
TEAM-NET
 10
209.919416
 20
-446.337539
 30
755.941904
 70
    32
  0
VERTEX
  5
6AE
  8
TEAM-NET
 10
210.418571
 20
-446.615283
 30
756.368892
 70
    32
  0
VERTEX
  5
6AF
  8
TEAM-NET
 10
210.668322
 20
-446.754443
 30
756.58401
 70
    32
  0
VERTEX
  5
6B0
  8
TEAM-NET
 10
210.730803
 20
-446.789276
 30
756.63798
 70
    32
  0
VERTEX
  5
6B1
  8
TEAM-NET
 10
211.295736
 20
-446.824128
 30
756.692028
 70
    32
  0
VERTEX
  5
6B2
  8
TEAM-NET
 10
213.065745
 20
-446.893863
 30
756.800327
 70
    32
  0
VERTEX
  5
6B3
  8
TEAM-NET
 10
225.934519
 20
-447.453122
 30
757.676286
 70
    32
  0
VERTEX
  5
6B4
  8
TEAM-NET
 10
236.658627
 20
-448.014475
 30
758.569072
 70
    32
  0
VERTEX
  5
6B5
  8
TEAM-NET
 10
245.451224
 20
-448.577426
 30
759.478419
 70
    32
  0
VERTEX
  5
6B6
  8
TEAM-NET
 10
252.525463
 20
-449.141478
 30
760.404065
 70
    32
  0
VERTEX
  5
6B7
  8
TEAM-NET
 10
258.094498
 20
-449.706136
 30
761.345744
 70
    32
  0
VERTEX
  5
6B8
  8
TEAM-NET
 10
262.371483
 20
-450.270902
 30
762.303191
 70
    32
  0
VERTEX
  5
6B9
  8
TEAM-NET
 10
265.569573
 20
-450.835281
 30
763.276143
 70
    32
  0
VERTEX
  5
6BA
  8
TEAM-NET
 10
267.90192
 20
-451.398777
 30
764.264335
 70
    32
  0
VERTEX
  5
6BB
  8
TEAM-NET
 10
270.822004
 20
-452.521132
 30
766.285382
 70
    32
  0
VERTEX
  5
6BC
  8
TEAM-NET
 10
271.836049
 20
-453.079
 30
767.317707
 70
    32
  0
VERTEX
  5
6BD
  8
TEAM-NET
 10
291.295789
 20
-453.633978
 30
768.364176
 70
    32
  0
VERTEX
  5
6BE
  8
TEAM-NET
 10
300.013492
 20
-453.910232
 30
768.892588
 70
    32
  0
VERTEX
  5
6BF
  8
TEAM-NET
 10
307.887667
 20
-454.18559
 30
769.42438
 70
    32
  0
VERTEX
  5
6C0
  8
TEAM-NET
 10
314.963634
 20
-454.459999
 30
769.959499
 70
    32
  0
VERTEX
  5
6C1
  8
TEAM-NET
 10
321.286716
 20
-454.733405
 30
770.497892
 70
    32
  0
VERTEX
  5
6C2
  8
TEAM-NET
 10
326.902233
 20
-455.005754
 30
771.039507
 70
    32
  0
VERTEX
  5
6C3
  8
TEAM-NET
 10
331.855507
 20
-455.276993
 30
771.584289
 70
    32
  0
VERTEX
  5
6C4
  8
TEAM-NET
 10
339.95661
 20
-455.815923
 30
772.683146
 70
    32
  0
VERTEX
  5
6C5
  8
TEAM-NET
 10
345.952596
 20
-456.349766
 30
773.794037
 70
    32
  0
VERTEX
  5
6C6
  8
TEAM-NET
 10
350.206035
 20
-456.87809
 30
774.916539
 70
    32
  0
VERTEX
  5
6C7
  8
TEAM-NET
 10
353.079497
 20
-457.400467
 30
776.050226
 70
    32
  0
VERTEX
  5
6C8
  8
TEAM-NET
 10
354.935552
 20
-457.916466
 30
777.194674
 70
    32
  0
VERTEX
  5
6C9
  8
TEAM-NET
 10
357.04503
 20
-458.927606
 30
779.514155
 70
    32
  0
VERTEX
  5
6CA
  8
TEAM-NET
 10
363.643141
 20
-462.641281
 30
789.120276
 70
    32
  0
VERTEX
  5
6CB
  8
TEAM-NET
 10
369.336725
 20
-465.712804
 30
799.010208
 70
    32
  0
VERTEX
  5
6CC
  8
TEAM-NET
 10
374.163018
 20
-468.117688
 30
809.15134
 70
    32
  0
VERTEX
  5
6CD
  8
TEAM-NET
 10
378.315388
 20
-469.897819
 30
820.00089
 70
    32
  0
SEQEND
  5
6CE
  8
TEAM-NET
  0
POLYLINE
  5
56
  8
TEAM-NET
 66
     1
 10
0.0
 20
0.0
 30
0.0
 70
     8
  0
VERTEX
  5
6CF
  8
TEAM-NET
 10
90.89494
 20
-415.26408
 30
721.334742
 70
    32
  0
VERTEX
  5
6D0
  8
TEAM-NET
 10
102.315389
 20
-415.812528
 30
721.785237
 70
    32
  0
VERTEX
  5
6D1
  8
TEAM-NET
 10
113.734611
 20
-417.435987
 30
723.144739
 70
    32
  0
VERTEX
  5
6D2
  8
TEAM-NET
 10
119.398895
 20
-418.622669
 30
724.163496
 70
    32
  0
VERTEX
  5
6D3
  8
TEAM-NET
 10
122.212592
 20
-419.302088
 30
724.756433
 70
    32
  0
VERTEX
  5
6D4
  8
TEAM-NET
 10
123.711224
 20
-419.662335
 30
725.073636
 70
    32
  0
VERTEX
  5
6D5
  8
TEAM-NET
 10
125.853148
 20
-420.035761
 30
725.404567
 70
    32
  0
VERTEX
  5
6D6
  8
TEAM-NET
 10
131.90563
 20
-420.82052
 30
726.107203
 70
    32
  0
VERTEX
  5
6D7
  8
TEAM-NET
 10
139.517512
 20
-421.653164
 30
726.863531
 70
    32
  0
VERTEX
  5
6D8
  8
TEAM-NET
 10
155.585329
 20
-423.449336
 30
728.534027
 70
    32
  0
VERTEX
  5
6D9
  8
TEAM-NET
 10
162.124191
 20
-424.406481
 30
729.446574
 70
    32
  0
VERTEX
  5
6DA
  8
TEAM-NET
 10
164.6005
 20
-424.898421
 30
729.921819
 70
    32
  0
VERTEX
  5
6DB
  8
TEAM-NET
 10
166.388306
 20
-425.398742
 30
730.409575
 70
    32
  0
VERTEX
  5
6DC
  8
TEAM-NET
 10
171.658091
 20
-427.475659
 30
732.483824
 70
    32
  0
VERTEX
  5
6DD
  8
TEAM-NET
 10
181.836745
 20
-431.909469
 30
737.192953
 70
    32
  0
VERTEX
  5
6DE
  8
TEAM-NET
 10
191.469998
 20
-436.548086
 30
742.582126
 70
    32
  0
VERTEX
  5
6DF
  8
TEAM-NET
 10
200.474099
 20
-441.20398
 30
748.550727
 70
    32
  0
VERTEX
  5
6E0
  8
TEAM-NET
 10
204.715085
 20
-443.485197
 30
751.714096
 70
    32
  0
VERTEX
  5
6E1
  8
TEAM-NET
 10
206.77087
 20
-444.608301
 30
753.336602
 70
    32
  0
VERTEX
  5
6E2
  8
TEAM-NET
 10
207.979707
 20
-445.170282
 30
754.165694
 70
    32
  0
VERTEX
  5
6E3
  8
TEAM-NET
 10
210.343011
 20
-445.733417
 30
755.008508
 70
    32
  0
VERTEX
  5
6E4
  8
TEAM-NET
 10
213.832568
 20
-446.297253
 30
755.864776
 70
    32
  0
VERTEX
  5
6E5
  8
TEAM-NET
 10
218.250938
 20
-446.861477
 30
756.734413
 70
    32
  0
VERTEX
  5
6E6
  8
TEAM-NET
 10
229.084361
 20
-447.989836
 30
758.513464
 70
    32
  0
VERTEX
  5
6E7
  8
TEAM-NET
 10
253.209627
 20
-450.237433
 30
762.228339
 70
    32
  0
VERTEX
  5
6E8
  8
TEAM-NET
 10
258.601383
 20
-450.795606
 30
763.189233
 70
    32
  0
VERTEX
  5
6E9
  8
TEAM-NET
 10
263.342435
 20
-451.351662
 30
764.162831
 70
    32
  0
VERTEX
  5
6EA
  8
TEAM-NET
 10
267.235345
 20
-451.905288
 30
765.149048
 70
    32
  0
VERTEX
  5
6EB
  8
TEAM-NET
 10
270.082671
 20
-452.456171
 30
766.147803
 70
    32
  0
VERTEX
  5
6EC
  8
TEAM-NET
 10
272.098678
 20
-453.003998
 30
767.159011
 70
    32
  0
VERTEX
  5
6ED
  8
TEAM-NET
 10
287.790435
 20
-453.548447
 30
768.182583
 70
    32
  0
VERTEX
  5
6EE
  8
TEAM-NET
 10
301.392356
 20
-454.089219
 30
769.218379
 70
    32
  0
VERTEX
  5
6EF
  8
TEAM-NET
 10
313.062796
 20
-454.626031
 30
770.266241
 70
    32
  0
VERTEX
  5
6F0
  8
TEAM-NET
 10
322.960113
 20
-455.158598
 30
771.326013
 70
    32
  0
VERTEX
  5
6F1
  8
TEAM-NET
 10
331.242665
 20
-455.686639
 30
772.397536
 70
    32
  0
VERTEX
  5
6F2
  8
TEAM-NET
 10
338.06881
 20
-456.209869
 30
773.480654
 70
    32
  0
VERTEX
  5
6F3
  8
TEAM-NET
 10
343.596905
 20
-456.728007
 30
774.57521
 70
    32
  0
VERTEX
  5
6F4
  8
TEAM-NET
 10
347.985307
 20
-457.240768
 30
775.681045
 70
    32
  0
VERTEX
  5
6F5
  8
TEAM-NET
 10
351.392375
 20
-457.74787
 30
776.798003
 70
    32
  0
VERTEX
  5
6F6
  8
TEAM-NET
 10
353.976465
 20
-458.249029
 30
777.925926
 70
    32
  0
VERTEX
  5
6F7
  8
TEAM-NET
 10
355.895935
 20
-458.743962
 30
779.064658
 70
    32
  0
VERTEX
  5
6F8
  8
TEAM-NET
 10
358.374446
 20
-459.71402
 30
781.373915
 70
    32
  0
VERTEX
  5
6F9
  8
TEAM-NET
 10
360.077427
 20
-460.655788
 30
783.724507
 70
    32
  0
VERTEX
  5
6FA
  8
TEAM-NET
 10
363.278264
 20
-462.446626
 30
788.5437
 70
    32
  0
VERTEX
  5
6FB
  8
TEAM-NET
 10
369.125209
 20
-465.607861
 30
798.608418
 70
    32
  0
VERTEX
  5
6FC
  8
TEAM-NET
 10
374.159446
 20
-468.119037
 30
809.142462
 70
    32
  0
VERTEX
  5
6FD
  8
TEAM-NET
 10
378.315388
 20
-469.897819
 30
820.00089
 70
    32
  0
SEQEND
  5
6FE
  8
TEAM-NET
  0
POLYLINE
  5
57
  8
TEAM-NET
 66
     1
 10
0.0
 20
0.0
 30
0.0
 70
     8
  0
VERTEX
  5
6FF
  8
TEAM-NET
 10
259.448161
 20
-423.058313
 30
845.712057
 70
    32
  0
VERTEX
  5
700
  8
TEAM-NET
 10
256.988933
 20
-422.865457
 30
832.800623
 70
    32
  0
VERTEX
  5
701
  8
TEAM-NET
 10
253.372319
 20
-422.003121
 30
820.170266
 70
    32
  0
VERTEX
  5
702
  8
TEAM-NET
 10
248.646454
 20
-420.52822
 30
807.961157
 70
    32
  0
VERTEX
  5
703
  8
TEAM-NET
 10
242.902307
 20
-418.525545
 30
796.342991
 70
    32
  0
VERTEX
  5
704
  8
TEAM-NET
 10
236.175258
 20
-416.070615
 30
785.330672
 70
    32
  0
VERTEX
  5
705
  8
TEAM-NET
 10
228.522164
 20
-413.253332
 30
774.992136
 70
    32
  0
VERTEX
  5
706
  8
TEAM-NET
 10
220.033525
 20
-410.183185
 30
765.424243
 70
    32
  0
VERTEX
  5
707
  8
TEAM-NET
 10
210.814321
 20
-406.979894
 30
756.710071
 70
    32
  0
VERTEX
  5
708
  8
TEAM-NET
 10
200.880571
 20
-403.736499
 30
748.84336
 70
    32
  0
VERTEX
  5
709
  8
TEAM-NET
 10
190.227334
 20
-400.548618
 30
741.832375
 70
    32
  0
VERTEX
  5
70A
  8
TEAM-NET
 10
178.9461
 20
-397.547426
 30
735.757332
 70
    32
  0
VERTEX
  5
70B
  8
TEAM-NET
 10
167.135574
 20
-394.863885
 30
730.688319
 70
    32
  0
VERTEX
  5
70C
  8
TEAM-NET
 10
161.063194
 20
-393.679655
 30
728.547695
 70
    32
  0
VERTEX
  5
70D
  8
TEAM-NET
 10
159.505525
 20
-393.401799
 30
728.053439
 70
    32
  0
VERTEX
  5
70E
  8
TEAM-NET
 10
157.216416
 20
-393.131331
 30
727.575148
 70
    32
  0
VERTEX
  5
70F
  8
TEAM-NET
 10
155.325367
 20
-392.998973
 30
727.342094
 70
    32
  0
VERTEX
  5
710
  8
TEAM-NET
 10
152.677137
 20
-392.86859
 30
727.113161
 70
    32
  0
VERTEX
  5
711
  8
TEAM-NET
 10
145.354747
 20
-392.613898
 30
726.667787
 70
    32
  0
VERTEX
  5
712
  8
TEAM-NET
 10
137.427493
 20
-392.367495
 30
726.239192
 70
    32
  0
VERTEX
  5
713
  8
TEAM-NET
 10
131.18239
 20
-392.12961
 30
725.827525
 70
    32
  0
VERTEX
  5
714
  8
TEAM-NET
 10
126.872339
 20
-391.900494
 30
725.43297
 70
    32
  0
VERTEX
  5
715
  8
TEAM-NET
 10
123.975875
 20
-391.6804
 30
725.05572
 70
    32
  0
VERTEX
  5
716
  8
TEAM-NET
 10
117.10844
 20
-390.89518
 30
723.723485
 70
    32
  0
VERTEX
  5
717
  8
TEAM-NET
 10
104.048531
 20
-389.819202
 30
721.9324
 70
    32
  0
VERTEX
  5
718
  8
TEAM-NET
 10
90.89494
 20
-389.455006
 30
721.334742
 70
    32
  0
SEQEND
  5
719
  8
TEAM-NET
  0
POLYLINE
  5
58
  8
TEAM-NET
 66
     1
 10
0.0
 20
0.0
 30
0.0
 70
     8
  0
VERTEX
  5
71A
  8
TEAM-NET
 10
90.89494
 20
-401.846467
 30
727.881832
 70
    32
  0
VERTEX
  5
71B
  8
TEAM-NET
 10
102.509941
 20
-402.227179
 30
728.441907
 70
    32
  0
VERTEX
  5
71C
  8
TEAM-NET
 10
114.046246
 20
-403.352665
 30
730.120726
 70
    32
  0
VERTEX
  5
71D
  8
TEAM-NET
 10
125.322025
 20
-405.153049
 30
732.882136
 70
    32
  0
VERTEX
  5
71E
  8
TEAM-NET
 10
128.11498
 20
-405.695708
 30
733.733549
 70
    32
  0
VERTEX
  5
71F
  8
TEAM-NET
 10
130.50891
 20
-405.979514
 30
734.182483
 70
    32
  0
VERTEX
  5
720
  8
TEAM-NET
 10
132.680956
 20
-406.124387
 30
734.412624
 70
    32
  0
VERTEX
  5
721
  8
TEAM-NET
 10
135.832913
 20
-406.271179
 30
734.646493
 70
    32
  0
VERTEX
  5
722
  8
TEAM-NET
 10
153.355697
 20
-406.877356
 30
735.619622
 70
    32
  0
VERTEX
  5
723
  8
TEAM-NET
 10
156.544564
 20
-407.033694
 30
735.87256
 70
    32
  0
VERTEX
  5
724
  8
TEAM-NET
 10
158.74121
 20
-407.191943
 30
736.129419
 70
    32
  0
VERTEX
  5
725
  8
TEAM-NET
 10
161.142726
 20
-407.514064
 30
736.654845
 70
    32
  0
VERTEX
  5
726
  8
TEAM-NET
 10
171.639864
 20
-410.33442
 30
741.410999
 70
    32
  0
VERTEX
  5
727
  8
TEAM-NET
 10
181.643714
 20
-413.49698
 30
747.11454
 70
    32
  0
VERTEX
  5
728
  8
TEAM-NET
 10
191.109141
 20
-416.867144
 30
753.701277
 70
    32
  0
VERTEX
  5
729
  8
TEAM-NET
 10
199.956049
 20
-420.309508
 30
761.098447
 70
    32
  0
VERTEX
  5
72A
  8
TEAM-NET
 10
208.174407
 20
-423.718663
 30
769.282651
 70
    32
  0
VERTEX
  5
72B
  8
TEAM-NET
 10
215.768667
 20
-427.005398
 30
778.274587
 70
    32
  0
VERTEX
  5
72C
  8
TEAM-NET
 10
222.649411
 20
-430.046214
 30
788.001521
 70
    32
  0
VERTEX
  5
72D
  8
TEAM-NET
 10
228.737128
 20
-432.726476
 30
798.37624
 70
    32
  0
VERTEX
  5
72E
  8
TEAM-NET
 10
233.973403
 20
-434.948032
 30
809.319183
 70
    32
  0
VERTEX
  5
72F
  8
TEAM-NET
 10
238.337331
 20
-436.635981
 30
820.833124
 70
    32
  0
VERTEX
  5
730
  8
TEAM-NET
 10
241.751225
 20
-437.700013
 30
832.779945
 70
    32
  0
VERTEX
  5
731
  8
TEAM-NET
 10
244.163368
 20
-438.075189
 30
845.006579
 70
    32
  0
SEQEND
  5
732
  8
TEAM-NET
  0
POLYLINE
  5
59
  8
TEAM-NET
 66
     1
 10
0.0
 20
0.0
 30
0.0
 70
     8
  0
VERTEX
  5
733
  8
TEAM-NET
 10
259.448161
 20
-423.058313
 30
845.712057
 70
    32
  0
VERTEX
  5
734
  8
TEAM-NET
 10
256.988933
 20
-422.865457
 30
832.800623
 70
    32
  0
VERTEX
  5
735
  8
TEAM-NET
 10
253.372319
 20
-422.003121
 30
820.170266
 70
    32
  0
VERTEX
  5
736
  8
TEAM-NET
 10
248.646454
 20
-420.52822
 30
807.961157
 70
    32
  0
VERTEX
  5
737
  8
TEAM-NET
 10
242.902307
 20
-418.525545
 30
796.342991
 70
    32
  0
VERTEX
  5
738
  8
TEAM-NET
 10
236.175258
 20
-416.070615
 30
785.330672
 70
    32
  0
VERTEX
  5
739
  8
TEAM-NET
 10
228.522164
 20
-413.253332
 30
774.992136
 70
    32
  0
VERTEX
  5
73A
  8
TEAM-NET
 10
220.033525
 20
-410.183185
 30
765.424243
 70
    32
  0
VERTEX
  5
73B
  8
TEAM-NET
 10
210.814321
 20
-406.979894
 30
756.710071
 70
    32
  0
VERTEX
  5
73C
  8
TEAM-NET
 10
200.880571
 20
-403.736499
 30
748.84336
 70
    32
  0
VERTEX
  5
73D
  8
TEAM-NET
 10
190.227334
 20
-400.548618
 30
741.832375
 70
    32
  0
VERTEX
  5
73E
  8
TEAM-NET
 10
178.9461
 20
-397.547426
 30
735.757332
 70
    32
  0
VERTEX
  5
73F
  8
TEAM-NET
 10
167.135574
 20
-394.863885
 30
730.688319
 70
    32
  0
VERTEX
  5
740
  8
TEAM-NET
 10
161.063194
 20
-393.679655
 30
728.547695
 70
    32
  0
VERTEX
  5
741
  8
TEAM-NET
 10
159.505525
 20
-393.401799
 30
728.053439
 70
    32
  0
VERTEX
  5
742
  8
TEAM-NET
 10
157.216416
 20
-393.131331
 30
727.575148
 70
    32
  0
VERTEX
  5
743
  8
TEAM-NET
 10
155.325367
 20
-392.998973
 30
727.342094
 70
    32
  0
VERTEX
  5
744
  8
TEAM-NET
 10
152.677137
 20
-392.86859
 30
727.113161
 70
    32
  0
VERTEX
  5
745
  8
TEAM-NET
 10
145.354747
 20
-392.613898
 30
726.667787
 70
    32
  0
VERTEX
  5
746
  8
TEAM-NET
 10
137.427493
 20
-392.367495
 30
726.239192
 70
    32
  0
VERTEX
  5
747
  8
TEAM-NET
 10
131.18239
 20
-392.12961
 30
725.827525
 70
    32
  0
VERTEX
  5
748
  8
TEAM-NET
 10
126.872339
 20
-391.900494
 30
725.43297
 70
    32
  0
VERTEX
  5
749
  8
TEAM-NET
 10
123.975875
 20
-391.6804
 30
725.05572
 70
    32
  0
VERTEX
  5
74A
  8
TEAM-NET
 10
117.10844
 20
-390.89518
 30
723.723485
 70
    32
  0
VERTEX
  5
74B
  8
TEAM-NET
 10
104.048531
 20
-389.819202
 30
721.9324
 70
    32
  0
VERTEX
  5
74C
  8
TEAM-NET
 10
90.89494
 20
-389.455006
 30
721.334742
 70
    32
  0
SEQEND
  5
74D
  8
TEAM-NET
  0
POLYLINE
  5
5A
  8
TEAM-NET
 66
     1
 10
0.0
 20
0.0
 30
0.0
 70
     8
  0
VERTEX
  5
74E
  8
TEAM-NET
 10
90.89494
 20
-401.846467
 30
727.881832
 70
    32
  0
VERTEX
  5
74F
  8
TEAM-NET
 10
102.509941
 20
-402.227179
 30
728.441907
 70
    32
  0
VERTEX
  5
750
  8
TEAM-NET
 10
114.046246
 20
-403.352665
 30
730.120726
 70
    32
  0
VERTEX
  5
751
  8
TEAM-NET
 10
125.322025
 20
-405.153049
 30
732.882136
 70
    32
  0
VERTEX
  5
752
  8
TEAM-NET
 10
128.11498
 20
-405.695708
 30
733.733549
 70
    32
  0
VERTEX
  5
753
  8
TEAM-NET
 10
130.50891
 20
-405.979514
 30
734.182483
 70
    32
  0
VERTEX
  5
754
  8
TEAM-NET
 10
132.680956
 20
-406.124387
 30
734.412624
 70
    32
  0
VERTEX
  5
755
  8
TEAM-NET
 10
135.832913
 20
-406.271179
 30
734.646493
 70
    32
  0
VERTEX
  5
756
  8
TEAM-NET
 10
153.355697
 20
-406.877356
 30
735.619622
 70
    32
  0
VERTEX
  5
757
  8
TEAM-NET
 10
156.544564
 20
-407.033694
 30
735.87256
 70
    32
  0
VERTEX
  5
758
  8
TEAM-NET
 10
158.74121
 20
-407.191943
 30
736.129419
 70
    32
  0
VERTEX
  5
759
  8
TEAM-NET
 10
161.142726
 20
-407.514064
 30
736.654845
 70
    32
  0
VERTEX
  5
75A
  8
TEAM-NET
 10
171.639864
 20
-410.33442
 30
741.410999
 70
    32
  0
VERTEX
  5
75B
  8
TEAM-NET
 10
181.643714
 20
-413.49698
 30
747.11454
 70
    32
  0
VERTEX
  5
75C
  8
TEAM-NET
 10
191.109141
 20
-416.867144
 30
753.701277
 70
    32
  0
VERTEX
  5
75D
  8
TEAM-NET
 10
199.956049
 20
-420.309508
 30
761.098447
 70
    32
  0
VERTEX
  5
75E
  8
TEAM-NET
 10
208.174407
 20
-423.718663
 30
769.282651
 70
    32
  0
VERTEX
  5
75F
  8
TEAM-NET
 10
215.768667
 20
-427.005398
 30
778.274587
 70
    32
  0
VERTEX
  5
760
  8
TEAM-NET
 10
222.649411
 20
-430.046214
 30
788.001521
 70
    32
  0
VERTEX
  5
761
  8
TEAM-NET
 10
228.737128
 20
-432.726476
 30
798.37624
 70
    32
  0
VERTEX
  5
762
  8
TEAM-NET
 10
233.973403
 20
-434.948032
 30
809.319183
 70
    32
  0
VERTEX
  5
763
  8
TEAM-NET
 10
238.337331
 20
-436.635981
 30
820.833124
 70
    32
  0
VERTEX
  5
764
  8
TEAM-NET
 10
241.751225
 20
-437.700013
 30
832.779945
 70
    32
  0
VERTEX
  5
765
  8
TEAM-NET
 10
244.163368
 20
-438.075189
 30
845.006579
 70
    32
  0
SEQEND
  5
766
  8
TEAM-NET
  0
ARC
  5
5B
  8
TEAM-NET
 10
212.793877
 20
639.242206
 30
0.0
 40
91.7912
210
-1.0
220
-0.0
230
-0.0
 50
89.596498
 51
108.650003
  0
ARC
  5
5C
  8
TEAM-NET
 10
-214.086735
 20
639.242206
 30
0.0
 40
91.7912
210
1.0
220
0.0
230
0.0
 50
89.596498
 51
108.650003
  0
ARC
  5
5D
  8
TEAM-NET
 10
212.793877
 20
639.242206
 30
0.0
 40
91.7912
210
-1.0
220
-0.0
230
-0.0
 50
89.596498
 51
108.650003
  0
ARC
  5
5E
  8
TEAM-NET
 10
-214.086735
 20
639.242206
 30
0.0
 40
91.7912
210
1.0
220
0.0
230
0.0
 50
89.596498
 51
108.650003
  0
ARC
  5
5F
  8
TEAM-NET
 10
-138.440306
 20
736.334742
 30
90.89494
 40
15.0
210
1.0
220
0.0
230
0.0
 50
270.0
 51
0.0
  0
ARC
  5
60
  8
TEAM-NET
 10
-138.440306
 20
736.334742
 30
90.89494
 40
15.0
210
1.0
220
0.0
230
0.0
 50
270.0
 51
0.0
  0
ARC
  5
61
  8
TEAM-NET
 10
-138.440306
 20
736.334742
 30
-90.89494
 40
15.0
210
1.0
220
0.0
230
0.0
 50
270.0
 51
0.0
  0
ARC
  5
62
  8
TEAM-NET
 10
-138.440306
 20
736.334742
 30
-90.89494
 40
15.0
210
1.0
220
0.0
230
0.0
 50
270.0
 51
0.0
  0
ARC
  5
63
  8
TEAM-NET
 10
-44.5
 20
688.0
 30
213.440306
 40
7.0
210
0.0
220
-1.0
230
0.0
 50
360.0
 51
90.0
  0
ARC
  5
64
  8
TEAM-NET
 10
-44.5
 20
688.0
 30
-213.440306
 40
7.0
210
0.0
220
1.0
230
0.0
 50
360.0
 51
90.0
  0
ARC
  5
65
  8
TEAM-NET
 10
-44.5
 20
688.0
 30
213.440306
 40
7.0
210
0.0
220
-1.0
230
0.0
 50
360.0
 51
90.0
  0
ARC
  5
66
  8
TEAM-NET
 10
-44.5
 20
688.0
 30
-213.440306
 40
7.0
210
0.0
220
1.0
230
0.0
 50
360.0
 51
90.0
  0
POLYLINE
  5
67
  8
TEAM-NET
 66
     1
 10
0.0
 20
0.0
 30
0.0
 70
     8
  0
VERTEX
  5
767
  8
TEAM-NET
 10
-10.509754
 20
-225.504512
 30
685.391501
 70
    32
  0
VERTEX
  5
768
  8
TEAM-NET
 10
-11.856021
 20
-226.867607
 30
685.77163
 70
    32
  0
VERTEX
  5
769
  8
TEAM-NET
 10
-12.997202
 20
-228.023052
 30
686.854603
 70
    32
  0
VERTEX
  5
76A
  8
TEAM-NET
 10
-13.760562
 20
-228.795954
 30
688.477389
 70
    32
  0
VERTEX
  5
76B
  8
TEAM-NET
 10
-14.028501
 20
-229.067243
 30
690.391501
 70
    32
  0
SEQEND
  5
76C
  8
TEAM-NET
  0
POLYLINE
  5
68
  8
TEAM-NET
 66
     1
 10
0.0
 20
0.0
 30
0.0
 70
     8
  0
VERTEX
  5
76D
  8
TEAM-NET
 10
-12.064206
 20
-202.930552
 30
685.391501
 70
    32
  0
VERTEX
  5
76E
  8
TEAM-NET
 10
-13.427301
 20
-201.584285
 30
685.77163
 70
    32
  0
VERTEX
  5
76F
  8
TEAM-NET
 10
-14.582747
 20
-200.443104
 30
686.854603
 70
    32
  0
VERTEX
  5
770
  8
TEAM-NET
 10
-15.355649
 20
-199.679744
 30
688.477389
 70
    32
  0
VERTEX
  5
771
  8
TEAM-NET
 10
-15.626937
 20
-199.411805
 30
690.391501
 70
    32
  0
SEQEND
  5
772
  8
TEAM-NET
  0
POLYLINE
  5
69
  8
TEAM-NET
 66
     1
 10
0.0
 20
0.0
 30
0.0
 70
     8
  0
VERTEX
  5
773
  8
TEAM-NET
 10
10.509754
 20
-201.3761
 30
685.391501
 70
    32
  0
VERTEX
  5
774
  8
TEAM-NET
 10
11.856021
 20
-200.013005
 30
685.77163
 70
    32
  0
VERTEX
  5
775
  8
TEAM-NET
 10
12.997202
 20
-198.857559
 30
686.854603
 70
    32
  0
VERTEX
  5
776
  8
TEAM-NET
 10
13.760562
 20
-198.084657
 30
688.477389
 70
    32
  0
VERTEX
  5
777
  8
TEAM-NET
 10
14.028501
 20
-197.813369
 30
690.391501
 70
    32
  0
SEQEND
  5
778
  8
TEAM-NET
  0
POLYLINE
  5
6A
  8
TEAM-NET
 66
     1
 10
0.0
 20
0.0
 30
0.0
 70
     8
  0
VERTEX
  5
779
  8
TEAM-NET
 10
12.064206
 20
-223.95006
 30
685.391501
 70
    32
  0
VERTEX
  5
77A
  8
TEAM-NET
 10
13.427301
 20
-225.296326
 30
685.77163
 70
    32
  0
VERTEX
  5
77B
  8
TEAM-NET
 10
14.582747
 20
-226.437507
 30
686.854603
 70
    32
  0
VERTEX
  5
77C
  8
TEAM-NET
 10
15.355649
 20
-227.200867
 30
688.477389
 70
    32
  0
VERTEX
  5
77D
  8
TEAM-NET
 10
15.626937
 20
-227.468807
 30
690.391501
 70
    32
  0
SEQEND
  5
77E
  8
TEAM-NET
  0
POLYLINE
  5
6B
  8
TEAM-NET
 66
     1
 10
0.0
 20
0.0
 30
0.0
 70
     8
  0
VERTEX
  5
77F
  8
TEAM-NET
 10
-15.451471
 20
-227.66184
 30
690.391501
 70
    32
  0
VERTEX
  5
780
  8
TEAM-NET
 10
-15.183236
 20
-227.390252
 30
688.476368
 70
    32
  0
VERTEX
  5
781
  8
TEAM-NET
 10
-14.420167
 20
-226.617645
 30
686.854596
 70
    32
  0
VERTEX
  5
782
  8
TEAM-NET
 10
-13.278273
 20
-225.461477
 30
685.771279
 70
    32
  0
VERTEX
  5
783
  8
TEAM-NET
 10
-11.932724
 20
-224.099109
 30
685.391501
 70
    32
  0
SEQEND
  5
784
  8
TEAM-NET
  0
POLYLINE
  5
6C
  8
TEAM-NET
 66
     1
 10
0.0
 20
0.0
 30
0.0
 70
     8
  0
VERTEX
  5
785
  8
TEAM-NET
 10
14.221535
 20
-228.891777
 30
690.391501
 70
    32
  0
VERTEX
  5
786
  8
TEAM-NET
 10
13.949947
 20
-228.623542
 30
688.476368
 70
    32
  0
VERTEX
  5
787
  8
TEAM-NET
 10
13.177339
 20
-227.860473
 30
686.854596
 70
    32
  0
VERTEX
  5
788
  8
TEAM-NET
 10
12.021172
 20
-226.718579
 30
685.771279
 70
    32
  0
VERTEX
  5
789
  8
TEAM-NET
 10
10.658804
 20
-225.37303
 30
685.391501
 70
    32
  0
SEQEND
  5
78A
  8
TEAM-NET
  0
POLYLINE
  5
6D
  8
TEAM-NET
 66
     1
 10
0.0
 20
0.0
 30
0.0
 70
     8
  0
VERTEX
  5
78B
  8
TEAM-NET
 10
15.451471
 20
-199.218771
 30
690.391501
 70
    32
  0
VERTEX
  5
78C
  8
TEAM-NET
 10
15.183236
 20
-199.490359
 30
688.476368
 70
    32
  0
VERTEX
  5
78D
  8
TEAM-NET
 10
14.420167
 20
-200.262967
 30
686.854596
 70
    32
  0
VERTEX
  5
78E
  8
TEAM-NET
 10
13.278273
 20
-201.419134
 30
685.771279
 70
    32
  0
VERTEX
  5
78F
  8
TEAM-NET
 10
11.932724
 20
-202.781502
 30
685.391501
 70
    32
  0
SEQEND
  5
790
  8
TEAM-NET
  0
POLYLINE
  5
6E
  8
TEAM-NET
 66
     1
 10
0.0
 20
0.0
 30
0.0
 70
     8
  0
VERTEX
  5
791
  8
TEAM-NET
 10
-14.221535
 20
-197.988835
 30
690.391501
 70
    32
  0
VERTEX
  5
792
  8
TEAM-NET
 10
-13.949947
 20
-198.25707
 30
688.476368
 70
    32
  0
VERTEX
  5
793
  8
TEAM-NET
 10
-13.177339
 20
-199.020139
 30
686.854596
 70
    32
  0
VERTEX
  5
794
  8
TEAM-NET
 10
-12.021172
 20
-200.162033
 30
685.771279
 70
    32
  0
VERTEX
  5
795
  8
TEAM-NET
 10
-10.658804
 20
-201.507581
 30
685.391501
 70
    32
  0
SEQEND
  5
796
  8
TEAM-NET
  0
POLYLINE
  5
6F
  8
TEAM-NET
 66
     1
 10
0.0
 20
0.0
 30
0.0
 70
     8
  0
VERTEX
  5
797
  8
TEAM-NET
 10
-10.509754
 20
-225.504512
 30
685.391501
 70
    32
  0
VERTEX
  5
798
  8
TEAM-NET
 10
-11.856021
 20
-226.867607
 30
685.77163
 70
    32
  0
VERTEX
  5
799
  8
TEAM-NET
 10
-12.997202
 20
-228.023052
 30
686.854603
 70
    32
  0
VERTEX
  5
79A
  8
TEAM-NET
 10
-13.760562
 20
-228.795954
 30
688.477389
 70
    32
  0
VERTEX
  5
79B
  8
TEAM-NET
 10
-14.028501
 20
-229.067243
 30
690.391501
 70
    32
  0
SEQEND
  5
79C
  8
TEAM-NET
  0
POLYLINE
  5
70
  8
TEAM-NET
 66
     1
 10
0.0
 20
0.0
 30
0.0
 70
     8
  0
VERTEX
  5
79D
  8
TEAM-NET
 10
-15.451471
 20
-227.66184
 30
690.391501
 70
    32
  0
VERTEX
  5
79E
  8
TEAM-NET
 10
-15.183236
 20
-227.390252
 30
688.476368
 70
    32
  0
VERTEX
  5
79F
  8
TEAM-NET
 10
-14.420167
 20
-226.617645
 30
686.854596
 70
    32
  0
VERTEX
  5
7A0
  8
TEAM-NET
 10
-13.278273
 20
-225.461477
 30
685.771279
 70
    32
  0
VERTEX
  5
7A1
  8
TEAM-NET
 10
-11.932724
 20
-224.099109
 30
685.391501
 70
    32
  0
SEQEND
  5
7A2
  8
TEAM-NET
  0
POLYLINE
  5
71
  8
TEAM-NET
 66
     1
 10
0.0
 20
0.0
 30
0.0
 70
     8
  0
VERTEX
  5
7A3
  8
TEAM-NET
 10
12.064206
 20
-223.95006
 30
685.391501
 70
    32
  0
VERTEX
  5
7A4
  8
TEAM-NET
 10
13.427301
 20
-225.296326
 30
685.77163
 70
    32
  0
VERTEX
  5
7A5
  8
TEAM-NET
 10
14.582747
 20
-226.437507
 30
686.854603
 70
    32
  0
VERTEX
  5
7A6
  8
TEAM-NET
 10
15.355649
 20
-227.200867
 30
688.477389
 70
    32
  0
VERTEX
  5
7A7
  8
TEAM-NET
 10
15.626937
 20
-227.468807
 30
690.391501
 70
    32
  0
SEQEND
  5
7A8
  8
TEAM-NET
  0
POLYLINE
  5
72
  8
TEAM-NET
 66
     1
 10
0.0
 20
0.0
 30
0.0
 70
     8
  0
VERTEX
  5
7A9
  8
TEAM-NET
 10
14.221535
 20
-228.891777
 30
690.391501
 70
    32
  0
VERTEX
  5
7AA
  8
TEAM-NET
 10
13.949947
 20
-228.623542
 30
688.476368
 70
    32
  0
VERTEX
  5
7AB
  8
TEAM-NET
 10
13.177339
 20
-227.860473
 30
686.854596
 70
    32
  0
VERTEX
  5
7AC
  8
TEAM-NET
 10
12.021172
 20
-226.718579
 30
685.771279
 70
    32
  0
VERTEX
  5
7AD
  8
TEAM-NET
 10
10.658804
 20
-225.37303
 30
685.391501
 70
    32
  0
SEQEND
  5
7AE
  8
TEAM-NET
  0
POLYLINE
  5
73
  8
TEAM-NET
 66
     1
 10
0.0
 20
0.0
 30
0.0
 70
     8
  0
VERTEX
  5
7AF
  8
TEAM-NET
 10
10.509754
 20
-201.3761
 30
685.391501
 70
    32
  0
VERTEX
  5
7B0
  8
TEAM-NET
 10
11.856021
 20
-200.013005
 30
685.77163
 70
    32
  0
VERTEX
  5
7B1
  8
TEAM-NET
 10
12.997202
 20
-198.857559
 30
686.854603
 70
    32
  0
VERTEX
  5
7B2
  8
TEAM-NET
 10
13.760562
 20
-198.084657
 30
688.477389
 70
    32
  0
VERTEX
  5
7B3
  8
TEAM-NET
 10
14.028501
 20
-197.813369
 30
690.391501
 70
    32
  0
SEQEND
  5
7B4
  8
TEAM-NET
  0
POLYLINE
  5
74
  8
TEAM-NET
 66
     1
 10
0.0
 20
0.0
 30
0.0
 70
     8
  0
VERTEX
  5
7B5
  8
TEAM-NET
 10
15.451471
 20
-199.218771
 30
690.391501
 70
    32
  0
VERTEX
  5
7B6
  8
TEAM-NET
 10
15.183236
 20
-199.490359
 30
688.476368
 70
    32
  0
VERTEX
  5
7B7
  8
TEAM-NET
 10
14.420167
 20
-200.262967
 30
686.854596
 70
    32
  0
VERTEX
  5
7B8
  8
TEAM-NET
 10
13.278273
 20
-201.419134
 30
685.771279
 70
    32
  0
VERTEX
  5
7B9
  8
TEAM-NET
 10
11.932724
 20
-202.781502
 30
685.391501
 70
    32
  0
SEQEND
  5
7BA
  8
TEAM-NET
  0
POLYLINE
  5
75
  8
TEAM-NET
 66
     1
 10
0.0
 20
0.0
 30
0.0
 70
     8
  0
VERTEX
  5
7BB
  8
TEAM-NET
 10
-12.064206
 20
-202.930552
 30
685.391501
 70
    32
  0
VERTEX
  5
7BC
  8
TEAM-NET
 10
-13.427301
 20
-201.584285
 30
685.77163
 70
    32
  0
VERTEX
  5
7BD
  8
TEAM-NET
 10
-14.582747
 20
-200.443104
 30
686.854603
 70
    32
  0
VERTEX
  5
7BE
  8
TEAM-NET
 10
-15.355649
 20
-199.679744
 30
688.477389
 70
    32
  0
VERTEX
  5
7BF
  8
TEAM-NET
 10
-15.626937
 20
-199.411805
 30
690.391501
 70
    32
  0
SEQEND
  5
7C0
  8
TEAM-NET
  0
POLYLINE
  5
76
  8
TEAM-NET
 66
     1
 10
0.0
 20
0.0
 30
0.0
 70
     8
  0
VERTEX
  5
7C1
  8
TEAM-NET
 10
-14.221535
 20
-197.988835
 30
690.391501
 70
    32
  0
VERTEX
  5
7C2
  8
TEAM-NET
 10
-13.949947
 20
-198.25707
 30
688.476368
 70
    32
  0
VERTEX
  5
7C3
  8
TEAM-NET
 10
-13.177339
 20
-199.020139
 30
686.854596
 70
    32
  0
VERTEX
  5
7C4
  8
TEAM-NET
 10
-12.021172
 20
-200.162033
 30
685.771279
 70
    32
  0
VERTEX
  5
7C5
  8
TEAM-NET
 10
-10.658804
 20
-201.507581
 30
685.391501
 70
    32
  0
SEQEND
  5
7C6
  8
TEAM-NET
  0
LINE
  5
77
  8
TEAM-NET
 10
21.0
 20
-213.440306
 30
713.529763
 11
21.0
 21
-213.440306
 31
683.687382
  0
LINE
  5
78
  8
TEAM-NET
 10
-21.0
 20
-213.440306
 30
713.529763
 11
-21.0
 21
-213.440306
 31
683.687382
  0
LINE
  5
79
  8
TEAM-NET
 10
22.0
 20
-213.440306
 30
713.687382
 11
22.0
 21
-213.440306
 31
683.687382
  0
LINE
  5
7A
  8
TEAM-NET
 10
-22.0
 20
-213.440306
 30
713.687382
 11
-22.0
 21
-213.440306
 31
683.687382
  0
LINE
  5
7B
  8
TEAM-NET
 10
22.0
 20
-213.440306
 30
713.687382
 11
22.0
 21
-213.440306
 31
683.687382
  0
LINE
  5
7C
  8
TEAM-NET
 10
-22.0
 20
-213.440306
 30
713.687382
 11
-22.0
 21
-213.440306
 31
683.687382
  0
LINE
  5
7D
  8
TEAM-NET
 10
21.0
 20
-213.440306
 30
713.529763
 11
21.0
 21
-213.440306
 31
683.687382
  0
LINE
  5
7E
  8
TEAM-NET
 10
-21.0
 20
-213.440306
 30
713.529763
 11
-21.0
 21
-213.440306
 31
683.687382
  0
LINE
  5
7F
  8
TEAM-NET
 10
26.0
 20
-213.440306
 30
670.0
 11
26.0
 21
-213.440306
 31
714.092101
  0
LINE
  5
80
  8
TEAM-NET
 10
-26.0
 20
-213.440306
 30
670.0
 11
-26.0
 21
-213.440306
 31
714.092101
  0
LINE
  5
81
  8
TEAM-NET
 10
26.0
 20
-213.440306
 30
670.0
 11
26.0
 21
-213.440306
 31
714.092101
  0
LINE
  5
82
  8
TEAM-NET
 10
-26.0
 20
-213.440306
 30
670.0
 11
-26.0
 21
-213.440306
 31
714.092101
  0
LINE
  5
83
  8
TEAM-NET
 10
-3.506501
 20
-208.571584
 30
685.391501
 11
-3.506501
 21
-208.571584
 31
725.391501
210
0.702701
220
0.711485
230
0.0
  0
LINE
  5
84
  8
TEAM-NET
 10
4.868722
 20
-209.933805
 30
685.391501
 11
4.868722
 21
-209.933805
 31
725.391501
210
0.711485
220
-0.702701
230
0.0
  0
LINE
  5
85
  8
TEAM-NET
 10
3.506501
 20
-218.309027
 30
685.391501
 11
3.506501
 21
-218.309027
 31
725.391501
210
-0.702701
220
-0.711485
230
0.0
  0
LINE
  5
86
  8
TEAM-NET
 10
-4.868722
 20
-216.946807
 30
725.391501
 11
-4.868722
 21
-216.946807
 31
685.391501
210
-0.711485
220
0.702701
230
-0.0
  0
LINE
  5
87
  8
TEAM-NET
 10
4.911903
 20
-216.886057
 30
725.391501
 11
4.911903
 21
-216.886057
 31
685.391501
210
0.702701
220
0.711485
230
0.0
  0
LINE
  5
88
  8
TEAM-NET
 10
-3.445752
 20
-218.352209
 30
725.391501
 11
-3.445752
 21
-218.352209
 31
685.391501
  0
LINE
  5
89
  8
TEAM-NET
 10
3.506501
 20
-218.309027
 30
685.391501
 11
3.506501
 21
-218.309027
 31
725.391501
  0
LINE
  5
8A
  8
TEAM-NET
 10
3.445752
 20
-208.528402
 30
725.391501
 11
3.445752
 21
-208.528402
 31
685.391501
210
-0.711485
220
0.702701
230
-0.0
  0
LINE
  5
8B
  8
TEAM-NET
 10
4.868722
 20
-209.933805
 30
685.391501
 11
4.868722
 21
-209.933805
 31
725.391501
  0
LINE
  5
8C
  8
TEAM-NET
 10
4.911903
 20
-216.886057
 30
725.391501
 11
4.911903
 21
-216.886057
 31
685.391501
  0
LINE
  5
8D
  8
TEAM-NET
 10
-4.911903
 20
-209.994554
 30
725.391501
 11
-4.911903
 21
-209.994554
 31
685.391501
210
-0.702701
220
-0.711485
230
0.0
  0
LINE
  5
8E
  8
TEAM-NET
 10
-4.868722
 20
-216.946807
 30
725.391501
 11
-4.868722
 21
-216.946807
 31
685.391501
  0
LINE
  5
8F
  8
TEAM-NET
 10
-4.911903
 20
-209.994554
 30
725.391501
 11
-4.911903
 21
-209.994554
 31
685.391501
  0
LINE
  5
90
  8
TEAM-NET
 10
-3.506501
 20
-208.571584
 30
685.391501
 11
-3.506501
 21
-208.571584
 31
725.391501
  0
LINE
  5
91
  8
TEAM-NET
 10
3.445752
 20
-208.528402
 30
725.391501
 11
3.445752
 21
-208.528402
 31
685.391501
  0
LINE
  5
92
  8
TEAM-NET
 10
-3.445752
 20
-218.352209
 30
725.391501
 11
-3.445752
 21
-218.352209
 31
685.391501
210
0.711485
220
-0.702701
230
0.0
  0
ARC
  5
93
  8
TEAM-NET
 10
0.0
 20
-213.440306
 30
688.0
 40
37.5
 50
360.0
 51
180.0
  0
ARC
  5
94
  8
TEAM-NET
 10
0.0
 20
-213.440306
 30
688.0
 40
37.5
 50
180.0
 51
0.0
  0
ARC
  5
95
  8
TEAM-NET
 10
0.0
 20
-213.440306
 30
685.391501
 40
16.0
 50
131.772548
 51
138.939192
  0
ARC
  5
96
  8
TEAM-NET
 10
0.0
 20
-213.440306
 30
685.391501
 40
16.0
 50
41.772548
 51
48.939192
  0
ARC
  5
97
  8
TEAM-NET
 10
0.0
 20
-213.440306
 30
685.391501
 40
16.0
 50
311.772548
 51
318.939192
  0
ARC
  5
98
  8
TEAM-NET
 10
0.0
 20
-213.440306
 30
685.391501
 40
16.0
 50
221.772548
 51
228.939192
  0
ARC
  5
99
  8
TEAM-NET
 10
0.0
 20
-213.440306
 30
-685.391501
 40
16.0
210
0.0
220
-0.0
230
-1.0
 50
221.060808
 51
228.227452
  0
LINE
  5
9A
  8
TEAM-NET
 10
3.506501
 20
-218.309027
 30
685.391501
 11
10.658804
 21
-225.37303
 31
685.391501
210
0.0
220
-0.0
230
-1.0
  0
LINE
  5
9B
  8
TEAM-NET
 10
12.064206
 20
-223.95006
 30
685.391501
 11
4.911903
 21
-216.886057
 31
685.391501
210
0.0
220
-0.0
230
-1.0
  0
ARC
  5
9C
  8
TEAM-NET
 10
0.0
 20
-213.440306
 30
-685.391501
 40
6.0
210
0.0
220
-0.0
230
-1.0
 50
234.238198
 51
305.050062
  0
ARC
  5
9D
  8
TEAM-NET
 10
0.0
 20
-213.440306
 30
-685.391501
 40
6.0
210
0.0
220
-0.0
230
-1.0
 50
144.238198
 51
215.050062
  0
LINE
  5
9E
  8
TEAM-NET
 10
-10.509754
 20
-225.504512
 30
685.391501
 11
-3.445752
 21
-218.352209
 31
685.391501
210
0.0
220
-0.0
230
-1.0
  0
LINE
  5
9F
  8
TEAM-NET
 10
4.868722
 20
-209.933805
 30
685.391501
 11
11.932724
 21
-202.781502
 31
685.391501
210
0.0
220
-0.0
230
-1.0
  0
ARC
  5
A0
  8
TEAM-NET
 10
0.0
 20
-213.440306
 30
-685.391501
 40
16.0
210
0.0
220
-0.0
230
-1.0
 50
311.060808
 51
318.227452
  0
ARC
  5
A1
  8
TEAM-NET
 10
0.0
 20
-213.440306
 30
-685.391501
 40
16.0
210
0.0
220
-0.0
230
-1.0
 50
131.060808
 51
138.227452
  0
LINE
  5
A2
  8
TEAM-NET
 10
-4.868722
 20
-216.946807
 30
685.391501
 11
-11.932724
 21
-224.099109
 31
685.391501
210
0.0
220
-0.0
230
-1.0
  0
LINE
  5
A3
  8
TEAM-NET
 10
10.509754
 20
-201.3761
 30
685.391501
 11
3.445752
 21
-208.528402
 31
685.391501
210
0.0
220
-0.0
230
-1.0
  0
ARC
  5
A4
  8
TEAM-NET
 10
0.0
 20
-213.440306
 30
-685.391501
 40
6.0
210
0.0
220
-0.0
230
-1.0
 50
324.238198
 51
35.050062
  0
ARC
  5
A5
  8
TEAM-NET
 10
0.0
 20
-213.440306
 30
-685.391501
 40
6.0
210
0.0
220
-0.0
230
-1.0
 50
54.238198
 51
125.050062
  0
LINE
  5
A6
  8
TEAM-NET
 10
-12.064206
 20
-202.930552
 30
685.391501
 11
-4.911903
 21
-209.994554
 31
685.391501
210
0.0
220
-0.0
230
-1.0
  0
LINE
  5
A7
  8
TEAM-NET
 10
-3.506501
 20
-208.571584
 30
685.391501
 11
-10.658804
 21
-201.507581
 31
685.391501
210
0.0
220
-0.0
230
-1.0
  0
ARC
  5
A8
  8
TEAM-NET
 10
0.0
 20
-213.440306
 30
-685.391501
 40
16.0
210
0.0
220
-0.0
230
-1.0
 50
41.060808
 51
48.227452
  0
ARC
  5
A9
  8
TEAM-NET
 10
0.0
 20
-213.440306
 30
-683.687382
 40
21.0
210
0.0
220
-0.0
230
-1.0
 50
0.0
 51
180.0
  0
ARC
  5
AA
  8
TEAM-NET
 10
0.0
 20
-213.440306
 30
-683.687382
 40
21.0
210
0.0
220
-0.0
230
-1.0
 50
180.0
 51
0.0
  0
ARC
  5
AB
  8
TEAM-NET
 10
0.0
 20
-213.440306
 30
-683.687382
 40
22.0
210
0.0
220
-0.0
230
-1.0
 50
0.0
 51
180.0
  0
ARC
  5
AC
  8
TEAM-NET
 10
0.0
 20
-213.440306
 30
-683.687382
 40
22.0
210
0.0
220
-0.0
230
-1.0
 50
180.0
 51
0.0
  0
ARC
  5
AD
  8
TEAM-NET
 10
0.0
 20
-213.440306
 30
683.687382
 40
21.0
 50
180.0
 51
0.0
  0
ARC
  5
AE
  8
TEAM-NET
 10
0.0
 20
-213.440306
 30
683.687382
 40
22.0
 50
360.0
 51
180.0
  0
ARC
  5
AF
  8
TEAM-NET
 10
0.0
 20
-213.440306
 30
683.687382
 40
22.0
 50
180.0
 51
0.0
  0
ARC
  5
B0
  8
TEAM-NET
 10
0.0
 20
-213.440306
 30
683.687382
 40
21.0
 50
360.0
 51
180.0
  0
ARC
  5
B1
  8
TEAM-NET
 10
0.0
 20
-213.440306
 30
688.0
 40
37.5
 50
360.0
 51
180.0
  0
ARC
  5
B2
  8
TEAM-NET
 10
0.0
 20
-213.440306
 30
688.0
 40
37.5
 50
180.0
 51
0.0
  0
LINE
  5
B3
  8
TEAM-NET
 10
-3.506501
 20
-208.571584
 30
685.391501
 11
-10.658804
 21
-201.507581
 31
685.391501
210
0.702701
220
0.711485
230
0.0
  0
LINE
  5
B4
  8
TEAM-NET
 10
4.868722
 20
-209.933805
 30
685.391501
 11
11.932724
 21
-202.781502
 31
685.391501
210
0.711485
220
-0.702701
230
0.0
  0
LINE
  5
B5
  8
TEAM-NET
 10
3.506501
 20
-218.309027
 30
685.391501
 11
10.658804
 21
-225.37303
 31
685.391501
210
-0.702701
220
-0.711485
230
0.0
  0
LINE
  5
B6
  8
TEAM-NET
 10
-4.868722
 20
-216.946807
 30
685.391501
 11
-11.932724
 21
-224.099109
 31
685.391501
210
-0.711485
220
0.702701
230
-0.0
  0
LINE
  5
B7
  8
TEAM-NET
 10
12.064206
 20
-223.95006
 30
685.391501
 11
4.911903
 21
-216.886057
 31
685.391501
210
0.702701
220
0.711485
230
0.0
  0
ARC
  5
B8
  8
TEAM-NET
 10
0.0
 20
-213.440306
 30
685.391501
 40
6.0
 50
234.949938
 51
305.761802
  0
LINE
  5
B9
  8
TEAM-NET
 10
10.509754
 20
-201.3761
 30
685.391501
 11
3.445752
 21
-208.528402
 31
685.391501
210
-0.711485
220
0.702701
230
-0.0
  0
ARC
  5
BA
  8
TEAM-NET
 10
0.0
 20
-213.440306
 30
685.391501
 40
6.0
 50
324.949938
 51
35.761802
  0
LINE
  5
BB
  8
TEAM-NET
 10
-12.064206
 20
-202.930552
 30
685.391501
 11
-4.911903
 21
-209.994554
 31
685.391501
210
-0.702701
220
-0.711485
230
0.0
  0
ARC
  5
BC
  8
TEAM-NET
 10
0.0
 20
-213.440306
 30
685.391501
 40
6.0
 50
144.949938
 51
215.761802
  0
ARC
  5
BD
  8
TEAM-NET
 10
0.0
 20
-213.440306
 30
685.391501
 40
6.0
 50
54.949938
 51
125.761802
  0
LINE
  5
BE
  8
TEAM-NET
 10
-10.509754
 20
-225.504512
 30
685.391501
 11
-3.445752
 21
-218.352209
 31
685.391501
210
0.711485
220
-0.702701
230
0.0
  0
ARC
  5
BF
  8
TEAM-NET
 10
0.0
 20
-213.440306
 30
-670.0
 40
26.0
210
0.0
220
0.0
230
-1.0
 50
180.0
 51
0.0
  0
ARC
  5
C0
  8
TEAM-NET
 10
0.0
 20
-213.440306
 30
-670.0
 40
26.0
210
0.0
220
0.0
230
-1.0
 50
0.0
 51
180.0
  0
ARC
  5
C1
  8
TEAM-NET
 10
0.0
 20
-213.440306
 30
-670.0
 40
37.5
210
0.0
220
0.0
230
-1.0
 50
360.0
 51
180.0
  0
ARC
  5
C2
  8
TEAM-NET
 10
0.0
 20
-213.440306
 30
-670.0
 40
37.5
210
0.0
220
0.0
230
-1.0
 50
180.0
 51
0.0
  0
ARC
  5
C3
  8
TEAM-NET
 10
0.0
 20
-213.440306
 30
670.0
 40
37.5
 50
0.0
 51
180.0
  0
ARC
  5
C4
  8
TEAM-NET
 10
0.0
 20
-213.440306
 30
-670.0
 40
26.0
210
0.0
220
0.0
230
-1.0
 50
0.0
 51
180.0
  0
ARC
  5
C5
  8
TEAM-NET
 10
0.0
 20
-213.440306
 30
-670.0
 40
26.0
210
0.0
220
0.0
230
-1.0
 50
180.0
 51
0.0
  0
ARC
  5
C6
  8
TEAM-NET
 10
0.0
 20
-213.440306
 30
670.0
 40
37.5
 50
180.0
 51
0.0
  0
LINE
  5
C7
  8
TEAM-NET
 10
-37.5
 20
-213.440306
 30
670.0
 11
-37.5
 21
-213.440306
 31
688.0
  0
LINE
  5
C8
  8
TEAM-NET
 10
37.5
 20
-213.440306
 30
670.0
 11
37.5
 21
-213.440306
 31
688.0
  0
LINE
  5
C9
  8
TEAM-NET
 10
-37.5
 20
-213.440306
 30
670.0
 11
-37.5
 21
-213.440306
 31
688.0
  0
LINE
  5
CA
  8
TEAM-NET
 10
37.5
 20
-213.440306
 30
670.0
 11
37.5
 21
-213.440306
 31
688.0
  0
LINE
  5
CB
  8
TEAM-NET
 10
-14.221535
 20
-197.988835
 30
725.391501
 11
-14.221535
 21
-197.988835
 31
690.391501
210
0.702701
220
0.711485
230
0.0
  0
LINE
  5
CC
  8
TEAM-NET
 10
-14.221535
 20
-197.988835
 30
725.391501
 11
-14.221535
 21
-197.988835
 31
690.391501
  0
LINE
  5
CD
  8
TEAM-NET
 10
-15.626937
 20
-199.411805
 30
725.391501
 11
-15.626937
 21
-199.411805
 31
690.391501
  0
LINE
  5
CE
  8
TEAM-NET
 10
15.451471
 20
-199.218771
 30
725.391501
 11
15.451471
 21
-199.218771
 31
690.391501
210
0.711485
220
-0.702701
230
0.0
  0
LINE
  5
CF
  8
TEAM-NET
 10
15.451471
 20
-199.218771
 30
725.391501
 11
15.451471
 21
-199.218771
 31
690.391501
  0
LINE
  5
D0
  8
TEAM-NET
 10
14.028501
 20
-197.813369
 30
725.391501
 11
14.028501
 21
-197.813369
 31
690.391501
  0
LINE
  5
D1
  8
TEAM-NET
 10
14.221535
 20
-228.891777
 30
725.391501
 11
14.221535
 21
-228.891777
 31
690.391501
210
-0.702701
220
-0.711485
230
0.0
  0
LINE
  5
D2
  8
TEAM-NET
 10
14.221535
 20
-228.891777
 30
725.391501
 11
14.221535
 21
-228.891777
 31
690.391501
  0
LINE
  5
D3
  8
TEAM-NET
 10
15.626937
 20
-227.468807
 30
725.391501
 11
15.626937
 21
-227.468807
 31
690.391501
  0
LINE
  5
D4
  8
TEAM-NET
 10
-15.451471
 20
-227.66184
 30
725.391501
 11
-15.451471
 21
-227.66184
 31
690.391501
210
-0.711485
220
0.702701
230
-0.0
  0
LINE
  5
D5
  8
TEAM-NET
 10
-15.451471
 20
-227.66184
 30
725.391501
 11
-15.451471
 21
-227.66184
 31
690.391501
  0
LINE
  5
D6
  8
TEAM-NET
 10
-14.028501
 20
-229.067243
 30
725.391501
 11
-14.028501
 21
-229.067243
 31
690.391501
  0
LINE
  5
D7
  8
TEAM-NET
 10
15.626937
 20
-227.468807
 30
725.391501
 11
15.626937
 21
-227.468807
 31
690.391501
210
0.702701
220
0.711485
230
0.0
  0
LINE
  5
D8
  8
TEAM-NET
 10
14.028501
 20
-197.813369
 30
725.391501
 11
14.028501
 21
-197.813369
 31
690.391501
210
-0.711485
220
0.702701
230
-0.0
  0
LINE
  5
D9
  8
TEAM-NET
 10
-15.626937
 20
-199.411805
 30
725.391501
 11
-15.626937
 21
-199.411805
 31
690.391501
210
-0.702701
220
-0.711485
230
0.0
  0
LINE
  5
DA
  8
TEAM-NET
 10
-14.028501
 20
-229.067243
 30
725.391501
 11
-14.028501
 21
-229.067243
 31
690.391501
210
0.711485
220
-0.702701
230
0.0
  0
LINE
  5
DB
  8
TEAM-NET
 10
185.0
 20
-108.440306
 30
702.0
 11
185.0
 21
-33.440306
 31
702.0
  0
LINE
  5
DC
  8
TEAM-NET
 10
185.0
 20
-108.440306
 30
702.0
 11
185.0
 21
-33.440306
 31
702.0
210
-1.0
220
0.0
230
0.0
  0
LINE
  5
DD
  8
TEAM-NET
 10
185.0
 20
-33.440306
 30
702.0
 11
-185.0
 21
-33.440306
 31
702.0
  0
LINE
  5
DE
  8
TEAM-NET
 10
-185.0
 20
-108.440306
 30
702.0
 11
185.0
 21
-108.440306
 31
702.0
  0
LINE
  5
DF
  8
TEAM-NET
 10
-185.0
 20
-108.440306
 30
702.0
 11
185.0
 21
-108.440306
 31
702.0
210
0.0
220
1.0
230
0.0
  0
LINE
  5
E0
  8
TEAM-NET
 10
185.0
 20
-33.440306
 30
702.0
 11
-185.0
 21
-33.440306
 31
702.0
210
0.0
220
-1.0
230
0.0
  0
LINE
  5
E1
  8
TEAM-NET
 10
-185.0
 20
-33.440306
 30
702.0
 11
-185.0
 21
-108.440306
 31
702.0
  0
LINE
  5
E2
  8
TEAM-NET
 10
-185.0
 20
-33.440306
 30
702.0
 11
-185.0
 21
-108.440306
 31
702.0
210
1.0
220
0.0
230
0.0
  0
ARC
  5
E3
  8
TEAM-NET
 10
0.0
 20
-213.440306
 30
-695.0
 40
44.5
210
0.0
220
0.0
230
-1.0
 50
0.0
 51
180.0
  0
ARC
  5
E4
  8
TEAM-NET
 10
0.0
 20
-213.440306
 30
-695.0
 40
44.5
210
0.0
220
0.0
230
-1.0
 50
0.0
 51
180.0
  0
ARC
  5
E5
  8
TEAM-NET
 10
0.0
 20
-213.440306
 30
-695.0
 40
44.5
210
0.0
220
0.0
230
-1.0
 50
180.0
 51
0.0
  0
ARC
  5
E6
  8
TEAM-NET
 10
0.0
 20
-213.440306
 30
-695.0
 40
44.5
210
0.0
220
0.0
230
-1.0
 50
180.0
 51
0.0
  0
ARC
  5
E7
  8
TEAM-NET
 10
0.0
 20
-213.440306
 30
-690.391501
 40
21.0
210
0.0
220
-0.0
230
-1.0
 50
41.914727
 51
47.373533
  0
ARC
  5
E8
  8
TEAM-NET
 10
0.0
 20
-213.440306
 30
-690.391501
 40
21.0
210
0.0
220
-0.0
230
-1.0
 50
131.914727
 51
137.373533
  0
ARC
  5
E9
  8
TEAM-NET
 10
0.0
 20
-213.440306
 30
-690.391501
 40
21.0
210
0.0
220
-0.0
230
-1.0
 50
221.914727
 51
227.373533
  0
ARC
  5
EA
  8
TEAM-NET
 10
0.0
 20
-213.440306
 30
-690.391501
 40
21.0
210
0.0
220
-0.0
230
-1.0
 50
311.914727
 51
317.373533
  0
ARC
  5
EB
  8
TEAM-NET
 10
0.0
 20
-213.440306
 30
-690.391501
 40
21.0
210
0.0
220
-0.0
230
-1.0
 50
41.914727
 51
47.373533
  0
ARC
  5
EC
  8
TEAM-NET
 10
0.0
 20
-213.440306
 30
-690.391501
 40
21.0
210
0.0
220
-0.0
230
-1.0
 50
131.914727
 51
137.373533
  0
ARC
  5
ED
  8
TEAM-NET
 10
0.0
 20
-213.440306
 30
-690.391501
 40
21.0
210
0.0
220
-0.0
230
-1.0
 50
221.914727
 51
227.373533
  0
ARC
  5
EE
  8
TEAM-NET
 10
0.0
 20
-213.440306
 30
-690.391501
 40
21.0
210
0.0
220
-0.0
230
-1.0
 50
311.914727
 51
317.373533
  0
ARC
  5
EF
  8
TEAM-NET
 10
194.78063
 20
725.0
 30
-1.559694
 40
30.0
210
0.0
220
-1.0
230
0.0
 50
270.0
 51
300.848241
  0
LINE
  5
F0
  8
TEAM-NET
 10
192.0
 20
-26.440306
 30
695.0
 11
192.0
 21
-115.440306
 31
695.0
210
0.0
220
0.0
230
-1.0
  0
LINE
  5
F1
  8
TEAM-NET
 10
192.0
 20
-26.440306
 30
695.0
 11
192.0
 21
-115.440306
 31
695.0
  0
ARC
  5
F2
  8
TEAM-NET
 10
-194.78063
 20
725.0
 30
1.559694
 40
30.0
210
0.0
220
1.0
230
0.0
 50
239.151759
 51
270.0
  0
LINE
  5
F3
  8
TEAM-NET
 10
-192.0
 20
-26.440306
 30
695.0
 11
192.0
 21
-26.440306
 31
695.0
210
0.0
220
0.0
230
-1.0
  0
LINE
  5
F4
  8
TEAM-NET
 10
192.0
 20
-115.440306
 30
695.0
 11
-192.0
 21
-115.440306
 31
695.0
210
0.0
220
0.0
230
-1.0
  0
LINE
  5
F5
  8
TEAM-NET
 10
194.78063
 20
1.559694
 30
695.0
 11
-193.775199
 21
1.559694
 31
695.0
210
0.0
220
0.0
230
-1.0
  0
LINE
  5
F6
  8
TEAM-NET
 10
-192.0
 20
-26.440306
 30
695.0
 11
192.0
 21
-26.440306
 31
695.0
  0
LINE
  5
F7
  8
TEAM-NET
 10
192.0
 20
-115.440306
 30
695.0
 11
-192.0
 21
-115.440306
 31
695.0
  0
LINE
  5
F8
  8
TEAM-NET
 10
194.78063
 20
1.559694
 30
695.0
 11
-193.775199
 21
1.559694
 31
695.0
210
0.0
220
1.0
230
0.0
  0
ARC
  5
F9
  8
TEAM-NET
 10
-193.775199
 20
725.0
 30
-1.559694
 40
30.0
210
0.0
220
-1.0
230
0.0
 50
235.635446
 51
270.0
  0
LINE
  5
FA
  8
TEAM-NET
 10
-192.0
 20
-115.440306
 30
695.0
 11
-192.0
 21
-26.440306
 31
695.0
210
0.0
220
0.0
230
-1.0
  0
LINE
  5
FB
  8
TEAM-NET
 10
-192.0
 20
-115.440306
 30
695.0
 11
-192.0
 21
-26.440306
 31
695.0
  0
ARC
  5
FC
  8
TEAM-NET
 10
193.775199
 20
725.0
 30
1.559694
 40
30.0
210
0.0
220
1.0
230
0.0
 50
270.0
 51
304.364554
  0
ARC
  5
FD
  8
TEAM-NET
 10
-193.775199
 20
725.0
 30
362.591569
 40
30.0
210
0.0
220
-1.0
230
0.0
 50
235.635446
 51
270.0
  0
ARC
  5
FE
  8
TEAM-NET
 10
8.367658
 20
557.159428
 30
619.798215
 40
30.0
210
-0.463918
220
-0.827131
230
0.31723
 50
240.507638
 51
280.088883
  0
ARC
  5
FF
  8
TEAM-NET
 10
362.591569
 20
725.0
 30
193.775199
 40
30.0
210
-1.0
220
-0.0
230
0.0
 50
270.0
 51
290.983359
  0
ARC
  5
100
  8
TEAM-NET
 10
362.591569
 20
725.0
 30
193.775199
 40
30.0
210
-1.0
220
-0.0
230
0.0
 50
270.0
 51
290.983359
  0
ARC
  5
101
  8
TEAM-NET
 10
-193.775199
 20
725.0
 30
362.591569
 40
30.0
210
0.0
220
-1.0
230
0.0
 50
235.635446
 51
270.0
  0
LINE
  5
102
  8
TEAM-NET
 10
-210.708892
 20
-362.591569
 30
700.236114
 11
-210.708892
 21
1.559694
 31
700.236114
  0
LINE
  5
103
  8
TEAM-NET
 10
-193.775199
 20
1.559694
 30
695.0
 11
-193.775199
 21
-362.591569
 31
695.0
  0
LINE
  5
104
  8
TEAM-NET
 10
-193.775199
 20
1.559694
 30
695.0
 11
-193.775199
 21
-362.591569
 31
695.0
210
0.0
220
0.0
230
-1.0
  0
ARC
  5
105
  8
TEAM-NET
 10
8.367658
 20
557.159428
 30
619.798215
 40
30.0
210
-0.463918
220
-0.827131
230
0.31723
 50
240.507638
 51
280.088883
  0
LINE
  5
106
  8
TEAM-NET
 10
-210.708892
 20
-362.591569
 30
700.236114
 11
-210.708892
 21
1.559694
 31
700.236114
  0
LINE
  5
107
  8
TEAM-NET
 10
-193.775199
 20
-362.591569
 30
695.0
 11
194.78063
 21
-362.591569
 31
695.0
  0
LINE
  5
108
  8
TEAM-NET
 10
194.78063
 20
-373.334473
 30
696.989466
 11
-193.775199
 21
-373.334473
 31
696.989466
  0
LINE
  5
109
  8
TEAM-NET
 10
-193.775199
 20
-362.591569
 30
695.0
 11
194.78063
 21
-362.591569
 31
695.0
210
0.0
220
0.0
230
-1.0
  0
LINE
  5
10A
  8
TEAM-NET
 10
194.78063
 20
-373.334473
 30
696.989466
 11
-193.775199
 21
-373.334473
 31
696.989466
  0
ARC
  5
10B
  8
TEAM-NET
 10
194.78063
 20
725.0
 30
362.591569
 40
30.0
210
-0.0
220
-1.0
230
0.0
 50
270.0
 51
300.848241
  0
ARC
  5
10C
  8
TEAM-NET
 10
362.591569
 20
725.0
 30
-194.78063
 40
30.0
210
-1.0
220
0.0
230
0.0
 50
270.0
 51
290.983359
  0
ARC
  5
10D
  8
TEAM-NET
 10
32.023212
 20
563.931951
 30
-613.182199
 40
30.0
210
-0.514221
220
0.800782
230
-0.307124
 50
244.439332
 51
281.156677
  0
ARC
  5
10E
  8
TEAM-NET
 10
362.591569
 20
725.0
 30
-194.78063
 40
30.0
210
-1.0
220
0.0
230
0.0
 50
270.0
 51
290.983359
  0
ARC
  5
10F
  8
TEAM-NET
 10
194.78063
 20
725.0
 30
362.591569
 40
30.0
210
-0.0
220
-1.0
230
0.0
 50
270.0
 51
300.848241
  0
LINE
  5
110
  8
TEAM-NET
 10
194.78063
 20
-362.591569
 30
695.0
 11
194.78063
 21
1.559694
 31
695.0
  0
LINE
  5
111
  8
TEAM-NET
 10
210.163607
 20
1.559694
 30
699.244146
 11
210.163607
 21
-362.591569
 31
699.244146
  0
LINE
  5
112
  8
TEAM-NET
 10
194.78063
 20
-362.591569
 30
695.0
 11
194.78063
 21
1.559694
 31
695.0
210
0.0
220
0.0
230
-1.0
  0
ARC
  5
113
  8
TEAM-NET
 10
32.023212
 20
563.931951
 30
-613.182199
 40
30.0
210
-0.514221
220
0.800782
230
-0.307124
 50
244.439332
 51
281.156677
  0
LINE
  5
114
  8
TEAM-NET
 10
210.163607
 20
1.559694
 30
699.244146
 11
210.163607
 21
-362.591569
 31
699.244146
  0
POLYLINE
  5
115
  8
TEAM-NET
 66
     1
 10
0.0
 20
0.0
 30
54.135879
 70
   128
210
0.707107
220
0.707107
230
-0.0
  0
VERTEX
  5
EF4
  8
TEAM-NET
 10
-217.393125
 20
695.0
 30
54.135879
  0
VERTEX
  5
EF5
  8
TEAM-NET
 10
-215.674096
 20
695.106346
 30
54.135879
  0
VERTEX
  5
EF6
  8
TEAM-NET
 10
-214.007298
 20
695.422152
 30
54.135879
  0
VERTEX
  5
EF7
  8
TEAM-NET
 10
-212.443378
 20
695.937822
 30
54.135879
  0
VERTEX
  5
EF8
  8
TEAM-NET
 10
-211.029852
 20
696.637689
 30
54.135879
  0
VERTEX
  5
EF9
  8
TEAM-NET
 10
-209.809672
 20
697.500487
 30
54.135879
  0
VERTEX
  5
EFA
  8
TEAM-NET
 10
-208.819911
 20
698.5
 30
54.135879
  0
VERTEX
  5
EFB
  8
TEAM-NET
 10
-208.090643
 20
699.605859
 30
54.135879
  0
VERTEX
  5
EFC
  8
TEAM-NET
 10
-207.644026
 20
700.784463
 30
54.135879
  0
VERTEX
  5
EFD
  8
TEAM-NET
 10
-207.49363
 20
702.0
 30
54.135879
  0
SEQEND
  5
EFE
  8
TEAM-NET
  0
POLYLINE
  5
116
  8
TEAM-NET
 66
     1
 10
0.0
 20
0.0
 30
54.135879
 70
   128
210
0.707107
220
0.707107
230
-0.0
  0
VERTEX
  5
EFF
  8
TEAM-NET
 10
-217.393125
 20
695.0
 30
54.135879
  0
VERTEX
  5
F00
  8
TEAM-NET
 10
-215.674096
 20
695.106346
 30
54.135879
  0
VERTEX
  5
F01
  8
TEAM-NET
 10
-214.007298
 20
695.422152
 30
54.135879
  0
VERTEX
  5
F02
  8
TEAM-NET
 10
-212.443378
 20
695.937822
 30
54.135879
  0
VERTEX
  5
F03
  8
TEAM-NET
 10
-211.029852
 20
696.637689
 30
54.135879
  0
VERTEX
  5
F04
  8
TEAM-NET
 10
-209.809672
 20
697.500487
 30
54.135879
  0
VERTEX
  5
F05
  8
TEAM-NET
 10
-208.819911
 20
698.5
 30
54.135879
  0
VERTEX
  5
F06
  8
TEAM-NET
 10
-208.090643
 20
699.605859
 30
54.135879
  0
VERTEX
  5
F07
  8
TEAM-NET
 10
-207.644026
 20
700.784463
 30
54.135879
  0
VERTEX
  5
F08
  8
TEAM-NET
 10
-207.49363
 20
702.0
 30
54.135879
  0
SEQEND
  5
F09
  8
TEAM-NET
  0
POLYLINE
  5
117
  8
TEAM-NET
 66
     1
 10
0.0
 20
0.0
 30
-154.460621
 70
   128
210
-0.707107
220
0.707107
230
0.0
  0
VERTEX
  5
F0A
  8
TEAM-NET
 10
-117.068383
 20
695.0
 30
-154.460621
  0
VERTEX
  5
F0B
  8
TEAM-NET
 10
-115.349353
 20
695.106346
 30
-154.460621
  0
VERTEX
  5
F0C
  8
TEAM-NET
 10
-113.682556
 20
695.422152
 30
-154.460621
  0
VERTEX
  5
F0D
  8
TEAM-NET
 10
-112.118635
 20
695.937822
 30
-154.460621
  0
VERTEX
  5
F0E
  8
TEAM-NET
 10
-110.70511
 20
696.637689
 30
-154.460621
  0
VERTEX
  5
F0F
  8
TEAM-NET
 10
-109.484929
 20
697.500487
 30
-154.460621
  0
VERTEX
  5
F10
  8
TEAM-NET
 10
-108.495168
 20
698.5
 30
-154.460621
  0
VERTEX
  5
F11
  8
TEAM-NET
 10
-107.7659
 20
699.605859
 30
-154.460621
  0
VERTEX
  5
F12
  8
TEAM-NET
 10
-107.319283
 20
700.784463
 30
-154.460621
  0
VERTEX
  5
F13
  8
TEAM-NET
 10
-107.168888
 20
702.0
 30
-154.460621
  0
SEQEND
  5
F14
  8
TEAM-NET
  0
POLYLINE
  5
118
  8
TEAM-NET
 66
     1
 10
0.0
 20
0.0
 30
-154.460621
 70
   128
210
-0.707107
220
0.707107
230
0.0
  0
VERTEX
  5
F15
  8
TEAM-NET
 10
-117.068383
 20
695.0
 30
-154.460621
  0
VERTEX
  5
F16
  8
TEAM-NET
 10
-115.349353
 20
695.106346
 30
-154.460621
  0
VERTEX
  5
F17
  8
TEAM-NET
 10
-113.682556
 20
695.422152
 30
-154.460621
  0
VERTEX
  5
F18
  8
TEAM-NET
 10
-112.118635
 20
695.937822
 30
-154.460621
  0
VERTEX
  5
F19
  8
TEAM-NET
 10
-110.70511
 20
696.637689
 30
-154.460621
  0
VERTEX
  5
F1A
  8
TEAM-NET
 10
-109.484929
 20
697.500487
 30
-154.460621
  0
VERTEX
  5
F1B
  8
TEAM-NET
 10
-108.495168
 20
698.5
 30
-154.460621
  0
VERTEX
  5
F1C
  8
TEAM-NET
 10
-107.7659
 20
699.605859
 30
-154.460621
  0
VERTEX
  5
F1D
  8
TEAM-NET
 10
-107.319283
 20
700.784463
 30
-154.460621
  0
VERTEX
  5
F1E
  8
TEAM-NET
 10
-107.168888
 20
702.0
 30
-154.460621
  0
SEQEND
  5
F1F
  8
TEAM-NET
  0
POLYLINE
  5
119
  8
TEAM-NET
 66
     1
 10
0.0
 20
0.0
 30
-54.135879
 70
   128
210
0.707107
220
-0.707107
230
-0.0
  0
VERTEX
  5
F20
  8
TEAM-NET
 10
-217.393125
 20
695.0
 30
-54.135879
  0
VERTEX
  5
F21
  8
TEAM-NET
 10
-215.674096
 20
695.106346
 30
-54.135879
  0
VERTEX
  5
F22
  8
TEAM-NET
 10
-214.007298
 20
695.422152
 30
-54.135879
  0
VERTEX
  5
F23
  8
TEAM-NET
 10
-212.443378
 20
695.937822
 30
-54.135879
  0
VERTEX
  5
F24
  8
TEAM-NET
 10
-211.029852
 20
696.637689
 30
-54.135879
  0
VERTEX
  5
F25
  8
TEAM-NET
 10
-209.809672
 20
697.500487
 30
-54.135879
  0
VERTEX
  5
F26
  8
TEAM-NET
 10
-208.819911
 20
698.5
 30
-54.135879
  0
VERTEX
  5
F27
  8
TEAM-NET
 10
-208.090643
 20
699.605859
 30
-54.135879
  0
VERTEX
  5
F28
  8
TEAM-NET
 10
-207.644026
 20
700.784463
 30
-54.135879
  0
VERTEX
  5
F29
  8
TEAM-NET
 10
-207.49363
 20
702.0
 30
-54.135879
  0
SEQEND
  5
F2A
  8
TEAM-NET
  0
POLYLINE
  5
11A
  8
TEAM-NET
 66
     1
 10
0.0
 20
0.0
 30
154.460621
 70
   128
210
-0.707107
220
-0.707107
230
0.0
  0
VERTEX
  5
F2B
  8
TEAM-NET
 10
-117.068383
 20
695.0
 30
154.460621
  0
VERTEX
  5
F2C
  8
TEAM-NET
 10
-115.349353
 20
695.106346
 30
154.460621
  0
VERTEX
  5
F2D
  8
TEAM-NET
 10
-113.682556
 20
695.422152
 30
154.460621
  0
VERTEX
  5
F2E
  8
TEAM-NET
 10
-112.118635
 20
695.937822
 30
154.460621
  0
VERTEX
  5
F2F
  8
TEAM-NET
 10
-110.70511
 20
696.637689
 30
154.460621
  0
VERTEX
  5
F30
  8
TEAM-NET
 10
-109.484929
 20
697.500487
 30
154.460621
  0
VERTEX
  5
F31
  8
TEAM-NET
 10
-108.495168
 20
698.5
 30
154.460621
  0
VERTEX
  5
F32
  8
TEAM-NET
 10
-107.7659
 20
699.605859
 30
154.460621
  0
VERTEX
  5
F33
  8
TEAM-NET
 10
-107.319283
 20
700.784463
 30
154.460621
  0
VERTEX
  5
F34
  8
TEAM-NET
 10
-107.168888
 20
702.0
 30
154.460621
  0
SEQEND
  5
F35
  8
TEAM-NET
  0
POLYLINE
  5
11B
  8
TEAM-NET
 66
     1
 10
0.0
 20
0.0
 30
154.460621
 70
   128
210
-0.707107
220
-0.707107
230
0.0
  0
VERTEX
  5
F36
  8
TEAM-NET
 10
-117.068383
 20
695.0
 30
154.460621
  0
VERTEX
  5
F37
  8
TEAM-NET
 10
-115.349353
 20
695.106346
 30
154.460621
  0
VERTEX
  5
F38
  8
TEAM-NET
 10
-113.682556
 20
695.422152
 30
154.460621
  0
VERTEX
  5
F39
  8
TEAM-NET
 10
-112.118635
 20
695.937822
 30
154.460621
  0
VERTEX
  5
F3A
  8
TEAM-NET
 10
-110.70511
 20
696.637689
 30
154.460621
  0
VERTEX
  5
F3B
  8
TEAM-NET
 10
-109.484929
 20
697.500487
 30
154.460621
  0
VERTEX
  5
F3C
  8
TEAM-NET
 10
-108.495168
 20
698.5
 30
154.460621
  0
VERTEX
  5
F3D
  8
TEAM-NET
 10
-107.7659
 20
699.605859
 30
154.460621
  0
VERTEX
  5
F3E
  8
TEAM-NET
 10
-107.319283
 20
700.784463
 30
154.460621
  0
VERTEX
  5
F3F
  8
TEAM-NET
 10
-107.168888
 20
702.0
 30
154.460621
  0
SEQEND
  5
F40
  8
TEAM-NET
  0
POLYLINE
  5
11C
  8
TEAM-NET
 66
     1
 10
0.0
 20
0.0
 30
-54.135879
 70
   128
210
0.707107
220
-0.707107
230
-0.0
  0
VERTEX
  5
F41
  8
TEAM-NET
 10
-217.393125
 20
695.0
 30
-54.135879
  0
VERTEX
  5
F42
  8
TEAM-NET
 10
-215.674096
 20
695.106346
 30
-54.135879
  0
VERTEX
  5
F43
  8
TEAM-NET
 10
-214.007298
 20
695.422152
 30
-54.135879
  0
VERTEX
  5
F44
  8
TEAM-NET
 10
-212.443378
 20
695.937822
 30
-54.135879
  0
VERTEX
  5
F45
  8
TEAM-NET
 10
-211.029852
 20
696.637689
 30
-54.135879
  0
VERTEX
  5
F46
  8
TEAM-NET
 10
-209.809672
 20
697.500487
 30
-54.135879
  0
VERTEX
  5
F47
  8
TEAM-NET
 10
-208.819911
 20
698.5
 30
-54.135879
  0
VERTEX
  5
F48
  8
TEAM-NET
 10
-208.090643
 20
699.605859
 30
-54.135879
  0
VERTEX
  5
F49
  8
TEAM-NET
 10
-207.644026
 20
700.784463
 30
-54.135879
  0
VERTEX
  5
F4A
  8
TEAM-NET
 10
-207.49363
 20
702.0
 30
-54.135879
  0
SEQEND
  5
F4B
  8
TEAM-NET
  0
ARC
  5
11D
  8
TEAM-NET
 10
0.0
 20
-213.440306
 30
-725.391501
 40
6.0
210
0.0
220
-0.0
230
-1.0
 50
324.238198
 51
35.050062
  0
ARC
  5
11E
  8
TEAM-NET
 10
0.0
 20
-213.440306
 30
-725.391501
 40
21.0
210
0.0
220
-0.0
230
-1.0
 50
41.914727
 51
47.373533
  0
LINE
  5
11F
  8
TEAM-NET
 10
-4.868722
 20
-216.946807
 30
725.391501
 11
-15.451471
 21
-227.66184
 31
725.391501
210
0.0
220
-0.0
230
-1.0
  0
LINE
  5
120
  8
TEAM-NET
 10
-3.506501
 20
-208.571584
 30
725.391501
 11
-14.221535
 21
-197.988835
 31
725.391501
210
0.0
220
-0.0
230
-1.0
  0
ARC
  5
121
  8
TEAM-NET
 10
0.0
 20
-213.440306
 30
-725.391501
 40
21.0
210
0.0
220
-0.0
230
-1.0
 50
311.914727
 51
317.373533
  0
ARC
  5
122
  8
TEAM-NET
 10
0.0
 20
-213.440306
 30
-725.391501
 40
6.0
210
0.0
220
-0.0
230
-1.0
 50
54.238198
 51
125.050062
  0
LINE
  5
123
  8
TEAM-NET
 10
-14.028501
 20
-229.067243
 30
725.391501
 11
-3.445752
 21
-218.352209
 31
725.391501
210
0.0
220
-0.0
230
-1.0
  0
LINE
  5
124
  8
TEAM-NET
 10
14.028501
 20
-197.813369
 30
725.391501
 11
3.445752
 21
-208.528402
 31
725.391501
210
0.0
220
-0.0
230
-1.0
  0
ARC
  5
125
  8
TEAM-NET
 10
0.0
 20
-213.440306
 30
-725.391501
 40
6.0
210
0.0
220
-0.0
230
-1.0
 50
234.238198
 51
305.050062
  0
ARC
  5
126
  8
TEAM-NET
 10
0.0
 20
-213.440306
 30
-725.391501
 40
21.0
210
0.0
220
-0.0
230
-1.0
 50
131.914727
 51
137.373533
  0
LINE
  5
127
  8
TEAM-NET
 10
3.506501
 20
-218.309027
 30
725.391501
 11
14.221535
 21
-228.891777
 31
725.391501
210
0.0
220
-0.0
230
-1.0
  0
LINE
  5
128
  8
TEAM-NET
 10
4.868722
 20
-209.933805
 30
725.391501
 11
15.451471
 21
-199.218771
 31
725.391501
210
0.0
220
-0.0
230
-1.0
  0
ARC
  5
129
  8
TEAM-NET
 10
0.0
 20
-213.440306
 30
-725.391501
 40
21.0
210
0.0
220
-0.0
230
-1.0
 50
221.914727
 51
227.373533
  0
ARC
  5
12A
  8
TEAM-NET
 10
0.0
 20
-213.440306
 30
-725.391501
 40
6.0
210
0.0
220
-0.0
230
-1.0
 50
144.238198
 51
215.050062
  0
LINE
  5
12B
  8
TEAM-NET
 10
15.626937
 20
-227.468807
 30
725.391501
 11
4.911903
 21
-216.886057
 31
725.391501
210
0.0
220
-0.0
230
-1.0
  0
ARC
  5
12C
  8
TEAM-NET
 10
0.0
 20
-213.440306
 30
-725.391501
 40
30.0
210
0.0
220
-0.0
230
-1.0
 50
0.0
 51
180.0
  0
ARC
  5
12D
  8
TEAM-NET
 10
0.0
 20
-213.440306
 30
-725.391501
 40
30.0
210
0.0
220
-0.0
230
-1.0
 50
180.0
 51
0.0
  0
ARC
  5
12E
  8
TEAM-NET
 10
0.0
 20
-213.440306
 30
726.213421
 40
30.0
 50
270.0
 51
0.0
  0
LINE
  5
12F
  8
TEAM-NET
 10
30.0
 20
-213.440306
 30
726.213421
 11
30.0
 21
-213.440306
 31
725.391501
  0
ARC
  5
130
  8
TEAM-NET
 10
0.0
 20
-213.440306
 30
726.213421
 40
30.0
 50
180.0
 51
270.0
  0
ARC
  5
131
  8
TEAM-NET
 10
0.0
 20
-213.440306
 30
725.391501
 40
30.0
 50
180.0
 51
0.0
  0
LINE
  5
132
  8
TEAM-NET
 10
-30.0
 20
-213.440306
 30
726.213421
 11
-30.0
 21
-213.440306
 31
725.391501
  0
ARC
  5
133
  8
TEAM-NET
 10
0.0
 20
-213.440306
 30
726.213421
 40
30.0
 50
360.0
 51
90.0
  0
ARC
  5
134
  8
TEAM-NET
 10
0.0
 20
-213.440306
 30
726.213421
 40
30.0
 50
270.0
 51
0.0
  0
ARC
  5
135
  8
TEAM-NET
 10
0.0
 20
-213.440306
 30
722.213421
 40
31.895533
 50
360.0
 51
180.0
  0
ARC
  5
136
  8
TEAM-NET
 10
0.0
 20
-213.440306
 30
722.213421
 40
31.895533
 50
180.0
 51
0.0
  0
ARC
  5
137
  8
TEAM-NET
 10
0.0
 20
-213.440306
 30
722.213421
 40
32.697766
 50
360.0
 51
180.0
  0
ARC
  5
138
  8
TEAM-NET
 10
0.0
 20
-213.440306
 30
722.213421
 40
32.697766
 50
180.0
 51
0.0
  0
LINE
  5
139
  8
TEAM-NET
 10
-3.506501
 20
-208.571584
 30
725.391501
 11
-14.221535
 21
-197.988835
 31
725.391501
210
0.702701
220
0.711485
230
0.0
  0
ARC
  5
13A
  8
TEAM-NET
 10
0.0
 20
-213.440306
 30
725.391501
 40
21.0
 50
132.626467
 51
138.085273
  0
LINE
  5
13B
  8
TEAM-NET
 10
4.868722
 20
-209.933805
 30
725.391501
 11
15.451471
 21
-199.218771
 31
725.391501
210
0.711485
220
-0.702701
230
0.0
  0
ARC
  5
13C
  8
TEAM-NET
 10
0.0
 20
-213.440306
 30
725.391501
 40
21.0
 50
42.626467
 51
48.085273
  0
LINE
  5
13D
  8
TEAM-NET
 10
3.506501
 20
-218.309027
 30
725.391501
 11
14.221535
 21
-228.891777
 31
725.391501
210
-0.702701
220
-0.711485
230
0.0
  0
ARC
  5
13E
  8
TEAM-NET
 10
0.0
 20
-213.440306
 30
725.391501
 40
21.0
 50
312.626467
 51
318.085273
  0
LINE
  5
13F
  8
TEAM-NET
 10
-4.868722
 20
-216.946807
 30
725.391501
 11
-15.451471
 21
-227.66184
 31
725.391501
210
-0.711485
220
0.702701
230
-0.0
  0
ARC
  5
140
  8
TEAM-NET
 10
0.0
 20
-213.440306
 30
725.391501
 40
21.0
 50
222.626467
 51
228.085273
  0
LINE
  5
141
  8
TEAM-NET
 10
15.626937
 20
-227.468807
 30
725.391501
 11
4.911903
 21
-216.886057
 31
725.391501
210
0.702701
220
0.711485
230
0.0
  0
ARC
  5
142
  8
TEAM-NET
 10
0.0
 20
-213.440306
 30
725.391501
 40
6.0
 50
234.949938
 51
305.761802
  0
LINE
  5
143
  8
TEAM-NET
 10
14.028501
 20
-197.813369
 30
725.391501
 11
3.445752
 21
-208.528402
 31
725.391501
210
-0.711485
220
0.702701
230
-0.0
  0
ARC
  5
144
  8
TEAM-NET
 10
0.0
 20
-213.440306
 30
725.391501
 40
6.0
 50
324.949938
 51
35.761802
  0
LINE
  5
145
  8
TEAM-NET
 10
-15.626937
 20
-199.411805
 30
725.391501
 11
-4.911903
 21
-209.994554
 31
725.391501
210
-0.702701
220
-0.711485
230
0.0
  0
ARC
  5
146
  8
TEAM-NET
 10
0.0
 20
-213.440306
 30
725.391501
 40
6.0
 50
144.949938
 51
215.761802
  0
ARC
  5
147
  8
TEAM-NET
 10
0.0
 20
-213.440306
 30
725.391501
 40
6.0
 50
54.949938
 51
125.761802
  0
LINE
  5
148
  8
TEAM-NET
 10
-14.028501
 20
-229.067243
 30
725.391501
 11
-3.445752
 21
-218.352209
 31
725.391501
210
0.711485
220
-0.702701
230
0.0
  0
ARC
  5
149
  8
TEAM-NET
 10
0.0
 20
-213.440306
 30
722.213421
 40
31.895533
 50
180.0
 51
0.0
  0
ARC
  5
14A
  8
TEAM-NET
 10
0.0
 20
-213.440306
 30
722.213421
 40
32.697766
 50
360.0
 51
180.0
  0
ARC
  5
14B
  8
TEAM-NET
 10
0.0
 20
-213.440306
 30
722.213421
 40
32.697766
 50
180.0
 51
0.0
  0
ARC
  5
14C
  8
TEAM-NET
 10
0.0
 20
-213.440306
 30
722.213421
 40
31.895533
 50
360.0
 51
180.0
  0
ARC
  5
14D
  8
TEAM-NET
 10
0.0
 20
-213.440306
 30
726.213421
 40
30.0
 50
90.0
 51
180.0
  0
ARC
  5
14E
  8
TEAM-NET
 10
0.0
 20
-213.440306
 30
726.213421
 40
30.0
 50
180.0
 51
270.0
  0
LINE
  5
14F
  8
TEAM-NET
 10
30.0
 20
-213.440306
 30
726.213421
 11
30.0
 21
-213.440306
 31
725.391501
  0
ARC
  5
150
  8
TEAM-NET
 10
0.0
 20
-213.440306
 30
726.213421
 40
30.0
 50
360.0
 51
90.0
  0
ARC
  5
151
  8
TEAM-NET
 10
0.0
 20
-213.440306
 30
725.391501
 40
30.0
 50
360.0
 51
180.0
  0
ARC
  5
152
  8
TEAM-NET
 10
0.0
 20
-213.440306
 30
726.213421
 40
30.0
 50
90.0
 51
180.0
  0
LINE
  5
153
  8
TEAM-NET
 10
-30.0
 20
-213.440306
 30
726.213421
 11
-30.0
 21
-213.440306
 31
725.391501
  0
LINE
  5
154
  8
TEAM-NET
 10
-15.626937
 20
-199.411805
 30
725.391501
 11
-4.911903
 21
-209.994554
 31
725.391501
210
0.0
220
-0.0
230
-1.0
  0
LINE
  5
155
  8
TEAM-NET
 10
-90.89494
 20
-401.846467
 30
727.881832
 11
90.89494
 21
-401.846467
 31
727.881832
  0
LINE
  5
156
  8
TEAM-NET
 10
-90.89494
 20
-401.846467
 30
727.881832
 11
90.89494
 21
-401.846467
 31
727.881832
  0
ARC
  5
157
  8
TEAM-NET
 10
0.0
 20
-213.440306
 30
721.334742
 40
33.242641
 50
0.0
 51
180.0
  0
ARC
  5
158
  8
TEAM-NET
 10
0.0
 20
-213.440306
 30
721.334742
 40
33.242641
 50
180.0
 51
0.0
  0
ARC
  5
159
  8
TEAM-NET
 10
0.0
 20
-213.440306
 30
721.334742
 40
33.242641
 50
180.0
 51
0.0
  0
ARC
  5
15A
  8
TEAM-NET
 10
0.0
 20
-213.440306
 30
721.334742
 40
33.242641
 50
0.0
 51
180.0
  0
ARC
  5
15B
  8
TEAM-NET
 10
29.0
 20
714.092101
 30
213.440306
 40
3.0
210
0.0
220
-1.0
230
0.0
 50
135.0
 51
180.0
  0
ARC
  5
15C
  8
TEAM-NET
 10
0.0
 20
-213.440306
 30
-714.092101
 40
26.0
210
0.0
220
0.0
230
-1.0
 50
180.0
 51
0.0
  0
ARC
  5
15D
  8
TEAM-NET
 10
0.0
 20
-213.440306
 30
716.213421
 40
26.87868
 50
180.0
 51
0.0
  0
ARC
  5
15E
  8
TEAM-NET
 10
29.0
 20
714.092101
 30
-213.440306
 40
3.0
210
0.0
220
1.0
230
0.0
 50
135.0
 51
180.0
  0
LINE
  5
15F
  8
TEAM-NET
 10
-26.87868
 20
-213.440306
 30
716.213421
 11
-31.12132
 21
-213.440306
 31
720.456062
  0
ARC
  5
160
  8
TEAM-NET
 10
0.0
 20
-213.440306
 30
-720.456062
 40
31.12132
210
0.0
220
0.0
230
-1.0
 50
180.0
 51
0.0
  0
ARC
  5
161
  8
TEAM-NET
 10
0.0
 20
-213.440306
 30
716.213421
 40
26.87868
 50
180.0
 51
0.0
  0
LINE
  5
162
  8
TEAM-NET
 10
26.87868
 20
-213.440306
 30
716.213421
 11
31.12132
 21
-213.440306
 31
720.456062
  0
LINE
  5
163
  8
TEAM-NET
 10
-26.87868
 20
-213.440306
 30
716.213421
 11
-31.12132
 21
-213.440306
 31
720.456062
  0
ARC
  5
164
  8
TEAM-NET
 10
0.0
 20
-213.440306
 30
716.213421
 40
26.87868
 50
0.0
 51
180.0
  0
ARC
  5
165
  8
TEAM-NET
 10
0.0
 20
-213.440306
 30
-720.456062
 40
31.12132
210
0.0
220
0.0
230
-1.0
 50
360.0
 51
180.0
  0
LINE
  5
166
  8
TEAM-NET
 10
26.87868
 20
-213.440306
 30
716.213421
 11
31.12132
 21
-213.440306
 31
720.456062
  0
ARC
  5
167
  8
TEAM-NET
 10
29.0
 20
714.092101
 30
213.440306
 40
3.0
210
0.0
220
-1.0
230
0.0
 50
135.0
 51
180.0
  0
ARC
  5
168
  8
TEAM-NET
 10
0.0
 20
-213.440306
 30
716.213421
 40
26.87868
 50
0.0
 51
180.0
  0
ARC
  5
169
  8
TEAM-NET
 10
0.0
 20
-213.440306
 30
-714.092101
 40
26.0
210
0.0
220
0.0
230
-1.0
 50
360.0
 51
180.0
  0
ARC
  5
16A
  8
TEAM-NET
 10
29.0
 20
714.092101
 30
-213.440306
 40
3.0
210
0.0
220
1.0
230
0.0
 50
135.0
 51
180.0
  0
ARC
  5
16B
  8
TEAM-NET
 10
0.0
 20
-213.440306
 30
713.529763
 40
21.0
 50
180.0
 51
0.0
  0
ARC
  5
16C
  8
TEAM-NET
 10
0.0
 20
-213.440306
 30
713.687382
 40
22.0
 50
360.0
 51
180.0
  0
ARC
  5
16D
  8
TEAM-NET
 10
0.0
 20
-213.440306
 30
713.687382
 40
22.0
 50
180.0
 51
0.0
  0
ARC
  5
16E
  8
TEAM-NET
 10
0.0
 20
-213.440306
 30
713.529763
 40
21.0
 50
360.0
 51
180.0
  0
ARC
  5
16F
  8
TEAM-NET
 10
0.0
 20
-213.440306
 30
-714.092101
 40
26.0
210
0.0
220
0.0
230
-1.0
 50
360.0
 51
180.0
  0
ARC
  5
170
  8
TEAM-NET
 10
0.0
 20
-213.440306
 30
-714.092101
 40
26.0
210
0.0
220
0.0
230
-1.0
 50
180.0
 51
0.0
  0
ARC
  5
171
  8
TEAM-NET
 10
0.0
 20
-213.440306
 30
-720.456062
 40
31.12132
210
0.0
220
0.0
230
-1.0
 50
180.0
 51
0.0
  0
ARC
  5
172
  8
TEAM-NET
 10
0.0
 20
-213.440306
 30
-720.456062
 40
31.12132
210
0.0
220
0.0
230
-1.0
 50
360.0
 51
180.0
  0
ARC
  5
173
  8
TEAM-NET
 10
0.0
 20
-213.440306
 30
713.529763
 40
21.0
 50
180.0
 51
0.0
  0
ARC
  5
174
  8
TEAM-NET
 10
0.0
 20
-213.440306
 30
713.687382
 40
22.0
 50
360.0
 51
180.0
  0
ARC
  5
175
  8
TEAM-NET
 10
0.0
 20
-213.440306
 30
713.687382
 40
22.0
 50
180.0
 51
0.0
  0
ARC
  5
176
  8
TEAM-NET
 10
0.0
 20
-213.440306
 30
713.529763
 40
21.0
 50
360.0
 51
180.0
  0
LINE
  5
177
  8
TEAM-NET
 10
-90.89494
 20
-138.440306
 30
721.334742
 11
90.89494
 21
-138.440306
 31
721.334742
  0
LINE
  5
178
  8
TEAM-NET
 10
-90.89494
 20
-138.440306
 30
721.334742
 11
90.89494
 21
-138.440306
 31
721.334742
  0
LINE
  5
179
  8
TEAM-NET
 10
-90.89494
 20
-415.263734
 30
721.334742
 11
-90.89494
 21
-415.26408
 31
721.334742
  0
LINE
  5
17A
  8
TEAM-NET
 10
-90.89494
 20
-415.263734
 30
721.334742
 11
-90.89494
 21
-415.26408
 31
721.334742
210
0.0
220
0.0
230
-1.0
  0
LINE
  5
17B
  8
TEAM-NET
 10
-90.89494
 20
-138.440306
 30
721.334742
 11
-90.89494
 21
-389.455006
 31
721.334742
  0
LINE
  5
17C
  8
TEAM-NET
 10
-90.89494
 20
-138.440306
 30
721.334742
 11
-90.89494
 21
-389.455006
 31
721.334742
  0
LINE
  5
17D
  8
TEAM-NET
 10
-90.89494
 20
-415.26408
 30
721.334742
 11
90.89494
 21
-415.26408
 31
721.334742
210
0.0
220
0.0
230
-1.0
  0
LINE
  5
17E
  8
TEAM-NET
 10
-90.89494
 20
-415.263734
 30
721.334742
 11
90.89494
 21
-415.263734
 31
721.334742
210
0.0
220
0.0
230
-1.0
  0
LINE
  5
17F
  8
TEAM-NET
 10
-90.89494
 20
-415.26408
 30
721.334742
 11
90.89494
 21
-415.26408
 31
721.334742
  0
LINE
  5
180
  8
TEAM-NET
 10
-90.89494
 20
-415.263734
 30
721.334742
 11
90.89494
 21
-415.263734
 31
721.334742
  0
LINE
  5
181
  8
TEAM-NET
 10
90.89494
 20
-389.455006
 30
721.334742
 11
-90.89494
 21
-389.455006
 31
721.334742
  0
LINE
  5
182
  8
TEAM-NET
 10
90.89494
 20
-389.455006
 30
721.334742
 11
-90.89494
 21
-389.455006
 31
721.334742
  0
LINE
  5
183
  8
TEAM-NET
 10
90.89494
 20
-415.263734
 30
721.334742
 11
90.89494
 21
-415.26408
 31
721.334742
  0
LINE
  5
184
  8
TEAM-NET
 10
90.89494
 20
-415.263734
 30
721.334742
 11
90.89494
 21
-415.26408
 31
721.334742
210
0.0
220
0.0
230
-1.0
  0
LINE
  5
185
  8
TEAM-NET
 10
90.89494
 20
-138.440306
 30
721.334742
 11
90.89494
 21
-389.455006
 31
721.334742
  0
LINE
  5
186
  8
TEAM-NET
 10
90.89494
 20
-138.440306
 30
721.334742
 11
90.89494
 21
-389.455006
 31
721.334742
  0
LINE
  5
187
  8
TEAM-NET
 10
90.89494
 20
-415.263734
 30
721.334742
 11
91.24954
 21
-415.264264
 31
721.335175
  0
LINE
  5
188
  8
TEAM-NET
 10
90.89494
 20
-415.263734
 30
721.334742
 11
91.24954
 21
-415.264264
 31
721.335175
  0
ARC
  5
189
  8
TEAM-NET
 10
-33.242641
 20
718.334742
 30
213.440306
 40
3.0
210
0.0
220
-1.0
230
0.0
 50
45.0
 51
90.0
  0
ARC
  5
18A
  8
TEAM-NET
 10
-33.242641
 20
718.334742
 30
-213.440306
 40
3.0
210
0.0
220
1.0
230
0.0
 50
45.0
 51
90.0
  0
ARC
  5
18B
  8
TEAM-NET
 10
-33.242641
 20
718.334742
 30
213.440306
 40
3.0
210
0.0
220
-1.0
230
0.0
 50
45.0
 51
90.0
  0
ARC
  5
18C
  8
TEAM-NET
 10
-33.242641
 20
718.334742
 30
-213.440306
 40
3.0
210
0.0
220
1.0
230
0.0
 50
45.0
 51
90.0
  0
LINE
  5
18D
  8
TEAM-NET
 10
31.895533
 20
-213.440306
 30
722.213421
 11
21.0
 21
-213.440306
 31
713.529763
  0
LINE
  5
18E
  8
TEAM-NET
 10
-31.895533
 20
-213.440306
 30
722.213421
 11
-21.0
 21
-213.440306
 31
713.529763
  0
LINE
  5
18F
  8
TEAM-NET
 10
32.697766
 20
-213.440306
 30
722.213421
 11
22.0
 21
-213.440306
 31
713.687382
  0
LINE
  5
190
  8
TEAM-NET
 10
-32.697766
 20
-213.440306
 30
722.213421
 11
-22.0
 21
-213.440306
 31
713.687382
  0
LINE
  5
191
  8
TEAM-NET
 10
32.697766
 20
-213.440306
 30
722.213421
 11
22.0
 21
-213.440306
 31
713.687382
  0
LINE
  5
192
  8
TEAM-NET
 10
-32.697766
 20
-213.440306
 30
722.213421
 11
-22.0
 21
-213.440306
 31
713.687382
  0
LINE
  5
193
  8
TEAM-NET
 10
31.895533
 20
-213.440306
 30
722.213421
 11
21.0
 21
-213.440306
 31
713.529763
  0
LINE
  5
194
  8
TEAM-NET
 10
-31.895533
 20
-213.440306
 30
722.213421
 11
-21.0
 21
-213.440306
 31
713.529763
  0
ARC
  5
195
  8
TEAM-NET
 10
-389.455006
 20
736.334742
 30
-90.89494
 40
15.0
210
1.0
220
0.0
230
0.0
 50
214.300086
 51
270.0
  0
ARC
  5
196
  8
TEAM-NET
 10
-389.455006
 20
736.334742
 30
-90.89494
 40
15.0
210
1.0
220
0.0
230
0.0
 50
214.300086
 51
270.0
  0
ARC
  5
197
  8
TEAM-NET
 10
-389.455006
 20
736.334742
 30
90.89494
 40
15.0
210
1.0
220
0.0
230
0.0
 50
214.300086
 51
270.0
  0
ARC
  5
198
  8
TEAM-NET
 10
-389.455006
 20
736.334742
 30
90.89494
 40
15.0
210
1.0
220
0.0
230
0.0
 50
214.300086
 51
270.0
  0
LINE
  5
199
  8
TEAM-NET
 10
90.89494
 20
-123.440306
 30
736.334742
 11
-90.89494
 21
-123.440306
 31
736.334742
  0
LINE
  5
19A
  8
TEAM-NET
 10
90.89494
 20
-123.440306
 30
736.334742
 11
-90.89494
 21
-123.440306
 31
736.334742
210
0.0
220
-1.0
230
0.0
  0
ARC
  5
19B
  8
TEAM-NET
 10
-165.0
 20
785.0
 30
-33.440306
 40
7.5
210
0.0
220
1.0
230
0.0
 50
0.0
 51
180.0
  0
ARC
  5
19C
  8
TEAM-NET
 10
165.0
 20
785.0
 30
-1.559694
 40
7.5
210
0.0
220
-1.0
230
0.0
 50
360.0
 51
180.0
  0
ARC
  5
19D
  8
TEAM-NET
 10
165.0
 20
785.0
 30
-1.559694
 40
7.5
210
0.0
220
-1.0
230
0.0
 50
180.0
 51
0.0
  0
ARC
  5
19E
  8
TEAM-NET
 10
-165.0
 20
785.0
 30
-33.440306
 40
7.5
210
0.0
220
1.0
230
0.0
 50
180.0
 51
0.0
  0
ARC
  5
19F
  8
TEAM-NET
 10
-165.0
 20
785.0
 30
1.559694
 40
7.5
210
0.0
220
1.0
230
0.0
 50
180.0
 51
0.0
  0
ARC
  5
1A0
  8
TEAM-NET
 10
-165.0
 20
785.0
 30
1.559694
 40
7.5
210
0.0
220
1.0
230
0.0
 50
0.0
 51
180.0
  0
ARC
  5
1A1
  8
TEAM-NET
 10
165.0
 20
785.0
 30
33.440306
 40
7.5
210
0.0
220
-1.0
230
0.0
 50
360.0
 51
180.0
  0
ARC
  5
1A2
  8
TEAM-NET
 10
165.0
 20
785.0
 30
33.440306
 40
7.5
210
0.0
220
-1.0
230
0.0
 50
180.0
 51
0.0
  0
ARC
  5
1A3
  8
TEAM-NET
 10
165.0
 20
785.0
 30
-33.440306
 40
7.5
210
0.0
220
1.0
230
0.0
 50
0.0
 51
180.0
  0
ARC
  5
1A4
  8
TEAM-NET
 10
-165.0
 20
785.0
 30
-1.559694
 40
7.5
210
0.0
220
-1.0
230
0.0
 50
360.0
 51
180.0
  0
ARC
  5
1A5
  8
TEAM-NET
 10
-165.0
 20
785.0
 30
-1.559694
 40
7.5
210
0.0
220
-1.0
230
0.0
 50
180.0
 51
0.0
  0
ARC
  5
1A6
  8
TEAM-NET
 10
165.0
 20
785.0
 30
-33.440306
 40
7.5
210
0.0
220
1.0
230
0.0
 50
180.0
 51
0.0
  0
ARC
  5
1A7
  8
TEAM-NET
 10
165.0
 20
785.0
 30
1.559694
 40
7.5
210
0.0
220
1.0
230
0.0
 50
180.0
 51
0.0
  0
ARC
  5
1A8
  8
TEAM-NET
 10
165.0
 20
785.0
 30
1.559694
 40
7.5
210
0.0
220
1.0
230
0.0
 50
0.0
 51
180.0
  0
ARC
  5
1A9
  8
TEAM-NET
 10
-165.0
 20
785.0
 30
33.440306
 40
7.5
210
0.0
220
-1.0
230
0.0
 50
360.0
 51
180.0
  0
ARC
  5
1AA
  8
TEAM-NET
 10
-165.0
 20
785.0
 30
33.440306
 40
7.5
210
0.0
220
-1.0
230
0.0
 50
180.0
 51
0.0
  0
LINE
  5
1AB
  8
TEAM-NET
 10
172.5
 20
1.559694
 30
785.0
 11
172.5
 21
-33.440306
 31
785.0
  0
LINE
  5
1AC
  8
TEAM-NET
 10
157.5
 20
1.559694
 30
785.0
 11
157.5
 21
-33.440306
 31
785.0
  0
LINE
  5
1AD
  8
TEAM-NET
 10
172.5
 20
1.559694
 30
785.0
 11
172.5
 21
-33.440306
 31
785.0
  0
LINE
  5
1AE
  8
TEAM-NET
 10
157.5
 20
1.559694
 30
785.0
 11
157.5
 21
-33.440306
 31
785.0
  0
LINE
  5
1AF
  8
TEAM-NET
 10
-157.5
 20
1.559694
 30
785.0
 11
-157.5
 21
-33.440306
 31
785.0
  0
LINE
  5
1B0
  8
TEAM-NET
 10
-172.5
 20
1.559694
 30
785.0
 11
-172.5
 21
-33.440306
 31
785.0
  0
LINE
  5
1B1
  8
TEAM-NET
 10
-157.5
 20
1.559694
 30
785.0
 11
-157.5
 21
-33.440306
 31
785.0
  0
LINE
  5
1B2
  8
TEAM-NET
 10
-172.5
 20
1.559694
 30
785.0
 11
-172.5
 21
-33.440306
 31
785.0
  0
ARC
  5
1B3
  8
TEAM-NET
 10
-120.440306
 20
802.0
 30
40.0
 40
3.0
210
1.0
220
0.0
230
0.0
 50
90.0
 51
180.0
  0
ARC
  5
1B4
  8
TEAM-NET
 10
-120.440306
 20
802.0
 30
40.0
 40
3.0
210
1.0
220
0.0
230
0.0
 50
90.0
 51
180.0
  0
LINE
  5
1B5
  8
TEAM-NET
 10
0.0
 20
-129.81721
 30
981.326982
 11
0.0
 21
-122.988864
 31
942.601509
  0
LINE
  5
1B6
  8
TEAM-NET
 10
0.0
 20
-129.81721
 30
981.326982
 11
0.0
 21
-122.988864
 31
942.601509
  0
LINE
  5
1B7
  8
TEAM-NET
 10
0.0
 20
-86.485669
 30
988.967502
 11
0.0
 21
-79.657323
 31
950.242029
  0
LINE
  5
1B8
  8
TEAM-NET
 10
0.0
 20
-86.485669
 30
988.967502
 11
0.0
 21
-79.657323
 31
950.242029
  0
LINE
  5
1B9
  8
TEAM-NET
 10
4.68381
 20
-105.06418
 30
932.652518
 11
4.68381
 21
-219.378311
 31
872.622005
  0
LINE
  5
1BA
  8
TEAM-NET
 10
-4.68381
 20
-105.06418
 30
932.652518
 11
-4.68381
 21
-219.378311
 31
872.622005
  0
LINE
  5
1BB
  8
TEAM-NET
 10
-14.0
 20
-217.798506
 30
873.898163
 11
-14.0
 21
-103.508375
 31
933.909288
  0
LINE
  5
1BC
  8
TEAM-NET
 10
14.0
 20
-217.798506
 30
873.898163
 11
14.0
 21
-103.508375
 31
933.909288
  0
LINE
  5
1BD
  8
TEAM-NET
 10
-14.0
 20
-217.798506
 30
873.898163
 11
-14.0
 21
-103.508375
 31
933.909288
  0
LINE
  5
1BE
  8
TEAM-NET
 10
14.0
 20
-217.798506
 30
873.898163
 11
14.0
 21
-103.508375
 31
933.909288
  0
LINE
  5
1BF
  8
TEAM-NET
 10
4.68381
 20
-105.06418
 30
932.652518
 11
4.68381
 21
-219.378311
 31
872.622005
  0
LINE
  5
1C0
  8
TEAM-NET
 10
-4.68381
 20
-105.06418
 30
932.652518
 11
-4.68381
 21
-219.378311
 31
872.622005
  0
ARC
  5
1C1
  8
TEAM-NET
 10
50.950743
 20
873.746523
 30
3.0
 40
17.407882
210
-1.0
220
0.0
230
0.0
 50
10.635407
 51
94.182905
  0
ARC
  5
1C2
  8
TEAM-NET
 10
-50.950743
 20
873.746523
 30
-1.0
 40
15.407882
210
1.0
220
-0.0
230
-0.0
 50
86.21218
 51
169.364593
  0
ARC
  5
1C3
  8
TEAM-NET
 10
-50.950743
 20
873.746523
 30
-1.0
 40
15.407882
210
1.0
220
-0.0
230
-0.0
 50
86.21218
 51
169.364593
  0
ARC
  5
1C4
  8
TEAM-NET
 10
50.950743
 20
873.746523
 30
-1.0
 40
15.407882
210
-1.0
220
0.0
230
0.0
 50
10.635407
 51
93.78782
  0
ARC
  5
1C5
  8
TEAM-NET
 10
50.950743
 20
873.746523
 30
-1.0
 40
15.407882
210
-1.0
220
0.0
230
0.0
 50
10.635407
 51
93.78782
  0
ARC
  5
1C6
  8
TEAM-NET
 10
-50.950743
 20
873.746523
 30
3.0
 40
17.407882
210
1.0
220
-0.0
230
-0.0
 50
85.817095
 51
169.364593
  0
ARC
  5
1C7
  8
TEAM-NET
 10
-50.950743
 20
873.746523
 30
3.0
 40
17.407882
210
1.0
220
-0.0
230
-0.0
 50
85.817095
 51
169.364593
  0
ARC
  5
1C8
  8
TEAM-NET
 10
-50.877735
 20
873.65504
 30
3.0
 40
18.496523
210
1.0
220
-0.0
230
-0.0
 50
85.712041
 51
169.364593
  0
ARC
  5
1C9
  8
TEAM-NET
 10
50.877735
 20
873.65504
 30
2.0
 40
19.496523
210
-1.0
220
0.0
230
0.0
 50
10.635407
 51
94.287959
  0
ARC
  5
1CA
  8
TEAM-NET
 10
-50.877735
 20
873.65504
 30
-3.0
 40
18.496523
210
1.0
220
-0.0
230
-0.0
 50
85.712041
 51
169.364593
  0
ARC
  5
1CB
  8
TEAM-NET
 10
-50.877735
 20
873.65504
 30
2.0
 40
19.496523
210
1.0
220
-0.0
230
-0.0
 50
85.712041
 51
169.364593
  0
ARC
  5
1CC
  8
TEAM-NET
 10
50.877735
 20
873.65504
 30
2.0
 40
19.496523
210
-1.0
220
0.0
230
0.0
 50
10.635407
 51
94.287959
  0
ARC
  5
1CD
  8
TEAM-NET
 10
50.877735
 20
873.65504
 30
-3.0
 40
18.496523
210
-1.0
220
0.0
230
0.0
 50
10.635407
 51
94.287959
  0
ARC
  5
1CE
  8
TEAM-NET
 10
-50.877735
 20
873.65504
 30
2.0
 40
19.496523
210
1.0
220
-0.0
230
-0.0
 50
85.712041
 51
169.364593
  0
ARC
  5
1CF
  8
TEAM-NET
 10
50.877735
 20
873.65504
 30
3.0
 40
18.496523
210
-1.0
220
0.0
230
0.0
 50
10.635407
 51
94.287959
  0
ARC
  5
1D0
  8
TEAM-NET
 10
50.950743
 20
873.746523
 30
3.0
 40
17.407882
210
-1.0
220
0.0
230
0.0
 50
10.635407
 51
94.182905
  0
LINE
  5
1D1
  8
TEAM-NET
 10
0.0
 20
-79.164919
 30
950.328853
 11
0.0
 21
-60.06362
 31
842.0
  0
LINE
  5
1D2
  8
TEAM-NET
 10
0.0
 20
-123.481268
 30
942.514685
 11
0.0
 21
-105.757817
 31
842.0
  0
LINE
  5
1D3
  8
TEAM-NET
 10
0.0
 20
-79.164919
 30
950.328853
 11
0.0
 21
-60.06362
 31
842.0
  0
LINE
  5
1D4
  8
TEAM-NET
 10
0.0
 20
-123.481268
 30
942.514685
 11
0.0
 21
-105.757817
 31
842.0
  0
ARC
  5
1D5
  8
TEAM-NET
 10
264.397199
 20
845.0
 30
50.152535
 40
5.0
210
0.0
220
-1.0
230
0.0
 50
90.0
 51
171.812593
  0
ARC
  5
1D6
  8
TEAM-NET
 10
264.397199
 20
845.0
 30
50.152535
 40
5.0
210
0.0
220
-1.0
230
0.0
 50
90.0
 51
171.812593
  0
ARC
  5
1D7
  8
TEAM-NET
 10
418.0
 20
843.0
 30
50.152535
 40
7.0
210
0.0
220
-1.0
230
0.0
 50
0.0
 51
90.0
  0
ARC
  5
1D8
  8
TEAM-NET
 10
418.0
 20
843.0
 30
50.152535
 40
7.0
210
0.0
220
-1.0
230
0.0
 50
0.0
 51
90.0
  0
POLYLINE
  5
1D9
  8
TEAM-NET
 66
     1
 10
0.0
 20
0.0
 30
0.0
 70
     8
  0
VERTEX
  5
81F
  8
TEAM-NET
 10
260.327106
 20
-32.06572
 30
853.195283
 70
    32
  0
VERTEX
  5
820
  8
TEAM-NET
 10
260.003382
 20
-35.891827
 30
850.029579
 70
    32
  0
VERTEX
  5
821
  8
TEAM-NET
 10
259.715501
 20
-40.308481
 30
847.664202
 70
    32
  0
VERTEX
  5
822
  8
TEAM-NET
 10
259.518343
 20
-45.124303
 30
846.205861
 70
    32
  0
VERTEX
  5
823
  8
TEAM-NET
 10
259.448161
 20
-50.152535
 30
845.712057
 70
    32
  0
SEQEND
  5
824
  8
TEAM-NET
  0
LINE
  5
1DA
  8
TEAM-NET
 10
260.327094
 20
-32.0657
 30
853.195264
 11
259.419311
 21
-33.009022
 31
845.512523
  0
POLYLINE
  5
1DB
  8
TEAM-NET
 66
     1
 10
0.0
 20
0.0
 30
0.0
 70
     8
  0
VERTEX
  5
825
  8
TEAM-NET
 10
260.327106
 20
-32.06572
 30
853.195283
 70
    32
  0
VERTEX
  5
826
  8
TEAM-NET
 10
260.003382
 20
-35.891827
 30
850.029579
 70
    32
  0
VERTEX
  5
827
  8
TEAM-NET
 10
259.715501
 20
-40.308481
 30
847.664202
 70
    32
  0
VERTEX
  5
828
  8
TEAM-NET
 10
259.518343
 20
-45.124303
 30
846.205861
 70
    32
  0
VERTEX
  5
829
  8
TEAM-NET
 10
259.448161
 20
-50.152535
 30
845.712057
 70
    32
  0
SEQEND
  5
82A
  8
TEAM-NET
  0
LINE
  5
1DC
  8
TEAM-NET
 10
259.419311
 20
-33.009022
 30
845.512523
 11
260.327094
 21
-32.0657
 31
853.195264
  0
ARC
  5
1DD
  8
TEAM-NET
 10
-264.397199
 20
845.0
 30
50.152535
 40
5.0
210
0.0
220
-1.0
230
0.0
 50
8.187407
 51
90.0
  0
ARC
  5
1DE
  8
TEAM-NET
 10
-264.397199
 20
845.0
 30
50.152535
 40
5.0
210
0.0
220
-1.0
230
0.0
 50
8.187407
 51
90.0
  0
ARC
  5
1DF
  8
TEAM-NET
 10
-418.0
 20
843.0
 30
50.152535
 40
7.0
210
0.0
220
-1.0
230
0.0
 50
90.0
 51
180.0
  0
ARC
  5
1E0
  8
TEAM-NET
 10
-418.0
 20
843.0
 30
50.152535
 40
7.0
210
0.0
220
-1.0
230
0.0
 50
90.0
 51
180.0
  0
POLYLINE
  5
1E1
  8
TEAM-NET
 66
     1
 10
0.0
 20
0.0
 30
0.0
 70
     8
  0
VERTEX
  5
82B
  8
TEAM-NET
 10
-259.448161
 20
-50.152535
 30
845.712057
 70
    32
  0
VERTEX
  5
82C
  8
TEAM-NET
 10
-259.518337
 20
-45.124498
 30
846.205846
 70
    32
  0
VERTEX
  5
82D
  8
TEAM-NET
 10
-259.715485
 20
-40.308789
 30
847.66412
 70
    32
  0
VERTEX
  5
82E
  8
TEAM-NET
 10
-260.003361
 20
-35.892024
 30
850.029487
 70
    32
  0
VERTEX
  5
82F
  8
TEAM-NET
 10
-260.327103
 20
-32.065722
 30
853.195285
 70
    32
  0
SEQEND
  5
830
  8
TEAM-NET
  0
LINE
  5
1E2
  8
TEAM-NET
 10
-260.327094
 20
-32.0657
 30
853.195264
 11
-259.419311
 21
-33.009022
 31
845.512523
  0
POLYLINE
  5
1E3
  8
TEAM-NET
 66
     1
 10
0.0
 20
0.0
 30
0.0
 70
     8
  0
VERTEX
  5
831
  8
TEAM-NET
 10
-259.448161
 20
-50.152535
 30
845.712057
 70
    32
  0
VERTEX
  5
832
  8
TEAM-NET
 10
-259.518337
 20
-45.124498
 30
846.205846
 70
    32
  0
VERTEX
  5
833
  8
TEAM-NET
 10
-259.715485
 20
-40.308789
 30
847.66412
 70
    32
  0
VERTEX
  5
834
  8
TEAM-NET
 10
-260.003361
 20
-35.892024
 30
850.029487
 70
    32
  0
VERTEX
  5
835
  8
TEAM-NET
 10
-260.327103
 20
-32.065722
 30
853.195285
 70
    32
  0
SEQEND
  5
836
  8
TEAM-NET
  0
LINE
  5
1E4
  8
TEAM-NET
 10
-260.327094
 20
-32.0657
 30
853.195264
 11
-259.419311
 21
-33.009022
 31
845.512523
  0
ARC
  5
1E5
  8
TEAM-NET
 10
-418.0
 20
843.0
 30
443.440306
 40
7.0
210
0.0
220
-1.0
230
0.0
 50
90.0
 51
180.0
  0
ARC
  5
1E6
  8
TEAM-NET
 10
-418.0
 20
843.0
 30
443.440306
 40
7.0
210
0.0
220
-1.0
230
0.0
 50
90.0
 51
180.0
  0
ARC
  5
1E7
  8
TEAM-NET
 10
-476.440306
 20
843.0
 30
-385.0
 40
7.0
210
1.0
220
0.0
230
0.0
 50
90.0
 51
180.0
  0
ARC
  5
1E8
  8
TEAM-NET
 10
-476.440306
 20
843.0
 30
-385.0
 40
7.0
210
1.0
220
0.0
230
0.0
 50
90.0
 51
180.0
  0
ARC
  5
1E9
  8
TEAM-NET
 10
-443.075178
 20
845.0
 30
-244.163358
 40
5.0
210
1.0
220
0.0
230
0.0
 50
0.075403
 51
90.0
  0
ARC
  5
1EA
  8
TEAM-NET
 10
-264.397199
 20
845.0
 30
423.058313
 40
5.0
210
0.0
220
-1.0
230
0.0
 50
8.187407
 51
90.0
  0
ARC
  5
1EB
  8
TEAM-NET
 10
-443.075178
 20
845.0
 30
-244.163358
 40
5.0
210
1.0
220
0.0
230
0.0
 50
0.075403
 51
90.0
  0
ARC
  5
1EC
  8
TEAM-NET
 10
-264.397199
 20
845.0
 30
423.058313
 40
5.0
210
0.0
220
-1.0
230
0.0
 50
8.187407
 51
90.0
  0
ARC
  5
1ED
  8
TEAM-NET
 10
418.0
 20
843.0
 30
443.440306
 40
7.0
210
0.0
220
-1.0
230
0.0
 50
0.0
 51
90.0
  0
ARC
  5
1EE
  8
TEAM-NET
 10
418.0
 20
843.0
 30
443.440306
 40
7.0
210
0.0
220
-1.0
230
0.0
 50
0.0
 51
90.0
  0
ARC
  5
1EF
  8
TEAM-NET
 10
476.440306
 20
843.0
 30
-385.0
 40
7.0
210
-1.0
220
0.0
230
0.0
 50
0.0
 51
90.0
  0
ARC
  5
1F0
  8
TEAM-NET
 10
476.440306
 20
843.0
 30
-385.0
 40
7.0
210
-1.0
220
0.0
230
0.0
 50
0.0
 51
90.0
  0
ARC
  5
1F1
  8
TEAM-NET
 10
443.075178
 20
845.0
 30
-244.163358
 40
5.0
210
-1.0
220
0.0
230
0.0
 50
90.0
 51
179.924597
  0
ARC
  5
1F2
  8
TEAM-NET
 10
443.075178
 20
845.0
 30
-244.163358
 40
5.0
210
-1.0
220
0.0
230
0.0
 50
90.0
 51
179.924597
  0
ARC
  5
1F3
  8
TEAM-NET
 10
264.397199
 20
845.0
 30
423.058313
 40
5.0
210
0.0
220
-1.0
230
0.0
 50
90.0
 51
171.812593
  0
ARC
  5
1F4
  8
TEAM-NET
 10
264.397199
 20
845.0
 30
423.058313
 40
5.0
210
0.0
220
-1.0
230
0.0
 50
90.0
 51
171.812593
  0
LINE
  5
1F5
  8
TEAM-NET
 10
-3.0
 20
-69.056515
 30
877.068735
 11
-3.0
 21
-75.501964
 31
842.745107
  0
LINE
  5
1F6
  8
TEAM-NET
 10
-2.0
 20
-76.484785
 30
842.929666
 11
-2.0
 21
-70.039337
 31
877.253294
  0
LINE
  5
1F7
  8
TEAM-NET
 10
2.0
 20
-70.039337
 30
877.253294
 11
2.0
 21
-76.484785
 31
842.929666
210
-0.0
220
-0.982821
230
0.184559
  0
LINE
  5
1F8
  8
TEAM-NET
 10
-2.0
 20
-76.484785
 30
842.929666
 11
-2.0
 21
-70.039337
 31
877.253294
210
-0.0
220
-0.982821
230
0.184559
  0
LINE
  5
1F9
  8
TEAM-NET
 10
2.0
 20
-70.039337
 30
877.253294
 11
2.0
 21
-76.484785
 31
842.929666
  0
LINE
  5
1FA
  8
TEAM-NET
 10
3.0
 20
-75.501964
 30
842.745107
 11
3.0
 21
-69.056515
 31
877.068735
  0
LINE
  5
1FB
  8
TEAM-NET
 10
-1.0
 20
-66.093941
 30
876.590182
 11
-1.0
 21
-72.553496
 31
842.19143
  0
LINE
  5
1FC
  8
TEAM-NET
 10
-3.0
 20
-68.059584
 30
876.9593
 11
-3.0
 21
-74.519139
 31
842.560548
  0
LINE
  5
1FD
  8
TEAM-NET
 10
1.0
 20
-72.553496
 30
842.19143
 11
1.0
 21
-66.093941
 31
876.590182
210
0.0
220
0.982821
230
-0.184559
  0
LINE
  5
1FE
  8
TEAM-NET
 10
-1.0
 20
-66.093941
 30
876.590182
 11
-1.0
 21
-72.553496
 31
842.19143
210
0.0
220
0.982821
230
-0.184559
  0
LINE
  5
1FF
  8
TEAM-NET
 10
3.0
 20
-68.059584
 30
876.9593
 11
3.0
 21
-74.519139
 31
842.560548
  0
LINE
  5
200
  8
TEAM-NET
 10
1.0
 20
-72.553496
 30
842.19143
 11
1.0
 21
-66.093941
 31
876.590182
  0
LINE
  5
201
  8
TEAM-NET
 10
3.0
 20
-68.059584
 30
876.9593
 11
3.0
 21
-74.519139
 31
842.560548
210
1.0
220
-0.0
230
-0.0
  0
LINE
  5
202
  8
TEAM-NET
 10
3.0
 20
-75.501964
 30
842.745107
 11
3.0
 21
-69.056515
 31
877.068735
210
1.0
220
-0.0
230
-0.0
  0
LINE
  5
203
  8
TEAM-NET
 10
-3.0
 20
-69.056515
 30
877.068735
 11
-3.0
 21
-75.501964
 31
842.745107
210
-1.0
220
0.0
230
0.0
  0
LINE
  5
204
  8
TEAM-NET
 10
-3.0
 20
-68.059584
 30
876.9593
 11
-3.0
 21
-74.519139
 31
842.560548
210
-1.0
220
0.0
230
0.0
  0
ARC
  5
205
  8
TEAM-NET
 10
50.152535
 20
870.0
 30
-418.0
 40
20.0
210
-1.0
220
0.0
230
0.0
 50
187.0
 51
270.0
  0
ARC
  5
206
  8
TEAM-NET
 10
50.152535
 20
870.0
 30
-418.0
 40
20.0
210
-1.0
220
0.0
230
0.0
 50
187.0
 51
270.0
  0
ARC
  5
207
  8
TEAM-NET
 10
-50.152535
 20
870.0
 30
-418.0
 40
20.0
210
1.0
220
0.0
230
0.0
 50
270.0
 51
353.0
  0
ARC
  5
208
  8
TEAM-NET
 10
-50.152535
 20
870.0
 30
-418.0
 40
20.0
210
1.0
220
0.0
230
0.0
 50
270.0
 51
353.0
  0
ARC
  5
209
  8
TEAM-NET
 10
-50.152535
 20
870.0
 30
425.0
 40
27.0
210
1.0
220
0.0
230
0.0
 50
270.0
 51
353.0
  0
ARC
  5
20A
  8
TEAM-NET
 10
-50.152535
 20
870.0
 30
425.0
 40
27.0
210
1.0
220
0.0
230
0.0
 50
270.0
 51
353.0
  0
LINE
  5
20B
  8
TEAM-NET
 10
425.0
 20
1.559694
 30
825.00089
 11
425.0
 21
1.559694
 31
878.0
210
0.0
220
1.0
230
0.0
  0
LINE
  5
20C
  8
TEAM-NET
 10
425.0
 20
1.559694
 30
825.00089
 11
425.0
 21
1.559694
 31
878.0
210
1.0
220
0.0
230
0.0
  0
ARC
  5
20D
  8
TEAM-NET
 10
50.152535
 20
870.0
 30
425.0
 40
27.0
210
-1.0
220
0.0
230
0.0
 50
187.0
 51
270.0
  0
ARC
  5
20E
  8
TEAM-NET
 10
50.152535
 20
870.0
 30
425.0
 40
27.0
210
-1.0
220
0.0
230
0.0
 50
187.0
 51
270.0
  0
LINE
  5
20F
  8
TEAM-NET
 10
-425.0
 20
1.559694
 30
825.00089
 11
-425.0
 21
1.559694
 31
878.0
210
0.0
220
1.0
230
0.0
  0
LINE
  5
210
  8
TEAM-NET
 10
-425.0
 20
1.559694
 30
825.00089
 11
-425.0
 21
1.559694
 31
878.0
210
-1.0
220
0.0
230
0.0
  0
ARC
  5
211
  8
TEAM-NET
 10
40.0
 20
815.0
 30
123.440306
 40
13.0
210
0.0
220
-1.0
230
0.0
 50
360.0
 51
90.0
  0
ARC
  5
212
  8
TEAM-NET
 10
40.0
 20
815.0
 30
123.440306
 40
13.0
210
0.0
220
-1.0
230
0.0
 50
360.0
 51
90.0
  0
LINE
  5
213
  8
TEAM-NET
 10
-425.0
 20
-443.440306
 30
843.0
 11
-425.0
 21
-443.440306
 31
825.00089
210
-1.0
220
0.0
230
0.0
  0
LINE
  5
214
  8
TEAM-NET
 10
-385.0
 20
-483.440306
 30
825.00089
 11
-385.0
 21
-483.440306
 31
843.0
  0
LINE
  5
215
  8
TEAM-NET
 10
-425.0
 20
-443.440306
 30
843.0
 11
-425.0
 21
-443.440306
 31
825.00089
  0
LINE
  5
216
  8
TEAM-NET
 10
-385.0
 20
-483.440306
 30
825.00089
 11
-385.0
 21
-483.440306
 31
843.0
210
0.0
220
-1.0
230
0.0
  0
LINE
  5
217
  8
TEAM-NET
 10
385.0
 20
-483.440306
 30
843.0
 11
385.0
 21
-483.440306
 31
825.00089
210
0.0
220
-1.0
230
0.0
  0
LINE
  5
218
  8
TEAM-NET
 10
425.0
 20
-443.440306
 30
825.00089
 11
425.0
 21
-443.440306
 31
843.0
  0
LINE
  5
219
  8
TEAM-NET
 10
385.0
 20
-483.440306
 30
843.0
 11
385.0
 21
-483.440306
 31
825.00089
  0
LINE
  5
21A
  8
TEAM-NET
 10
425.0
 20
-443.440306
 30
825.00089
 11
425.0
 21
-443.440306
 31
843.0
210
1.0
220
0.0
230
0.0
  0
ARC
  5
21B
  8
TEAM-NET
 10
120.440306
 20
828.0
 30
-40.0
 40
3.0
210
-1.0
220
0.0
230
0.0
 50
270.0
 51
360.0
  0
ARC
  5
21C
  8
TEAM-NET
 10
120.440306
 20
828.0
 30
-40.0
 40
3.0
210
-1.0
220
0.0
230
0.0
 50
270.0
 51
360.0
  0
LINE
  5
21D
  8
TEAM-NET
 10
420.0
 20
1.559694
 30
820.00089
 11
415.0
 21
1.559694
 31
820.00089
210
0.0
220
1.0
230
0.0
  0
LINE
  5
21E
  8
TEAM-NET
 10
420.0
 20
1.559694
 30
820.00089
 11
415.0
 21
1.559694
 31
820.00089
210
0.0
220
0.0
230
-1.0
  0
LINE
  5
21F
  8
TEAM-NET
 10
-415.0
 20
1.559694
 30
820.00089
 11
-420.0
 21
1.559694
 31
820.00089
210
0.0
220
1.0
230
0.0
  0
LINE
  5
220
  8
TEAM-NET
 10
-415.0
 20
1.559694
 30
820.00089
 11
-420.0
 21
1.559694
 31
820.00089
210
0.0
220
0.0
230
-1.0
  0
LINE
  5
221
  8
TEAM-NET
 10
-415.0
 20
-440.389818
 30
820.00089
 11
-415.0
 21
1.559694
 31
820.00089
  0
LINE
  5
222
  8
TEAM-NET
 10
-425.0
 20
-443.440306
 30
825.00089
 11
-425.0
 21
1.559694
 31
825.00089
210
-1.0
220
0.0
230
0.0
  0
LINE
  5
223
  8
TEAM-NET
 10
-420.0
 20
1.559694
 30
820.00089
 11
-420.0
 21
-443.440306
 31
820.00089
  0
LINE
  5
224
  8
TEAM-NET
 10
-425.0
 20
-443.440306
 30
825.00089
 11
-425.0
 21
1.559694
 31
825.00089
  0
LINE
  5
225
  8
TEAM-NET
 10
-420.0
 20
1.559694
 30
820.00089
 11
-420.0
 21
-443.440306
 31
820.00089
210
0.0
220
0.0
230
-1.0
  0
LINE
  5
226
  8
TEAM-NET
 10
-415.0
 20
-440.389818
 30
820.00089
 11
-415.0
 21
1.559694
 31
820.00089
210
0.0
220
0.0
230
-1.0
  0
LINE
  5
227
  8
TEAM-NET
 10
-378.315388
 20
-469.897819
 30
820.00089
 11
-385.145035
 21
-469.897819
 31
820.00089
  0
ARC
  5
228
  8
TEAM-NET
 10
385.0
 20
-443.440306
 30
-825.00089
 40
40.0
210
0.0
220
0.0
230
-1.0
 50
270.0
 51
0.0
  0
ARC
  5
229
  8
TEAM-NET
 10
-385.0
 20
-443.440306
 30
820.00089
 40
35.0
 50
180.0
 51
270.0
  0
ARC
  5
22A
  8
TEAM-NET
 10
385.0
 20
-443.440306
 30
-825.00089
 40
40.0
210
0.0
220
0.0
230
-1.0
 50
270.0
 51
0.0
  0
ARC
  5
22B
  8
TEAM-NET
 10
385.0
 20
-443.440306
 30
-820.00089
 40
35.0
210
0.0
220
0.0
230
-1.0
 50
270.0
 51
0.0
  0
LINE
  5
22C
  8
TEAM-NET
 10
-378.315388
 20
-469.897819
 30
820.00089
 11
-385.145035
 21
-469.897819
 31
820.00089
210
0.0
220
0.0
230
-1.0
  0
LINE
  5
22D
  8
TEAM-NET
 10
-378.315388
 20
-469.897819
 30
820.00089
 11
378.315388
 21
-469.897819
 31
820.00089
210
0.0
220
0.0
230
-1.0
  0
LINE
  5
22E
  8
TEAM-NET
 10
-385.0
 20
-478.440306
 30
820.00089
 11
385.0
 21
-478.440306
 31
820.00089
210
0.0
220
0.0
230
-1.0
  0
LINE
  5
22F
  8
TEAM-NET
 10
385.0
 20
-483.440306
 30
825.00089
 11
-385.0
 21
-483.440306
 31
825.00089
  0
LINE
  5
230
  8
TEAM-NET
 10
-385.0
 20
-478.440306
 30
820.00089
 11
385.0
 21
-478.440306
 31
820.00089
  0
LINE
  5
231
  8
TEAM-NET
 10
385.0
 20
-483.440306
 30
825.00089
 11
-385.0
 21
-483.440306
 31
825.00089
210
0.0
220
-1.0
230
0.0
  0
LINE
  5
232
  8
TEAM-NET
 10
-378.315388
 20
-469.897819
 30
820.00089
 11
378.315388
 21
-469.897819
 31
820.00089
  0
LINE
  5
233
  8
TEAM-NET
 10
425.0
 20
1.559694
 30
825.00089
 11
425.0
 21
-443.440306
 31
825.00089
210
1.0
220
0.0
230
0.0
  0
LINE
  5
234
  8
TEAM-NET
 10
415.0
 20
1.559694
 30
820.00089
 11
415.0
 21
-440.172874
 31
820.00089
  0
LINE
  5
235
  8
TEAM-NET
 10
425.0
 20
1.559694
 30
825.00089
 11
425.0
 21
-443.440306
 31
825.00089
  0
LINE
  5
236
  8
TEAM-NET
 10
420.0
 20
-443.440306
 30
820.00089
 11
420.0
 21
1.559694
 31
820.00089
  0
LINE
  5
237
  8
TEAM-NET
 10
420.0
 20
-443.440306
 30
820.00089
 11
420.0
 21
1.559694
 31
820.00089
210
0.0
220
0.0
230
-1.0
  0
LINE
  5
238
  8
TEAM-NET
 10
415.0
 20
1.559694
 30
820.00089
 11
415.0
 21
-440.172874
 31
820.00089
210
0.0
220
0.0
230
-1.0
  0
LINE
  5
239
  8
TEAM-NET
 10
385.237993
 20
-469.897819
 30
820.00089
 11
378.315388
 21
-469.897819
 31
820.00089
  0
ARC
  5
23A
  8
TEAM-NET
 10
-385.0
 20
-443.440306
 30
-825.00089
 40
40.0
210
0.0
220
0.0
230
-1.0
 50
180.0
 51
270.0
  0
ARC
  5
23B
  8
TEAM-NET
 10
-385.0
 20
-443.440306
 30
-825.00089
 40
40.0
210
0.0
220
0.0
230
-1.0
 50
180.0
 51
270.0
  0
ARC
  5
23C
  8
TEAM-NET
 10
385.0
 20
-443.440306
 30
820.00089
 40
35.0
 50
270.0
 51
0.0
  0
ARC
  5
23D
  8
TEAM-NET
 10
-385.0
 20
-443.440306
 30
-820.00089
 40
35.0
210
0.0
220
0.0
230
-1.0
 50
180.0
 51
270.0
  0
LINE
  5
23E
  8
TEAM-NET
 10
385.237993
 20
-469.897819
 30
820.00089
 11
378.315388
 21
-469.897819
 31
820.00089
210
0.0
220
0.0
230
-1.0
  0
POLYLINE
  5
23F
  8
TEAM-NET
 66
     1
 10
0.0
 20
0.0
 30
0.0
 70
     8
  0
VERTEX
  5
837
  8
TEAM-NET
 10
-415.0
 20
-440.389818
 30
820.00089
 70
    32
  0
VERTEX
  5
838
  8
TEAM-NET
 10
-414.427921
 20
-446.180488
 30
820.00089
 70
    32
  0
VERTEX
  5
839
  8
TEAM-NET
 10
-412.728162
 20
-451.744751
 30
820.00089
 70
    32
  0
VERTEX
  5
83A
  8
TEAM-NET
 10
-409.963077
 20
-456.862965
 30
820.00089
 70
    32
  0
VERTEX
  5
83B
  8
TEAM-NET
 10
-406.239759
 20
-461.336097
 30
820.00089
 70
    32
  0
VERTEX
  5
83C
  8
TEAM-NET
 10
-401.711225
 20
-464.987899
 30
820.00089
 70
    32
  0
VERTEX
  5
83D
  8
TEAM-NET
 10
-396.551675
 20
-467.688083
 30
820.00089
 70
    32
  0
VERTEX
  5
83E
  8
TEAM-NET
 10
-390.955323
 20
-469.3429
 30
820.00089
 70
    32
  0
VERTEX
  5
83F
  8
TEAM-NET
 10
-385.145035
 20
-469.897819
 30
820.00089
 70
    32
  0
SEQEND
  5
840
  8
TEAM-NET
  0
POLYLINE
  5
240
  8
TEAM-NET
 66
     1
 10
0.0
 20
0.0
 30
0.0
 70
     8
  0
VERTEX
  5
841
  8
TEAM-NET
 10
-415.0
 20
-440.389818
 30
820.00089
 70
    32
  0
VERTEX
  5
842
  8
TEAM-NET
 10
-414.427921
 20
-446.180488
 30
820.00089
 70
    32
  0
VERTEX
  5
843
  8
TEAM-NET
 10
-412.728162
 20
-451.744751
 30
820.00089
 70
    32
  0
VERTEX
  5
844
  8
TEAM-NET
 10
-409.963077
 20
-456.862965
 30
820.00089
 70
    32
  0
VERTEX
  5
845
  8
TEAM-NET
 10
-406.239759
 20
-461.336097
 30
820.00089
 70
    32
  0
VERTEX
  5
846
  8
TEAM-NET
 10
-401.711225
 20
-464.987899
 30
820.00089
 70
    32
  0
VERTEX
  5
847
  8
TEAM-NET
 10
-396.551675
 20
-467.688083
 30
820.00089
 70
    32
  0
VERTEX
  5
848
  8
TEAM-NET
 10
-390.955323
 20
-469.3429
 30
820.00089
 70
    32
  0
VERTEX
  5
849
  8
TEAM-NET
 10
-385.145035
 20
-469.897819
 30
820.00089
 70
    32
  0
SEQEND
  5
84A
  8
TEAM-NET
  0
POLYLINE
  5
241
  8
TEAM-NET
 66
     1
 10
0.0
 20
0.0
 30
0.0
 70
     8
  0
VERTEX
  5
84B
  8
TEAM-NET
 10
385.237993
 20
-469.897819
 30
820.00089
 70
    32
  0
VERTEX
  5
84C
  8
TEAM-NET
 10
391.046436
 20
-469.332498
 30
820.00089
 70
    32
  0
VERTEX
  5
84D
  8
TEAM-NET
 10
396.63342
 20
-467.652371
 30
820.00089
 70
    32
  0
VERTEX
  5
84E
  8
TEAM-NET
 10
401.78534
 20
-464.914365
 30
820.00089
 70
    32
  0
VERTEX
  5
84F
  8
TEAM-NET
 10
406.300329
 20
-461.220272
 30
820.00089
 70
    32
  0
VERTEX
  5
850
  8
TEAM-NET
 10
410.001913
 20
-456.712027
 30
820.00089
 70
    32
  0
VERTEX
  5
851
  8
TEAM-NET
 10
412.747693
 20
-451.563603
 30
820.00089
 70
    32
  0
VERTEX
  5
852
  8
TEAM-NET
 10
414.432734
 20
-445.980036
 30
820.00089
 70
    32
  0
VERTEX
  5
853
  8
TEAM-NET
 10
415.0
 20
-440.172874
 30
820.00089
 70
    32
  0
SEQEND
  5
854
  8
TEAM-NET
  0
POLYLINE
  5
242
  8
TEAM-NET
 66
     1
 10
0.0
 20
0.0
 30
0.0
 70
     8
  0
VERTEX
  5
855
  8
TEAM-NET
 10
385.237993
 20
-469.897819
 30
820.00089
 70
    32
  0
VERTEX
  5
856
  8
TEAM-NET
 10
391.046436
 20
-469.332498
 30
820.00089
 70
    32
  0
VERTEX
  5
857
  8
TEAM-NET
 10
396.63342
 20
-467.652371
 30
820.00089
 70
    32
  0
VERTEX
  5
858
  8
TEAM-NET
 10
401.78534
 20
-464.914365
 30
820.00089
 70
    32
  0
VERTEX
  5
859
  8
TEAM-NET
 10
406.300329
 20
-461.220272
 30
820.00089
 70
    32
  0
VERTEX
  5
85A
  8
TEAM-NET
 10
410.001913
 20
-456.712027
 30
820.00089
 70
    32
  0
VERTEX
  5
85B
  8
TEAM-NET
 10
412.747693
 20
-451.563603
 30
820.00089
 70
    32
  0
VERTEX
  5
85C
  8
TEAM-NET
 10
414.432734
 20
-445.980036
 30
820.00089
 70
    32
  0
VERTEX
  5
85D
  8
TEAM-NET
 10
415.0
 20
-440.172874
 30
820.00089
 70
    32
  0
SEQEND
  5
85E
  8
TEAM-NET
  0
LINE
  5
243
  8
TEAM-NET
 10
50.0
 20
-120.440306
 30
815.0
 11
50.0
 21
-118.440306
 31
815.0
  0
LINE
  5
244
  8
TEAM-NET
 10
30.0
 20
-120.440306
 30
815.0
 11
30.0
 21
-118.440306
 31
815.0
  0
LINE
  5
245
  8
TEAM-NET
 10
50.0
 20
-120.440306
 30
815.0
 11
50.0
 21
-118.440306
 31
815.0
  0
LINE
  5
246
  8
TEAM-NET
 10
30.0
 20
-120.440306
 30
815.0
 11
30.0
 21
-118.440306
 31
815.0
  0
LINE
  5
247
  8
TEAM-NET
 10
413.3561
 20
-438.892349
 30
810.174656
 11
413.3561
 21
1.559694
 31
810.174656
  0
LINE
  5
248
  8
TEAM-NET
 10
413.3561
 20
-438.892349
 30
810.174656
 11
413.3561
 21
1.559694
 31
810.174656
  0
ARC
  5
249
  8
TEAM-NET
 10
-40.0
 20
815.0
 30
-120.440306
 40
10.0
210
0.0
220
1.0
230
0.0
 50
0.0
 51
90.0
  0
ARC
  5
24A
  8
TEAM-NET
 10
-40.0
 20
815.0
 30
-120.440306
 40
10.0
210
0.0
220
1.0
230
0.0
 50
90.0
 51
180.0
  0
ARC
  5
24B
  8
TEAM-NET
 10
-40.0
 20
815.0
 30
-120.440306
 40
10.0
210
0.0
220
1.0
230
0.0
 50
0.0
 51
90.0
  0
ARC
  5
24C
  8
TEAM-NET
 10
-40.0
 20
815.0
 30
-120.440306
 40
10.0
210
0.0
220
1.0
230
0.0
 50
90.0
 51
180.0
  0
ARC
  5
24D
  8
TEAM-NET
 10
-420.0
 20
825.00089
 30
1.559694
 40
5.0
210
0.0
220
1.0
230
0.0
 50
180.0
 51
270.0
  0
ARC
  5
24E
  8
TEAM-NET
 10
8.873756
 20
885.863098
 30
1.559694
 40
428.960128
210
0.0
220
1.0
230
0.0
 50
188.832086
 51
190.162837
  0
ARC
  5
24F
  8
TEAM-NET
 10
8.873756
 20
885.863098
 30
1.559694
 40
428.960128
210
0.0
220
1.0
230
0.0
 50
188.832086
 51
190.162837
  0
ARC
  5
250
  8
TEAM-NET
 10
420.0
 20
825.00089
 30
-1.559694
 40
5.0
210
0.0
220
-1.0
230
0.0
 50
270.0
 51
0.0
  0
ARC
  5
251
  8
TEAM-NET
 10
420.0
 20
825.00089
 30
1.559694
 40
5.0
210
0.0
220
1.0
230
0.0
 50
270.0
 51
0.0
  0
ARC
  5
252
  8
TEAM-NET
 10
-420.0
 20
825.00089
 30
-1.559694
 40
5.0
210
0.0
220
-1.0
230
0.0
 50
180.0
 51
270.0
  0
ARC
  5
253
  8
TEAM-NET
 10
-420.0
 20
825.00089
 30
443.440306
 40
5.0
210
0.0
220
-1.0
230
0.0
 50
180.0
 51
270.0
  0
ARC
  5
254
  8
TEAM-NET
 10
-420.0
 20
825.00089
 30
443.440306
 40
5.0
210
0.0
220
-1.0
230
0.0
 50
180.0
 51
270.0
  0
ARC
  5
255
  8
TEAM-NET
 10
-478.440306
 20
825.00089
 30
-385.0
 40
5.0
210
1.0
220
0.0
230
0.0
 50
180.0
 51
270.0
  0
ARC
  5
256
  8
TEAM-NET
 10
-478.440306
 20
825.00089
 30
-385.0
 40
5.0
210
1.0
220
0.0
230
0.0
 50
180.0
 51
270.0
  0
ARC
  5
257
  8
TEAM-NET
 10
420.0
 20
825.00089
 30
443.440306
 40
5.0
210
0.0
220
-1.0
230
0.0
 50
270.0
 51
0.0
  0
ARC
  5
258
  8
TEAM-NET
 10
420.0
 20
825.00089
 30
443.440306
 40
5.0
210
0.0
220
-1.0
230
0.0
 50
270.0
 51
0.0
  0
ARC
  5
259
  8
TEAM-NET
 10
478.440306
 20
825.00089
 30
-385.0
 40
5.0
210
-1.0
220
0.0
230
0.0
 50
270.0
 51
0.0
  0
ARC
  5
25A
  8
TEAM-NET
 10
478.440306
 20
825.00089
 30
-385.0
 40
5.0
210
-1.0
220
0.0
230
0.0
 50
270.0
 51
0.0
  0
POLYLINE
  5
25B
  8
TEAM-NET
 66
     1
 10
0.0
 20
0.0
 30
0.0
 70
     8
  0
VERTEX
  5
85F
  8
TEAM-NET
 10
413.3561
 20
-438.892349
 30
810.174656
 70
    32
  0
VERTEX
  5
860
  8
TEAM-NET
 10
413.498812
 20
-439.932756
 30
810.975147
 70
    32
  0
VERTEX
  5
861
  8
TEAM-NET
 10
413.707236
 20
-440.537241
 30
812.160428
 70
    32
  0
VERTEX
  5
862
  8
TEAM-NET
 10
414.260258
 20
-441.303363
 30
815.404614
 70
    32
  0
VERTEX
  5
863
  8
TEAM-NET
 10
414.770089
 20
-441.198868
 30
818.537893
 70
    32
  0
VERTEX
  5
864
  8
TEAM-NET
 10
414.928803
 20
-440.823919
 30
819.544299
 70
    32
  0
VERTEX
  5
865
  8
TEAM-NET
 10
415.0
 20
-440.172874
 30
820.00089
 70
    32
  0
SEQEND
  5
866
  8
TEAM-NET
  0
POLYLINE
  5
25C
  8
TEAM-NET
 66
     1
 10
0.0
 20
0.0
 30
0.0
 70
     8
  0
VERTEX
  5
867
  8
TEAM-NET
 10
413.3561
 20
-438.892349
 30
810.174656
 70
    32
  0
VERTEX
  5
868
  8
TEAM-NET
 10
413.498812
 20
-439.932756
 30
810.975147
 70
    32
  0
VERTEX
  5
869
  8
TEAM-NET
 10
413.707236
 20
-440.537241
 30
812.160428
 70
    32
  0
VERTEX
  5
86A
  8
TEAM-NET
 10
414.260258
 20
-441.303363
 30
815.404614
 70
    32
  0
VERTEX
  5
86B
  8
TEAM-NET
 10
414.770089
 20
-441.198868
 30
818.537893
 70
    32
  0
VERTEX
  5
86C
  8
TEAM-NET
 10
414.928803
 20
-440.823919
 30
819.544299
 70
    32
  0
VERTEX
  5
86D
  8
TEAM-NET
 10
415.0
 20
-440.172874
 30
820.00089
 70
    32
  0
SEQEND
  5
86E
  8
TEAM-NET
  0
ARC
  5
25D
  8
TEAM-NET
 10
-20.328427
 20
839.0
 30
82.910718
 40
3.0
210
0.0
220
-1.0
230
0.0
 50
19.471221
 51
90.0
  0
ARC
  5
25E
  8
TEAM-NET
 10
0.0
 20
-82.910718
 30
842.0
 40
20.328427
 50
180.0
 51
0.0
  0
ARC
  5
25F
  8
TEAM-NET
 10
0.0
 20
-82.910718
 30
-840.0
 40
17.5
210
0.0
220
0.0
230
-1.0
 50
180.0
 51
0.0
  0
ARC
  5
260
  8
TEAM-NET
 10
-20.328427
 20
839.0
 30
-82.910718
 40
3.0
210
0.0
220
1.0
230
0.0
 50
19.471221
 51
90.0
  0
ARC
  5
261
  8
TEAM-NET
 10
0.0
 20
-82.910718
 30
842.0
 40
20.328427
 50
0.0
 51
180.0
  0
ARC
  5
262
  8
TEAM-NET
 10
0.0
 20
-82.910718
 30
842.0
 40
20.328427
 50
180.0
 51
0.0
  0
ARC
  5
263
  8
TEAM-NET
 10
-20.328427
 20
839.0
 30
82.910718
 40
3.0
210
0.0
220
-1.0
230
0.0
 50
19.471221
 51
90.0
  0
ARC
  5
264
  8
TEAM-NET
 10
0.0
 20
-82.910718
 30
-840.0
 40
17.5
210
0.0
220
0.0
230
-1.0
 50
0.0
 51
180.0
  0
ARC
  5
265
  8
TEAM-NET
 10
0.0
 20
-82.910718
 30
842.0
 40
20.328427
 50
0.0
 51
180.0
  0
ARC
  5
266
  8
TEAM-NET
 10
-20.328427
 20
839.0
 30
-82.910718
 40
3.0
210
0.0
220
1.0
230
0.0
 50
19.471221
 51
90.0
  0
ARC
  5
267
  8
TEAM-NET
 10
0.0
 20
-82.910718
 30
-840.0
 40
17.5
210
0.0
220
0.0
230
-1.0
 50
180.0
 51
0.0
  0
ARC
  5
268
  8
TEAM-NET
 10
0.0
 20
-82.910718
 30
-840.0
 40
17.5
210
0.0
220
0.0
230
-1.0
 50
0.0
 51
180.0
  0
LINE
  5
269
  8
TEAM-NET
 10
1.0
 20
-72.553496
 30
842.19143
 11
-1.0
 21
-72.553496
 31
842.19143
210
-0.0
220
-0.184559
230
-0.982821
  0
ARC
  5
26A
  8
TEAM-NET
 10
1.0
 20
228.740917
 30
-814.333452
 40
2.0
210
-0.0
220
-0.184559
230
-0.982821
 50
270.0
 51
360.0
  0
ARC
  5
26B
  8
TEAM-NET
 10
-1.0
 20
228.740917
 30
-814.333452
 40
2.0
210
-0.0
220
-0.184559
230
-0.982821
 50
180.0
 51
270.0
  0
LINE
  5
26C
  8
TEAM-NET
 10
3.0
 20
-75.501964
 30
842.745107
 11
3.0
 21
-74.519139
 31
842.560548
210
-0.0
220
-0.184559
230
-0.982821
  0
LINE
  5
26D
  8
TEAM-NET
 10
-3.0
 20
-74.519139
 30
842.560548
 11
-3.0
 21
-75.501964
 31
842.745107
210
-0.0
220
-0.184559
230
-0.982821
  0
ARC
  5
26E
  8
TEAM-NET
 10
2.0
 20
229.74092
 30
-814.333452
 40
1.0
210
-0.0
220
-0.184559
230
-0.982821
 50
360.0
 51
90.0
  0
ARC
  5
26F
  8
TEAM-NET
 10
-2.0
 20
229.74092
 30
-814.333452
 40
1.0
210
-0.0
220
-0.184559
230
-0.982821
 50
90.0
 51
180.0
  0
LINE
  5
270
  8
TEAM-NET
 10
-2.0
 20
-76.484785
 30
842.929666
 11
2.0
 21
-76.484785
 31
842.929666
210
-0.0
220
-0.184559
230
-0.982821
  0
ARC
  5
271
  8
TEAM-NET
 10
2.0
 20
229.74092
 30
814.333452
 40
1.0
210
0.0
220
0.184559
230
0.982821
 50
0.0
 51
90.0
  0
LINE
  5
272
  8
TEAM-NET
 10
-2.0
 20
-76.484785
 30
842.929666
 11
2.0
 21
-76.484785
 31
842.929666
210
-0.0
220
-0.982821
230
0.184559
  0
ARC
  5
273
  8
TEAM-NET
 10
-2.0
 20
229.74092
 30
814.333452
 40
1.0
210
0.0
220
0.184559
230
0.982821
 50
90.0
 51
180.0
  0
ARC
  5
274
  8
TEAM-NET
 10
1.0
 20
228.740917
 30
814.333452
 40
2.0
210
0.0
220
0.184559
230
0.982821
 50
270.0
 51
0.0
  0
LINE
  5
275
  8
TEAM-NET
 10
1.0
 20
-72.553496
 30
842.19143
 11
-1.0
 21
-72.553496
 31
842.19143
210
0.0
220
0.982821
230
-0.184559
  0
ARC
  5
276
  8
TEAM-NET
 10
-1.0
 20
228.740917
 30
814.333452
 40
2.0
210
0.0
220
0.184559
230
0.982821
 50
180.0
 51
270.0
  0
LINE
  5
277
  8
TEAM-NET
 10
3.0
 20
-75.501964
 30
842.745107
 11
3.0
 21
-74.519139
 31
842.560548
210
1.0
220
-0.0
230
-0.0
  0
LINE
  5
278
  8
TEAM-NET
 10
-3.0
 20
-74.519139
 30
842.560548
 11
-3.0
 21
-75.501964
 31
842.745107
210
-1.0
220
0.0
230
0.0
  0
POLYLINE
  5
279
  8
TEAM-NET
 66
     1
 10
0.0
 20
0.0
 30
842.0
 70
   128
  0
VERTEX
  5
F4C
  8
TEAM-NET
 10
0.0
 20
-105.757817
 30
842.0
  0
VERTEX
  5
F4D
  8
TEAM-NET
 10
4.134364
 20
-105.368802
 30
842.0
  0
VERTEX
  5
F4E
  8
TEAM-NET
 10
8.127937
 20
-104.215003
 30
842.0
  0
VERTEX
  5
F4F
  8
TEAM-NET
 10
11.844724
 20
-102.335713
 30
842.0
  0
VERTEX
  5
F50
  8
TEAM-NET
 10
15.158152
 20
-99.794928
 30
842.0
  0
VERTEX
  5
F51
  8
TEAM-NET
 10
17.955388
 20
-96.679171
 30
842.0
  0
VERTEX
  5
F52
  8
TEAM-NET
 10
20.141174
 20
-93.094547
 30
842.0
  0
VERTEX
  5
F53
  8
TEAM-NET
 10
21.641077
 20
-89.163124
 30
842.0
  0
VERTEX
  5
F54
  8
TEAM-NET
 10
22.404019
 20
-85.018783
 30
842.0
  0
VERTEX
  5
F55
  8
TEAM-NET
 10
22.404019
 20
-80.802654
 30
842.0
  0
VERTEX
  5
F56
  8
TEAM-NET
 10
21.641077
 20
-76.658313
 30
842.0
  0
VERTEX
  5
F57
  8
TEAM-NET
 10
20.141174
 20
-72.72689
 30
842.0
  0
VERTEX
  5
F58
  8
TEAM-NET
 10
17.955388
 20
-69.142265
 30
842.0
  0
VERTEX
  5
F59
  8
TEAM-NET
 10
15.158152
 20
-66.026509
 30
842.0
  0
VERTEX
  5
F5A
  8
TEAM-NET
 10
11.844724
 20
-63.485723
 30
842.0
  0
VERTEX
  5
F5B
  8
TEAM-NET
 10
8.127937
 20
-61.606433
 30
842.0
  0
VERTEX
  5
F5C
  8
TEAM-NET
 10
4.134364
 20
-60.452635
 30
842.0
  0
VERTEX
  5
F5D
  8
TEAM-NET
 10
0.0
 20
-60.06362
 30
842.0
  0
SEQEND
  5
F5E
  8
TEAM-NET
  0
POLYLINE
  5
27A
  8
TEAM-NET
 66
     1
 10
0.0
 20
0.0
 30
842.0
 70
   128
  0
VERTEX
  5
F5F
  8
TEAM-NET
 10
0.0
 20
-60.06362
 30
842.0
  0
VERTEX
  5
F60
  8
TEAM-NET
 10
-4.134364
 20
-60.452635
 30
842.0
  0
VERTEX
  5
F61
  8
TEAM-NET
 10
-8.127937
 20
-61.606433
 30
842.0
  0
VERTEX
  5
F62
  8
TEAM-NET
 10
-11.844724
 20
-63.485723
 30
842.0
  0
VERTEX
  5
F63
  8
TEAM-NET
 10
-15.158152
 20
-66.026509
 30
842.0
  0
VERTEX
  5
F64
  8
TEAM-NET
 10
-17.955388
 20
-69.142265
 30
842.0
  0
VERTEX
  5
F65
  8
TEAM-NET
 10
-20.141174
 20
-72.72689
 30
842.0
  0
VERTEX
  5
F66
  8
TEAM-NET
 10
-21.641077
 20
-76.658313
 30
842.0
  0
VERTEX
  5
F67
  8
TEAM-NET
 10
-22.404019
 20
-80.802654
 30
842.0
  0
VERTEX
  5
F68
  8
TEAM-NET
 10
-22.404019
 20
-85.018783
 30
842.0
  0
VERTEX
  5
F69
  8
TEAM-NET
 10
-21.641077
 20
-89.163124
 30
842.0
  0
VERTEX
  5
F6A
  8
TEAM-NET
 10
-20.141174
 20
-93.094547
 30
842.0
  0
VERTEX
  5
F6B
  8
TEAM-NET
 10
-17.955388
 20
-96.679171
 30
842.0
  0
VERTEX
  5
F6C
  8
TEAM-NET
 10
-15.158152
 20
-99.794928
 30
842.0
  0
VERTEX
  5
F6D
  8
TEAM-NET
 10
-11.844724
 20
-102.335713
 30
842.0
  0
VERTEX
  5
F6E
  8
TEAM-NET
 10
-8.127937
 20
-104.215003
 30
842.0
  0
VERTEX
  5
F6F
  8
TEAM-NET
 10
-4.134364
 20
-105.368802
 30
842.0
  0
VERTEX
  5
F70
  8
TEAM-NET
 10
0.0
 20
-105.757817
 30
842.0
  0
SEQEND
  5
F71
  8
TEAM-NET
  0
POLYLINE
  5
27B
  8
TEAM-NET
 66
     1
 10
0.0
 20
0.0
 30
-842.0
 70
   128
210
0.0
220
0.0
230
-1.0
  0
VERTEX
  5
F72
  8
TEAM-NET
 10
0.0
 20
-105.757817
 30
-842.0
  0
VERTEX
  5
F73
  8
TEAM-NET
 10
4.134364
 20
-105.368802
 30
-842.0
  0
VERTEX
  5
F74
  8
TEAM-NET
 10
8.127937
 20
-104.215003
 30
-842.0
  0
VERTEX
  5
F75
  8
TEAM-NET
 10
11.844724
 20
-102.335713
 30
-842.0
  0
VERTEX
  5
F76
  8
TEAM-NET
 10
15.158152
 20
-99.794928
 30
-842.0
  0
VERTEX
  5
F77
  8
TEAM-NET
 10
17.955388
 20
-96.679171
 30
-842.0
  0
VERTEX
  5
F78
  8
TEAM-NET
 10
20.141174
 20
-93.094547
 30
-842.0
  0
VERTEX
  5
F79
  8
TEAM-NET
 10
21.641077
 20
-89.163124
 30
-842.0
  0
VERTEX
  5
F7A
  8
TEAM-NET
 10
22.404019
 20
-85.018783
 30
-842.0
  0
VERTEX
  5
F7B
  8
TEAM-NET
 10
22.404019
 20
-80.802654
 30
-842.0
  0
VERTEX
  5
F7C
  8
TEAM-NET
 10
21.641077
 20
-76.658313
 30
-842.0
  0
VERTEX
  5
F7D
  8
TEAM-NET
 10
20.141174
 20
-72.72689
 30
-842.0
  0
VERTEX
  5
F7E
  8
TEAM-NET
 10
17.955388
 20
-69.142265
 30
-842.0
  0
VERTEX
  5
F7F
  8
TEAM-NET
 10
15.158152
 20
-66.026509
 30
-842.0
  0
VERTEX
  5
F80
  8
TEAM-NET
 10
11.844724
 20
-63.485723
 30
-842.0
  0
VERTEX
  5
F81
  8
TEAM-NET
 10
8.127937
 20
-61.606433
 30
-842.0
  0
VERTEX
  5
F82
  8
TEAM-NET
 10
4.134364
 20
-60.452635
 30
-842.0
  0
VERTEX
  5
F83
  8
TEAM-NET
 10
0.0
 20
-60.06362
 30
-842.0
  0
SEQEND
  5
F84
  8
TEAM-NET
  0
POLYLINE
  5
27C
  8
TEAM-NET
 66
     1
 10
0.0
 20
0.0
 30
-842.0
 70
   128
210
0.0
220
0.0
230
-1.0
  0
VERTEX
  5
F85
  8
TEAM-NET
 10
0.0
 20
-60.06362
 30
-842.0
  0
VERTEX
  5
F86
  8
TEAM-NET
 10
-4.134364
 20
-60.452635
 30
-842.0
  0
VERTEX
  5
F87
  8
TEAM-NET
 10
-8.127937
 20
-61.606433
 30
-842.0
  0
VERTEX
  5
F88
  8
TEAM-NET
 10
-11.844724
 20
-63.485723
 30
-842.0
  0
VERTEX
  5
F89
  8
TEAM-NET
 10
-15.158152
 20
-66.026509
 30
-842.0
  0
VERTEX
  5
F8A
  8
TEAM-NET
 10
-17.955388
 20
-69.142265
 30
-842.0
  0
VERTEX
  5
F8B
  8
TEAM-NET
 10
-20.141174
 20
-72.72689
 30
-842.0
  0
VERTEX
  5
F8C
  8
TEAM-NET
 10
-21.641077
 20
-76.658313
 30
-842.0
  0
VERTEX
  5
F8D
  8
TEAM-NET
 10
-22.404019
 20
-80.802654
 30
-842.0
  0
VERTEX
  5
F8E
  8
TEAM-NET
 10
-22.404019
 20
-85.018783
 30
-842.0
  0
VERTEX
  5
F8F
  8
TEAM-NET
 10
-21.641077
 20
-89.163124
 30
-842.0
  0
VERTEX
  5
F90
  8
TEAM-NET
 10
-20.141174
 20
-93.094547
 30
-842.0
  0
VERTEX
  5
F91
  8
TEAM-NET
 10
-17.955388
 20
-96.679171
 30
-842.0
  0
VERTEX
  5
F92
  8
TEAM-NET
 10
-15.158152
 20
-99.794928
 30
-842.0
  0
VERTEX
  5
F93
  8
TEAM-NET
 10
-11.844724
 20
-102.335713
 30
-842.0
  0
VERTEX
  5
F94
  8
TEAM-NET
 10
-8.127937
 20
-104.215003
 30
-842.0
  0
VERTEX
  5
F95
  8
TEAM-NET
 10
-4.134364
 20
-105.368802
 30
-842.0
  0
VERTEX
  5
F96
  8
TEAM-NET
 10
0.0
 20
-105.757817
 30
-842.0
  0
SEQEND
  5
F97
  8
TEAM-NET
  0
LINE
  5
27D
  8
TEAM-NET
 10
185.0
 20
-33.440306
 30
840.0
 11
185.0
 21
-108.440306
 31
840.0
210
0.0
220
0.0
230
-1.0
  0
LINE
  5
27E
  8
TEAM-NET
 10
185.0
 20
-33.440306
 30
840.0
 11
185.0
 21
-108.440306
 31
840.0
210
-1.0
220
0.0
230
0.0
  0
LINE
  5
27F
  8
TEAM-NET
 10
255.44811
 20
-36.979207
 30
842.0
 11
255.44811
 21
-122.890599
 31
842.0
  0
LINE
  5
280
  8
TEAM-NET
 10
255.44811
 20
-36.979207
 30
842.0
 11
255.44811
 21
-122.890599
 31
842.0
  0
LINE
  5
281
  8
TEAM-NET
 10
259.406182
 20
-138.440306
 30
845.422365
 11
259.406182
 21
-33.021134
 31
845.422365
  0
LINE
  5
282
  8
TEAM-NET
 10
259.406182
 20
-138.440306
 30
845.422365
 11
259.406182
 21
-33.021134
 31
845.422365
  0
LINE
  5
283
  8
TEAM-NET
 10
259.419311
 20
-33.009022
 30
845.512523
 11
259.406182
 21
-33.021134
 31
845.422365
  0
POLYLINE
  5
284
  8
TEAM-NET
 66
     1
 10
0.0
 20
0.0
 30
0.0
 70
     8
  0
VERTEX
  5
8BB
  8
TEAM-NET
 10
259.406182
 20
-138.440306
 30
845.422365
 70
    32
  0
VERTEX
  5
8BC
  8
TEAM-NET
 10
258.234326
 20
-130.230446
 30
843.129983
 70
    32
  0
VERTEX
  5
8BD
  8
TEAM-NET
 10
257.039092
 20
-126.354716
 30
842.330017
 70
    32
  0
VERTEX
  5
8BE
  8
TEAM-NET
 10
255.44811
 20
-122.890599
 30
842.0
 70
    32
  0
SEQEND
  5
8BF
  8
TEAM-NET
  0
POLYLINE
  5
285
  8
TEAM-NET
 66
     1
 10
0.0
 20
0.0
 30
842.0
 70
   128
  0
VERTEX
  5
F98
  8
TEAM-NET
 10
255.44811
 20
-122.890599
 30
842.0
  0
VERTEX
  5
F99
  8
TEAM-NET
 10
249.383805
 20
-119.577877
 30
842.0
  0
VERTEX
  5
F9A
  8
TEAM-NET
 10
242.566973
 20
-118.440306
 30
842.0
  0
SEQEND
  5
F9B
  8
TEAM-NET
  0
POLYLINE
  5
286
  8
TEAM-NET
 66
     1
 10
0.0
 20
0.0
 30
0.0
 70
     8
  0
VERTEX
  5
8C4
  8
TEAM-NET
 10
259.406182
 20
-138.440306
 30
845.422365
 70
    32
  0
VERTEX
  5
8C5
  8
TEAM-NET
 10
258.234326
 20
-130.230446
 30
843.129983
 70
    32
  0
VERTEX
  5
8C6
  8
TEAM-NET
 10
257.039092
 20
-126.354716
 30
842.330017
 70
    32
  0
VERTEX
  5
8C7
  8
TEAM-NET
 10
255.44811
 20
-122.890599
 30
842.0
 70
    32
  0
SEQEND
  5
8C8
  8
TEAM-NET
  0
POLYLINE
  5
287
  8
TEAM-NET
 66
     1
 10
0.0
 20
0.0
 30
206.777339
 70
   128
210
0.707107
220
-0.707107
230
0.0
  0
VERTEX
  5
F9C
  8
TEAM-NET
 10
154.480843
 20
842.0
 30
206.777339
  0
VERTEX
  5
F9D
  8
TEAM-NET
 10
155.483763
 20
842.063367
 30
206.777339
  0
VERTEX
  5
F9E
  8
TEAM-NET
 10
156.454907
 20
842.251462
 30
206.777339
  0
VERTEX
  5
F9F
  8
TEAM-NET
 10
157.363505
 20
842.558325
 30
206.777339
  0
VERTEX
  5
FA0
  8
TEAM-NET
 10
158.18077
 20
842.974232
 30
206.777339
  0
VERTEX
  5
FA1
  8
TEAM-NET
 10
158.880807
 20
843.486007
 30
206.777339
  0
VERTEX
  5
FA2
  8
TEAM-NET
 10
159.441437
 20
844.077435
 30
206.777339
  0
VERTEX
  5
FA3
  8
TEAM-NET
 10
159.844896
 20
844.729777
 30
206.777339
  0
VERTEX
  5
FA4
  8
TEAM-NET
 10
160.078403
 20
845.422365
 30
206.777339
  0
SEQEND
  5
FA5
  8
TEAM-NET
  0
LINE
  5
288
  8
TEAM-NET
 10
259.419311
 20
-33.009022
 30
845.512523
 11
259.406182
 21
-33.021134
 31
845.422365
  0
POLYLINE
  5
289
  8
TEAM-NET
 66
     1
 10
0.0
 20
0.0
 30
206.777339
 70
   128
210
0.707107
220
-0.707107
230
0.0
  0
VERTEX
  5
FA6
  8
TEAM-NET
 10
154.480843
 20
842.0
 30
206.777339
  0
VERTEX
  5
FA7
  8
TEAM-NET
 10
155.483763
 20
842.063367
 30
206.777339
  0
VERTEX
  5
FA8
  8
TEAM-NET
 10
156.454907
 20
842.251462
 30
206.777339
  0
VERTEX
  5
FA9
  8
TEAM-NET
 10
157.363505
 20
842.558325
 30
206.777339
  0
VERTEX
  5
FAA
  8
TEAM-NET
 10
158.18077
 20
842.974232
 30
206.777339
  0
VERTEX
  5
FAB
  8
TEAM-NET
 10
158.880807
 20
843.486007
 30
206.777339
  0
VERTEX
  5
FAC
  8
TEAM-NET
 10
159.441437
 20
844.077435
 30
206.777339
  0
VERTEX
  5
FAD
  8
TEAM-NET
 10
159.844896
 20
844.729777
 30
206.777339
  0
VERTEX
  5
FAE
  8
TEAM-NET
 10
160.078403
 20
845.422365
 30
206.777339
  0
SEQEND
  5
FAF
  8
TEAM-NET
  0
POLYLINE
  5
28A
  8
TEAM-NET
 66
     1
 10
0.0
 20
0.0
 30
842.0
 70
   128
  0
VERTEX
  5
FB0
  8
TEAM-NET
 10
255.44811
 20
-122.890599
 30
842.0
  0
VERTEX
  5
FB1
  8
TEAM-NET
 10
249.383805
 20
-119.577877
 30
842.0
  0
VERTEX
  5
FB2
  8
TEAM-NET
 10
242.566973
 20
-118.440306
 30
842.0
  0
SEQEND
  5
FB3
  8
TEAM-NET
  0
LINE
  5
28B
  8
TEAM-NET
 10
-185.0
 20
-33.440306
 30
840.0
 11
185.0
 21
-33.440306
 31
840.0
210
0.0
220
0.0
230
-1.0
  0
LINE
  5
28C
  8
TEAM-NET
 10
185.0
 20
-108.440306
 30
840.0
 11
-185.0
 21
-108.440306
 31
840.0
210
0.0
220
0.0
230
-1.0
  0
LINE
  5
28D
  8
TEAM-NET
 10
185.0
 20
-108.440306
 30
840.0
 11
-185.0
 21
-108.440306
 31
840.0
210
0.0
220
1.0
230
0.0
  0
LINE
  5
28E
  8
TEAM-NET
 10
-185.0
 20
-33.440306
 30
840.0
 11
185.0
 21
-33.440306
 31
840.0
210
0.0
220
-1.0
230
0.0
  0
LINE
  5
28F
  8
TEAM-NET
 10
-255.44811
 20
-36.979207
 30
842.0
 11
255.44811
 21
-36.979207
 31
842.0
  0
LINE
  5
290
  8
TEAM-NET
 10
242.566973
 20
-118.440306
 30
842.0
 11
-242.566973
 21
-118.440306
 31
842.0
  0
LINE
  5
291
  8
TEAM-NET
 10
-255.44811
 20
-36.979207
 30
842.0
 11
255.44811
 21
-36.979207
 31
842.0
  0
LINE
  5
292
  8
TEAM-NET
 10
259.419311
 20
-33.009022
 30
845.512523
 11
-259.419311
 21
-33.009022
 31
845.512523
  0
LINE
  5
293
  8
TEAM-NET
 10
259.419311
 20
-33.009022
 30
845.512523
 11
-259.419311
 21
-33.009022
 31
845.512523
210
0.0
220
-0.992546
230
0.121869
  0
LINE
  5
294
  8
TEAM-NET
 10
242.566973
 20
-118.440306
 30
842.0
 11
-242.566973
 21
-118.440306
 31
842.0
  0
LINE
  5
295
  8
TEAM-NET
 10
-185.0
 20
-108.440306
 30
840.0
 11
-185.0
 21
-33.440306
 31
840.0
210
0.0
220
0.0
230
-1.0
  0
LINE
  5
296
  8
TEAM-NET
 10
-185.0
 20
-108.440306
 30
840.0
 11
-185.0
 21
-33.440306
 31
840.0
210
1.0
220
0.0
230
0.0
  0
LINE
  5
297
  8
TEAM-NET
 10
-259.406182
 20
-33.021134
 30
845.422365
 11
-259.406182
 21
-138.440306
 31
845.422365
  0
LINE
  5
298
  8
TEAM-NET
 10
-255.44811
 20
-122.890599
 30
842.0
 11
-255.44811
 21
-36.979207
 31
842.0
  0
LINE
  5
299
  8
TEAM-NET
 10
-255.44811
 20
-122.890599
 30
842.0
 11
-255.44811
 21
-36.979207
 31
842.0
  0
LINE
  5
29A
  8
TEAM-NET
 10
-259.406182
 20
-33.021134
 30
845.422365
 11
-259.406182
 21
-138.440306
 31
845.422365
  0
LINE
  5
29B
  8
TEAM-NET
 10
-259.406182
 20
-33.021134
 30
845.422365
 11
-259.419311
 21
-33.009022
 31
845.512523
  0
POLYLINE
  5
29C
  8
TEAM-NET
 66
     1
 10
0.0
 20
0.0
 30
0.0
 70
     8
  0
VERTEX
  5
8E1
  8
TEAM-NET
 10
-255.44811
 20
-122.890599
 30
842.0
 70
    32
  0
VERTEX
  5
8E2
  8
TEAM-NET
 10
-257.039091
 20
-126.354715
 30
842.330017
 70
    32
  0
VERTEX
  5
8E3
  8
TEAM-NET
 10
-258.23432
 20
-130.230435
 30
843.129981
 70
    32
  0
VERTEX
  5
8E4
  8
TEAM-NET
 10
-259.406182
 20
-138.440306
 30
845.422365
 70
    32
  0
SEQEND
  5
8E5
  8
TEAM-NET
  0
POLYLINE
  5
29D
  8
TEAM-NET
 66
     1
 10
0.0
 20
0.0
 30
842.0
 70
   128
  0
VERTEX
  5
FB4
  8
TEAM-NET
 10
-242.566973
 20
-118.440306
 30
842.0
  0
VERTEX
  5
FB5
  8
TEAM-NET
 10
-249.383413
 20
-119.577918
 30
842.0
  0
VERTEX
  5
FB6
  8
TEAM-NET
 10
-255.44811
 20
-122.890599
 30
842.0
  0
SEQEND
  5
FB7
  8
TEAM-NET
  0
LINE
  5
29E
  8
TEAM-NET
 10
-259.406182
 20
-33.021134
 30
845.422365
 11
-259.419311
 21
-33.009022
 31
845.512523
  0
POLYLINE
  5
29F
  8
TEAM-NET
 66
     1
 10
0.0
 20
0.0
 30
-206.777339
 70
   128
210
0.707107
220
0.707107
230
0.0
  0
VERTEX
  5
FB8
  8
TEAM-NET
 10
154.480843
 20
842.0
 30
-206.777339
  0
VERTEX
  5
FB9
  8
TEAM-NET
 10
155.483763
 20
842.063367
 30
-206.777339
  0
VERTEX
  5
FBA
  8
TEAM-NET
 10
156.454907
 20
842.251462
 30
-206.777339
  0
VERTEX
  5
FBB
  8
TEAM-NET
 10
157.363505
 20
842.558325
 30
-206.777339
  0
VERTEX
  5
FBC
  8
TEAM-NET
 10
158.18077
 20
842.974232
 30
-206.777339
  0
VERTEX
  5
FBD
  8
TEAM-NET
 10
158.880807
 20
843.486007
 30
-206.777339
  0
VERTEX
  5
FBE
  8
TEAM-NET
 10
159.441437
 20
844.077435
 30
-206.777339
  0
VERTEX
  5
FBF
  8
TEAM-NET
 10
159.844896
 20
844.729777
 30
-206.777339
  0
VERTEX
  5
FC0
  8
TEAM-NET
 10
160.078403
 20
845.422365
 30
-206.777339
  0
SEQEND
  5
FC1
  8
TEAM-NET
  0
POLYLINE
  5
2A0
  8
TEAM-NET
 66
     1
 10
0.0
 20
0.0
 30
842.0
 70
   128
  0
VERTEX
  5
FC2
  8
TEAM-NET
 10
-242.566973
 20
-118.440306
 30
842.0
  0
VERTEX
  5
FC3
  8
TEAM-NET
 10
-249.383413
 20
-119.577918
 30
842.0
  0
VERTEX
  5
FC4
  8
TEAM-NET
 10
-255.44811
 20
-122.890599
 30
842.0
  0
SEQEND
  5
FC5
  8
TEAM-NET
  0
POLYLINE
  5
2A1
  8
TEAM-NET
 66
     1
 10
0.0
 20
0.0
 30
0.0
 70
     8
  0
VERTEX
  5
8F8
  8
TEAM-NET
 10
-255.44811
 20
-122.890599
 30
842.0
 70
    32
  0
VERTEX
  5
8F9
  8
TEAM-NET
 10
-257.039091
 20
-126.354715
 30
842.330017
 70
    32
  0
VERTEX
  5
8FA
  8
TEAM-NET
 10
-258.23432
 20
-130.230435
 30
843.129981
 70
    32
  0
VERTEX
  5
8FB
  8
TEAM-NET
 10
-259.406182
 20
-138.440306
 30
845.422365
 70
    32
  0
SEQEND
  5
8FC
  8
TEAM-NET
  0
POLYLINE
  5
2A2
  8
TEAM-NET
 66
     1
 10
0.0
 20
0.0
 30
-206.777339
 70
   128
210
0.707107
220
0.707107
230
0.0
  0
VERTEX
  5
FC6
  8
TEAM-NET
 10
154.480843
 20
842.0
 30
-206.777339
  0
VERTEX
  5
FC7
  8
TEAM-NET
 10
155.483763
 20
842.063367
 30
-206.777339
  0
VERTEX
  5
FC8
  8
TEAM-NET
 10
156.454907
 20
842.251462
 30
-206.777339
  0
VERTEX
  5
FC9
  8
TEAM-NET
 10
157.363505
 20
842.558325
 30
-206.777339
  0
VERTEX
  5
FCA
  8
TEAM-NET
 10
158.18077
 20
842.974232
 30
-206.777339
  0
VERTEX
  5
FCB
  8
TEAM-NET
 10
158.880807
 20
843.486007
 30
-206.777339
  0
VERTEX
  5
FCC
  8
TEAM-NET
 10
159.441437
 20
844.077435
 30
-206.777339
  0
VERTEX
  5
FCD
  8
TEAM-NET
 10
159.844896
 20
844.729777
 30
-206.777339
  0
VERTEX
  5
FCE
  8
TEAM-NET
 10
160.078403
 20
845.422365
 30
-206.777339
  0
SEQEND
  5
FCF
  8
TEAM-NET
  0
LINE
  5
2A3
  8
TEAM-NET
 10
-425.0
 20
-50.152535
 30
843.0
 11
-425.0
 21
-443.440306
 31
843.0
210
-1.0
220
0.0
230
0.0
  0
LINE
  5
2A4
  8
TEAM-NET
 10
-425.0
 20
-50.152535
 30
843.0
 11
-425.0
 21
-443.440306
 31
843.0
  0
ARC
  5
2A5
  8
TEAM-NET
 10
-385.0
 20
-443.440306
 30
843.0
 40
40.0
 50
180.0
 51
270.0
  0
ARC
  5
2A6
  8
TEAM-NET
 10
-385.0
 20
-443.440306
 30
843.0
 40
40.0
 50
180.0
 51
270.0
  0
LINE
  5
2A7
  8
TEAM-NET
 10
-259.448161
 20
-423.058313
 30
845.712057
 11
-259.448161
 21
-50.152535
 31
845.712057
  0
LINE
  5
2A8
  8
TEAM-NET
 10
-259.448161
 20
-423.058313
 30
845.712057
 11
-259.448161
 21
-50.152535
 31
845.712057
  0
LINE
  5
2A9
  8
TEAM-NET
 10
244.163358
 20
-438.075182
 30
845.00658
 11
-244.163358
 21
-438.075182
 31
845.00658
  0
LINE
  5
2AA
  8
TEAM-NET
 10
244.163358
 20
-438.075182
 30
845.00658
 11
-244.163358
 21
-438.075182
 31
845.00658
  0
LINE
  5
2AB
  8
TEAM-NET
 10
-385.0
 20
-483.440306
 30
843.0
 11
385.0
 21
-483.440306
 31
843.0
  0
LINE
  5
2AC
  8
TEAM-NET
 10
-385.0
 20
-483.440306
 30
843.0
 11
385.0
 21
-483.440306
 31
843.0
210
0.0
220
-1.0
230
0.0
  0
LINE
  5
2AD
  8
TEAM-NET
 10
425.0
 20
-443.440306
 30
843.0
 11
425.0
 21
-50.152535
 31
843.0
210
1.0
220
0.0
230
0.0
  0
LINE
  5
2AE
  8
TEAM-NET
 10
425.0
 20
-443.440306
 30
843.0
 11
425.0
 21
-50.152535
 31
843.0
  0
ARC
  5
2AF
  8
TEAM-NET
 10
385.0
 20
-443.440306
 30
843.0
 40
40.0
 50
270.0
 51
0.0
  0
ARC
  5
2B0
  8
TEAM-NET
 10
385.0
 20
-443.440306
 30
843.0
 40
40.0
 50
270.0
 51
0.0
  0
LINE
  5
2B1
  8
TEAM-NET
 10
259.448161
 20
-50.152535
 30
845.712057
 11
259.448161
 21
-423.058313
 31
845.712057
  0
LINE
  5
2B2
  8
TEAM-NET
 10
259.448161
 20
-50.152535
 30
845.712057
 11
259.448161
 21
-423.058313
 31
845.712057
  0
POLYLINE
  5
2B3
  8
TEAM-NET
 66
     1
 10
0.0
 20
0.0
 30
0.0
 70
     8
  0
VERTEX
  5
907
  8
TEAM-NET
 10
-244.163358
 20
-438.075182
 30
845.00658
 70
    32
  0
VERTEX
  5
908
  8
TEAM-NET
 10
-249.988401
 20
-436.944057
 30
845.277205
 70
    32
  0
VERTEX
  5
909
  8
TEAM-NET
 10
-254.942998
 20
-433.706228
 30
845.495019
 70
    32
  0
VERTEX
  5
90A
  8
TEAM-NET
 10
-258.271842
 20
-428.832369
 30
845.644467
 70
    32
  0
VERTEX
  5
90B
  8
TEAM-NET
 10
-259.448161
 20
-423.058313
 30
845.712057
 70
    32
  0
SEQEND
  5
90C
  8
TEAM-NET
  0
POLYLINE
  5
2B4
  8
TEAM-NET
 66
     1
 10
0.0
 20
0.0
 30
0.0
 70
     8
  0
VERTEX
  5
90D
  8
TEAM-NET
 10
-244.163358
 20
-438.075182
 30
845.00658
 70
    32
  0
VERTEX
  5
90E
  8
TEAM-NET
 10
-249.988401
 20
-436.944057
 30
845.277205
 70
    32
  0
VERTEX
  5
90F
  8
TEAM-NET
 10
-254.942998
 20
-433.706228
 30
845.495019
 70
    32
  0
VERTEX
  5
910
  8
TEAM-NET
 10
-258.271842
 20
-428.832369
 30
845.644467
 70
    32
  0
VERTEX
  5
911
  8
TEAM-NET
 10
-259.448161
 20
-423.058313
 30
845.712057
 70
    32
  0
SEQEND
  5
912
  8
TEAM-NET
  0
POLYLINE
  5
2B5
  8
TEAM-NET
 66
     1
 10
0.0
 20
0.0
 30
0.0
 70
     8
  0
VERTEX
  5
913
  8
TEAM-NET
 10
259.448161
 20
-423.058313
 30
845.712057
 70
    32
  0
VERTEX
  5
914
  8
TEAM-NET
 10
258.271486
 20
-428.832622
 30
845.644451
 70
    32
  0
VERTEX
  5
915
  8
TEAM-NET
 10
254.942943
 20
-433.706449
 30
845.495018
 70
    32
  0
VERTEX
  5
916
  8
TEAM-NET
 10
249.988666
 20
-436.943862
 30
845.277217
 70
    32
  0
VERTEX
  5
917
  8
TEAM-NET
 10
244.163358
 20
-438.075182
 30
845.00658
 70
    32
  0
SEQEND
  5
918
  8
TEAM-NET
  0
POLYLINE
  5
2B6
  8
TEAM-NET
 66
     1
 10
0.0
 20
0.0
 30
0.0
 70
     8
  0
VERTEX
  5
919
  8
TEAM-NET
 10
259.448161
 20
-423.058313
 30
845.712057
 70
    32
  0
VERTEX
  5
91A
  8
TEAM-NET
 10
258.271486
 20
-428.832622
 30
845.644451
 70
    32
  0
VERTEX
  5
91B
  8
TEAM-NET
 10
254.942943
 20
-433.706449
 30
845.495018
 70
    32
  0
VERTEX
  5
91C
  8
TEAM-NET
 10
249.988666
 20
-436.943862
 30
845.277217
 70
    32
  0
VERTEX
  5
91D
  8
TEAM-NET
 10
244.163358
 20
-438.075182
 30
845.00658
 70
    32
  0
SEQEND
  5
91E
  8
TEAM-NET
  0
POLYLINE
  5
2B7
  8
TEAM-NET
 66
     1
 10
0.0
 20
0.0
 30
-819.432815
 70
   128
210
0.071127
220
0.01544
230
-0.997348
  0
VERTEX
  5
FD0
  8
TEAM-NET
 10
-172.088369
 20
271.22076
 30
-819.432815
  0
VERTEX
  5
FD1
  8
TEAM-NET
 10
-174.023824
 20
276.12789
 30
-819.432815
  0
VERTEX
  5
FD2
  8
TEAM-NET
 10
-177.429923
 20
280.11718
 30
-819.432815
  0
SEQEND
  5
FD3
  8
TEAM-NET
  0
POLYLINE
  5
2B8
  8
TEAM-NET
 66
     1
 10
0.0
 20
0.0
 30
-819.432815
 70
   128
210
0.071127
220
0.01544
230
-0.997348
  0
VERTEX
  5
FD4
  8
TEAM-NET
 10
-172.088369
 20
271.22076
 30
-819.432815
  0
VERTEX
  5
FD5
  8
TEAM-NET
 10
-174.023824
 20
276.12789
 30
-819.432815
  0
VERTEX
  5
FD6
  8
TEAM-NET
 10
-177.429923
 20
280.11718
 30
-819.432815
  0
SEQEND
  5
FD7
  8
TEAM-NET
  0
LINE
  5
2B9
  8
TEAM-NET
 10
-242.566973
 20
-123.440306
 30
837.0
 11
242.566973
 21
-123.440306
 31
837.0
  0
LINE
  5
2BA
  8
TEAM-NET
 10
-242.566973
 20
-123.440306
 30
837.0
 11
242.566973
 21
-123.440306
 31
837.0
210
0.0
220
-1.0
230
0.0
  0
POLYLINE
  5
2BB
  8
TEAM-NET
 66
     1
 10
0.0
 20
0.0
 30
-819.432795
 70
   128
210
-0.071127
220
0.015438
230
-0.997348
  0
VERTEX
  5
FD8
  8
TEAM-NET
 10
177.423215
 20
280.121489
 30
-819.432795
  0
VERTEX
  5
FD9
  8
TEAM-NET
 10
174.017205
 20
276.131795
 30
-819.432795
  0
VERTEX
  5
FDA
  8
TEAM-NET
 10
172.081931
 20
271.224906
 30
-819.432795
  0
SEQEND
  5
FDB
  8
TEAM-NET
  0
POLYLINE
  5
2BC
  8
TEAM-NET
 66
     1
 10
0.0
 20
0.0
 30
-819.432795
 70
   128
210
-0.071127
220
0.015438
230
-0.997348
  0
VERTEX
  5
FDC
  8
TEAM-NET
 10
177.423215
 20
280.121489
 30
-819.432795
  0
VERTEX
  5
FDD
  8
TEAM-NET
 10
174.017205
 20
276.131795
 30
-819.432795
  0
VERTEX
  5
FDE
  8
TEAM-NET
 10
172.081931
 20
271.224906
 30
-819.432795
  0
SEQEND
  5
FDF
  8
TEAM-NET
  0
ARC
  5
2BD
  8
TEAM-NET
 10
118.440306
 20
837.0
 30
-242.566973
 40
5.0
210
-1.0
220
0.0
230
0.0
 50
0.0
 51
90.0
  0
ARC
  5
2BE
  8
TEAM-NET
 10
-62.186662
 20
837.0
 30
-276.565824
 40
5.0
210
-0.784088
220
0.620649
230
0.0
 50
7.440903
 51
90.0
  0
ARC
  5
2BF
  8
TEAM-NET
 10
118.440306
 20
837.0
 30
-242.566973
 40
5.0
210
-1.0
220
0.0
230
0.0
 50
0.0
 51
90.0
  0
ARC
  5
2C0
  8
TEAM-NET
 10
-62.186662
 20
837.0
 30
-276.565824
 40
5.0
210
-0.784088
220
0.620649
230
0.0
 50
7.440903
 51
90.0
  0
POLYLINE
  5
2C1
  8
TEAM-NET
 66
     1
 10
0.0
 20
0.0
 30
0.0
 70
     8
  0
VERTEX
  5
92F
  8
TEAM-NET
 10
252.370995
 20
-126.778026
 30
837.647518
 70
    32
  0
VERTEX
  5
930
  8
TEAM-NET
 10
255.121306
 20
-129.376114
 30
838.523761
 70
    32
  0
VERTEX
  5
931
  8
TEAM-NET
 10
257.233011
 20
-132.282911
 30
840.367301
 70
    32
  0
VERTEX
  5
932
  8
TEAM-NET
 10
258.660441
 20
-135.330782
 30
842.750028
 70
    32
  0
VERTEX
  5
933
  8
TEAM-NET
 10
259.406182
 20
-138.440306
 30
845.422365
 70
    32
  0
SEQEND
  5
934
  8
TEAM-NET
  0
POLYLINE
  5
2C2
  8
TEAM-NET
 66
     1
 10
0.0
 20
0.0
 30
0.0
 70
     8
  0
VERTEX
  5
935
  8
TEAM-NET
 10
252.370995
 20
-126.778026
 30
837.647518
 70
    32
  0
VERTEX
  5
936
  8
TEAM-NET
 10
255.121306
 20
-129.376114
 30
838.523761
 70
    32
  0
VERTEX
  5
937
  8
TEAM-NET
 10
257.233011
 20
-132.282911
 30
840.367301
 70
    32
  0
VERTEX
  5
938
  8
TEAM-NET
 10
258.660441
 20
-135.330782
 30
842.750028
 70
    32
  0
VERTEX
  5
939
  8
TEAM-NET
 10
259.406182
 20
-138.440306
 30
845.422365
 70
    32
  0
SEQEND
  5
93A
  8
TEAM-NET
  0
ARC
  5
2C3
  8
TEAM-NET
 10
-118.440306
 20
837.0
 30
-242.566973
 40
5.0
210
1.0
220
0.0
230
0.0
 50
90.0
 51
180.0
  0
ARC
  5
2C4
  8
TEAM-NET
 10
-118.440306
 20
837.0
 30
-242.566973
 40
5.0
210
1.0
220
0.0
230
0.0
 50
90.0
 51
180.0
  0
ARC
  5
2C5
  8
TEAM-NET
 10
62.186662
 20
837.0
 30
-276.565824
 40
5.0
210
0.784088
220
0.620649
230
0.0
 50
90.0
 51
172.559097
  0
ARC
  5
2C6
  8
TEAM-NET
 10
62.186662
 20
837.0
 30
-276.565824
 40
5.0
210
0.784088
220
0.620649
230
0.0
 50
90.0
 51
172.559097
  0
POLYLINE
  5
2C7
  8
TEAM-NET
 66
     1
 10
0.0
 20
0.0
 30
0.0
 70
     8
  0
VERTEX
  5
93B
  8
TEAM-NET
 10
-259.406182
 20
-138.440306
 30
845.422365
 70
    32
  0
VERTEX
  5
93C
  8
TEAM-NET
 10
-258.660441
 20
-135.33078
 30
842.750027
 70
    32
  0
VERTEX
  5
93D
  8
TEAM-NET
 10
-257.232999
 20
-132.282902
 30
840.367296
 70
    32
  0
VERTEX
  5
93E
  8
TEAM-NET
 10
-255.121304
 20
-129.376112
 30
838.52376
 70
    32
  0
VERTEX
  5
93F
  8
TEAM-NET
 10
-252.370995
 20
-126.778026
 30
837.647518
 70
    32
  0
SEQEND
  5
940
  8
TEAM-NET
  0
POLYLINE
  5
2C8
  8
TEAM-NET
 66
     1
 10
0.0
 20
0.0
 30
0.0
 70
     8
  0
VERTEX
  5
941
  8
TEAM-NET
 10
-259.406182
 20
-138.440306
 30
845.422365
 70
    32
  0
VERTEX
  5
942
  8
TEAM-NET
 10
-258.660441
 20
-135.33078
 30
842.750027
 70
    32
  0
VERTEX
  5
943
  8
TEAM-NET
 10
-257.232999
 20
-132.282902
 30
840.367296
 70
    32
  0
VERTEX
  5
944
  8
TEAM-NET
 10
-255.121304
 20
-129.376112
 30
838.52376
 70
    32
  0
VERTEX
  5
945
  8
TEAM-NET
 10
-252.370995
 20
-126.778026
 30
837.647518
 70
    32
  0
SEQEND
  5
946
  8
TEAM-NET
  0
ARC
  5
2C9
  8
TEAM-NET
 10
0.071736
 20
738.483916
 30
508.587395
 40
8.0
210
0.0
220
0.656966
230
0.75392
 50
181.882117
 51
1.882117
  0
ARC
  5
2CA
  8
TEAM-NET
 10
-0.741393
 20
509.817268
 30
738.083159
 40
1.0
210
0.032843
220
-0.753513
230
0.656612
 50
268.360663
 51
358.360663
  0
ARC
  5
2CB
  8
TEAM-NET
 10
-0.071736
 20
738.483916
 30
-509.587395
 40
10.0
210
-0.0
220
-0.656966
230
-0.75392
 50
358.117883
 51
178.117883
  0
ARC
  5
2CC
  8
TEAM-NET
 10
0.071736
 20
738.483916
 30
508.587395
 40
9.0
210
0.0
220
0.656966
230
0.75392
 50
1.882117
 51
181.882117
  0
ARC
  5
2CD
  8
TEAM-NET
 10
-0.741393
 20
509.817268
 30
738.083159
 40
1.0
210
0.032843
220
-0.753513
230
0.656612
 50
268.360663
 51
358.360663
  0
ARC
  5
2CE
  8
TEAM-NET
 10
0.071736
 20
738.483916
 30
508.587395
 40
9.0
210
0.0
220
0.656966
230
0.75392
 50
181.882117
 51
1.882117
  0
ARC
  5
2CF
  8
TEAM-NET
 10
-0.071736
 20
738.483916
 30
-509.587395
 40
10.0
210
-0.0
220
-0.656966
230
-0.75392
 50
178.117883
 51
358.117883
  0
ARC
  5
2D0
  8
TEAM-NET
 10
-0.071736
 20
738.483916
 30
-508.587395
 40
8.0
210
-0.0
220
-0.656966
230
-0.75392
 50
178.117883
 51
358.117883
  0
ARC
  5
2D1
  8
TEAM-NET
 10
-0.071736
 20
738.483916
 30
-508.587395
 40
9.0
210
-0.0
220
-0.656966
230
-0.75392
 50
358.117883
 51
178.117883
  0
ARC
  5
2D2
  8
TEAM-NET
 10
-0.071736
 20
738.483916
 30
-508.587395
 40
9.0
210
-0.0
220
-0.656966
230
-0.75392
 50
178.117883
 51
358.117883
  0
ARC
  5
2D3
  8
TEAM-NET
 10
-0.071736
 20
738.483916
 30
-509.587395
 40
10.0
210
-0.0
220
-0.656966
230
-0.75392
 50
178.117883
 51
358.117883
  0
ARC
  5
2D4
  8
TEAM-NET
 10
-0.071736
 20
738.483916
 30
-509.587395
 40
10.0
210
-0.0
220
-0.656966
230
-0.75392
 50
358.117883
 51
178.117883
  0
POLYLINE
  5
2D5
  8
TEAM-NET
 66
     1
 10
0.0
 20
0.0
 30
-497.49775
 70
   128
210
0.0
220
-0.675261
230
-0.737579
  0
VERTEX
  5
FE0
  8
TEAM-NET
 10
-14.0
 20
750.753074
 30
-497.49775
  0
VERTEX
  5
FE1
  8
TEAM-NET
 10
-13.761623
 20
748.151365
 30
-497.49775
  0
VERTEX
  5
FE2
  8
TEAM-NET
 10
-13.054611
 20
745.638255
 30
-497.49775
  0
VERTEX
  5
FE3
  8
TEAM-NET
 10
-11.90304
 20
743.299323
 30
-497.49775
  0
VERTEX
  5
FE4
  8
TEAM-NET
 10
-10.346125
 20
741.21422
 30
-497.49775
  0
VERTEX
  5
FE5
  8
TEAM-NET
 10
-8.436885
 20
739.453952
 30
-497.49775
  0
VERTEX
  5
FE6
  8
TEAM-NET
 10
-6.240337
 20
738.078461
 30
-497.49775
  0
VERTEX
  5
FE7
  8
TEAM-NET
 10
-3.831282
 20
737.134589
 30
-497.49775
  0
VERTEX
  5
FE8
  8
TEAM-NET
 10
-1.291757
 20
736.654478
 30
-497.49775
  0
VERTEX
  5
FE9
  8
TEAM-NET
 10
1.291757
 20
736.654478
 30
-497.49775
  0
VERTEX
  5
FEA
  8
TEAM-NET
 10
3.831282
 20
737.134589
 30
-497.49775
  0
VERTEX
  5
FEB
  8
TEAM-NET
 10
6.240337
 20
738.078461
 30
-497.49775
  0
VERTEX
  5
FEC
  8
TEAM-NET
 10
8.436885
 20
739.453952
 30
-497.49775
  0
VERTEX
  5
FED
  8
TEAM-NET
 10
10.346125
 20
741.21422
 30
-497.49775
  0
VERTEX
  5
FEE
  8
TEAM-NET
 10
11.90304
 20
743.299323
 30
-497.49775
  0
VERTEX
  5
FEF
  8
TEAM-NET
 10
13.054611
 20
745.638255
 30
-497.49775
  0
VERTEX
  5
FF0
  8
TEAM-NET
 10
13.761623
 20
748.151365
 30
-497.49775
  0
VERTEX
  5
FF1
  8
TEAM-NET
 10
14.0
 20
750.753074
 30
-497.49775
  0
SEQEND
  5
FF2
  8
TEAM-NET
  0
POLYLINE
  5
2D6
  8
TEAM-NET
 66
     1
 10
0.0
 20
0.0
 30
-497.49775
 70
   128
210
0.0
220
-0.675261
230
-0.737579
  0
VERTEX
  5
FF3
  8
TEAM-NET
 10
-14.0
 20
750.753074
 30
-497.49775
  0
VERTEX
  5
FF4
  8
TEAM-NET
 10
-13.761623
 20
748.151365
 30
-497.49775
  0
VERTEX
  5
FF5
  8
TEAM-NET
 10
-13.054611
 20
745.638255
 30
-497.49775
  0
VERTEX
  5
FF6
  8
TEAM-NET
 10
-11.90304
 20
743.299323
 30
-497.49775
  0
VERTEX
  5
FF7
  8
TEAM-NET
 10
-10.346125
 20
741.21422
 30
-497.49775
  0
VERTEX
  5
FF8
  8
TEAM-NET
 10
-8.436885
 20
739.453952
 30
-497.49775
  0
VERTEX
  5
FF9
  8
TEAM-NET
 10
-6.240337
 20
738.078461
 30
-497.49775
  0
VERTEX
  5
FFA
  8
TEAM-NET
 10
-3.831282
 20
737.134589
 30
-497.49775
  0
VERTEX
  5
FFB
  8
TEAM-NET
 10
-1.291757
 20
736.654478
 30
-497.49775
  0
VERTEX
  5
FFC
  8
TEAM-NET
 10
1.291757
 20
736.654478
 30
-497.49775
  0
VERTEX
  5
FFD
  8
TEAM-NET
 10
3.831282
 20
737.134589
 30
-497.49775
  0
VERTEX
  5
FFE
  8
TEAM-NET
 10
6.240337
 20
738.078461
 30
-497.49775
  0
VERTEX
  5
FFF
  8
TEAM-NET
 10
8.436885
 20
739.453952
 30
-497.49775
  0
VERTEX
  5
1000
  8
TEAM-NET
 10
10.346125
 20
741.21422
 30
-497.49775
  0
VERTEX
  5
1001
  8
TEAM-NET
 10
11.90304
 20
743.299323
 30
-497.49775
  0
VERTEX
  5
1002
  8
TEAM-NET
 10
13.054611
 20
745.638255
 30
-497.49775
  0
VERTEX
  5
1003
  8
TEAM-NET
 10
13.761623
 20
748.151365
 30
-497.49775
  0
VERTEX
  5
1004
  8
TEAM-NET
 10
14.0
 20
750.753074
 30
-497.49775
  0
SEQEND
  5
1005
  8
TEAM-NET
  0
LINE
  5
2D7
  8
TEAM-NET
 10
425.0
 20
-23.353788
 30
866.709528
 11
425.0
 21
-21.967493
 31
878.0
210
1.0
220
0.0
230
0.0
  0
LINE
  5
2D8
  8
TEAM-NET
 10
418.0
 20
-28.915316
 30
878.853085
 11
418.0
 21
-30.301611
 31
867.562613
210
0.0
220
-0.992546
230
0.121869
  0
LINE
  5
2D9
  8
TEAM-NET
 10
418.0
 20
-28.915316
 30
878.853085
 11
418.0
 21
-30.301611
 31
867.562613
  0
LINE
  5
2DA
  8
TEAM-NET
 10
425.0
 20
-23.353788
 30
866.709528
 11
425.0
 21
-21.967493
 31
878.0
  0
LINE
  5
2DB
  8
TEAM-NET
 10
-425.0
 20
-21.967493
 30
878.0
 11
-425.0
 21
-23.353788
 31
866.709528
210
-1.0
220
0.0
230
0.0
  0
LINE
  5
2DC
  8
TEAM-NET
 10
-418.0
 20
-30.301611
 30
867.562613
 11
-418.0
 21
-28.915316
 31
878.853085
210
0.0
220
-0.992546
230
0.121869
  0
LINE
  5
2DD
  8
TEAM-NET
 10
-425.0
 20
-21.967493
 30
878.0
 11
-425.0
 21
-23.353788
 31
866.709528
  0
LINE
  5
2DE
  8
TEAM-NET
 10
-418.0
 20
-30.301611
 30
867.562613
 11
-418.0
 21
-28.915316
 31
878.853085
  0
POLYLINE
  5
2DF
  8
TEAM-NET
 66
     1
 10
0.0
 20
0.0
 30
-513.762782
 70
   129
210
-0.0
220
-0.656966
230
-0.75392
  0
VERTEX
  5
1006
  8
TEAM-NET
 10
0.0
 20
750.509534
 30
-513.762782
  0
VERTEX
  5
1007
  8
TEAM-NET
 10
-2.271015
 20
750.289333
 30
-513.762782
  0
VERTEX
  5
1008
  8
TEAM-NET
 10
-4.459949
 20
749.636689
 30
-513.762782
  0
VERTEX
  5
1009
  8
TEAM-NET
 10
-6.48769
 20
748.575189
 30
-513.762782
  0
VERTEX
  5
100A
  8
TEAM-NET
 10
-8.280948
 20
747.1432
 30
-513.762782
  0
VERTEX
  5
100B
  8
TEAM-NET
 10
-9.774911
 20
745.392477
 30
-513.762782
  0
VERTEX
  5
100C
  8
TEAM-NET
 10
-10.915584
 20
743.386296
 30
-513.762782
  0
VERTEX
  5
100D
  8
TEAM-NET
 10
-11.661739
 20
741.197165
 30
-513.762782
  0
VERTEX
  5
100E
  8
TEAM-NET
 10
-11.986408
 20
738.904206
 30
-513.762782
  0
VERTEX
  5
100F
  8
TEAM-NET
 10
-11.877857
 20
736.590291
 30
-513.762782
  0
VERTEX
  5
1010
  8
TEAM-NET
 10
-11.34001
 20
734.339052
 30
-513.762782
  0
VERTEX
  5
1011
  8
TEAM-NET
 10
-10.392305
 20
732.231855
 30
-513.762782
  0
VERTEX
  5
1012
  8
TEAM-NET
 10
-9.068995
 20
730.344858
 30
-513.762782
  0
VERTEX
  5
1013
  8
TEAM-NET
 10
-7.417908
 20
728.746264
 30
-513.762782
  0
VERTEX
  5
1014
  8
TEAM-NET
 10
-5.498718
 20
727.493849
 30
-513.762782
  0
VERTEX
  5
1015
  8
TEAM-NET
 10
-3.380791
 20
726.632878
 30
-513.762782
  0
VERTEX
  5
1016
  8
TEAM-NET
 10
-1.140673
 20
726.19447
 30
-513.762782
  0
VERTEX
  5
1017
  8
TEAM-NET
 10
1.140673
 20
726.19447
 30
-513.762782
  0
VERTEX
  5
1018
  8
TEAM-NET
 10
3.380791
 20
726.632878
 30
-513.762782
  0
VERTEX
  5
1019
  8
TEAM-NET
 10
5.498718
 20
727.493849
 30
-513.762782
  0
VERTEX
  5
101A
  8
TEAM-NET
 10
7.417908
 20
728.746264
 30
-513.762782
  0
VERTEX
  5
101B
  8
TEAM-NET
 10
9.068995
 20
730.344858
 30
-513.762782
  0
VERTEX
  5
101C
  8
TEAM-NET
 10
10.392305
 20
732.231855
 30
-513.762782
  0
VERTEX
  5
101D
  8
TEAM-NET
 10
11.34001
 20
734.339052
 30
-513.762782
  0
VERTEX
  5
101E
  8
TEAM-NET
 10
11.877857
 20
736.590291
 30
-513.762782
  0
VERTEX
  5
101F
  8
TEAM-NET
 10
11.986408
 20
738.904206
 30
-513.762782
  0
VERTEX
  5
1020
  8
TEAM-NET
 10
11.661739
 20
741.197165
 30
-513.762782
  0
VERTEX
  5
1021
  8
TEAM-NET
 10
10.915584
 20
743.386296
 30
-513.762782
  0
VERTEX
  5
1022
  8
TEAM-NET
 10
9.774911
 20
745.392477
 30
-513.762782
  0
VERTEX
  5
1023
  8
TEAM-NET
 10
8.280948
 20
747.1432
 30
-513.762782
  0
VERTEX
  5
1024
  8
TEAM-NET
 10
6.48769
 20
748.575189
 30
-513.762782
  0
VERTEX
  5
1025
  8
TEAM-NET
 10
4.459949
 20
749.636689
 30
-513.762782
  0
VERTEX
  5
1026
  8
TEAM-NET
 10
2.271015
 20
750.289333
 30
-513.762782
  0
SEQEND
  5
1027
  8
TEAM-NET
  0
POLYLINE
  5
2E0
  8
TEAM-NET
 66
     1
 10
0.0
 20
0.0
 30
513.762782
 70
   129
210
-0.0
220
0.656966
230
0.75392
  0
VERTEX
  5
1028
  8
TEAM-NET
 10
0.0
 20
750.509534
 30
513.762782
  0
VERTEX
  5
1029
  8
TEAM-NET
 10
-2.271015
 20
750.289333
 30
513.762782
  0
VERTEX
  5
102A
  8
TEAM-NET
 10
-4.459949
 20
749.636689
 30
513.762782
  0
VERTEX
  5
102B
  8
TEAM-NET
 10
-6.48769
 20
748.575189
 30
513.762782
  0
VERTEX
  5
102C
  8
TEAM-NET
 10
-8.280948
 20
747.1432
 30
513.762782
  0
VERTEX
  5
102D
  8
TEAM-NET
 10
-9.774911
 20
745.392477
 30
513.762782
  0
VERTEX
  5
102E
  8
TEAM-NET
 10
-10.915584
 20
743.386296
 30
513.762782
  0
VERTEX
  5
102F
  8
TEAM-NET
 10
-11.661739
 20
741.197165
 30
513.762782
  0
VERTEX
  5
1030
  8
TEAM-NET
 10
-11.986408
 20
738.904206
 30
513.762782
  0
VERTEX
  5
1031
  8
TEAM-NET
 10
-11.877857
 20
736.590291
 30
513.762782
  0
VERTEX
  5
1032
  8
TEAM-NET
 10
-11.34001
 20
734.339052
 30
513.762782
  0
VERTEX
  5
1033
  8
TEAM-NET
 10
-10.392305
 20
732.231855
 30
513.762782
  0
VERTEX
  5
1034
  8
TEAM-NET
 10
-9.068995
 20
730.344858
 30
513.762782
  0
VERTEX
  5
1035
  8
TEAM-NET
 10
-7.417908
 20
728.746264
 30
513.762782
  0
VERTEX
  5
1036
  8
TEAM-NET
 10
-5.498718
 20
727.493849
 30
513.762782
  0
VERTEX
  5
1037
  8
TEAM-NET
 10
-3.380791
 20
726.632878
 30
513.762782
  0
VERTEX
  5
1038
  8
TEAM-NET
 10
-1.140673
 20
726.19447
 30
513.762782
  0
VERTEX
  5
1039
  8
TEAM-NET
 10
1.140673
 20
726.19447
 30
513.762782
  0
VERTEX
  5
103A
  8
TEAM-NET
 10
3.380791
 20
726.632878
 30
513.762782
  0
VERTEX
  5
103B
  8
TEAM-NET
 10
5.498718
 20
727.493849
 30
513.762782
  0
VERTEX
  5
103C
  8
TEAM-NET
 10
7.417908
 20
728.746264
 30
513.762782
  0
VERTEX
  5
103D
  8
TEAM-NET
 10
9.068995
 20
730.344858
 30
513.762782
  0
VERTEX
  5
103E
  8
TEAM-NET
 10
10.392305
 20
732.231855
 30
513.762782
  0
VERTEX
  5
103F
  8
TEAM-NET
 10
11.34001
 20
734.339052
 30
513.762782
  0
VERTEX
  5
1040
  8
TEAM-NET
 10
11.877857
 20
736.590291
 30
513.762782
  0
VERTEX
  5
1041
  8
TEAM-NET
 10
11.986408
 20
738.904206
 30
513.762782
  0
VERTEX
  5
1042
  8
TEAM-NET
 10
11.661739
 20
741.197165
 30
513.762782
  0
VERTEX
  5
1043
  8
TEAM-NET
 10
10.915584
 20
743.386296
 30
513.762782
  0
VERTEX
  5
1044
  8
TEAM-NET
 10
9.774911
 20
745.392477
 30
513.762782
  0
VERTEX
  5
1045
  8
TEAM-NET
 10
8.280948
 20
747.1432
 30
513.762782
  0
VERTEX
  5
1046
  8
TEAM-NET
 10
6.48769
 20
748.575189
 30
513.762782
  0
VERTEX
  5
1047
  8
TEAM-NET
 10
4.459949
 20
749.636689
 30
513.762782
  0
VERTEX
  5
1048
  8
TEAM-NET
 10
2.271015
 20
750.289333
 30
513.762782
  0
SEQEND
  5
1049
  8
TEAM-NET
  0
LINE
  5
2E1
  8
TEAM-NET
 10
418.0
 20
-30.301611
 30
867.562613
 11
265.925238
 21
-30.301611
 31
867.562613
  0
LINE
  5
2E2
  8
TEAM-NET
 10
418.0
 20
-30.301611
 30
867.562613
 11
265.925238
 21
-30.301611
 31
867.562613
210
0.0
220
-0.992546
230
0.121869
  0
ARC
  5
2E3
  8
TEAM-NET
 10
418.0
 20
128.805034
 30
-857.403095
 40
7.0
210
0.0
220
-0.121869
230
-0.992546
 50
0.0
 51
90.0
  0
ARC
  5
2E4
  8
TEAM-NET
 10
418.0
 20
128.805034
 30
-857.403095
 40
7.0
210
0.0
220
-0.121869
230
-0.992546
 50
0.0
 51
90.0
  0
LINE
  5
2E5
  8
TEAM-NET
 10
-265.925238
 20
-30.301611
 30
867.562613
 11
-418.0
 21
-30.301611
 31
867.562613
210
0.0
220
-0.992546
230
0.121869
  0
LINE
  5
2E6
  8
TEAM-NET
 10
-265.925238
 20
-30.301611
 30
867.562613
 11
-418.0
 21
-30.301611
 31
867.562613
  0
ARC
  5
2E7
  8
TEAM-NET
 10
-418.0
 20
128.805034
 30
-857.403095
 40
7.0
210
0.0
220
-0.121869
230
-0.992546
 50
90.0
 51
180.0
  0
ARC
  5
2E8
  8
TEAM-NET
 10
-418.0
 20
128.805034
 30
-857.403095
 40
7.0
210
0.0
220
-0.121869
230
-0.992546
 50
90.0
 51
180.0
  0
LINE
  5
2E9
  8
TEAM-AXE
 10
-102.5
 20
-102.371193
 30
850.0
 11
-102.5
 21
-62.371193
 31
850.0
  0
LINE
  5
2EC
  8
TEAM-AXE
 10
-122.5
 20
-82.371193
 30
850.0
 11
-82.5
 21
-82.371193
 31
850.0
  0
CIRCLE
  5
2ED
  8
TEAM-HIDE
 10
-102.5
 20
-82.371193
 30
850.0
 40
15.0
  0
LINE
  5
2F0
  8
TEAM-AXE
 10
107.5
 20
-102.371193
 30
850.0
 11
107.5
 21
-62.371193
 31
850.0
  0
LINE
  5
2F1
  8
TEAM-AXE
 10
87.5
 20
-82.371193
 30
850.0
 11
127.5
 21
-82.371193
 31
850.0
  0
CIRCLE
  5
2F2
  8
TEAM-HIDE
 10
107.5
 20
-82.371193
 30
850.0
 40
15.0
  0
LINE
  5
2F3
  8
TEAM-NET
 10
264.397199
 20
-50.152535
 30
850.0
 11
418.0
 21
-50.152535
 31
850.0
  0
LINE
  5
2F4
  8
TEAM-NET
 10
264.397199
 20
-50.152535
 30
850.0
 11
418.0
 21
-50.152535
 31
850.0
  0
LINE
  5
2F5
  8
TEAM-NET
 10
-418.0
 20
-50.152535
 30
850.0
 11
-264.397199
 21
-50.152535
 31
850.0
  0
LINE
  5
2F6
  8
TEAM-NET
 10
-418.0
 20
-50.152535
 30
850.0
 11
-264.397199
 21
-50.152535
 31
850.0
  0
LINE
  5
2F7
  8
TEAM-NET
 10
-418.0
 20
-443.440306
 30
850.0
 11
-418.0
 21
-50.152535
 31
850.0
  0
LINE
  5
2F8
  8
TEAM-NET
 10
-418.0
 20
-443.440306
 30
850.0
 11
-418.0
 21
-50.152535
 31
850.0
  0
ARC
  5
2F9
  8
TEAM-NET
 10
-385.0
 20
-443.440306
 30
850.0
 40
33.0
 50
180.0
 51
270.0
  0
ARC
  5
2FA
  8
TEAM-NET
 10
385.0
 20
-443.440306
 30
-850.0
 40
33.0
210
0.0
220
0.0
230
-1.0
 50
270.0
 51
0.0
  0
LINE
  5
2FB
  8
TEAM-NET
 10
-264.397199
 20
-50.152535
 30
850.0
 11
-264.397199
 21
-423.058313
 31
850.0
  0
LINE
  5
2FC
  8
TEAM-NET
 10
-264.397199
 20
-50.152535
 30
850.0
 11
-264.397199
 21
-423.058313
 31
850.0
  0
LINE
  5
2FD
  8
TEAM-NET
 10
-244.163358
 20
-443.075178
 30
850.0
 11
244.163358
 21
-443.075178
 31
850.0
  0
LINE
  5
2FE
  8
TEAM-NET
 10
-244.163358
 20
-443.075178
 30
850.0
 11
244.163358
 21
-443.075178
 31
850.0
  0
LINE
  5
2FF
  8
TEAM-NET
 10
385.0
 20
-476.440306
 30
850.0
 11
-385.0
 21
-476.440306
 31
850.0
  0
LINE
  5
300
  8
TEAM-NET
 10
385.0
 20
-476.440306
 30
850.0
 11
-385.0
 21
-476.440306
 31
850.0
  0
LINE
  5
301
  8
TEAM-NET
 10
418.0
 20
-50.152535
 30
850.0
 11
418.0
 21
-443.440306
 31
850.0
  0
LINE
  5
302
  8
TEAM-NET
 10
418.0
 20
-50.152535
 30
850.0
 11
418.0
 21
-443.440306
 31
850.0
  0
ARC
  5
303
  8
TEAM-NET
 10
385.0
 20
-443.440306
 30
850.0
 40
33.0
 50
270.0
 51
0.0
  0
ARC
  5
304
  8
TEAM-NET
 10
-385.0
 20
-443.440306
 30
-850.0
 40
33.0
210
0.0
220
0.0
230
-1.0
 50
180.0
 51
270.0
  0
LINE
  5
305
  8
TEAM-NET
 10
264.397199
 20
-423.058313
 30
850.0
 11
264.397199
 21
-50.152535
 31
850.0
  0
LINE
  5
306
  8
TEAM-NET
 10
264.397199
 20
-423.058313
 30
850.0
 11
264.397199
 21
-50.152535
 31
850.0
  0
POLYLINE
  5
307
  8
TEAM-NET
 66
     1
 10
0.0
 20
0.0
 30
850.0
 70
   128
  0
VERTEX
  5
104A
  8
TEAM-NET
 10
-264.397199
 20
-423.058313
 30
850.0
  0
VERTEX
  5
104B
  8
TEAM-NET
 10
-264.003887
 20
-426.985079
 30
850.0
  0
VERTEX
  5
104C
  8
TEAM-NET
 10
-262.841836
 20
-430.75592
 30
850.0
  0
VERTEX
  5
104D
  8
TEAM-NET
 10
-260.959227
 20
-434.222381
 30
850.0
  0
VERTEX
  5
104E
  8
TEAM-NET
 10
-258.432948
 20
-437.252339
 30
850.0
  0
VERTEX
  5
104F
  8
TEAM-NET
 10
-255.363217
 20
-439.731565
 30
850.0
  0
VERTEX
  5
1050
  8
TEAM-NET
 10
-251.871612
 20
-441.567546
 30
850.0
  0
VERTEX
  5
1051
  8
TEAM-NET
 10
-248.090778
 20
-442.69486
 30
850.0
  0
VERTEX
  5
1052
  8
TEAM-NET
 10
-244.163358
 20
-443.075178
 30
850.0
  0
SEQEND
  5
1053
  8
TEAM-NET
  0
POLYLINE
  5
308
  8
TEAM-NET
 66
     1
 10
0.0
 20
0.0
 30
850.0
 70
   128
  0
VERTEX
  5
1054
  8
TEAM-NET
 10
-264.397199
 20
-423.058313
 30
850.0
  0
VERTEX
  5
1055
  8
TEAM-NET
 10
-264.003887
 20
-426.985079
 30
850.0
  0
VERTEX
  5
1056
  8
TEAM-NET
 10
-262.841836
 20
-430.75592
 30
850.0
  0
VERTEX
  5
1057
  8
TEAM-NET
 10
-260.959227
 20
-434.222381
 30
850.0
  0
VERTEX
  5
1058
  8
TEAM-NET
 10
-258.432948
 20
-437.252339
 30
850.0
  0
VERTEX
  5
1059
  8
TEAM-NET
 10
-255.363217
 20
-439.731565
 30
850.0
  0
VERTEX
  5
105A
  8
TEAM-NET
 10
-251.871612
 20
-441.567546
 30
850.0
  0
VERTEX
  5
105B
  8
TEAM-NET
 10
-248.090778
 20
-442.69486
 30
850.0
  0
VERTEX
  5
105C
  8
TEAM-NET
 10
-244.163358
 20
-443.075178
 30
850.0
  0
SEQEND
  5
105D
  8
TEAM-NET
  0
POLYLINE
  5
309
  8
TEAM-NET
 66
     1
 10
0.0
 20
0.0
 30
0.0
 70
     8
  0
VERTEX
  5
9C5
  8
TEAM-NET
 10
244.163358
 20
-443.075178
 30
850.0
 70
    32
  0
VERTEX
  5
9C6
  8
TEAM-NET
 10
248.091126
 20
-442.694718
 30
850.0
 70
    32
  0
VERTEX
  5
9C7
  8
TEAM-NET
 10
251.871965
 20
-441.567286
 30
850.0
 70
    32
  0
VERTEX
  5
9C8
  8
TEAM-NET
 10
255.363411
 20
-439.731287
 30
850.0
 70
    32
  0
VERTEX
  5
9C9
  8
TEAM-NET
 10
258.432875
 20
-437.252634
 30
850.0
 70
    32
  0
VERTEX
  5
9CA
  8
TEAM-NET
 10
260.958368
 20
-434.222986
 30
850.0
 70
    32
  0
VERTEX
  5
9CB
  8
TEAM-NET
 10
262.841365
 20
-430.756258
 30
850.0
 70
    32
  0
VERTEX
  5
9CC
  8
TEAM-NET
 10
264.003572
 20
-426.985298
 30
850.0
 70
    32
  0
VERTEX
  5
9CD
  8
TEAM-NET
 10
264.397199
 20
-423.058313
 30
850.0
 70
    32
  0
SEQEND
  5
9CE
  8
TEAM-NET
  0
POLYLINE
  5
30A
  8
TEAM-NET
 66
     1
 10
0.0
 20
0.0
 30
0.0
 70
     8
  0
VERTEX
  5
9CF
  8
TEAM-NET
 10
244.163358
 20
-443.075178
 30
850.0
 70
    32
  0
VERTEX
  5
9D0
  8
TEAM-NET
 10
248.091126
 20
-442.694718
 30
850.0
 70
    32
  0
VERTEX
  5
9D1
  8
TEAM-NET
 10
251.871965
 20
-441.567286
 30
850.0
 70
    32
  0
VERTEX
  5
9D2
  8
TEAM-NET
 10
255.363411
 20
-439.731287
 30
850.0
 70
    32
  0
VERTEX
  5
9D3
  8
TEAM-NET
 10
258.432875
 20
-437.252634
 30
850.0
 70
    32
  0
VERTEX
  5
9D4
  8
TEAM-NET
 10
260.958368
 20
-434.222986
 30
850.0
 70
    32
  0
VERTEX
  5
9D5
  8
TEAM-NET
 10
262.841365
 20
-430.756258
 30
850.0
 70
    32
  0
VERTEX
  5
9D6
  8
TEAM-NET
 10
264.003572
 20
-426.985298
 30
850.0
 70
    32
  0
VERTEX
  5
9D7
  8
TEAM-NET
 10
264.397199
 20
-423.058313
 30
850.0
 70
    32
  0
SEQEND
  5
9D8
  8
TEAM-NET
  0
TEXT
  5
30B
  8
TEAM-TXT
 10
-262.939364
 20
-405.474322
 30
851.0
 40
30.0
  1
team 212208
 41
0.8
 51
15.0
  7
TEAM
  0
POLYLINE
  5
30E
  8
TEAM-NET
 66
     1
 10
0.0
 20
0.0
 30
135.805034
 70
   128
210
-0.0
220
-0.992546
230
0.121869
  0
VERTEX
  5
105E
  8
TEAM-NET
 10
265.925238
 20
857.403095
 30
135.805034
  0
VERTEX
  5
105F
  8
TEAM-NET
 10
262.420354
 20
850.219241
 30
135.805034
  0
VERTEX
  5
1060
  8
TEAM-NET
 10
260.327094
 20
842.92785
 30
135.805034
  0
SEQEND
  5
1061
  8
TEAM-NET
  0
POLYLINE
  5
30F
  8
TEAM-NET
 66
     1
 10
0.0
 20
0.0
 30
0.0
 70
     8
  0
VERTEX
  5
9DD
  8
TEAM-NET
 10
264.397199
 20
-50.152535
 30
850.0
 70
    32
  0
VERTEX
  5
9DE
  8
TEAM-NET
 10
264.455614
 20
-46.546193
 30
850.327893
 70
    32
  0
VERTEX
  5
9DF
  8
TEAM-NET
 10
264.622118
 20
-43.05647
 30
851.301084
 70
    32
  0
VERTEX
  5
9E0
  8
TEAM-NET
 10
264.871176
 20
-39.809492
 30
852.882441
 70
    32
  0
VERTEX
  5
9E1
  8
TEAM-NET
 10
265.166482
 20
-36.892405
 30
855.027876
 70
    32
  0
VERTEX
  5
9E2
  8
TEAM-NET
 10
265.461606
 20
-34.419086
 30
857.65269
 70
    32
  0
VERTEX
  5
9E3
  8
TEAM-NET
 10
265.713129
 20
-32.448622
 30
860.695856
 70
    32
  0
VERTEX
  5
9E4
  8
TEAM-NET
 10
265.877437
 20
-31.065006
 30
864.028522
 70
    32
  0
VERTEX
  5
9E5
  8
TEAM-NET
 10
265.925238
 20
-30.301611
 30
867.562613
 70
    32
  0
SEQEND
  5
9E6
  8
TEAM-NET
  0
POLYLINE
  5
310
  8
TEAM-NET
 66
     1
 10
0.0
 20
0.0
 30
135.805034
 70
   128
210
-0.0
220
-0.992546
230
0.121869
  0
VERTEX
  5
1062
  8
TEAM-NET
 10
265.925238
 20
857.403095
 30
135.805034
  0
VERTEX
  5
1063
  8
TEAM-NET
 10
262.420354
 20
850.219241
 30
135.805034
  0
VERTEX
  5
1064
  8
TEAM-NET
 10
260.327094
 20
842.92785
 30
135.805034
  0
SEQEND
  5
1065
  8
TEAM-NET
  0
POLYLINE
  5
311
  8
TEAM-NET
 66
     1
 10
0.0
 20
0.0
 30
0.0
 70
     8
  0
VERTEX
  5
9EB
  8
TEAM-NET
 10
264.397199
 20
-50.152535
 30
850.0
 70
    32
  0
VERTEX
  5
9EC
  8
TEAM-NET
 10
264.455614
 20
-46.546193
 30
850.327893
 70
    32
  0
VERTEX
  5
9ED
  8
TEAM-NET
 10
264.622118
 20
-43.05647
 30
851.301084
 70
    32
  0
VERTEX
  5
9EE
  8
TEAM-NET
 10
264.871176
 20
-39.809492
 30
852.882441
 70
    32
  0
VERTEX
  5
9EF
  8
TEAM-NET
 10
265.166482
 20
-36.892405
 30
855.027876
 70
    32
  0
VERTEX
  5
9F0
  8
TEAM-NET
 10
265.461606
 20
-34.419086
 30
857.65269
 70
    32
  0
VERTEX
  5
9F1
  8
TEAM-NET
 10
265.713129
 20
-32.448622
 30
860.695856
 70
    32
  0
VERTEX
  5
9F2
  8
TEAM-NET
 10
265.877437
 20
-31.065006
 30
864.028522
 70
    32
  0
VERTEX
  5
9F3
  8
TEAM-NET
 10
265.925238
 20
-30.301611
 30
867.562613
 70
    32
  0
SEQEND
  5
9F4
  8
TEAM-NET
  0
POLYLINE
  5
312
  8
TEAM-NET
 66
     1
 10
0.0
 20
0.0
 30
0.0
 70
     8
  0
VERTEX
  5
9F5
  8
TEAM-NET
 10
-265.925238
 20
-30.301611
 30
867.562613
 70
    32
  0
VERTEX
  5
9F6
  8
TEAM-NET
 10
-265.877463
 20
-31.064906
 30
864.028509
 70
    32
  0
VERTEX
  5
9F7
  8
TEAM-NET
 10
-265.71313
 20
-32.448595
 30
860.695804
 70
    32
  0
VERTEX
  5
9F8
  8
TEAM-NET
 10
-265.461625
 20
-34.418925
 30
857.652877
 70
    32
  0
VERTEX
  5
9F9
  8
TEAM-NET
 10
-265.166483
 20
-36.892344
 30
855.027964
 70
    32
  0
VERTEX
  5
9FA
  8
TEAM-NET
 10
-264.87118
 20
-39.809405
 30
852.882539
 70
    32
  0
VERTEX
  5
9FB
  8
TEAM-NET
 10
-264.622116
 20
-43.056521
 30
851.301104
 70
    32
  0
VERTEX
  5
9FC
  8
TEAM-NET
 10
-264.455611
 20
-46.546238
 30
850.327901
 70
    32
  0
VERTEX
  5
9FD
  8
TEAM-NET
 10
-264.397199
 20
-50.152535
 30
850.0
 70
    32
  0
SEQEND
  5
9FE
  8
TEAM-NET
  0
POLYLINE
  5
313
  8
TEAM-NET
 66
     1
 10
0.0
 20
0.0
 30
0.0
 70
     8
  0
VERTEX
  5
9FF
  8
TEAM-NET
 10
-260.327094
 20
-32.0657
 30
853.195264
 70
    32
  0
VERTEX
  5
A00
  8
TEAM-NET
 10
-261.139654
 20
-31.590429
 30
857.066039
 70
    32
  0
VERTEX
  5
A01
  8
TEAM-NET
 10
-262.499541
 20
-31.154983
 30
860.612457
 70
    32
  0
VERTEX
  5
A02
  8
TEAM-NET
 10
-265.925238
 20
-30.301611
 30
867.562613
 70
    32
  0
SEQEND
  5
A03
  8
TEAM-NET
  0
POLYLINE
  5
314
  8
TEAM-NET
 66
     1
 10
0.0
 20
0.0
 30
0.0
 70
     8
  0
VERTEX
  5
A04
  8
TEAM-NET
 10
-265.925238
 20
-30.301611
 30
867.562613
 70
    32
  0
VERTEX
  5
A05
  8
TEAM-NET
 10
-265.877463
 20
-31.064906
 30
864.028509
 70
    32
  0
VERTEX
  5
A06
  8
TEAM-NET
 10
-265.71313
 20
-32.448595
 30
860.695804
 70
    32
  0
VERTEX
  5
A07
  8
TEAM-NET
 10
-265.461625
 20
-34.418925
 30
857.652877
 70
    32
  0
VERTEX
  5
A08
  8
TEAM-NET
 10
-265.166483
 20
-36.892344
 30
855.027964
 70
    32
  0
VERTEX
  5
A09
  8
TEAM-NET
 10
-264.87118
 20
-39.809405
 30
852.882539
 70
    32
  0
VERTEX
  5
A0A
  8
TEAM-NET
 10
-264.622116
 20
-43.056521
 30
851.301104
 70
    32
  0
VERTEX
  5
A0B
  8
TEAM-NET
 10
-264.455611
 20
-46.546238
 30
850.327901
 70
    32
  0
VERTEX
  5
A0C
  8
TEAM-NET
 10
-264.397199
 20
-50.152535
 30
850.0
 70
    32
  0
SEQEND
  5
A0D
  8
TEAM-NET
  0
POLYLINE
  5
315
  8
TEAM-NET
 66
     1
 10
0.0
 20
0.0
 30
0.0
 70
     8
  0
VERTEX
  5
A0E
  8
TEAM-NET
 10
-260.327094
 20
-32.0657
 30
853.195264
 70
    32
  0
VERTEX
  5
A0F
  8
TEAM-NET
 10
-261.139654
 20
-31.590429
 30
857.066039
 70
    32
  0
VERTEX
  5
A10
  8
TEAM-NET
 10
-262.499541
 20
-31.154983
 30
860.612457
 70
    32
  0
VERTEX
  5
A11
  8
TEAM-NET
 10
-265.925238
 20
-30.301611
 30
867.562613
 70
    32
  0
SEQEND
  5
A12
  8
TEAM-NET
  0
LINE
  5
316
  8
TEAM-NET
 10
418.0
 20
1.559694
 30
885.0
 11
418.0
 21
-21.967493
 31
885.0
  0
LINE
  5
317
  8
TEAM-NET
 10
418.0
 20
1.559694
 30
885.0
 11
418.0
 21
-21.967493
 31
885.0
  0
LINE
  5
318
  8
TEAM-NET
 10
418.0
 20
-21.967493
 30
885.0
 11
-418.0
 21
-21.967493
 31
885.0
  0
LINE
  5
319
  8
TEAM-NET
 10
418.0
 20
1.559694
 30
885.0
 11
-418.0
 21
1.559694
 31
885.0
  0
LINE
  5
31A
  8
TEAM-NET
 10
418.0
 20
-21.967493
 30
885.0
 11
-418.0
 21
-21.967493
 31
885.0
  0
LINE
  5
31B
  8
TEAM-NET
 10
418.0
 20
1.559694
 30
885.0
 11
-418.0
 21
1.559694
 31
885.0
210
0.0
220
1.0
230
0.0
  0
LINE
  5
31C
  8
TEAM-NET
 10
-418.0
 20
-21.967493
 30
885.0
 11
-418.0
 21
1.559694
 31
885.0
  0
LINE
  5
31D
  8
TEAM-NET
 10
-418.0
 20
-21.967493
 30
885.0
 11
-418.0
 21
1.559694
 31
885.0
  0
LINE
  5
31E
  8
TEAM-NET
 10
7.923948
 20
-222.434657
 30
868.420669
 11
7.923948
 21
-215.864992
 31
875.959866
  0
LINE
  5
31F
  8
TEAM-NET
 10
-8.06742
 20
-222.830836
 30
868.765899
 11
-8.06742
 21
-216.261171
 31
876.305097
  0
ARC
  5
320
  8
TEAM-NET
 10
18.734026
 20
510.33221
 30
-738.083159
 40
1.0
210
-0.032843
220
0.753513
230
-0.656612
 50
271.639337
 51
1.639337
  0
ARC
  5
321
  8
TEAM-NET
 10
18.734026
 20
510.33221
 30
-738.083159
 40
1.0
210
-0.032843
220
0.753513
230
-0.656612
 50
271.639337
 51
1.639337
  0
ARC
  5
322
  8
TEAM-NET
 10
-0.071736
 20
738.483916
 30
-508.587395
 40
8.0
210
-0.0
220
-0.656966
230
-0.75392
 50
358.117883
 51
178.117883
  0
ARC
  5
323
  8
TEAM-NET
 10
-0.512529
 20
517.813993
 30
738.083159
 40
1.0
210
0.032843
220
-0.753513
230
0.656612
 50
358.360663
 51
88.360663
  0
ARC
  5
324
  8
TEAM-NET
 10
18.505162
 20
518.328936
 30
-738.083159
 40
1.0
210
-0.032843
220
0.753513
230
-0.656612
 50
1.639337
 51
91.639337
  0
LINE
  5
325
  8
TEAM-NET
 10
9.922869
 20
-216.472436
 30
875.162793
 11
9.922869
 21
-221.728168
 31
869.131435
  0
ARC
  5
326
  8
TEAM-NET
 10
0.071736
 20
738.483916
 30
517.587395
 40
10.0
210
0.0
220
0.656966
230
0.75392
 50
181.882117
 51
1.882117
  0
LINE
  5
327
  8
TEAM-NET
 10
-10.066341
 20
-216.967659
 30
875.594331
 11
-10.066341
 21
-222.223391
 31
869.562973
  0
LINE
  5
328
  8
TEAM-NET
 10
9.922869
 20
-216.472436
 30
875.162793
 11
9.922869
 21
-221.728168
 31
869.131435
  0
LINE
  5
329
  8
TEAM-NET
 10
-10.066341
 20
-216.967659
 30
875.594331
 11
-10.066341
 21
-222.223391
 31
869.562973
  0
ARC
  5
32A
  8
TEAM-NET
 10
-0.512529
 20
517.813993
 30
738.083159
 40
1.0
210
0.032843
220
-0.753513
230
0.656612
 50
358.360663
 51
88.360663
  0
ARC
  5
32B
  8
TEAM-NET
 10
0.071736
 20
738.483916
 30
517.587395
 40
10.0
210
0.0
220
0.656966
230
0.75392
 50
181.882117
 51
1.882117
  0
ARC
  5
32C
  8
TEAM-NET
 10
18.505162
 20
518.328936
 30
-738.083159
 40
1.0
210
-0.032843
220
0.753513
230
-0.656612
 50
1.639337
 51
91.639337
  0
LINE
  5
32D
  8
TEAM-NET
 10
7.923948
 20
-222.434657
 30
868.420669
 11
7.923948
 21
-215.864992
 31
875.959866
  0
ARC
  5
32E
  8
TEAM-NET
 10
0.071736
 20
738.483916
 30
508.587395
 40
8.0
210
0.0
220
0.656966
230
0.75392
 50
1.882117
 51
181.882117
  0
LINE
  5
32F
  8
TEAM-NET
 10
-8.06742
 20
-222.830836
 30
868.765899
 11
-8.06742
 21
-216.261171
 31
876.305097
  0
ARC
  5
330
  8
TEAM-NET
 10
-2.0
 20
229.74092
 30
-849.257015
 40
1.0
210
-0.0
220
-0.184559
230
-0.982821
 50
90.0
 51
180.0
  0
LINE
  5
331
  8
TEAM-NET
 10
2.0
 20
-70.039337
 30
877.253294
 11
-2.0
 21
-70.039337
 31
877.253294
210
-0.0
220
-0.982821
230
0.184559
  0
ARC
  5
332
  8
TEAM-NET
 10
2.0
 20
229.74092
 30
-849.257015
 40
1.0
210
-0.0
220
-0.184559
230
-0.982821
 50
360.0
 51
90.0
  0
ARC
  5
333
  8
TEAM-NET
 10
-1.0
 20
228.740917
 30
-849.333452
 40
2.0
210
-0.0
220
-0.184559
230
-0.982821
 50
180.0
 51
270.0
  0
LINE
  5
334
  8
TEAM-NET
 10
-1.0
 20
-66.093941
 30
876.590182
 11
1.0
 21
-66.093941
 31
876.590182
210
0.0
220
0.982821
230
-0.184559
  0
ARC
  5
335
  8
TEAM-NET
 10
1.0
 20
228.740917
 30
-849.333452
 40
2.0
210
-0.0
220
-0.184559
230
-0.982821
 50
270.0
 51
360.0
  0
ARC
  5
336
  8
TEAM-NET
 10
-1.0
 20
228.740917
 30
-849.333452
 40
2.0
210
-0.0
220
-0.184559
230
-0.982821
 50
180.0
 51
270.0
  0
LINE
  5
337
  8
TEAM-NET
 10
-1.0
 20
-66.093941
 30
876.590182
 11
1.0
 21
-66.093941
 31
876.590182
  0
ARC
  5
338
  8
TEAM-NET
 10
1.0
 20
228.740917
 30
-849.333452
 40
2.0
210
-0.0
220
-0.184559
230
-0.982821
 50
270.0
 51
360.0
  0
ARC
  5
339
  8
TEAM-NET
 10
-2.0
 20
229.74092
 30
-849.257015
 40
1.0
210
-0.0
220
-0.184559
230
-0.982821
 50
90.0
 51
180.0
  0
LINE
  5
33A
  8
TEAM-NET
 10
2.0
 20
-70.039337
 30
877.253294
 11
-2.0
 21
-70.039337
 31
877.253294
  0
ARC
  5
33B
  8
TEAM-NET
 10
2.0
 20
229.74092
 30
-849.257015
 40
1.0
210
-0.0
220
-0.184559
230
-0.982821
 50
360.0
 51
90.0
  0
POLYLINE
  5
33C
  8
TEAM-NET
 66
     1
 10
0.0
 20
0.0
 30
513.762782
 70
   128
210
0.0
220
0.656966
230
0.75392
  0
VERTEX
  5
1066
  8
TEAM-NET
 10
-4.68381
 20
738.677069
 30
513.762782
  0
VERTEX
  5
1067
  8
TEAM-NET
 10
-4.604059
 20
737.803144
 30
513.762782
  0
VERTEX
  5
1068
  8
TEAM-NET
 10
-4.367523
 20
736.95898
 30
513.762782
  0
VERTEX
  5
1069
  8
TEAM-NET
 10
-3.982256
 20
736.173323
 30
513.762782
  0
VERTEX
  5
106A
  8
TEAM-NET
 10
-3.461377
 20
735.472928
 30
513.762782
  0
VERTEX
  5
106B
  8
TEAM-NET
 10
-2.822626
 20
734.881646
 30
513.762782
  0
VERTEX
  5
106C
  8
TEAM-NET
 10
-2.087754
 20
734.419613
 30
513.762782
  0
VERTEX
  5
106D
  8
TEAM-NET
 10
-1.281785
 20
734.102563
 30
513.762782
  0
VERTEX
  5
106E
  8
TEAM-NET
 10
-0.432167
 20
733.941292
 30
513.762782
  0
VERTEX
  5
106F
  8
TEAM-NET
 10
0.432167
 20
733.941292
 30
513.762782
  0
VERTEX
  5
1070
  8
TEAM-NET
 10
1.281785
 20
734.102563
 30
513.762782
  0
VERTEX
  5
1071
  8
TEAM-NET
 10
2.087754
 20
734.419613
 30
513.762782
  0
VERTEX
  5
1072
  8
TEAM-NET
 10
2.822626
 20
734.881646
 30
513.762782
  0
VERTEX
  5
1073
  8
TEAM-NET
 10
3.461377
 20
735.472928
 30
513.762782
  0
VERTEX
  5
1074
  8
TEAM-NET
 10
3.982256
 20
736.173323
 30
513.762782
  0
VERTEX
  5
1075
  8
TEAM-NET
 10
4.367523
 20
736.95898
 30
513.762782
  0
VERTEX
  5
1076
  8
TEAM-NET
 10
4.604059
 20
737.803144
 30
513.762782
  0
VERTEX
  5
1077
  8
TEAM-NET
 10
4.68381
 20
738.677069
 30
513.762782
  0
SEQEND
  5
1078
  8
TEAM-NET
  0
POLYLINE
  5
33D
  8
TEAM-NET
 66
     1
 10
0.0
 20
0.0
 30
-513.762782
 70
   128
210
-0.0
220
-0.656966
230
-0.75392
  0
VERTEX
  5
1079
  8
TEAM-NET
 10
4.68381
 20
738.677069
 30
-513.762782
  0
VERTEX
  5
107A
  8
TEAM-NET
 10
4.593812
 20
739.604931
 30
-513.762782
  0
VERTEX
  5
107B
  8
TEAM-NET
 10
4.327276
 20
740.497136
 30
-513.762782
  0
VERTEX
  5
107C
  8
TEAM-NET
 10
3.894446
 20
741.319397
 30
-513.762782
  0
VERTEX
  5
107D
  8
TEAM-NET
 10
3.311954
 20
742.040115
 30
-513.762782
  0
VERTEX
  5
107E
  8
TEAM-NET
 10
2.602185
 20
742.631592
 30
-513.762782
  0
VERTEX
  5
107F
  8
TEAM-NET
 10
1.792416
 20
743.0711
 30
-513.762782
  0
VERTEX
  5
1080
  8
TEAM-NET
 10
0.913766
 20
743.341747
 30
-513.762782
  0
VERTEX
  5
1081
  8
TEAM-NET
 10
0.0
 20
743.433134
 30
-513.762782
  0
SEQEND
  5
1082
  8
TEAM-NET
  0
POLYLINE
  5
33E
  8
TEAM-NET
 66
     1
 10
0.0
 20
0.0
 30
-513.762782
 70
   128
210
-0.0
220
-0.656966
230
-0.75392
  0
VERTEX
  5
1083
  8
TEAM-NET
 10
-4.68381
 20
738.677069
 30
-513.762782
  0
VERTEX
  5
1084
  8
TEAM-NET
 10
-4.604059
 20
737.803144
 30
-513.762782
  0
VERTEX
  5
1085
  8
TEAM-NET
 10
-4.367523
 20
736.95898
 30
-513.762782
  0
VERTEX
  5
1086
  8
TEAM-NET
 10
-3.982256
 20
736.173323
 30
-513.762782
  0
VERTEX
  5
1087
  8
TEAM-NET
 10
-3.461377
 20
735.472928
 30
-513.762782
  0
VERTEX
  5
1088
  8
TEAM-NET
 10
-2.822626
 20
734.881646
 30
-513.762782
  0
VERTEX
  5
1089
  8
TEAM-NET
 10
-2.087754
 20
734.419613
 30
-513.762782
  0
VERTEX
  5
108A
  8
TEAM-NET
 10
-1.281785
 20
734.102563
 30
-513.762782
  0
VERTEX
  5
108B
  8
TEAM-NET
 10
-0.432167
 20
733.941292
 30
-513.762782
  0
VERTEX
  5
108C
  8
TEAM-NET
 10
0.432167
 20
733.941292
 30
-513.762782
  0
VERTEX
  5
108D
  8
TEAM-NET
 10
1.281785
 20
734.102563
 30
-513.762782
  0
VERTEX
  5
108E
  8
TEAM-NET
 10
2.087754
 20
734.419613
 30
-513.762782
  0
VERTEX
  5
108F
  8
TEAM-NET
 10
2.822626
 20
734.881646
 30
-513.762782
  0
VERTEX
  5
1090
  8
TEAM-NET
 10
3.461377
 20
735.472928
 30
-513.762782
  0
VERTEX
  5
1091
  8
TEAM-NET
 10
3.982256
 20
736.173323
 30
-513.762782
  0
VERTEX
  5
1092
  8
TEAM-NET
 10
4.367523
 20
736.95898
 30
-513.762782
  0
VERTEX
  5
1093
  8
TEAM-NET
 10
4.604059
 20
737.803144
 30
-513.762782
  0
VERTEX
  5
1094
  8
TEAM-NET
 10
4.68381
 20
738.677069
 30
-513.762782
  0
SEQEND
  5
1095
  8
TEAM-NET
  0
POLYLINE
  5
33F
  8
TEAM-NET
 66
     1
 10
0.0
 20
0.0
 30
-513.762782
 70
   128
210
0.0
220
-0.656966
230
-0.75392
  0
VERTEX
  5
1096
  8
TEAM-NET
 10
0.0
 20
743.433134
 30
-513.762782
  0
VERTEX
  5
1097
  8
TEAM-NET
 10
-0.913766
 20
743.341747
 30
-513.762782
  0
VERTEX
  5
1098
  8
TEAM-NET
 10
-1.792416
 20
743.0711
 30
-513.762782
  0
VERTEX
  5
1099
  8
TEAM-NET
 10
-2.602185
 20
742.631592
 30
-513.762782
  0
VERTEX
  5
109A
  8
TEAM-NET
 10
-3.311954
 20
742.040115
 30
-513.762782
  0
VERTEX
  5
109B
  8
TEAM-NET
 10
-3.894446
 20
741.319397
 30
-513.762782
  0
VERTEX
  5
109C
  8
TEAM-NET
 10
-4.327276
 20
740.497136
 30
-513.762782
  0
VERTEX
  5
109D
  8
TEAM-NET
 10
-4.593812
 20
739.604931
 30
-513.762782
  0
VERTEX
  5
109E
  8
TEAM-NET
 10
-4.68381
 20
738.677069
 30
-513.762782
  0
SEQEND
  5
109F
  8
TEAM-NET
  0
POLYLINE
  5
340
  8
TEAM-NET
 66
     1
 10
0.0
 20
0.0
 30
513.762782
 70
   128
210
0.0
220
0.656966
230
0.75392
  0
VERTEX
  5
10A0
  8
TEAM-NET
 10
4.68381
 20
738.677069
 30
513.762782
  0
VERTEX
  5
10A1
  8
TEAM-NET
 10
4.593812
 20
739.604931
 30
513.762782
  0
VERTEX
  5
10A2
  8
TEAM-NET
 10
4.327276
 20
740.497136
 30
513.762782
  0
VERTEX
  5
10A3
  8
TEAM-NET
 10
3.894446
 20
741.319397
 30
513.762782
  0
VERTEX
  5
10A4
  8
TEAM-NET
 10
3.311954
 20
742.040115
 30
513.762782
  0
VERTEX
  5
10A5
  8
TEAM-NET
 10
2.602185
 20
742.631592
 30
513.762782
  0
VERTEX
  5
10A6
  8
TEAM-NET
 10
1.792416
 20
743.0711
 30
513.762782
  0
VERTEX
  5
10A7
  8
TEAM-NET
 10
0.913766
 20
743.341747
 30
513.762782
  0
VERTEX
  5
10A8
  8
TEAM-NET
 10
0.0
 20
743.433134
 30
513.762782
  0
SEQEND
  5
10A9
  8
TEAM-NET
  0
POLYLINE
  5
341
  8
TEAM-NET
 66
     1
 10
0.0
 20
0.0
 30
513.762782
 70
   128
210
-0.0
220
0.656966
230
0.75392
  0
VERTEX
  5
10AA
  8
TEAM-NET
 10
0.0
 20
743.433134
 30
513.762782
  0
VERTEX
  5
10AB
  8
TEAM-NET
 10
-0.913766
 20
743.341747
 30
513.762782
  0
VERTEX
  5
10AC
  8
TEAM-NET
 10
-1.792416
 20
743.0711
 30
513.762782
  0
VERTEX
  5
10AD
  8
TEAM-NET
 10
-2.602185
 20
742.631592
 30
513.762782
  0
VERTEX
  5
10AE
  8
TEAM-NET
 10
-3.311954
 20
742.040115
 30
513.762782
  0
VERTEX
  5
10AF
  8
TEAM-NET
 10
-3.894446
 20
741.319397
 30
513.762782
  0
VERTEX
  5
10B0
  8
TEAM-NET
 10
-4.327276
 20
740.497136
 30
513.762782
  0
VERTEX
  5
10B1
  8
TEAM-NET
 10
-4.593812
 20
739.604931
 30
513.762782
  0
VERTEX
  5
10B2
  8
TEAM-NET
 10
-4.68381
 20
738.677069
 30
513.762782
  0
SEQEND
  5
10B3
  8
TEAM-NET
  0
LINE
  5
342
  8
TEAM-NET
 10
425.0
 20
-21.967493
 30
878.0
 11
425.0
 21
1.559694
 31
878.0
  0
LINE
  5
343
  8
TEAM-NET
 10
425.0
 20
-21.967493
 30
878.0
 11
425.0
 21
1.559694
 31
878.0
210
1.0
220
0.0
230
0.0
  0
ARC
  5
344
  8
TEAM-NET
 10
418.0
 20
128.805034
 30
-868.778357
 40
7.0
210
0.0
220
-0.121869
230
-0.992546
 50
0.0
 51
90.0
  0
ARC
  5
345
  8
TEAM-NET
 10
418.0
 20
128.805034
 30
-868.778357
 40
7.0
210
0.0
220
-0.121869
230
-0.992546
 50
0.0
 51
90.0
  0
LINE
  5
346
  8
TEAM-NET
 10
-418.0
 20
-28.915316
 30
878.853085
 11
418.0
 21
-28.915316
 31
878.853085
210
0.0
220
-0.992546
230
0.121869
  0
LINE
  5
347
  8
TEAM-NET
 10
-418.0
 20
-28.915316
 30
878.853085
 11
418.0
 21
-28.915316
 31
878.853085
  0
LINE
  5
348
  8
TEAM-NET
 10
-425.0
 20
1.559694
 30
878.0
 11
-425.0
 21
-21.967493
 31
878.0
  0
LINE
  5
349
  8
TEAM-NET
 10
-425.0
 20
1.559694
 30
878.0
 11
-425.0
 21
-21.967493
 31
878.0
210
-1.0
220
0.0
230
0.0
  0
ARC
  5
34A
  8
TEAM-NET
 10
-418.0
 20
128.805034
 30
-868.778357
 40
7.0
210
0.0
220
-0.121869
230
-0.992546
 50
90.0
 51
180.0
  0
ARC
  5
34B
  8
TEAM-NET
 10
-418.0
 20
128.805034
 30
-868.778357
 40
7.0
210
0.0
220
-0.121869
230
-0.992546
 50
90.0
 51
180.0
  0
ARC
  5
34C
  8
TEAM-NET
 10
-0.071736
 20
738.483916
 30
-518.587395
 40
8.0
210
-0.0
220
-0.656966
230
-0.75392
 50
178.117883
 51
358.117883
  0
ARC
  5
34D
  8
TEAM-NET
 10
-0.071736
 20
738.483916
 30
-518.587395
 40
9.0
210
-0.0
220
-0.656966
230
-0.75392
 50
358.117883
 51
178.117883
  0
ARC
  5
34E
  8
TEAM-NET
 10
0.071736
 20
738.483916
 30
517.587395
 40
10.0
210
0.0
220
0.656966
230
0.75392
 50
1.882117
 51
181.882117
  0
ARC
  5
34F
  8
TEAM-NET
 10
0.071736
 20
738.483916
 30
517.587395
 40
10.0
210
0.0
220
0.656966
230
0.75392
 50
1.882117
 51
181.882117
  0
ARC
  5
350
  8
TEAM-NET
 10
-0.071736
 20
738.483916
 30
-518.587395
 40
9.0
210
-0.0
220
-0.656966
230
-0.75392
 50
178.117883
 51
358.117883
  0
ARC
  5
351
  8
TEAM-NET
 10
0.071736
 20
738.483916
 30
518.587395
 40
8.0
210
0.0
220
0.656966
230
0.75392
 50
181.882117
 51
1.882117
  0
ARC
  5
352
  8
TEAM-NET
 10
0.071736
 20
738.483916
 30
518.587395
 40
8.0
210
0.0
220
0.656966
230
0.75392
 50
1.882117
 51
181.882117
  0
ARC
  5
353
  8
TEAM-NET
 10
0.071736
 20
738.483916
 30
518.587395
 40
9.0
210
0.0
220
0.656966
230
0.75392
 50
181.882117
 51
1.882117
  0
ARC
  5
354
  8
TEAM-NET
 10
0.071736
 20
738.483916
 30
518.587395
 40
9.0
210
0.0
220
0.656966
230
0.75392
 50
1.882117
 51
181.882117
  0
ARC
  5
355
  8
TEAM-NET
 10
-0.071736
 20
738.483916
 30
-518.587395
 40
8.0
210
-0.0
220
-0.656966
230
-0.75392
 50
358.117883
 51
178.117883
  0
POLYLINE
  5
356
  8
TEAM-NET
 66
     1
 10
0.0
 20
0.0
 30
-497.49775
 70
   128
210
0.0
220
-0.675261
230
-0.737579
  0
VERTEX
  5
10B4
  8
TEAM-NET
 10
14.0
 20
750.753074
 30
-497.49775
  0
VERTEX
  5
10B5
  8
TEAM-NET
 10
13.787309
 20
753.211757
 30
-497.49775
  0
VERTEX
  5
10B6
  8
TEAM-NET
 10
13.155697
 20
755.595735
 30
-497.49775
  0
VERTEX
  5
10B7
  8
TEAM-NET
 10
12.124356
 20
757.832571
 30
-497.49775
  0
VERTEX
  5
10B8
  8
TEAM-NET
 10
10.724622
 20
759.8543
 30
-497.49775
  0
VERTEX
  5
10B9
  8
TEAM-NET
 10
8.999027
 20
761.599493
 30
-497.49775
  0
VERTEX
  5
10BA
  8
TEAM-NET
 10
7.0
 20
763.015123
 30
-497.49775
  0
VERTEX
  5
10BB
  8
TEAM-NET
 10
4.788282
 20
764.058176
 30
-497.49775
  0
VERTEX
  5
10BC
  8
TEAM-NET
 10
2.431074
 20
764.696961
 30
-497.49775
  0
VERTEX
  5
10BD
  8
TEAM-NET
 10
0.0
 20
764.912068
 30
-497.49775
  0
SEQEND
  5
10BE
  8
TEAM-NET
  0
POLYLINE
  5
357
  8
TEAM-NET
 66
     1
 10
0.0
 20
0.0
 30
-497.49775
 70
   128
210
0.0
220
-0.675261
230
-0.737579
  0
VERTEX
  5
10BF
  8
TEAM-NET
 10
0.0
 20
764.912068
 30
-497.49775
  0
VERTEX
  5
10C0
  8
TEAM-NET
 10
-2.431074
 20
764.696961
 30
-497.49775
  0
VERTEX
  5
10C1
  8
TEAM-NET
 10
-4.788282
 20
764.058176
 30
-497.49775
  0
VERTEX
  5
10C2
  8
TEAM-NET
 10
-7.0
 20
763.015123
 30
-497.49775
  0
VERTEX
  5
10C3
  8
TEAM-NET
 10
-8.999027
 20
761.599493
 30
-497.49775
  0
VERTEX
  5
10C4
  8
TEAM-NET
 10
-10.724622
 20
759.8543
 30
-497.49775
  0
VERTEX
  5
10C5
  8
TEAM-NET
 10
-12.124356
 20
757.832571
 30
-497.49775
  0
VERTEX
  5
10C6
  8
TEAM-NET
 10
-13.155697
 20
755.595735
 30
-497.49775
  0
VERTEX
  5
10C7
  8
TEAM-NET
 10
-13.787309
 20
753.211757
 30
-497.49775
  0
VERTEX
  5
10C8
  8
TEAM-NET
 10
-14.0
 20
750.753074
 30
-497.49775
  0
SEQEND
  5
10C9
  8
TEAM-NET
  0
POLYLINE
  5
358
  8
TEAM-NET
 66
     1
 10
0.0
 20
0.0
 30
-497.49775
 70
   128
210
0.0
220
-0.675261
230
-0.737579
  0
VERTEX
  5
10CA
  8
TEAM-NET
 10
0.0
 20
764.912068
 30
-497.49775
  0
VERTEX
  5
10CB
  8
TEAM-NET
 10
-2.431074
 20
764.696961
 30
-497.49775
  0
VERTEX
  5
10CC
  8
TEAM-NET
 10
-4.788282
 20
764.058176
 30
-497.49775
  0
VERTEX
  5
10CD
  8
TEAM-NET
 10
-7.0
 20
763.015123
 30
-497.49775
  0
VERTEX
  5
10CE
  8
TEAM-NET
 10
-8.999027
 20
761.599493
 30
-497.49775
  0
VERTEX
  5
10CF
  8
TEAM-NET
 10
-10.724622
 20
759.8543
 30
-497.49775
  0
VERTEX
  5
10D0
  8
TEAM-NET
 10
-12.124356
 20
757.832571
 30
-497.49775
  0
VERTEX
  5
10D1
  8
TEAM-NET
 10
-13.155697
 20
755.595735
 30
-497.49775
  0
VERTEX
  5
10D2
  8
TEAM-NET
 10
-13.787309
 20
753.211757
 30
-497.49775
  0
VERTEX
  5
10D3
  8
TEAM-NET
 10
-14.0
 20
750.753074
 30
-497.49775
  0
SEQEND
  5
10D4
  8
TEAM-NET
  0
POLYLINE
  5
359
  8
TEAM-NET
 66
     1
 10
0.0
 20
0.0
 30
-497.49775
 70
   128
210
0.0
220
-0.675261
230
-0.737579
  0
VERTEX
  5
10D5
  8
TEAM-NET
 10
14.0
 20
750.753074
 30
-497.49775
  0
VERTEX
  5
10D6
  8
TEAM-NET
 10
13.787309
 20
753.211757
 30
-497.49775
  0
VERTEX
  5
10D7
  8
TEAM-NET
 10
13.155697
 20
755.595735
 30
-497.49775
  0
VERTEX
  5
10D8
  8
TEAM-NET
 10
12.124356
 20
757.832571
 30
-497.49775
  0
VERTEX
  5
10D9
  8
TEAM-NET
 10
10.724622
 20
759.8543
 30
-497.49775
  0
VERTEX
  5
10DA
  8
TEAM-NET
 10
8.999027
 20
761.599493
 30
-497.49775
  0
VERTEX
  5
10DB
  8
TEAM-NET
 10
7.0
 20
763.015123
 30
-497.49775
  0
VERTEX
  5
10DC
  8
TEAM-NET
 10
4.788282
 20
764.058176
 30
-497.49775
  0
VERTEX
  5
10DD
  8
TEAM-NET
 10
2.431074
 20
764.696961
 30
-497.49775
  0
VERTEX
  5
10DE
  8
TEAM-NET
 10
0.0
 20
764.912068
 30
-497.49775
  0
SEQEND
  5
10DF
  8
TEAM-NET
  0
ARC
  5
35A
  8
TEAM-NET
 10
-418.0
 20
878.0
 30
1.559694
 40
7.0
210
0.0
220
1.0
230
0.0
 50
90.0
 51
180.0
  0
ARC
  5
35B
  8
TEAM-NET
 10
418.0
 20
878.0
 30
21.967493
 40
7.0
210
0.0
220
-1.0
230
0.0
 50
0.0
 51
90.0
  0
ARC
  5
35C
  8
TEAM-NET
 10
418.0
 20
878.0
 30
-1.559694
 40
7.0
210
0.0
220
-1.0
230
0.0
 50
0.0
 51
90.0
  0
ARC
  5
35D
  8
TEAM-NET
 10
-21.967493
 20
878.0
 30
418.0
 40
7.0
210
1.0
220
0.0
230
0.0
 50
90.0
 51
173.0
  0
ARC
  5
35E
  8
TEAM-NET
 10
418.0
 20
878.0
 30
21.967493
 40
7.0
210
0.0
220
-1.0
230
0.0
 50
0.0
 51
90.0
  0
ARC
  5
35F
  8
TEAM-NET
 10
-21.967493
 20
878.0
 30
418.0
 40
7.0
210
1.0
220
0.0
230
0.0
 50
90.0
 51
173.0
  0
ARC
  5
360
  8
TEAM-NET
 10
418.0
 20
878.0
 30
1.559694
 40
7.0
210
0.0
220
1.0
230
0.0
 50
0.0
 51
90.0
  0
ARC
  5
361
  8
TEAM-NET
 10
-418.0
 20
878.0
 30
21.967493
 40
7.0
210
0.0
220
-1.0
230
0.0
 50
90.0
 51
180.0
  0
ARC
  5
362
  8
TEAM-NET
 10
-418.0
 20
878.0
 30
-1.559694
 40
7.0
210
0.0
220
-1.0
230
0.0
 50
90.0
 51
180.0
  0
ARC
  5
363
  8
TEAM-NET
 10
21.967493
 20
878.0
 30
418.0
 40
7.0
210
-1.0
220
0.0
230
0.0
 50
7.0
 51
90.0
  0
ARC
  5
364
  8
TEAM-NET
 10
21.967493
 20
878.0
 30
418.0
 40
7.0
210
-1.0
220
0.0
230
0.0
 50
7.0
 51
90.0
  0
ARC
  5
365
  8
TEAM-NET
 10
-418.0
 20
878.0
 30
21.967493
 40
7.0
210
0.0
220
-1.0
230
0.0
 50
90.0
 51
180.0
  0
ARC
  5
366
  8
TEAM-NET
 10
0.0
 20
791.533475
 30
506.335166
 40
14.0
210
0.0
220
0.777902
230
0.628385
 50
180.0
 51
0.0
  0
ARC
  5
367
  8
TEAM-NET
 10
0.0
 20
791.533475
 30
506.335166
 40
14.0
210
0.0
220
0.777902
230
0.628385
 50
0.0
 51
180.0
  0
ARC
  5
368
  8
TEAM-NET
 10
0.0
 20
791.533475
 30
506.335166
 40
14.0
210
0.0
220
0.777902
230
0.628385
 50
180.0
 51
0.0
  0
ARC
  5
369
  8
TEAM-NET
 10
0.0
 20
791.533475
 30
506.335166
 40
14.0
210
0.0
220
0.777902
230
0.628385
 50
0.0
 51
180.0
  0
ARC
  5
36A
  8
TEAM-NET
 10
2.0
 20
213.289324
 30
866.631061
 40
1.0
210
0.0
220
0.184559
230
0.982821
 50
270.0
 51
0.0
  0
LINE
  5
36B
  8
TEAM-NET
 10
-3.0
 20
-49.681002
 30
891.108035
 11
-3.0
 21
-49.494766
 31
892.099789
  0
LINE
  5
36C
  8
TEAM-NET
 10
-2.0
 20
-48.511944
 30
891.91523
 11
-2.0
 21
-48.69818
 31
890.923476
  0
ARC
  5
36D
  8
TEAM-NET
 10
-2.0
 20
213.289324
 30
-867.64015
 40
1.0
210
-0.0
220
-0.184559
230
-0.982821
 50
180.0
 51
270.0
  0
ARC
  5
36E
  8
TEAM-NET
 10
2.0
 20
213.289324
 30
866.631061
 40
1.0
210
0.0
220
0.184559
230
0.982821
 50
270.0
 51
0.0
  0
ARC
  5
36F
  8
TEAM-NET
 10
49.866809
 20
890.118562
 30
1.0
 40
1.0
210
-1.0
220
0.0
230
0.0
 50
190.635407
 51
273.78782
  0
ARC
  5
370
  8
TEAM-NET
 10
-2.0
 20
213.289324
 30
866.631061
 40
1.0
210
0.0
220
0.184559
230
0.982821
 50
180.0
 51
270.0
  0
LINE
  5
371
  8
TEAM-NET
 10
2.0
 20
-48.69818
 30
890.923476
 11
2.0
 21
-48.511944
 31
891.91523
  0
LINE
  5
372
  8
TEAM-NET
 10
3.0
 20
-49.494766
 30
892.099789
 11
3.0
 21
-49.681002
 31
891.108035
  0
ARC
  5
373
  8
TEAM-NET
 10
2.0
 20
213.289324
 30
-867.64015
 40
1.0
210
-0.0
220
-0.184559
230
-0.982821
 50
270.0
 51
360.0
  0
ARC
  5
374
  8
TEAM-NET
 10
-49.866809
 20
890.118562
 30
1.0
 40
1.0
210
1.0
220
-0.0
230
-0.0
 50
266.21218
 51
349.364593
  0
ARC
  5
375
  8
TEAM-NET
 10
-2.0
 20
213.289324
 30
866.631061
 40
1.0
210
0.0
220
0.184559
230
0.982821
 50
180.0
 51
270.0
  0
ARC
  5
376
  8
TEAM-NET
 10
49.866809
 20
890.118562
 30
1.0
 40
1.0
210
-1.0
220
0.0
230
0.0
 50
190.635407
 51
273.78782
  0
LINE
  5
377
  8
TEAM-NET
 10
-1.0
 20
-48.883988
 30
889.934004
 11
1.0
 21
-48.883988
 31
889.934004
  0
LINE
  5
378
  8
TEAM-NET
 10
1.0
 20
-49.932871
 30
889.120747
 11
-1.0
 21
-49.932871
 31
889.120747
  0
ARC
  5
379
  8
TEAM-NET
 10
-49.866809
 20
890.118562
 30
1.0
 40
1.0
210
1.0
220
-0.0
230
-0.0
 50
266.21218
 51
349.364593
  0
ARC
  5
37A
  8
TEAM-NET
 10
2.0
 20
885.902002
 30
-116.057784
 40
1.0
210
0.0
220
0.997201
230
-0.074769
 50
0.0
 51
90.0
  0
ARC
  5
37B
  8
TEAM-NET
 10
-2.0
 20
213.289324
 30
-867.64015
 40
1.0
210
-0.0
220
-0.184559
230
-0.982821
 50
180.0
 51
270.0
  0
ARC
  5
37C
  8
TEAM-NET
 10
49.494766
 20
892.099789
 30
2.0
 40
1.0
210
-1.0
220
0.0
230
0.0
 50
94.287959
 51
190.635407
  0
ARC
  5
37D
  8
TEAM-NET
 10
2.0
 20
213.289324
 30
-867.64015
 40
1.0
210
-0.0
220
-0.184559
230
-0.982821
 50
270.0
 51
360.0
  0
ARC
  5
37E
  8
TEAM-NET
 10
-2.0
 20
885.902002
 30
-116.057784
 40
1.0
210
0.0
220
0.997201
230
-0.074769
 50
90.0
 51
180.0
  0
ARC
  5
37F
  8
TEAM-NET
 10
-49.494766
 20
892.099789
 30
2.0
 40
1.0
210
1.0
220
-0.0
230
-0.0
 50
349.364593
 51
85.712041
  0
ARC
  5
380
  8
TEAM-NET
 10
49.494766
 20
892.099789
 30
2.0
 40
1.0
210
-1.0
220
0.0
230
0.0
 50
94.287959
 51
190.635407
  0
LINE
  5
381
  8
TEAM-NET
 10
-2.0
 20
-49.419996
 30
893.09699
 11
2.0
 21
-49.419996
 31
893.09699
  0
LINE
  5
382
  8
TEAM-NET
 10
2.0
 20
-48.511944
 30
891.91523
 11
-2.0
 21
-48.511944
 31
891.91523
  0
ARC
  5
383
  8
TEAM-NET
 10
-49.494766
 20
892.099789
 30
2.0
 40
1.0
210
1.0
220
-0.0
230
-0.0
 50
349.364593
 51
85.712041
  0
LINE
  5
384
  8
TEAM-NET
 10
-2.0
 20
-48.511944
 30
891.91523
 11
-2.0
 21
-48.69818
 31
890.923476
210
0.0
220
0.982821
230
-0.184559
  0
LINE
  5
385
  8
TEAM-NET
 10
-1.0
 20
-48.883988
 30
889.934004
 11
1.0
 21
-48.883988
 31
889.934004
210
0.0
220
0.982821
230
-0.184559
  0
LINE
  5
386
  8
TEAM-NET
 10
2.0
 20
-48.511944
 30
891.91523
 11
-2.0
 21
-48.511944
 31
891.91523
210
0.0
220
0.982821
230
-0.184559
  0
LINE
  5
387
  8
TEAM-NET
 10
2.0
 20
-48.69818
 30
890.923476
 11
2.0
 21
-48.511944
 31
891.91523
210
0.0
220
0.982821
230
-0.184559
  0
LINE
  5
388
  8
TEAM-NET
 10
1.0
 20
-49.932871
 30
889.120747
 11
-1.0
 21
-49.932871
 31
889.120747
  0
LINE
  5
389
  8
TEAM-NET
 10
3.0
 20
-49.494766
 30
892.099789
 11
3.0
 21
-49.681002
 31
891.108035
210
1.0
220
-0.0
230
-0.0
  0
ARC
  5
38A
  8
TEAM-NET
 10
2.0
 20
885.902002
 30
-116.057784
 40
1.0
210
0.0
220
0.997201
230
-0.074769
 50
0.0
 51
90.0
  0
LINE
  5
38B
  8
TEAM-NET
 10
-2.0
 20
-49.419996
 30
893.09699
 11
2.0
 21
-49.419996
 31
893.09699
  0
ARC
  5
38C
  8
TEAM-NET
 10
-2.0
 20
885.902002
 30
-116.057784
 40
1.0
210
0.0
220
0.997201
230
-0.074769
 50
90.0
 51
180.0
  0
LINE
  5
38D
  8
TEAM-NET
 10
-3.0
 20
-49.681002
 30
891.108035
 11
-3.0
 21
-49.494766
 31
892.099789
210
-1.0
220
0.0
230
0.0
  0
POLYLINE
  5
38E
  8
TEAM-NET
 66
     1
 10
0.0
 20
0.0
 30
-162.892253
 70
   128
210
0.00179
220
0.991836
230
-0.127507
  0
VERTEX
  5
10E0
  8
TEAM-NET
 10
-3.089636
 20
877.500599
 30
-162.892253
  0
VERTEX
  5
10E1
  8
TEAM-NET
 10
-2.505301
 20
876.085011
 30
-162.892253
  0
VERTEX
  5
10E2
  8
TEAM-NET
 10
-1.090094
 20
875.496956
 30
-162.892253
  0
SEQEND
  5
10E3
  8
TEAM-NET
  0
POLYLINE
  5
38F
  8
TEAM-NET
 66
     1
 10
0.0
 20
0.0
 30
-162.893048
 70
   128
210
-0.001791
220
0.991836
230
-0.127508
  0
VERTEX
  5
10E4
  8
TEAM-NET
 10
1.09014
 20
875.496808
 30
-162.893048
  0
VERTEX
  5
10E5
  8
TEAM-NET
 10
2.50542
 20
876.085209
 30
-162.893048
  0
VERTEX
  5
10E6
  8
TEAM-NET
 10
3.089682
 20
877.500451
 30
-162.893048
  0
SEQEND
  5
10E7
  8
TEAM-NET
  0
LINE
  5
390
  8
TEAM-NET
 10
1.0
 20
-48.883988
 30
889.934004
 11
2.0
 21
-48.69818
 31
890.923476
  0
LINE
  5
391
  8
TEAM-NET
 10
-2.0
 20
-48.69818
 30
890.923476
 11
-1.0
 21
-48.883988
 31
889.934004
  0
POLYLINE
  5
392
  8
TEAM-NET
 66
     1
 10
0.0
 20
0.0
 30
-162.892253
 70
   128
210
0.00179
220
0.991836
230
-0.127507
  0
VERTEX
  5
10E8
  8
TEAM-NET
 10
-3.089636
 20
877.500599
 30
-162.892253
  0
VERTEX
  5
10E9
  8
TEAM-NET
 10
-2.505301
 20
876.085011
 30
-162.892253
  0
VERTEX
  5
10EA
  8
TEAM-NET
 10
-1.090094
 20
875.496956
 30
-162.892253
  0
SEQEND
  5
10EB
  8
TEAM-NET
  0
LINE
  5
393
  8
TEAM-NET
 10
1.0
 20
-48.883988
 30
889.934004
 11
2.0
 21
-48.69818
 31
890.923476
  0
POLYLINE
  5
394
  8
TEAM-NET
 66
     1
 10
0.0
 20
0.0
 30
-162.893048
 70
   128
210
-0.001791
220
0.991836
230
-0.127508
  0
VERTEX
  5
10EC
  8
TEAM-NET
 10
1.09014
 20
875.496808
 30
-162.893048
  0
VERTEX
  5
10ED
  8
TEAM-NET
 10
2.50542
 20
876.085209
 30
-162.893048
  0
VERTEX
  5
10EE
  8
TEAM-NET
 10
3.089682
 20
877.500451
 30
-162.893048
  0
SEQEND
  5
10EF
  8
TEAM-NET
  0
LINE
  5
395
  8
TEAM-NET
 10
-2.0
 20
-48.69818
 30
890.923476
 11
-1.0
 21
-48.883988
 31
889.934004
  0
ARC
  5
396
  8
TEAM-NET
 10
0.0
 20
64.560647
 30
949.638066
 40
22.0
210
0.0
220
-0.173648
230
0.984808
 50
270.0
 51
90.0
  0
ARC
  5
397
  8
TEAM-NET
 10
0.0
 20
64.560647
 30
949.638066
 40
22.0
210
0.0
220
-0.173648
230
0.984808
 50
90.0
 51
270.0
  0
ARC
  5
398
  8
TEAM-NET
 10
0.0
 20
64.560647
 30
949.638066
 40
22.5
210
0.0
220
-0.173648
230
0.984808
 50
90.0
 51
270.0
  0
ARC
  5
399
  8
TEAM-NET
 10
0.0
 20
64.560647
 30
949.638066
 40
22.5
210
0.0
220
-0.173648
230
0.984808
 50
270.0
 51
90.0
  0
ARC
  5
39A
  8
TEAM-NET
 10
0.0
 20
64.560647
 30
-949.638066
 40
22.5
210
-0.0
220
0.173648
230
-0.984808
 50
270.0
 51
90.0
  0
ARC
  5
39B
  8
TEAM-NET
 10
0.0
 20
64.560647
 30
-949.638066
 40
22.5
210
-0.0
220
0.173648
230
-0.984808
 50
90.0
 51
270.0
  0
ARC
  5
39C
  8
TEAM-NET
 10
0.0
 20
64.560647
 30
949.638066
 40
22.0
210
0.0
220
-0.173648
230
0.984808
 50
90.0
 51
270.0
  0
ARC
  5
39D
  8
TEAM-NET
 10
0.0
 20
64.560647
 30
949.638066
 40
22.0
210
0.0
220
-0.173648
230
0.984808
 50
270.0
 51
90.0
  0
LINE
  5
39E
  8
TEAM-NET
 10
5.850992
 20
-106.987147
 30
938.215798
 11
-5.495044
 21
-106.987147
 31
938.215798
210
0.0
220
0.628385
230
-0.777902
  0
LINE
  5
39F
  8
TEAM-NET
 10
5.850992
 20
-106.987147
 30
938.215798
 11
-5.495044
 21
-106.987147
 31
938.215798
210
0.0
220
0.777902
230
0.628385
  0
LINE
  5
3A0
  8
TEAM-NET
 10
-5.495044
 20
-108.542952
 30
936.959028
 11
5.850992
 21
-108.542952
 31
936.959028
210
0.0
220
0.628385
230
-0.777902
  0
LINE
  5
3A1
  8
TEAM-NET
 10
-5.495044
 20
-108.542952
 30
936.959028
 11
5.850992
 21
-108.542952
 31
936.959028
210
0.0
220
0.777902
230
0.628385
  0
LINE
  5
3A2
  8
TEAM-NET
 10
-5.495044
 20
-106.987147
 30
938.215798
 11
-5.495044
 21
-108.542952
 31
936.959028
210
1.0
220
-0.0
230
-0.0
  0
LINE
  5
3A3
  8
TEAM-NET
 10
5.850992
 20
-106.987147
 30
938.215798
 11
5.850992
 21
-108.542952
 31
936.959028
210
0.0
220
0.628385
230
-0.777902
  0
LINE
  5
3A4
  8
TEAM-NET
 10
-5.495044
 20
-106.987147
 30
938.215798
 11
-5.495044
 21
-108.542952
 31
936.959028
210
0.0
220
0.628385
230
-0.777902
  0
LINE
  5
3A5
  8
TEAM-NET
 10
5.850992
 20
-106.987147
 30
938.215798
 11
5.850992
 21
-108.542952
 31
936.959028
210
-1.0
220
0.0
230
0.0
  0
LINE
  5
3A6
  8
TEAM-NET
 10
-5.495044
 20
-100.163463
 30
929.76849
 11
-5.495044
 21
-101.719268
 31
928.51172
210
1.0
220
-0.0
230
-0.0
  0
LINE
  5
3A7
  8
TEAM-NET
 10
5.850992
 20
-100.163463
 30
929.76849
 11
5.850992
 21
-101.719268
 31
928.51172
210
-1.0
220
0.0
230
0.0
  0
LINE
  5
3A8
  8
TEAM-NET
 10
-5.495044
 20
-100.163463
 30
929.76849
 11
5.850992
 21
-100.163463
 31
929.76849
210
-0.0
220
-0.628385
230
0.777902
  0
LINE
  5
3A9
  8
TEAM-NET
 10
-5.495044
 20
-100.163463
 30
929.76849
 11
-5.495044
 21
-101.719268
 31
928.51172
210
-0.0
220
-0.628385
230
0.777902
  0
LINE
  5
3AA
  8
TEAM-NET
 10
5.850992
 20
-100.163463
 30
929.76849
 11
5.850992
 21
-101.719268
 31
928.51172
210
-0.0
220
-0.628385
230
0.777902
  0
LINE
  5
3AB
  8
TEAM-NET
 10
5.850992
 20
-101.719268
 30
928.51172
 11
-5.495044
 21
-101.719268
 31
928.51172
210
-0.0
220
-0.628385
230
0.777902
  0
ARC
  5
3AC
  8
TEAM-NET
 10
0.0
 20
791.533475
 30
504.335166
 40
4.68381
210
0.0
220
0.777902
230
0.628385
 50
180.0
 51
0.0
  0
LINE
  5
3AD
  8
TEAM-NET
 10
5.850992
 20
-101.719268
 30
928.51172
 11
-5.495044
 21
-101.719268
 31
928.51172
210
0.0
220
0.777902
230
0.628385
  0
LINE
  5
3AE
  8
TEAM-NET
 10
-5.495044
 20
-100.163463
 30
929.76849
 11
5.850992
 21
-100.163463
 31
929.76849
210
0.0
220
0.777902
230
0.628385
  0
ARC
  5
3AF
  8
TEAM-NET
 10
0.0
 20
791.533475
 30
504.335166
 40
4.68381
210
0.0
220
0.777902
230
0.628385
 50
180.0
 51
0.0
  0
LINE
  5
3B0
  8
TEAM-NET
 10
-5.495044
 20
-101.719268
 30
928.51172
 11
-5.495044
 21
-108.542952
 31
936.959028
210
1.0
220
-0.0
230
-0.0
  0
LINE
  5
3B1
  8
TEAM-NET
 10
5.850992
 20
-108.542952
 30
936.959028
 11
5.850992
 21
-101.719268
 31
928.51172
210
-1.0
220
0.0
230
0.0
  0
ARC
  5
3B2
  8
TEAM-NET
 10
0.0
 20
791.533475
 30
504.335166
 40
4.68381
210
0.0
220
0.777902
230
0.628385
 50
0.0
 51
180.0
  0
LINE
  5
3B3
  8
TEAM-NET
 10
5.850992
 20
-108.542952
 30
936.959028
 11
5.850992
 21
-101.719268
 31
928.51172
210
0.0
220
0.777902
230
0.628385
  0
LINE
  5
3B4
  8
TEAM-NET
 10
-5.495044
 20
-101.719268
 30
928.51172
 11
-5.495044
 21
-108.542952
 31
936.959028
210
0.0
220
0.777902
230
0.628385
  0
ARC
  5
3B5
  8
TEAM-NET
 10
0.0
 20
791.533475
 30
504.335166
 40
4.68381
210
0.0
220
0.777902
230
0.628385
 50
0.0
 51
180.0
  0
LINE
  5
3B6
  8
TEAM-NET
 10
-5.495044
 20
-106.987147
 30
938.215798
 11
-5.495044
 21
-100.163463
 31
929.76849
210
1.0
220
-0.0
230
-0.0
  0
LINE
  5
3B7
  8
TEAM-NET
 10
5.850992
 20
-100.163463
 30
929.76849
 11
5.850992
 21
-106.987147
 31
938.215798
210
-1.0
220
0.0
230
0.0
  0
LINE
  5
3B8
  8
TEAM-NET
 10
5.850992
 20
-100.163463
 30
929.76849
 11
5.850992
 21
-106.987147
 31
938.215798
210
0.0
220
0.777902
230
0.628385
  0
LINE
  5
3B9
  8
TEAM-NET
 10
-5.495044
 20
-106.987147
 30
938.215798
 11
-5.495044
 21
-100.163463
 31
929.76849
210
0.0
220
0.777902
230
0.628385
  0
ARC
  5
3BA
  8
TEAM-NET
 10
0.0
 20
64.560647
 30
-989.638066
 40
20.5
210
-0.0
220
0.173648
230
-0.984808
 50
90.0
 51
270.0
  0
ARC
  5
3BB
  8
TEAM-NET
 10
0.0
 20
64.560647
 30
988.960942
 40
22.0
210
0.0
220
-0.173648
230
0.984808
 50
270.0
 51
90.0
  0
ARC
  5
3BC
  8
TEAM-NET
 10
0.0
 20
64.560647
 30
988.960942
 40
22.0
210
0.0
220
-0.173648
230
0.984808
 50
90.0
 51
270.0
  0
ARC
  5
3BD
  8
TEAM-NET
 10
0.0
 20
64.560647
 30
-989.638066
 40
20.5
210
-0.0
220
0.173648
230
-0.984808
 50
270.0
 51
90.0
  0
ARC
  5
3BE
  8
TEAM-NET
 10
0.0
 20
64.560647
 30
989.638066
 40
20.5
210
0.0
220
-0.173648
230
0.984808
 50
90.0
 51
270.0
  0
ARC
  5
3BF
  8
TEAM-NET
 10
0.0
 20
64.560647
 30
989.638066
 40
20.5
210
0.0
220
-0.173648
230
0.984808
 50
270.0
 51
90.0
  0
ARC
  5
3C0
  8
TEAM-NET
 10
0.0
 20
64.560647
 30
988.960942
 40
22.0
210
0.0
220
-0.173648
230
0.984808
 50
90.0
 51
270.0
  0
ARC
  5
3C1
  8
TEAM-NET
 10
0.0
 20
64.560647
 30
988.960942
 40
22.0
210
0.0
220
-0.173648
230
0.984808
 50
270.0
 51
90.0
  0
ARC
  5
3C2
  8
TEAM-NET
 10
128.110283
 20
980.284676
 30
0.0
 40
2.0
210
-1.0
220
0.0
230
0.0
 50
31.409622
 51
80.0
  0
ARC
  5
3C3
  8
TEAM-NET
 10
128.110283
 20
980.284676
 30
0.0
 40
2.0
210
-1.0
220
0.0
230
0.0
 50
31.409622
 51
80.0
  0
ARC
  5
3C4
  8
TEAM-NET
 10
217.605717
 20
480.124602
 30
-853.357689
 40
2.0
210
-0.480151
220
-0.027179
230
-0.876765
 50
273.693958
 51
3.693958
  0
ARC
  5
3C5
  8
TEAM-NET
 10
0.0
 20
972.835378
 30
-250.086648
 40
2.0
210
0.0
220
0.99952
230
-0.030984
 50
28.695233
 51
208.695233
  0
ARC
  5
3C6
  8
TEAM-NET
 10
-217.348009
 20
484.116292
 30
853.357689
 40
2.0
210
0.480151
220
0.027179
230
0.876765
 50
86.306042
 51
176.306042
  0
LINE
  5
3C7
  8
TEAM-NET
 10
-3.508744
 20
-217.765487
 30
981.974744
 11
-3.508744
 21
-104.800537
 31
979.712896
  0
ARC
  5
3C8
  8
TEAM-NET
 10
217.605717
 20
480.124602
 30
-853.357689
 40
2.0
210
-0.480151
220
-0.027179
230
-0.876765
 50
273.693958
 51
3.693958
  0
ARC
  5
3C9
  8
TEAM-NET
 10
-217.348009
 20
484.116292
 30
853.357689
 40
2.0
210
0.480151
220
0.027179
230
0.876765
 50
86.306042
 51
176.306042
  0
LINE
  5
3CA
  8
TEAM-NET
 10
-3.508744
 20
-217.765487
 30
981.974744
 11
-3.508744
 21
-104.800537
 31
979.712896
  0
ARC
  5
3CB
  8
TEAM-NET
 10
0.0
 20
972.835378
 30
250.086648
 40
2.0
210
-0.0
220
-0.99952
230
0.030984
 50
331.304767
 51
151.304767
  0
ARC
  5
3CC
  8
TEAM-NET
 10
0.0
 20
972.835378
 30
248.086648
 40
4.0
210
-0.0
220
-0.99952
230
0.030984
 50
331.304767
 51
151.304767
  0
LINE
  5
3CD
  8
TEAM-NET
 10
3.508744
 20
-217.884504
 30
978.135384
 11
3.508744
 21
-104.919553
 31
975.873536
  0
ARC
  5
3CE
  8
TEAM-NET
 10
0.0
 20
974.074746
 30
-135.105853
 40
4.0
210
0.0
220
0.99952
230
-0.030984
 50
28.695233
 51
208.695233
  0
ARC
  5
3CF
  8
TEAM-NET
 10
0.0
 20
972.835378
 30
248.086648
 40
4.0
210
-0.0
220
-0.99952
230
0.030984
 50
331.304767
 51
151.304767
  0
ARC
  5
3D0
  8
TEAM-NET
 10
0.0
 20
972.835378
 30
-250.086648
 40
2.0
210
0.0
220
0.99952
230
-0.030984
 50
208.695233
 51
28.695233
  0
ARC
  5
3D1
  8
TEAM-NET
 10
0.0
 20
972.835378
 30
248.086648
 40
4.0
210
-0.0
220
-0.99952
230
0.030984
 50
151.304767
 51
331.304767
  0
LINE
  5
3D2
  8
TEAM-NET
 10
3.508744
 20
-217.884504
 30
978.135384
 11
3.508744
 21
-104.919553
 31
975.873536
  0
ARC
  5
3D3
  8
TEAM-NET
 10
0.0
 20
972.835378
 30
248.086648
 40
4.0
210
-0.0
220
-0.99952
230
0.030984
 50
151.304767
 51
331.304767
  0
ARC
  5
3D4
  8
TEAM-NET
 10
0.0
 20
974.074746
 30
-135.105853
 40
4.0
210
0.0
220
0.99952
230
-0.030984
 50
208.695233
 51
28.695233
  0
ARC
  5
3D5
  8
TEAM-NET
 10
0.0
 20
972.835378
 30
250.086648
 40
2.0
210
-0.0
220
-0.99952
230
0.030984
 50
151.304767
 51
331.304767
  0
ARC
  5
3D6
  8
TEAM-NET
 10
0.0
 20
974.074746
 30
-135.105853
 40
4.0
210
0.0
220
0.99952
230
-0.030984
 50
28.695233
 51
208.695233
  0
ARC
  5
3D7
  8
TEAM-NET
 10
0.0
 20
974.074746
 30
-135.105853
 40
4.0
210
0.0
220
0.99952
230
-0.030984
 50
208.695233
 51
28.695233
  0
ARC
  5
3D8
  8
TEAM-NET
 10
-87.733165
 20
987.404251
 30
0.0
 40
2.0
210
1.0
220
-0.0
230
-0.0
 50
51.409622
 51
100.0
  0
ARC
  5
3D9
  8
TEAM-NET
 10
-87.733165
 20
987.404251
 30
0.0
 40
2.0
210
1.0
220
-0.0
230
-0.0
 50
51.409622
 51
100.0
  0
ENDSEC
  0
EOF
