  0
SECTION
  2
HEADER
  9
$ACADVER
  1
AC1009
  9
$INSBASE
 10
0.0
 20
0.0
 30
0.0
  9
$EXTMIN
 10
-533.285046
 20
-496.75291
 30
-0.032816
  9
$EXTMAX
 10
533.317368
 20
10.021048
 30
989.561634
  9
$LIMMIN
 10
-533.285046
 20
-496.75291
  9
$LIMMAX
 10
533.317368
 20
10.021048
  9
$ORTHOMODE
 70
     1
  9
$REGENMODE
 70
     1
  9
$FILLMODE
 70
     1
  9
$QTEXTMODE
 70
     0
  9
$MIRRTEXT
 70
     0
  9
$DRAGMODE
 70
     2
  9
$LTSCALE
 40
50.0
  9
$OSMODE
 70
     0
  9
$ATTMODE
 70
     1
  9
$TEXTSIZE
 40
200.0
  9
$TRACEWID
 40
1.0
  9
$TEXTSTYLE
  7
STANDARD
  9
$CLAYER
  8
TEAM-MAS
  9
$CELTYPE
  6
BYLAYER
  9
$CECOLOR
 62
   256
  9
$DIMSCALE
 40
1.0
  9
$DIMASZ
 40
20.0
  9
$DIMEXO
 40
10.0
  9
$DIMDLI
 40
1.0
  9
$DIMRND
 40
0.0
  9
$DIMDLE
 40
0.0
  9
$DIMEXE
 40
1.0
  9
$DIMTP
 40
0.0
  9
$DIMTM
 40
0.0
  9
$DIMTXT
 40
35.0
  9
$DIMCEN
 40
1.0
  9
$DIMTSZ
 40
0.0
  9
$DIMTOL
 70
     0
  9
$DIMLIM
 70
     0
  9
$DIMTIH
 70
     0
  9
$DIMTOH
 70
     0
  9
$DIMSE1
 70
     0
  9
$DIMSE2
 70
     0
  9
$DIMTAD
 70
     0
  9
$DIMZIN
 70
     0
  9
$DIMBLK
  1

  9
$DIMASO
 70
     1
  9
$DIMSHO
 70
     0
  9
$DIMPOST
  1

  9
$DIMAPOST
  1

  9
$DIMALT
 70
     0
  9
$DIMALTD
 70
     2
  9
$DIMALTF
 40
25.4
  9
$DIMLFAC
 40
1.0
  9
$DIMTOFL
 70
     0
  9
$DIMTVP
 40
0.0
  9
$DIMTIX
 70
     0
  9
$DIMSOXD
 70
     0
  9
$DIMSAH
 70
     0
  9
$DIMBLK1
  1

  9
$DIMBLK2
  1

  9
$DIMSTYLE
  2
TEAM
  9
$DIMCLRD
 70
     9
  9
$DIMCLRE
 70
     9
  9
$DIMCLRT
 70
    11
  9
$DIMTFAC
 40
1.0
  9
$DIMGAP
 40
15.0
  9
$LUNITS
 70
     2
  9
$LUPREC
 70
     1
  9
$SKETCHINC
 40
1.0
  9
$FILLETRAD
 40
0.0
  9
$AUNITS
 70
     0
  9
$AUPREC
 70
     0
  9
$MENU
  1
ROPLANS
  9
$ELEVATION
 40
0.0
  9
$PELEVATION
 40
0.0
  9
$THICKNESS
 40
0.0
  9
$LIMCHECK
 70
     0
  9
$BLIPMODE
 70
     1
  9
$CHAMFERA
 40
0.0
  9
$CHAMFERB
 40
0.0
  9
$SKPOLY
 70
     0
  9
$TDCREATE
 40
2450392.957851
  9
$TDUPDATE
 40
2455787.525289
  9
$TDINDWG
 40
2.453996
  9
$TDUSRTIMER
 40
2.453996
  9
$USRTIMER
 70
     1
  9
$ANGBASE
 50
0.0
  9
$ANGDIR
 70
     0
  9
$PDMODE
 70
     0
  9
$PDSIZE
 40
0.0
  9
$PLINEWID
 40
0.0
  9
$COORDS
 70
     2
  9
$SPLFRAME
 70
     0
  9
$SPLINETYPE
 70
     6
  9
$SPLINESEGS
 70
     8
  9
$ATTDIA
 70
     0
  9
$ATTREQ
 70
     0
  9
$HANDLING
 70
     1
  9
$HANDSEED
  5
DC3
  9
$SURFTAB1
 70
    36
  9
$SURFTAB2
 70
    36
  9
$SURFTYPE
 70
     6
  9
$SURFU
 70
     6
  9
$SURFV
 70
     6
  9
$UCSNAME
  2

  9
$UCSORG
 10
0.0
 20
0.0
 30
0.0
  9
$UCSXDIR
 10
1.0
 20
0.0
 30
0.0
  9
$UCSYDIR
 10
0.0
 20
1.0
 30
0.0
  9
$PUCSNAME
  2

  9
$PUCSORG
 10
0.0
 20
0.0
 30
0.0
  9
$PUCSXDIR
 10
1.0
 20
0.0
 30
0.0
  9
$PUCSYDIR
 10
0.0
 20
1.0
 30
0.0
  9
$USERI1
 70
     0
  9
$USERI2
 70
     0
  9
$USERI3
 70
     0
  9
$USERI4
 70
     0
  9
$USERI5
 70
     0
  9
$USERR1
 40
0.0
  9
$USERR2
 40
0.0
  9
$USERR3
 40
0.0
  9
$USERR4
 40
0.0
  9
$USERR5
 40
0.0
  9
$WORLDVIEW
 70
     1
  9
$SHADEDGE
 70
     0
  9
$SHADEDIF
 70
    70
  9
$TILEMODE
 70
     1
  9
$MAXACTVP
 70
    16
  9
$PLIMCHECK
 70
     0
  9
$PEXTMIN
 10
-0.805942
 20
0.005011
 30
0.0
  9
$PEXTMAX
 10
20.250094
 20
11.356329
 30
0.0
  9
$PLIMMIN
 10
0.0
 20
0.0
  9
$PLIMMAX
 10
12.0
 20
9.0
  9
$UNITMODE
 70
     0
  9
$VISRETAIN
 70
     0
  9
$PLINEGEN
 70
     0
  9
$PSLTSCALE
 70
     0
  0
ENDSEC
  0
SECTION
  2
TABLES
  0
TABLE
  2
VPORT
 70
     2
  0
VPORT
  2
*ACTIVE
 70
     0
 10
0.0
 20
0.0
 11
1.0
 21
1.0
 12
0.016161
 22
-243.365931
 13
0.0
 23
0.0
 14
1.0
 24
1.0
 15
50.0
 25
50.0
 16
0.0
 26
0.0
 36
1.0
 17
0.0
 27
0.0
 37
0.0
 40
573.547744
 41
1.865779
 42
50.0
 43
0.0
 44
0.0
 50
0.0
 51
0.0
 71
     0
 72
   100
 73
     1
 74
     1
 75
     0
 76
     0
 77
     0
 78
     0
  0
ENDTAB
  0
TABLE
  2
LTYPE
 70
     3
  0
LTYPE
  2
CONTINUOUS
 70
     0
  3
Solid Line
 72
    65
 73
     0
 40
0.0
  0
LTYPE
  2
31
 70
     0
  3

 72
    65
 73
     4
 40
2.1
 49
1.5
 49
-0.3
 49
0.0
 49
-0.3
  0
LTYPE
  2
22
 70
     0
  3

 72
    65
 73
     2
 40
1.4
 49
1.2
 49
-0.2
  0
ENDTAB
  0
TABLE
  2
LAYER
 70
     7
  0
LAYER
  2
0
 70
     0
 62
     7
  6
CONTINUOUS
  0
LAYER
  2
TEAM-AXE
 70
     0
 62
    10
  6
31
  0
LAYER
  2
TEAM-MAS
 70
     0
 62
     9
  6
CONTINUOUS
  0
LAYER
  2
TEAM-TXT
 70
     0
 62
    11
  6
CONTINUOUS
  0
LAYER
  2
TEAM-HIDE
 70
     0
 62
     8
  6
22
  0
LAYER
  2
TEAM-NET
 70
     0
 62
    15
  6
CONTINUOUS
  0
LAYER
  2
TEAM-INSP
 70
     0
 62
     5
  6
CONTINUOUS
  0
ENDTAB
  0
TABLE
  2
STYLE
 70
     2
  0
STYLE
  2
STANDARD
 70
     0
 40
0.0
 41
1.0
 50
0.0
 71
     0
 42
200.0
  3
txt
  4

  0
STYLE
  2
TEAM
 70
     0
 40
0.0
 41
0.8
 50
15.0
 71
     0
 42
7.0
  3
ROMANS.shx
  4

  0
ENDTAB
  0
TABLE
  2
VIEW
 70
     0
  0
ENDTAB
  0
TABLE
  2
UCS
 70
     0
  0
ENDTAB
  0
TABLE
  2
APPID
 70
     1
  0
APPID
  2
ACAD
 70
     0
  0
ENDTAB
  0
TABLE
  2
DIMSTYLE
 70
     1
  0
DIMSTYLE
  2
TEAM
 70
     0
  3

  4

  5

  6

  7

 40
1.0
 41
20.0
 42
10.0
 43
1.0
 44
1.0
 45
0.0
 46
0.0
 47
0.0
 48
0.0
140
35.0
141
1.0
142
0.0
143
25.4
144
1.0
145
0.0
146
1.0
147
15.0
 71
     0
 72
     0
 73
     0
 74
     0
 75
     0
 76
     0
 77
     0
 78
     0
170
     0
171
     2
172
     0
173
     0
174
     0
175
     0
176
     9
177
     9
178
    11
  0
ENDTAB
  0
ENDSEC
  0
SECTION
  2
BLOCKS
  0
BLOCK
  8
0
  2
$MODEL_SPACE
 70
     0
 10
0.0
 20
0.0
 30
0.0
  3
$MODEL_SPACE
  1

  0
ENDBLK
  5
C0C
  8
0
  0
BLOCK
 67
     1
  8
0
  2
$PAPER_SPACE
 70
     0
 10
0.0
 20
0.0
 30
0.0
  3
$PAPER_SPACE
  1

  0
ENDBLK
  5
C0A
 67
     1
  8
0
  0
ENDSEC
  0
SECTION
  2
ENTITIES
  0
POLYLINE
  5
20
  8
TEAM-NET
 66
     1
 10
0.0
 20
0.0
 30
0.0
 70
     8
  0
VERTEX
  5
21
  8
TEAM-NET
 10
-241.133047
 20
-443.075141
 30
845.006588
 70
    32
  0
VERTEX
  5
22
  8
TEAM-NET
 10
-238.720861
 20
-442.699947
 30
832.779914
 70
    32
  0
VERTEX
  5
23
  8
TEAM-NET
 10
-235.307344
 20
-441.636121
 30
820.833388
 70
    32
  0
VERTEX
  5
24
  8
TEAM-NET
 10
-230.942939
 20
-439.947931
 30
809.31888
 70
    32
  0
VERTEX
  5
25
  8
TEAM-NET
 10
-225.706807
 20
-437.726446
 30
798.376174
 70
    32
  0
VERTEX
  5
26
  8
TEAM-NET
 10
-219.619061
 20
-435.046186
 30
788.001413
 70
    32
  0
VERTEX
  5
27
  8
TEAM-NET
 10
-212.738518
 20
-432.005437
 30
778.274655
 70
    32
  0
VERTEX
  5
28
  8
TEAM-NET
 10
-205.143767
 20
-428.718516
 30
769.282245
 70
    32
  0
VERTEX
  5
29
  8
TEAM-NET
 10
-196.925499
 20
-425.309425
 30
761.098258
 70
    32
  0
VERTEX
  5
2A
  8
TEAM-NET
 10
-188.07903
 20
-421.867137
 30
753.701202
 70
    32
  0
VERTEX
  5
2B
  8
TEAM-NET
 10
-178.613188
 20
-418.496892
 30
747.114314
 70
    32
  0
VERTEX
  5
2C
  8
TEAM-NET
 10
-168.609645
 20
-415.334442
 30
741.411068
 70
    32
  0
VERTEX
  5
2D
  8
TEAM-NET
 10
-158.152098
 20
-412.514041
 30
736.654782
 70
    32
  0
VERTEX
  5
2E
  8
TEAM-NET
 10
-155.472161
 20
-411.877343
 30
735.619596
 70
    32
  0
VERTEX
  5
2F
  8
TEAM-NET
 10
-154.483075
 20
-411.722917
 30
735.370548
 70
    32
  0
VERTEX
  5
30
  8
TEAM-NET
 10
-152.418886
 20
-411.570406
 30
735.12536
 70
    32
  0
VERTEX
  5
31
  8
TEAM-NET
 10
-148.479513
 20
-411.419809
 30
734.883992
 70
    32
  0
VERTEX
  5
32
  8
TEAM-NET
 10
-145.556606
 20
-411.345228
 30
734.764727
 70
    32
  0
VERTEX
  5
33
  8
TEAM-NET
 10
-141.864873
 20
-411.271124
 30
734.646403
 70
    32
  0
VERTEX
  5
34
  8
TEAM-NET
 10
-137.306312
 20
-411.197497
 30
734.529015
 70
    32
  0
VERTEX
  5
35
  8
TEAM-NET
 10
-131.860756
 20
-411.124349
 30
734.41256
 70
    32
  0
VERTEX
  5
36
  8
TEAM-NET
 10
-118.63847
 20
-410.979507
 30
734.182466
 70
    32
  0
VERTEX
  5
37
  8
TEAM-NET
 10
-102.891284
 20
-410.836635
 30
733.956147
 70
    32
  0
VERTEX
  5
38
  8
TEAM-NET
 10
-263.349456
 20
-410.695767
 30
733.733632
 70
    32
  0
VERTEX
  5
39
  8
TEAM-NET
 10
-225.530558
 20
-410.420192
 30
733.300123
 70
    32
  0
VERTEX
  5
3A
  8
TEAM-NET
 10
-206.683744
 20
-410.285557
 30
733.089184
 70
    32
  0
VERTEX
  5
3B
  8
TEAM-NET
 10
-188.812017
 20
-410.153071
 30
732.882158
 70
    32
  0
VERTEX
  5
3C
  8
TEAM-NET
 10
-172.615375
 20
-410.022771
 30
732.679074
 70
    32
  0
VERTEX
  5
3D
  8
TEAM-NET
 10
-158.781735
 20
-409.894692
 30
732.479959
 70
    32
  0
VERTEX
  5
3E
  8
TEAM-NET
 10
-147.573233
 20
-409.76887
 30
732.284837
 70
    32
  0
VERTEX
  5
3F
  8
TEAM-NET
 10
-138.722961
 20
-409.645336
 30
732.093728
 70
    32
  0
VERTEX
  5
40
  8
TEAM-NET
 10
-131.930974
 20
-409.524121
 30
731.906654
 70
    32
  0
VERTEX
  5
41
  8
TEAM-NET
 10
-126.897331
 20
-409.405257
 30
731.723634
 70
    32
  0
VERTEX
  5
42
  8
TEAM-NET
 10
-123.322088
 20
-409.288776
 30
731.54469
 70
    32
  0
VERTEX
  5
43
  8
TEAM-NET
 10
-120.905302
 20
-409.17471
 30
731.369841
 70
    32
  0
VERTEX
  5
44
  8
TEAM-NET
 10
-118.347327
 20
-408.953948
 30
731.032512
 70
    32
  0
VERTEX
  5
45
  8
TEAM-NET
 10
-116.896684
 20
-408.743221
 30
730.711809
 70
    32
  0
VERTEX
  5
46
  8
TEAM-NET
 10
-114.04631
 20
-408.352666
 30
730.120754
 70
    32
  0
VERTEX
  5
47
  8
TEAM-NET
 10
-102.509912
 20
-407.227144
 30
728.441855
 70
    32
  0
VERTEX
  5
48
  8
TEAM-NET
 10
-90.89494
 20
-406.846467
 30
727.881832
 70
    32
  0
SEQEND
  5
4A
  8
TEAM-NET
  0
POLYLINE
  5
4B
  8
TEAM-NET
 66
     1
 10
0.0
 20
0.0
 30
0.0
 70
     8
  0
VERTEX
  5
4C
  8
TEAM-NET
 10
-241.133047
 20
-443.075141
 30
845.006588
 70
    32
  0
VERTEX
  5
4D
  8
TEAM-NET
 10
-238.720861
 20
-442.699947
 30
832.779914
 70
    32
  0
VERTEX
  5
4E
  8
TEAM-NET
 10
-235.307344
 20
-441.636121
 30
820.833388
 70
    32
  0
VERTEX
  5
4F
  8
TEAM-NET
 10
-230.942939
 20
-439.947931
 30
809.31888
 70
    32
  0
VERTEX
  5
50
  8
TEAM-NET
 10
-225.706807
 20
-437.726446
 30
798.376174
 70
    32
  0
VERTEX
  5
51
  8
TEAM-NET
 10
-219.619061
 20
-435.046186
 30
788.001413
 70
    32
  0
VERTEX
  5
52
  8
TEAM-NET
 10
-212.738518
 20
-432.005437
 30
778.274655
 70
    32
  0
VERTEX
  5
53
  8
TEAM-NET
 10
-205.143767
 20
-428.718516
 30
769.282245
 70
    32
  0
VERTEX
  5
54
  8
TEAM-NET
 10
-196.925499
 20
-425.309425
 30
761.098258
 70
    32
  0
VERTEX
  5
55
  8
TEAM-NET
 10
-188.07903
 20
-421.867137
 30
753.701202
 70
    32
  0
VERTEX
  5
56
  8
TEAM-NET
 10
-178.613188
 20
-418.496892
 30
747.114314
 70
    32
  0
VERTEX
  5
57
  8
TEAM-NET
 10
-168.609645
 20
-415.334442
 30
741.411068
 70
    32
  0
VERTEX
  5
58
  8
TEAM-NET
 10
-158.152098
 20
-412.514041
 30
736.654782
 70
    32
  0
VERTEX
  5
59
  8
TEAM-NET
 10
-155.472161
 20
-411.877343
 30
735.619596
 70
    32
  0
VERTEX
  5
5A
  8
TEAM-NET
 10
-154.483075
 20
-411.722917
 30
735.370548
 70
    32
  0
VERTEX
  5
5B
  8
TEAM-NET
 10
-152.418886
 20
-411.570406
 30
735.12536
 70
    32
  0
VERTEX
  5
5C
  8
TEAM-NET
 10
-148.479513
 20
-411.419809
 30
734.883992
 70
    32
  0
VERTEX
  5
5D
  8
TEAM-NET
 10
-145.556606
 20
-411.345228
 30
734.764727
 70
    32
  0
VERTEX
  5
5E
  8
TEAM-NET
 10
-141.864873
 20
-411.271124
 30
734.646403
 70
    32
  0
VERTEX
  5
5F
  8
TEAM-NET
 10
-137.306312
 20
-411.197497
 30
734.529015
 70
    32
  0
VERTEX
  5
60
  8
TEAM-NET
 10
-131.860756
 20
-411.124349
 30
734.41256
 70
    32
  0
VERTEX
  5
61
  8
TEAM-NET
 10
-118.63847
 20
-410.979507
 30
734.182466
 70
    32
  0
VERTEX
  5
62
  8
TEAM-NET
 10
-102.891284
 20
-410.836635
 30
733.956147
 70
    32
  0
VERTEX
  5
63
  8
TEAM-NET
 10
-263.349456
 20
-410.695767
 30
733.733632
 70
    32
  0
VERTEX
  5
64
  8
TEAM-NET
 10
-225.530558
 20
-410.420192
 30
733.300123
 70
    32
  0
VERTEX
  5
65
  8
TEAM-NET
 10
-206.683744
 20
-410.285557
 30
733.089184
 70
    32
  0
VERTEX
  5
66
  8
TEAM-NET
 10
-188.812017
 20
-410.153071
 30
732.882158
 70
    32
  0
VERTEX
  5
67
  8
TEAM-NET
 10
-172.615375
 20
-410.022771
 30
732.679074
 70
    32
  0
VERTEX
  5
68
  8
TEAM-NET
 10
-158.781735
 20
-409.894692
 30
732.479959
 70
    32
  0
VERTEX
  5
69
  8
TEAM-NET
 10
-147.573233
 20
-409.76887
 30
732.284837
 70
    32
  0
VERTEX
  5
6A
  8
TEAM-NET
 10
-138.722961
 20
-409.645336
 30
732.093728
 70
    32
  0
VERTEX
  5
6B
  8
TEAM-NET
 10
-131.930974
 20
-409.524121
 30
731.906654
 70
    32
  0
VERTEX
  5
6C
  8
TEAM-NET
 10
-126.897331
 20
-409.405257
 30
731.723634
 70
    32
  0
VERTEX
  5
6D
  8
TEAM-NET
 10
-123.322088
 20
-409.288776
 30
731.54469
 70
    32
  0
VERTEX
  5
6E
  8
TEAM-NET
 10
-120.905302
 20
-409.17471
 30
731.369841
 70
    32
  0
VERTEX
  5
6F
  8
TEAM-NET
 10
-118.347327
 20
-408.953948
 30
731.032512
 70
    32
  0
VERTEX
  5
70
  8
TEAM-NET
 10
-116.896684
 20
-408.743221
 30
730.711809
 70
    32
  0
VERTEX
  5
71
  8
TEAM-NET
 10
-114.04631
 20
-408.352666
 30
730.120754
 70
    32
  0
VERTEX
  5
72
  8
TEAM-NET
 10
-102.509912
 20
-407.227144
 30
728.441855
 70
    32
  0
VERTEX
  5
73
  8
TEAM-NET
 10
-90.89494
 20
-406.846467
 30
727.881832
 70
    32
  0
SEQEND
  5
74
  8
TEAM-NET
  0
POLYLINE
  5
75
  8
TEAM-NET
 66
     1
 10
0.0
 20
0.0
 30
0.0
 70
     8
  0
VERTEX
  5
76
  8
TEAM-NET
 10
90.89494
 20
-406.846467
 30
727.881832
 70
    32
  0
VERTEX
  5
77
  8
TEAM-NET
 10
102.509941
 20
-407.227179
 30
728.441907
 70
    32
  0
VERTEX
  5
78
  8
TEAM-NET
 10
114.046246
 20
-408.352665
 30
730.120726
 70
    32
  0
VERTEX
  5
79
  8
TEAM-NET
 10
125.322025
 20
-410.153049
 30
732.882136
 70
    32
  0
VERTEX
  5
7A
  8
TEAM-NET
 10
128.358317
 20
-410.695708
 30
733.733549
 70
    32
  0
VERTEX
  5
7B
  8
TEAM-NET
 10
131.204331
 20
-410.836606
 30
733.95611
 70
    32
  0
VERTEX
  5
7C
  8
TEAM-NET
 10
133.957614
 20
-410.907812
 30
734.068823
 70
    32
  0
VERTEX
  5
7D
  8
TEAM-NET
 10
137.93105
 20
-410.979514
 30
734.182483
 70
    32
  0
VERTEX
  5
7E
  8
TEAM-NET
 10
143.374612
 20
-411.051708
 30
734.297085
 70
    32
  0
VERTEX
  5
7F
  8
TEAM-NET
 10
150.538276
 20
-411.124387
 30
734.412624
 70
    32
  0
VERTEX
  5
80
  8
TEAM-NET
 10
159.672019
 20
-411.197545
 30
734.529095
 70
    32
  0
VERTEX
  5
81
  8
TEAM-NET
 10
170.99889
 20
-411.271179
 30
734.646493
 70
    32
  0
VERTEX
  5
82
  8
TEAM-NET
 10
184.33821
 20
-411.345284
 30
734.76482
 70
    32
  0
VERTEX
  5
83
  8
TEAM-NET
 10
199.198062
 20
-411.419864
 30
734.884081
 70
    32
  0
VERTEX
  5
84
  8
TEAM-NET
 10
231.479564
 20
-411.570449
 30
735.125431
 70
    32
  0
VERTEX
  5
85
  8
TEAM-NET
 10
263.843807
 20
-411.722943
 30
735.370595
 70
    32
  0
VERTEX
  5
86
  8
TEAM-NET
 10
98.523289
 20
-411.799909
 30
735.494623
 70
    32
  0
VERTEX
  5
87
  8
TEAM-NET
 10
112.007406
 20
-411.877356
 30
735.619622
 70
    32
  0
VERTEX
  5
88
  8
TEAM-NET
 10
123.516359
 20
-411.955284
 30
735.745601
 70
    32
  0
VERTEX
  5
89
  8
TEAM-NET
 10
132.823277
 20
-412.033694
 30
735.87256
 70
    32
  0
VERTEX
  5
8A
  8
TEAM-NET
 10
140.138157
 20
-412.112581
 30
736.0005
 70
    32
  0
VERTEX
  5
8B
  8
TEAM-NET
 10
145.71098
 20
-412.191943
 30
736.129419
 70
    32
  0
VERTEX
  5
8C
  8
TEAM-NET
 10
149.79173
 20
-412.271776
 30
736.259315
 70
    32
  0
VERTEX
  5
8D
  8
TEAM-NET
 10
152.630388
 20
-412.352077
 30
736.390185
 70
    32
  0
VERTEX
  5
8E
  8
TEAM-NET
 10
155.581356
 20
-412.514064
 30
736.654845
 70
    32
  0
VERTEX
  5
8F
  8
TEAM-NET
 10
166.356069
 20
-415.33442
 30
741.410999
 70
    32
  0
VERTEX
  5
90
  8
TEAM-NET
 10
176.359919
 20
-418.49698
 30
747.11454
 70
    32
  0
VERTEX
  5
91
  8
TEAM-NET
 10
185.825346
 20
-421.867144
 30
753.701277
 70
    32
  0
VERTEX
  5
92
  8
TEAM-NET
 10
194.672254
 20
-425.309508
 30
761.098447
 70
    32
  0
VERTEX
  5
93
  8
TEAM-NET
 10
202.890612
 20
-428.718663
 30
769.282651
 70
    32
  0
VERTEX
  5
94
  8
TEAM-NET
 10
210.484872
 20
-432.005398
 30
778.274587
 70
    32
  0
VERTEX
  5
95
  8
TEAM-NET
 10
217.365616
 20
-435.046214
 30
788.001521
 70
    32
  0
VERTEX
  5
96
  8
TEAM-NET
 10
223.453332
 20
-437.726476
 30
798.37624
 70
    32
  0
VERTEX
  5
97
  8
TEAM-NET
 10
228.689608
 20
-439.948032
 30
809.319183
 70
    32
  0
VERTEX
  5
98
  8
TEAM-NET
 10
233.053535
 20
-441.635981
 30
820.833124
 70
    32
  0
VERTEX
  5
99
  8
TEAM-NET
 10
236.46743
 20
-442.700013
 30
832.779945
 70
    32
  0
VERTEX
  5
9A
  8
TEAM-NET
 10
238.879573
 20
-443.075189
 30
845.006579
 70
    32
  0
SEQEND
  5
9B
  8
TEAM-NET
  0
POLYLINE
  5
9C
  8
TEAM-NET
 66
     1
 10
0.0
 20
0.0
 30
0.0
 70
     8
  0
VERTEX
  5
9D
  8
TEAM-NET
 10
90.89494
 20
-406.846467
 30
727.881832
 70
    32
  0
VERTEX
  5
9E
  8
TEAM-NET
 10
102.509941
 20
-407.227179
 30
728.441907
 70
    32
  0
VERTEX
  5
9F
  8
TEAM-NET
 10
114.046246
 20
-408.352665
 30
730.120726
 70
    32
  0
VERTEX
  5
A0
  8
TEAM-NET
 10
125.322025
 20
-410.153049
 30
732.882136
 70
    32
  0
VERTEX
  5
A1
  8
TEAM-NET
 10
128.358317
 20
-410.695708
 30
733.733549
 70
    32
  0
VERTEX
  5
A2
  8
TEAM-NET
 10
131.204331
 20
-410.836606
 30
733.95611
 70
    32
  0
VERTEX
  5
A3
  8
TEAM-NET
 10
133.957614
 20
-410.907812
 30
734.068823
 70
    32
  0
VERTEX
  5
A4
  8
TEAM-NET
 10
137.93105
 20
-410.979514
 30
734.182483
 70
    32
  0
VERTEX
  5
A5
  8
TEAM-NET
 10
143.374612
 20
-411.051708
 30
734.297085
 70
    32
  0
VERTEX
  5
A6
  8
TEAM-NET
 10
150.538276
 20
-411.124387
 30
734.412624
 70
    32
  0
VERTEX
  5
A7
  8
TEAM-NET
 10
159.672019
 20
-411.197545
 30
734.529095
 70
    32
  0
VERTEX
  5
A8
  8
TEAM-NET
 10
170.99889
 20
-411.271179
 30
734.646493
 70
    32
  0
VERTEX
  5
A9
  8
TEAM-NET
 10
184.33821
 20
-411.345284
 30
734.76482
 70
    32
  0
VERTEX
  5
AA
  8
TEAM-NET
 10
199.198062
 20
-411.419864
 30
734.884081
 70
    32
  0
VERTEX
  5
AB
  8
TEAM-NET
 10
231.479564
 20
-411.570449
 30
735.125431
 70
    32
  0
VERTEX
  5
AC
  8
TEAM-NET
 10
263.843807
 20
-411.722943
 30
735.370595
 70
    32
  0
VERTEX
  5
AD
  8
TEAM-NET
 10
98.523289
 20
-411.799909
 30
735.494623
 70
    32
  0
VERTEX
  5
AE
  8
TEAM-NET
 10
112.007406
 20
-411.877356
 30
735.619622
 70
    32
  0
VERTEX
  5
AF
  8
TEAM-NET
 10
123.516359
 20
-411.955284
 30
735.745601
 70
    32
  0
VERTEX
  5
B0
  8
TEAM-NET
 10
132.823277
 20
-412.033694
 30
735.87256
 70
    32
  0
VERTEX
  5
B1
  8
TEAM-NET
 10
140.138157
 20
-412.112581
 30
736.0005
 70
    32
  0
VERTEX
  5
B2
  8
TEAM-NET
 10
145.71098
 20
-412.191943
 30
736.129419
 70
    32
  0
VERTEX
  5
B3
  8
TEAM-NET
 10
149.79173
 20
-412.271776
 30
736.259315
 70
    32
  0
VERTEX
  5
B4
  8
TEAM-NET
 10
152.630388
 20
-412.352077
 30
736.390185
 70
    32
  0
VERTEX
  5
B5
  8
TEAM-NET
 10
155.581356
 20
-412.514064
 30
736.654845
 70
    32
  0
VERTEX
  5
B6
  8
TEAM-NET
 10
166.356069
 20
-415.33442
 30
741.410999
 70
    32
  0
VERTEX
  5
B7
  8
TEAM-NET
 10
176.359919
 20
-418.49698
 30
747.11454
 70
    32
  0
VERTEX
  5
B8
  8
TEAM-NET
 10
185.825346
 20
-421.867144
 30
753.701277
 70
    32
  0
VERTEX
  5
B9
  8
TEAM-NET
 10
194.672254
 20
-425.309508
 30
761.098447
 70
    32
  0
VERTEX
  5
BA
  8
TEAM-NET
 10
202.890612
 20
-428.718663
 30
769.282651
 70
    32
  0
VERTEX
  5
BB
  8
TEAM-NET
 10
210.484872
 20
-432.005398
 30
778.274587
 70
    32
  0
VERTEX
  5
BC
  8
TEAM-NET
 10
217.365616
 20
-435.046214
 30
788.001521
 70
    32
  0
VERTEX
  5
BD
  8
TEAM-NET
 10
223.453332
 20
-437.726476
 30
798.37624
 70
    32
  0
VERTEX
  5
BE
  8
TEAM-NET
 10
228.689608
 20
-439.948032
 30
809.319183
 70
    32
  0
VERTEX
  5
BF
  8
TEAM-NET
 10
233.053535
 20
-441.635981
 30
820.833124
 70
    32
  0
VERTEX
  5
C0
  8
TEAM-NET
 10
236.46743
 20
-442.700013
 30
832.779945
 70
    32
  0
VERTEX
  5
C1
  8
TEAM-NET
 10
238.879573
 20
-443.075189
 30
845.006579
 70
    32
  0
SEQEND
  5
C2
  8
TEAM-NET
  0
POLYLINE
  5
C3
  8
TEAM-NET
 66
     1
 10
0.0
 20
0.0
 30
0.0
 70
     8
  0
VERTEX
  5
C4
  8
TEAM-NET
 10
-478.315388
 20
-474.897819
 30
820.00089
 70
    32
  0
VERTEX
  5
C5
  8
TEAM-NET
 10
-474.154032
 20
-473.116746
 30
809.128657
 70
    32
  0
VERTEX
  5
C6
  8
TEAM-NET
 10
-469.314959
 20
-470.706972
 30
798.968716
 70
    32
  0
VERTEX
  5
C7
  8
TEAM-NET
 10
-246.139589
 20
-467.628546
 30
789.062513
 70
    32
  0
VERTEX
  5
C8
  8
TEAM-NET
 10
-239.52325
 20
-463.905267
 30
779.442229
 70
    32
  0
VERTEX
  5
C9
  8
TEAM-NET
 10
-232.180291
 20
-459.700714
 30
770.413905
 70
    32
  0
VERTEX
  5
CA
  8
TEAM-NET
 10
-224.352853
 20
-455.227751
 30
762.211201
 70
    32
  0
VERTEX
  5
CB
  8
TEAM-NET
 10
-223.038479
 20
-454.661766
 30
761.253201
 70
    32
  0
VERTEX
  5
CC
  8
TEAM-NET
 10
-221.696966
 20
-454.378791
 30
760.780158
 70
    32
  0
VERTEX
  5
CD
  8
TEAM-NET
 10
-219.498261
 20
-454.095912
 30
760.311125
 70
    32
  0
VERTEX
  5
CE
  8
TEAM-NET
 10
-216.141591
 20
-453.813192
 30
759.846132
 70
    32
  0
VERTEX
  5
CF
  8
TEAM-NET
 10
-211.326181
 20
-453.530694
 30
759.385208
 70
    32
  0
VERTEX
  5
D0
  8
TEAM-NET
 10
-204.751256
 20
-453.248482
 30
758.928384
 70
    32
  0
VERTEX
  5
D1
  8
TEAM-NET
 10
-235.552885
 20
-452.966618
 30
758.475688
 70
    32
  0
VERTEX
  5
D2
  8
TEAM-NET
 10
-224.556609
 20
-452.685165
 30
758.027151
 70
    32
  0
VERTEX
  5
D3
  8
TEAM-NET
 10
-210.898494
 20
-452.404187
 30
757.582802
 70
    32
  0
VERTEX
  5
D4
  8
TEAM-NET
 10
-208.98909
 20
-452.369101
 30
757.527554
 70
    32
  0
VERTEX
  5
D5
  8
TEAM-NET
 10
-208.657462
 20
-452.334024
 30
757.472372
 70
    32
  0
VERTEX
  5
D6
  8
TEAM-NET
 10
-208.532083
 20
-452.263896
 30
757.362206
 70
    32
  0
VERTEX
  5
D7
  8
TEAM-NET
 10
-208.281358
 20
-452.123747
 30
757.142667
 70
    32
  0
VERTEX
  5
D8
  8
TEAM-NET
 10
-207.78007
 20
-451.843907
 30
756.706767
 70
    32
  0
VERTEX
  5
D9
  8
TEAM-NET
 10
-205.775251
 20
-450.729866
 30
755.003061
 70
    32
  0
VERTEX
  5
DA
  8
TEAM-NET
 10
-197.356893
 20
-446.157277
 30
748.489062
 70
    32
  0
VERTEX
  5
DB
  8
TEAM-NET
 10
-188.280212
 20
-441.468269
 30
742.484749
 70
    32
  0
VERTEX
  5
DC
  8
TEAM-NET
 10
-178.61783
 20
-436.822321
 30
737.097178
 70
    32
  0
VERTEX
  5
DD
  8
TEAM-NET
 10
-168.445992
 20
-432.401501
 30
732.407879
 70
    32
  0
VERTEX
  5
DE
  8
TEAM-NET
 10
-157.84057
 20
-428.397282
 30
728.484973
 70
    32
  0
VERTEX
  5
DF
  8
TEAM-NET
 10
-152.398956
 20
-426.613322
 30
726.827091
 70
    32
  0
VERTEX
  5
E0
  8
TEAM-NET
 10
-151.712942
 20
-426.402366
 30
726.634542
 70
    32
  0
VERTEX
  5
E1
  8
TEAM-NET
 10
-151.670025
 20
-426.389275
 30
726.622617
 70
    32
  0
VERTEX
  5
E2
  8
TEAM-NET
 10
-151.051168
 20
-426.376195
 30
726.610706
 70
    32
  0
VERTEX
  5
E3
  8
TEAM-NET
 10
-148.041498
 20
-426.350068
 30
726.586921
 70
    32
  0
VERTEX
  5
E4
  8
TEAM-NET
 10
-142.108117
 20
-426.297951
 30
726.539507
 70
    32
  0
VERTEX
  5
E5
  8
TEAM-NET
 10
-130.581216
 20
-426.19426
 30
726.445301
 70
    32
  0
VERTEX
  5
E6
  8
TEAM-NET
 10
-108.85513
 20
-425.989069
 30
726.259383
 70
    32
  0
VERTEX
  5
E7
  8
TEAM-NET
 10
-203.380858
 20
-425.786833
 30
726.076797
 70
    32
  0
VERTEX
  5
E8
  8
TEAM-NET
 10
-248.490172
 20
-425.587593
 30
725.897549
 70
    32
  0
VERTEX
  5
E9
  8
TEAM-NET
 10
-231.675951
 20
-425.39139
 30
725.721647
 70
    32
  0
VERTEX
  5
EA
  8
TEAM-NET
 10
-216.353929
 20
-425.198266
 30
725.549099
 70
    32
  0
VERTEX
  5
EB
  8
TEAM-NET
 10
-202.451564
 20
-425.008261
 30
725.379913
 70
    32
  0
VERTEX
  5
EC
  8
TEAM-NET
 10
-189.896311
 20
-424.821416
 30
725.214096
 70
    32
  0
VERTEX
  5
ED
  8
TEAM-NET
 10
-178.615626
 20
-424.637771
 30
725.051656
 70
    32
  0
VERTEX
  5
EE
  8
TEAM-NET
 10
-168.536964
 20
-424.457369
 30
724.892602
 70
    32
  0
VERTEX
  5
EF
  8
TEAM-NET
 10
-159.587782
 20
-424.280249
 30
724.736939
 70
    32
  0
VERTEX
  5
F0
  8
TEAM-NET
 10
-151.695535
 20
-424.106453
 30
724.584677
 70
    32
  0
VERTEX
  5
F1
  8
TEAM-NET
 10
-144.78768
 20
-423.936021
 30
724.435822
 70
    32
  0
VERTEX
  5
F2
  8
TEAM-NET
 10
-138.791672
 20
-423.768995
 30
724.290384
 70
    32
  0
VERTEX
  5
F3
  8
TEAM-NET
 10
-133.634967
 20
-423.605415
 30
724.148368
 70
    32
  0
VERTEX
  5
F4
  8
TEAM-NET
 10
-125.54929
 20
-423.288758
 30
723.874637
 70
    32
  0
VERTEX
  5
F5
  8
TEAM-NET
 10
-119.950296
 20
-422.986377
 30
723.614691
 70
    32
  0
VERTEX
  5
F6
  8
TEAM-NET
 10
-116.257632
 20
-422.6986
 30
723.368592
 70
    32
  0
VERTEX
  5
F7
  8
TEAM-NET
 10
-113.890946
 20
-422.425755
 30
723.136401
 70
    32
  0
VERTEX
  5
F8
  8
TEAM-NET
 10
-102.30421
 20
-420.811678
 30
721.784403
 70
    32
  0
VERTEX
  5
F9
  8
TEAM-NET
 10
-90.89494
 20
-420.26408
 30
721.334742
 70
    32
  0
SEQEND
  5
FA
  8
TEAM-NET
  0
POLYLINE
  5
FB
  8
TEAM-NET
 66
     1
 10
0.0
 20
0.0
 30
0.0
 70
     8
  0
VERTEX
  5
FC
  8
TEAM-NET
 10
-478.315388
 20
-474.897819
 30
820.00089
 70
    32
  0
VERTEX
  5
FD
  8
TEAM-NET
 10
-474.154827
 20
-473.114029
 30
809.130509
 70
    32
  0
VERTEX
  5
FE
  8
TEAM-NET
 10
-469.316432
 20
-470.702214
 30
798.971523
 70
    32
  0
VERTEX
  5
FF
  8
TEAM-NET
 10
-246.139883
 20
-467.621238
 30
789.062953
 70
    32
  0
VERTEX
  5
100
  8
TEAM-NET
 10
-239.523002
 20
-463.896192
 30
779.441891
 70
    32
  0
VERTEX
  5
101
  8
TEAM-NET
 10
-232.180277
 20
-459.690842
 30
770.413915
 70
    32
  0
VERTEX
  5
102
  8
TEAM-NET
 10
-224.353982
 20
-455.218114
 30
762.212294
 70
    32
  0
VERTEX
  5
103
  8
TEAM-NET
 10
-222.972229
 20
-454.652228
 30
761.254473
 70
    32
  0
VERTEX
  5
104
  8
TEAM-NET
 10
-221.542545
 20
-454.369308
 30
760.781521
 70
    32
  0
VERTEX
  5
105
  8
TEAM-NET
 10
-219.220229
 20
-454.086487
 30
760.312581
 70
    32
  0
VERTEX
  5
106
  8
TEAM-NET
 10
-215.705209
 20
-453.80383
 30
759.847682
 70
    32
  0
VERTEX
  5
107
  8
TEAM-NET
 10
-210.697414
 20
-453.521398
 30
759.386855
 70
    32
  0
VERTEX
  5
108
  8
TEAM-NET
 10
-203.896773
 20
-453.239256
 30
758.930128
 70
    32
  0
VERTEX
  5
109
  8
TEAM-NET
 10
-234.440056
 20
-452.957465
 30
758.477532
 70
    32
  0
VERTEX
  5
10A
  8
TEAM-NET
 10
-223.15351
 20
-452.676089
 30
758.029096
 70
    32
  0
VERTEX
  5
10B
  8
TEAM-NET
 10
-209.173904
 20
-452.395191
 30
757.58485
 70
    32
  0
VERTEX
  5
10C
  8
TEAM-NET
 10
-207.78268
 20
-451.835081
 30
756.709026
 70
    32
  0
VERTEX
  5
10D
  8
TEAM-NET
 10
-205.777647
 20
-450.720961
 30
755.005051
 70
    32
  0
VERTEX
  5
10E
  8
TEAM-NET
 10
-197.35882
 20
-446.148522
 30
748.490442
 70
    32
  0
VERTEX
  5
10F
  8
TEAM-NET
 10
-188.28144
 20
-441.459952
 30
742.485494
 70
    32
  0
VERTEX
  5
110
  8
TEAM-NET
 10
-178.618574
 20
-436.814933
 30
737.097561
 70
    32
  0
VERTEX
  5
111
  8
TEAM-NET
 10
-168.446425
 20
-432.395435
 30
732.408056
 70
    32
  0
VERTEX
  5
112
  8
TEAM-NET
 10
-157.840793
 20
-428.392758
 30
728.485046
 70
    32
  0
VERTEX
  5
113
  8
TEAM-NET
 10
-152.399116
 20
-426.609592
 30
726.827137
 70
    32
  0
VERTEX
  5
114
  8
TEAM-NET
 10
-151.713097
 20
-426.398735
 30
726.634585
 70
    32
  0
VERTEX
  5
115
  8
TEAM-NET
 10
-151.627258
 20
-426.372576
 30
726.610748
 70
    32
  0
VERTEX
  5
116
  8
TEAM-NET
 10
-151.155831
 20
-426.359513
 30
726.598849
 70
    32
  0
VERTEX
  5
117
  8
TEAM-NET
 10
-149.646288
 20
-426.346462
 30
726.586963
 70
    32
  0
VERTEX
  5
118
  8
TEAM-NET
 10
-143.679923
 20
-426.294368
 30
726.539548
 70
    32
  0
VERTEX
  5
119
  8
TEAM-NET
 10
-132.088168
 20
-426.190725
 30
726.445341
 70
    32
  0
VERTEX
  5
11A
  8
TEAM-NET
 10
-110.2368
 20
-425.98563
 30
726.25942
 70
    32
  0
VERTEX
  5
11B
  8
TEAM-NET
 10
-200.603327
 20
-425.78349
 30
726.076831
 70
    32
  0
VERTEX
  5
11C
  8
TEAM-NET
 10
-249.638789
 20
-425.584347
 30
725.89758
 70
    32
  0
VERTEX
  5
11D
  8
TEAM-NET
 10
-232.716682
 20
-425.38824
 30
725.721676
 70
    32
  0
VERTEX
  5
11E
  8
TEAM-NET
 10
-217.29246
 20
-425.195211
 30
725.549126
 70
    32
  0
VERTEX
  5
11F
  8
TEAM-NET
 10
-203.293522
 20
-425.005301
 30
725.379939
 70
    32
  0
VERTEX
  5
120
  8
TEAM-NET
 10
-190.647267
 20
-424.81855
 30
725.21412
 70
    32
  0
VERTEX
  5
121
  8
TEAM-NET
 10
-179.281092
 20
-424.634999
 30
725.05168
 70
    32
  0
VERTEX
  5
122
  8
TEAM-NET
 10
-169.122398
 20
-424.454689
 30
724.892624
 70
    32
  0
VERTEX
  5
123
  8
TEAM-NET
 10
-160.098582
 20
-424.277662
 30
724.73696
 70
    32
  0
VERTEX
  5
124
  8
TEAM-NET
 10
-152.137045
 20
-424.103956
 30
724.584697
 70
    32
  0
VERTEX
  5
125
  8
TEAM-NET
 10
-145.165184
 20
-423.933615
 30
724.435842
 70
    32
  0
VERTEX
  5
126
  8
TEAM-NET
 10
-139.110398
 20
-423.766677
 30
724.290402
 70
    32
  0
VERTEX
  5
127
  8
TEAM-NET
 10
-133.900086
 20
-423.603185
 30
724.148386
 70
    32
  0
VERTEX
  5
128
  8
TEAM-NET
 10
-125.722481
 20
-423.286699
 30
723.874654
 70
    32
  0
VERTEX
  5
129
  8
TEAM-NET
 10
-120.051559
 20
-422.984483
 30
723.614707
 70
    32
  0
VERTEX
  5
12A
  8
TEAM-NET
 10
-116.30651
 20
-422.696863
 30
723.368607
 70
    32
  0
VERTEX
  5
12B
  8
TEAM-NET
 10
-113.906525
 20
-422.424167
 30
723.136415
 70
    32
  0
VERTEX
  5
12C
  8
TEAM-NET
 10
-102.304267
 20
-420.811014
 30
721.784408
 70
    32
  0
VERTEX
  5
12D
  8
TEAM-NET
 10
-90.89494
 20
-420.263734
 30
721.334742
 70
    32
  0
SEQEND
  5
12E
  8
TEAM-NET
  0
POLYLINE
  5
12F
  8
TEAM-NET
 66
     1
 10
0.0
 20
0.0
 30
0.0
 70
     8
  0
VERTEX
  5
130
  8
TEAM-NET
 10
-478.315388
 20
-474.897819
 30
820.00089
 70
    32
  0
VERTEX
  5
131
  8
TEAM-NET
 10
-474.154032
 20
-473.116746
 30
809.128657
 70
    32
  0
VERTEX
  5
132
  8
TEAM-NET
 10
-469.314959
 20
-470.706972
 30
798.968716
 70
    32
  0
VERTEX
  5
133
  8
TEAM-NET
 10
-246.139589
 20
-467.628546
 30
789.062513
 70
    32
  0
VERTEX
  5
134
  8
TEAM-NET
 10
-239.52325
 20
-463.905267
 30
779.442229
 70
    32
  0
VERTEX
  5
135
  8
TEAM-NET
 10
-232.180291
 20
-459.700714
 30
770.413905
 70
    32
  0
VERTEX
  5
136
  8
TEAM-NET
 10
-224.352853
 20
-455.227751
 30
762.211201
 70
    32
  0
VERTEX
  5
137
  8
TEAM-NET
 10
-223.038479
 20
-454.661766
 30
761.253201
 70
    32
  0
VERTEX
  5
138
  8
TEAM-NET
 10
-221.696966
 20
-454.378791
 30
760.780158
 70
    32
  0
VERTEX
  5
139
  8
TEAM-NET
 10
-219.498261
 20
-454.095912
 30
760.311125
 70
    32
  0
VERTEX
  5
13A
  8
TEAM-NET
 10
-216.141591
 20
-453.813192
 30
759.846132
 70
    32
  0
VERTEX
  5
13B
  8
TEAM-NET
 10
-211.326181
 20
-453.530694
 30
759.385208
 70
    32
  0
VERTEX
  5
13C
  8
TEAM-NET
 10
-204.751256
 20
-453.248482
 30
758.928384
 70
    32
  0
VERTEX
  5
13D
  8
TEAM-NET
 10
-235.552885
 20
-452.966618
 30
758.475688
 70
    32
  0
VERTEX
  5
13E
  8
TEAM-NET
 10
-224.556609
 20
-452.685165
 30
758.027151
 70
    32
  0
VERTEX
  5
13F
  8
TEAM-NET
 10
-210.898494
 20
-452.404187
 30
757.582802
 70
    32
  0
VERTEX
  5
140
  8
TEAM-NET
 10
-208.98909
 20
-452.369101
 30
757.527554
 70
    32
  0
VERTEX
  5
141
  8
TEAM-NET
 10
-208.657462
 20
-452.334024
 30
757.472372
 70
    32
  0
VERTEX
  5
142
  8
TEAM-NET
 10
-208.532083
 20
-452.263896
 30
757.362206
 70
    32
  0
VERTEX
  5
143
  8
TEAM-NET
 10
-208.281358
 20
-452.123747
 30
757.142667
 70
    32
  0
VERTEX
  5
144
  8
TEAM-NET
 10
-207.78007
 20
-451.843907
 30
756.706767
 70
    32
  0
VERTEX
  5
145
  8
TEAM-NET
 10
-205.775251
 20
-450.729866
 30
755.003061
 70
    32
  0
VERTEX
  5
146
  8
TEAM-NET
 10
-197.356893
 20
-446.157277
 30
748.489062
 70
    32
  0
VERTEX
  5
147
  8
TEAM-NET
 10
-188.280212
 20
-441.468269
 30
742.484749
 70
    32
  0
VERTEX
  5
148
  8
TEAM-NET
 10
-178.61783
 20
-436.822321
 30
737.097178
 70
    32
  0
VERTEX
  5
149
  8
TEAM-NET
 10
-168.445992
 20
-432.401501
 30
732.407879
 70
    32
  0
VERTEX
  5
14A
  8
TEAM-NET
 10
-157.84057
 20
-428.397282
 30
728.484973
 70
    32
  0
VERTEX
  5
14B
  8
TEAM-NET
 10
-152.398956
 20
-426.613322
 30
726.827091
 70
    32
  0
VERTEX
  5
14C
  8
TEAM-NET
 10
-151.712942
 20
-426.402366
 30
726.634542
 70
    32
  0
VERTEX
  5
14D
  8
TEAM-NET
 10
-151.670025
 20
-426.389275
 30
726.622617
 70
    32
  0
VERTEX
  5
14E
  8
TEAM-NET
 10
-151.051168
 20
-426.376195
 30
726.610706
 70
    32
  0
VERTEX
  5
14F
  8
TEAM-NET
 10
-148.041498
 20
-426.350068
 30
726.586921
 70
    32
  0
VERTEX
  5
150
  8
TEAM-NET
 10
-142.108117
 20
-426.297951
 30
726.539507
 70
    32
  0
VERTEX
  5
151
  8
TEAM-NET
 10
-130.581216
 20
-426.19426
 30
726.445301
 70
    32
  0
VERTEX
  5
152
  8
TEAM-NET
 10
-108.85513
 20
-425.989069
 30
726.259383
 70
    32
  0
VERTEX
  5
153
  8
TEAM-NET
 10
-175.595509
 20
-425.786833
 30
726.076797
 70
    32
  0
VERTEX
  5
154
  8
TEAM-NET
 10
-248.490172
 20
-425.587593
 30
725.897549
 70
    32
  0
VERTEX
  5
155
  8
TEAM-NET
 10
-231.675951
 20
-425.39139
 30
725.721647
 70
    32
  0
VERTEX
  5
156
  8
TEAM-NET
 10
-216.353929
 20
-425.198266
 30
725.549099
 70
    32
  0
VERTEX
  5
157
  8
TEAM-NET
 10
-202.451564
 20
-425.008261
 30
725.379913
 70
    32
  0
VERTEX
  5
158
  8
TEAM-NET
 10
-189.896311
 20
-424.821416
 30
725.214096
 70
    32
  0
VERTEX
  5
159
  8
TEAM-NET
 10
-178.615626
 20
-424.637771
 30
725.051656
 70
    32
  0
VERTEX
  5
15A
  8
TEAM-NET
 10
-168.536964
 20
-424.457369
 30
724.892602
 70
    32
  0
VERTEX
  5
15B
  8
TEAM-NET
 10
-159.587782
 20
-424.280249
 30
724.736939
 70
    32
  0
VERTEX
  5
15C
  8
TEAM-NET
 10
-151.695535
 20
-424.106453
 30
724.584677
 70
    32
  0
VERTEX
  5
15D
  8
TEAM-NET
 10
-144.78768
 20
-423.936021
 30
724.435822
 70
    32
  0
VERTEX
  5
15E
  8
TEAM-NET
 10
-138.791672
 20
-423.768995
 30
724.290384
 70
    32
  0
VERTEX
  5
15F
  8
TEAM-NET
 10
-133.634967
 20
-423.605415
 30
724.148368
 70
    32
  0
VERTEX
  5
160
  8
TEAM-NET
 10
-125.54929
 20
-423.288758
 30
723.874637
 70
    32
  0
VERTEX
  5
161
  8
TEAM-NET
 10
-119.950296
 20
-422.986377
 30
723.614691
 70
    32
  0
VERTEX
  5
162
  8
TEAM-NET
 10
-116.257632
 20
-422.6986
 30
723.368592
 70
    32
  0
VERTEX
  5
163
  8
TEAM-NET
 10
-113.890946
 20
-422.425755
 30
723.136401
 70
    32
  0
VERTEX
  5
164
  8
TEAM-NET
 10
-102.30421
 20
-420.811678
 30
721.784403
 70
    32
  0
VERTEX
  5
165
  8
TEAM-NET
 10
-90.89494
 20
-420.26408
 30
721.334742
 70
    32
  0
SEQEND
  5
166
  8
TEAM-NET
  0
POLYLINE
  5
167
  8
TEAM-NET
 66
     1
 10
0.0
 20
0.0
 30
0.0
 70
     8
  0
VERTEX
  5
168
  8
TEAM-NET
 10
-478.315388
 20
-474.897819
 30
820.00089
 70
    32
  0
VERTEX
  5
169
  8
TEAM-NET
 10
-474.154827
 20
-473.114029
 30
809.130509
 70
    32
  0
VERTEX
  5
16A
  8
TEAM-NET
 10
-469.316432
 20
-470.702214
 30
798.971523
 70
    32
  0
VERTEX
  5
16B
  8
TEAM-NET
 10
-246.139883
 20
-467.621238
 30
789.062953
 70
    32
  0
VERTEX
  5
16C
  8
TEAM-NET
 10
-239.523002
 20
-463.896192
 30
779.441891
 70
    32
  0
VERTEX
  5
16D
  8
TEAM-NET
 10
-232.180277
 20
-459.690842
 30
770.413915
 70
    32
  0
VERTEX
  5
16E
  8
TEAM-NET
 10
-224.353982
 20
-455.218114
 30
762.212294
 70
    32
  0
VERTEX
  5
16F
  8
TEAM-NET
 10
-222.972229
 20
-454.652228
 30
761.254473
 70
    32
  0
VERTEX
  5
170
  8
TEAM-NET
 10
-221.542545
 20
-454.369308
 30
760.781521
 70
    32
  0
VERTEX
  5
171
  8
TEAM-NET
 10
-219.220229
 20
-454.086487
 30
760.312581
 70
    32
  0
VERTEX
  5
172
  8
TEAM-NET
 10
-215.705209
 20
-453.80383
 30
759.847682
 70
    32
  0
VERTEX
  5
173
  8
TEAM-NET
 10
-210.697414
 20
-453.521398
 30
759.386855
 70
    32
  0
VERTEX
  5
174
  8
TEAM-NET
 10
-203.896773
 20
-453.239256
 30
758.930128
 70
    32
  0
VERTEX
  5
175
  8
TEAM-NET
 10
-234.440056
 20
-452.957465
 30
758.477532
 70
    32
  0
VERTEX
  5
176
  8
TEAM-NET
 10
-223.15351
 20
-452.676089
 30
758.029096
 70
    32
  0
VERTEX
  5
177
  8
TEAM-NET
 10
-209.173904
 20
-452.395191
 30
757.58485
 70
    32
  0
VERTEX
  5
178
  8
TEAM-NET
 10
-207.78268
 20
-451.835081
 30
756.709026
 70
    32
  0
VERTEX
  5
179
  8
TEAM-NET
 10
-205.777647
 20
-450.720961
 30
755.005051
 70
    32
  0
VERTEX
  5
17A
  8
TEAM-NET
 10
-197.35882
 20
-446.148522
 30
748.490442
 70
    32
  0
VERTEX
  5
17B
  8
TEAM-NET
 10
-188.28144
 20
-441.459952
 30
742.485494
 70
    32
  0
VERTEX
  5
17C
  8
TEAM-NET
 10
-178.618574
 20
-436.814933
 30
737.097561
 70
    32
  0
VERTEX
  5
17D
  8
TEAM-NET
 10
-168.446425
 20
-432.395435
 30
732.408056
 70
    32
  0
VERTEX
  5
17E
  8
TEAM-NET
 10
-157.840793
 20
-428.392758
 30
728.485046
 70
    32
  0
VERTEX
  5
17F
  8
TEAM-NET
 10
-152.399116
 20
-426.609592
 30
726.827137
 70
    32
  0
VERTEX
  5
180
  8
TEAM-NET
 10
-151.713097
 20
-426.398735
 30
726.634585
 70
    32
  0
VERTEX
  5
181
  8
TEAM-NET
 10
-151.627258
 20
-426.372576
 30
726.610748
 70
    32
  0
VERTEX
  5
182
  8
TEAM-NET
 10
-151.155831
 20
-426.359513
 30
726.598849
 70
    32
  0
VERTEX
  5
183
  8
TEAM-NET
 10
-149.646288
 20
-426.346462
 30
726.586963
 70
    32
  0
VERTEX
  5
184
  8
TEAM-NET
 10
-143.679923
 20
-426.294368
 30
726.539548
 70
    32
  0
VERTEX
  5
185
  8
TEAM-NET
 10
-132.088168
 20
-426.190725
 30
726.445341
 70
    32
  0
VERTEX
  5
186
  8
TEAM-NET
 10
-110.2368
 20
-425.98563
 30
726.25942
 70
    32
  0
VERTEX
  5
187
  8
TEAM-NET
 10
-205.46056
 20
-425.78349
 30
726.076831
 70
    32
  0
VERTEX
  5
188
  8
TEAM-NET
 10
-249.638789
 20
-425.584347
 30
725.89758
 70
    32
  0
VERTEX
  5
189
  8
TEAM-NET
 10
-232.716682
 20
-425.38824
 30
725.721676
 70
    32
  0
VERTEX
  5
18A
  8
TEAM-NET
 10
-217.29246
 20
-425.195211
 30
725.549126
 70
    32
  0
VERTEX
  5
18B
  8
TEAM-NET
 10
-203.293522
 20
-425.005301
 30
725.379939
 70
    32
  0
VERTEX
  5
18C
  8
TEAM-NET
 10
-190.647267
 20
-424.81855
 30
725.21412
 70
    32
  0
VERTEX
  5
18D
  8
TEAM-NET
 10
-179.281092
 20
-424.634999
 30
725.05168
 70
    32
  0
VERTEX
  5
18E
  8
TEAM-NET
 10
-169.122398
 20
-424.454689
 30
724.892624
 70
    32
  0
VERTEX
  5
18F
  8
TEAM-NET
 10
-160.098582
 20
-424.277662
 30
724.73696
 70
    32
  0
VERTEX
  5
190
  8
TEAM-NET
 10
-152.137045
 20
-424.103956
 30
724.584697
 70
    32
  0
VERTEX
  5
191
  8
TEAM-NET
 10
-145.165184
 20
-423.933615
 30
724.435842
 70
    32
  0
VERTEX
  5
192
  8
TEAM-NET
 10
-139.110398
 20
-423.766677
 30
724.290402
 70
    32
  0
VERTEX
  5
193
  8
TEAM-NET
 10
-133.900086
 20
-423.603185
 30
724.148386
 70
    32
  0
VERTEX
  5
194
  8
TEAM-NET
 10
-125.722481
 20
-423.286699
 30
723.874654
 70
    32
  0
VERTEX
  5
195
  8
TEAM-NET
 10
-120.051559
 20
-422.984483
 30
723.614707
 70
    32
  0
VERTEX
  5
196
  8
TEAM-NET
 10
-116.30651
 20
-422.696863
 30
723.368607
 70
    32
  0
VERTEX
  5
197
  8
TEAM-NET
 10
-113.906525
 20
-422.424167
 30
723.136415
 70
    32
  0
VERTEX
  5
198
  8
TEAM-NET
 10
-102.304267
 20
-420.811014
 30
721.784408
 70
    32
  0
VERTEX
  5
199
  8
TEAM-NET
 10
-90.89494
 20
-420.263734
 30
721.334742
 70
    32
  0
SEQEND
  5
19A
  8
TEAM-NET
  0
POLYLINE
  5
19B
  8
TEAM-NET
 66
     1
 10
0.0
 20
0.0
 30
0.0
 70
     8
  0
VERTEX
  5
19C
  8
TEAM-NET
 10
90.89494
 20
-420.26408
 30
721.334742
 70
    32
  0
VERTEX
  5
19D
  8
TEAM-NET
 10
102.315389
 20
-420.812528
 30
721.785237
 70
    32
  0
VERTEX
  5
19E
  8
TEAM-NET
 10
113.734611
 20
-422.435987
 30
723.144739
 70
    32
  0
VERTEX
  5
19F
  8
TEAM-NET
 10
119.398895
 20
-423.622669
 30
724.163496
 70
    32
  0
VERTEX
  5
1A0
  8
TEAM-NET
 10
122.212592
 20
-424.302088
 30
724.756433
 70
    32
  0
VERTEX
  5
1A1
  8
TEAM-NET
 10
122.913753
 20
-424.480535
 30
724.913312
 70
    32
  0
VERTEX
  5
1A2
  8
TEAM-NET
 10
124.392215
 20
-424.662335
 30
725.073636
 70
    32
  0
VERTEX
  5
1A3
  8
TEAM-NET
 10
127.376263
 20
-424.847427
 30
725.237392
 70
    32
  0
VERTEX
  5
1A4
  8
TEAM-NET
 10
131.746324
 20
-425.035761
 30
725.404567
 70
    32
  0
VERTEX
  5
1A5
  8
TEAM-NET
 10
137.382757
 20
-425.227287
 30
725.575148
 70
    32
  0
VERTEX
  5
1A6
  8
TEAM-NET
 10
144.165922
 20
-425.421955
 30
725.749123
 70
    32
  0
VERTEX
  5
1A7
  8
TEAM-NET
 10
151.976176
 20
-425.619716
 30
725.926479
 70
    32
  0
VERTEX
  5
1A8
  8
TEAM-NET
 10
160.693879
 20
-425.82052
 30
726.107203
 70
    32
  0
VERTEX
  5
1A9
  8
TEAM-NET
 10
180.373067
 20
-426.231056
 30
726.478706
 70
    32
  0
VERTEX
  5
1AA
  8
TEAM-NET
 10
202.246356
 20
-426.653164
 30
726.863531
 70
    32
  0
VERTEX
  5
1AB
  8
TEAM-NET
 10
204.914026
 20
-427.5305
 30
727.672743
 70
    32
  0
VERTEX
  5
1AC
  8
TEAM-NET
 10
91.175735
 20
-427.98493
 30
728.096926
 70
    32
  0
VERTEX
  5
1AD
  8
TEAM-NET
 10
112.254132
 20
-428.449336
 30
728.534027
 70
    32
  0
VERTEX
  5
1AE
  8
TEAM-NET
 10
121.881321
 20
-428.685155
 30
728.757389
 70
    32
  0
VERTEX
  5
1AF
  8
TEAM-NET
 10
130.740982
 20
-428.923319
 30
728.983943
 70
    32
  0
VERTEX
  5
1B0
  8
TEAM-NET
 10
138.713474
 20
-429.163778
 30
729.213676
 70
    32
  0
VERTEX
  5
1B1
  8
TEAM-NET
 10
145.679156
 20
-429.406481
 30
729.446574
 70
    32
  0
VERTEX
  5
1B2
  8
TEAM-NET
 10
151.518386
 20
-429.651379
 30
729.682626
 70
    32
  0
VERTEX
  5
1B3
  8
TEAM-NET
 10
156.111524
 20
-429.898421
 30
729.921819
 70
    32
  0
VERTEX
  5
1B4
  8
TEAM-NET
 10
159.338929
 20
-430.147559
 30
730.164139
 70
    32
  0
VERTEX
  5
1B5
  8
TEAM-NET
 10
161.080958
 20
-430.398742
 30
730.409575
 70
    32
  0
VERTEX
  5
1B6
  8
TEAM-NET
 10
166.374296
 20
-432.475659
 30
732.483824
 70
    32
  0
VERTEX
  5
1B7
  8
TEAM-NET
 10
176.55295
 20
-436.909469
 30
737.192953
 70
    32
  0
VERTEX
  5
1B8
  8
TEAM-NET
 10
186.186203
 20
-441.548086
 30
742.582126
 70
    32
  0
VERTEX
  5
1B9
  8
TEAM-NET
 10
195.190303
 20
-446.20398
 30
748.550727
 70
    32
  0
VERTEX
  5
1BA
  8
TEAM-NET
 10
199.43129
 20
-448.485197
 30
751.714096
 70
    32
  0
VERTEX
  5
1BB
  8
TEAM-NET
 10
201.487075
 20
-449.608301
 30
753.336602
 70
    32
  0
VERTEX
  5
1BC
  8
TEAM-NET
 10
202.695912
 20
-450.170282
 30
754.165694
 70
    32
  0
VERTEX
  5
1BD
  8
TEAM-NET
 10
166.74914
 20
-450.733417
 30
755.008508
 70
    32
  0
VERTEX
  5
1BE
  8
TEAM-NET
 10
170.238697
 20
-451.297253
 30
755.864776
 70
    32
  0
VERTEX
  5
1BF
  8
TEAM-NET
 10
174.657068
 20
-451.861477
 30
756.734413
 70
    32
  0
VERTEX
  5
1C0
  8
TEAM-NET
 10
185.490491
 20
-452.989836
 30
758.513464
 70
    32
  0
VERTEX
  5
1C1
  8
TEAM-NET
 10
209.615757
 20
-455.237433
 30
762.228339
 70
    32
  0
VERTEX
  5
1C2
  8
TEAM-NET
 10
219.748565
 20
-456.351662
 30
764.162831
 70
    32
  0
VERTEX
  5
1C3
  8
TEAM-NET
 10
223.641474
 20
-456.905288
 30
765.149048
 70
    32
  0
VERTEX
  5
1C4
  8
TEAM-NET
 10
226.488801
 20
-457.456171
 30
766.147803
 70
    32
  0
VERTEX
  5
1C5
  8
TEAM-NET
 10
229.04415
 20
-458.548447
 30
768.182583
 70
    32
  0
VERTEX
  5
1C6
  8
TEAM-NET
 10
230.923477
 20
-459.626031
 30
770.266241
 70
    32
  0
VERTEX
  5
1C7
  8
TEAM-NET
 10
238.11327
 20
-463.743962
 30
779.064658
 70
    32
  0
VERTEX
  5
1C8
  8
TEAM-NET
 10
463.278264
 20
-467.446626
 30
788.5437
 70
    32
  0
VERTEX
  5
1C9
  8
TEAM-NET
 10
469.125209
 20
-470.607861
 30
798.608418
 70
    32
  0
VERTEX
  5
1CA
  8
TEAM-NET
 10
474.159446
 20
-473.119037
 30
809.142462
 70
    32
  0
VERTEX
  5
1CB
  8
TEAM-NET
 10
478.315388
 20
-474.897819
 30
820.00089
 70
    32
  0
SEQEND
  5
1CC
  8
TEAM-NET
  0
POLYLINE
  5
1CD
  8
TEAM-NET
 66
     1
 10
0.0
 20
0.0
 30
0.0
 70
     8
  0
VERTEX
  5
1CE
  8
TEAM-NET
 10
90.89494
 20
-420.26408
 30
721.334742
 70
    32
  0
VERTEX
  5
1CF
  8
TEAM-NET
 10
102.315389
 20
-420.812528
 30
721.785237
 70
    32
  0
VERTEX
  5
1D0
  8
TEAM-NET
 10
113.734611
 20
-422.435987
 30
723.144739
 70
    32
  0
VERTEX
  5
1D1
  8
TEAM-NET
 10
119.398895
 20
-423.622669
 30
724.163496
 70
    32
  0
VERTEX
  5
1D2
  8
TEAM-NET
 10
122.212592
 20
-424.302088
 30
724.756433
 70
    32
  0
VERTEX
  5
1D3
  8
TEAM-NET
 10
122.913753
 20
-424.480535
 30
724.913312
 70
    32
  0
VERTEX
  5
1D4
  8
TEAM-NET
 10
124.392215
 20
-424.662335
 30
725.073636
 70
    32
  0
VERTEX
  5
1D5
  8
TEAM-NET
 10
127.376263
 20
-424.847427
 30
725.237392
 70
    32
  0
VERTEX
  5
1D6
  8
TEAM-NET
 10
131.746324
 20
-425.035761
 30
725.404567
 70
    32
  0
VERTEX
  5
1D7
  8
TEAM-NET
 10
137.382757
 20
-425.227287
 30
725.575148
 70
    32
  0
VERTEX
  5
1D8
  8
TEAM-NET
 10
144.165922
 20
-425.421955
 30
725.749123
 70
    32
  0
VERTEX
  5
1D9
  8
TEAM-NET
 10
151.976176
 20
-425.619716
 30
725.926479
 70
    32
  0
VERTEX
  5
1DA
  8
TEAM-NET
 10
160.693879
 20
-425.82052
 30
726.107203
 70
    32
  0
VERTEX
  5
1DB
  8
TEAM-NET
 10
180.373067
 20
-426.231056
 30
726.478706
 70
    32
  0
VERTEX
  5
1DC
  8
TEAM-NET
 10
202.246356
 20
-426.653164
 30
726.863531
 70
    32
  0
VERTEX
  5
1DD
  8
TEAM-NET
 10
198.663954
 20
-427.5305
 30
727.672743
 70
    32
  0
VERTEX
  5
1DE
  8
TEAM-NET
 10
91.175735
 20
-427.98493
 30
728.096926
 70
    32
  0
VERTEX
  5
1DF
  8
TEAM-NET
 10
112.254132
 20
-428.449336
 30
728.534027
 70
    32
  0
VERTEX
  5
1E0
  8
TEAM-NET
 10
121.881321
 20
-428.685155
 30
728.757389
 70
    32
  0
VERTEX
  5
1E1
  8
TEAM-NET
 10
130.740982
 20
-428.923319
 30
728.983943
 70
    32
  0
VERTEX
  5
1E2
  8
TEAM-NET
 10
138.713474
 20
-429.163778
 30
729.213676
 70
    32
  0
VERTEX
  5
1E3
  8
TEAM-NET
 10
145.679156
 20
-429.406481
 30
729.446574
 70
    32
  0
VERTEX
  5
1E4
  8
TEAM-NET
 10
151.518386
 20
-429.651379
 30
729.682626
 70
    32
  0
VERTEX
  5
1E5
  8
TEAM-NET
 10
156.111524
 20
-429.898421
 30
729.921819
 70
    32
  0
VERTEX
  5
1E6
  8
TEAM-NET
 10
159.338929
 20
-430.147559
 30
730.164139
 70
    32
  0
VERTEX
  5
1E7
  8
TEAM-NET
 10
161.080958
 20
-430.398742
 30
730.409575
 70
    32
  0
VERTEX
  5
1E8
  8
TEAM-NET
 10
166.374296
 20
-432.475659
 30
732.483824
 70
    32
  0
VERTEX
  5
1E9
  8
TEAM-NET
 10
176.55295
 20
-436.909469
 30
737.192953
 70
    32
  0
VERTEX
  5
1EA
  8
TEAM-NET
 10
186.186203
 20
-441.548086
 30
742.582126
 70
    32
  0
VERTEX
  5
1EB
  8
TEAM-NET
 10
195.190303
 20
-446.20398
 30
748.550727
 70
    32
  0
VERTEX
  5
1EC
  8
TEAM-NET
 10
199.43129
 20
-448.485197
 30
751.714096
 70
    32
  0
VERTEX
  5
1ED
  8
TEAM-NET
 10
201.487075
 20
-449.608301
 30
753.336602
 70
    32
  0
VERTEX
  5
1EE
  8
TEAM-NET
 10
202.695912
 20
-450.170282
 30
754.165694
 70
    32
  0
VERTEX
  5
1EF
  8
TEAM-NET
 10
166.74914
 20
-450.733417
 30
755.008508
 70
    32
  0
VERTEX
  5
1F0
  8
TEAM-NET
 10
170.238697
 20
-451.297253
 30
755.864776
 70
    32
  0
VERTEX
  5
1F1
  8
TEAM-NET
 10
174.657068
 20
-451.861477
 30
756.734413
 70
    32
  0
VERTEX
  5
1F2
  8
TEAM-NET
 10
185.490491
 20
-452.989836
 30
758.513464
 70
    32
  0
VERTEX
  5
1F3
  8
TEAM-NET
 10
209.615757
 20
-455.237433
 30
762.228339
 70
    32
  0
VERTEX
  5
1F4
  8
TEAM-NET
 10
219.748565
 20
-456.351662
 30
764.162831
 70
    32
  0
VERTEX
  5
1F5
  8
TEAM-NET
 10
223.641474
 20
-456.905288
 30
765.149048
 70
    32
  0
VERTEX
  5
1F6
  8
TEAM-NET
 10
226.488801
 20
-457.456171
 30
766.147803
 70
    32
  0
VERTEX
  5
1F7
  8
TEAM-NET
 10
229.04415
 20
-458.548447
 30
768.182583
 70
    32
  0
VERTEX
  5
1F8
  8
TEAM-NET
 10
230.923477
 20
-459.626031
 30
770.266241
 70
    32
  0
VERTEX
  5
1F9
  8
TEAM-NET
 10
238.11327
 20
-463.743962
 30
779.064658
 70
    32
  0
VERTEX
  5
1FA
  8
TEAM-NET
 10
463.278264
 20
-467.446626
 30
788.5437
 70
    32
  0
VERTEX
  5
1FB
  8
TEAM-NET
 10
469.125209
 20
-470.607861
 30
798.608418
 70
    32
  0
VERTEX
  5
1FC
  8
TEAM-NET
 10
474.159446
 20
-473.119037
 30
809.142462
 70
    32
  0
VERTEX
  5
1FD
  8
TEAM-NET
 10
478.315388
 20
-474.897819
 30
820.00089
 70
    32
  0
SEQEND
  5
1FE
  8
TEAM-NET
  0
POLYLINE
  5
1FF
  8
TEAM-NET
 66
     1
 10
0.0
 20
0.0
 30
0.0
 70
     8
  0
VERTEX
  5
200
  8
TEAM-NET
 10
485.237991
 20
-474.897816
 30
820.000891
 70
    32
  0
VERTEX
  5
201
  8
TEAM-NET
 10
483.668123
 20
-473.030437
 30
808.718496
 70
    32
  0
VERTEX
  5
202
  8
TEAM-NET
 10
481.539392
 20
-470.374936
 30
797.795132
 70
    32
  0
VERTEX
  5
203
  8
TEAM-NET
 10
478.898773
 20
-466.990248
 30
787.287999
 70
    32
  0
VERTEX
  5
204
  8
TEAM-NET
 10
257.183089
 20
-462.911871
 30
777.183683
 70
    32
  0
VERTEX
  5
205
  8
TEAM-NET
 10
255.457833
 20
-460.631686
 30
772.303337
 70
    32
  0
VERTEX
  5
206
  8
TEAM-NET
 10
252.685827
 20
-458.202562
 30
767.549095
 70
    32
  0
VERTEX
  5
207
  8
TEAM-NET
 10
249.690102
 20
-456.93524
 30
765.221397
 70
    32
  0
VERTEX
  5
208
  8
TEAM-NET
 10
244.846932
 20
-455.634437
 30
762.927712
 70
    32
  0
VERTEX
  5
209
  8
TEAM-NET
 10
237.575595
 20
-454.30142
 30
760.668838
 70
    32
  0
VERTEX
  5
20A
  8
TEAM-NET
 10
232.847888
 20
-453.623228
 30
759.552704
 70
    32
  0
VERTEX
  5
20B
  8
TEAM-NET
 10
227.295367
 20
-452.937459
 30
758.445573
 70
    32
  0
VERTEX
  5
20C
  8
TEAM-NET
 10
220.845444
 20
-452.24427
 30
757.347543
 70
    32
  0
VERTEX
  5
20D
  8
TEAM-NET
 10
213.453439
 20
-451.543822
 30
756.258715
 70
    32
  0
VERTEX
  5
20E
  8
TEAM-NET
 10
205.965665
 20
-450.836288
 30
755.179169
 70
    32
  0
VERTEX
  5
20F
  8
TEAM-NET
 10
238.593496
 20
-450.121859
 30
754.108964
 70
    32
  0
VERTEX
  5
210
  8
TEAM-NET
 10
235.849241
 20
-449.400721
 30
753.048159
 70
    32
  0
VERTEX
  5
211
  8
TEAM-NET
 10
234.901682
 20
-448.673031
 30
751.996808
 70
    32
  0
VERTEX
  5
212
  8
TEAM-NET
 10
233.825044
 20
-447.198144
 30
749.922065
 70
    32
  0
VERTEX
  5
213
  8
TEAM-NET
 10
229.362071
 20
-441.017937
 30
741.95018
 70
    32
  0
VERTEX
  5
214
  8
TEAM-NET
 10
219.789052
 20
-427.412984
 30
727.567486
 70
    32
  0
VERTEX
  5
215
  8
TEAM-NET
 10
209.686675
 20
-412.390888
 30
715.308286
 70
    32
  0
VERTEX
  5
216
  8
TEAM-NET
 10
199.446245
 20
-396.087746
 30
705.139937
 70
    32
  0
VERTEX
  5
217
  8
TEAM-NET
 10
189.496835
 20
-378.334473
 30
696.989466
 70
    32
  0
SEQEND
  5
218
  8
TEAM-NET
  0
POLYLINE
  5
219
  8
TEAM-NET
 66
     1
 10
0.0
 20
0.0
 30
0.0
 70
     8
  0
VERTEX
  5
21A
  8
TEAM-NET
 10
91.24954
 20
-420.264264
 30
721.335175
 70
    32
  0
VERTEX
  5
21B
  8
TEAM-NET
 10
102.637754
 20
-420.843159
 30
721.811063
 70
    32
  0
VERTEX
  5
21C
  8
TEAM-NET
 10
113.992239
 20
-422.482942
 30
723.186021
 70
    32
  0
VERTEX
  5
21D
  8
TEAM-NET
 10
119.617726
 20
-423.671274
 30
724.20757
 70
    32
  0
VERTEX
  5
21E
  8
TEAM-NET
 10
122.411409
 20
-424.349771
 30
724.80058
 70
    32
  0
VERTEX
  5
21F
  8
TEAM-NET
 10
123.802727
 20
-424.709118
 30
725.117481
 70
    32
  0
VERTEX
  5
220
  8
TEAM-NET
 10
124.627274
 20
-424.893691
 30
725.281009
 70
    32
  0
VERTEX
  5
221
  8
TEAM-NET
 10
126.597218
 20
-425.081456
 30
725.447911
 70
    32
  0
VERTEX
  5
222
  8
TEAM-NET
 10
129.848471
 20
-425.272363
 30
725.618175
 70
    32
  0
VERTEX
  5
223
  8
TEAM-NET
 10
134.283064
 20
-425.466364
 30
725.791789
 70
    32
  0
VERTEX
  5
224
  8
TEAM-NET
 10
139.803027
 20
-425.663409
 30
725.968742
 70
    32
  0
VERTEX
  5
225
  8
TEAM-NET
 10
146.310391
 20
-425.863452
 30
726.149023
 70
    32
  0
VERTEX
  5
226
  8
TEAM-NET
 10
153.707187
 20
-426.066444
 30
726.332618
 70
    32
  0
VERTEX
  5
227
  8
TEAM-NET
 10
161.895444
 20
-426.272337
 30
726.519518
 70
    32
  0
VERTEX
  5
228
  8
TEAM-NET
 10
180.254467
 20
-426.692634
 30
726.903183
 70
    32
  0
VERTEX
  5
229
  8
TEAM-NET
 10
200.603705
 20
-427.123959
 30
727.299925
 70
    32
  0
VERTEX
  5
22A
  8
TEAM-NET
 10
222.159401
 20
-427.565926
 30
727.709652
 70
    32
  0
VERTEX
  5
22B
  8
TEAM-NET
 10
85.471352
 20
-428.480253
 30
728.567687
 70
    32
  0
VERTEX
  5
22C
  8
TEAM-NET
 10
105.943891
 20
-428.951843
 30
729.01581
 70
    32
  0
VERTEX
  5
22D
  8
TEAM-NET
 10
124.487866
 20
-429.432539
 30
729.476547
 70
    32
  0
VERTEX
  5
22E
  8
TEAM-NET
 10
132.791719
 20
-429.676181
 30
729.711617
 70
    32
  0
VERTEX
  5
22F
  8
TEAM-NET
 10
140.319522
 20
-429.921955
 30
729.949806
 70
    32
  0
VERTEX
  5
230
  8
TEAM-NET
 10
146.973307
 20
-430.169813
 30
730.191101
 70
    32
  0
VERTEX
  5
231
  8
TEAM-NET
 10
152.655103
 20
-430.419707
 30
730.435492
 70
    32
  0
VERTEX
  5
232
  8
TEAM-NET
 10
157.266942
 20
-430.671589
 30
730.682967
 70
    32
  0
VERTEX
  5
233
  8
TEAM-NET
 10
160.710853
 20
-430.925411
 30
730.933515
 70
    32
  0
VERTEX
  5
234
  8
TEAM-NET
 10
162.888868
 20
-431.181125
 30
731.187123
 70
    32
  0
VERTEX
  5
235
  8
TEAM-NET
 10
163.809493
 20
-431.438683
 30
731.443782
 70
    32
  0
VERTEX
  5
236
  8
TEAM-NET
 10
166.415602
 20
-432.486358
 30
732.500788
 70
    32
  0
VERTEX
  5
237
  8
TEAM-NET
 10
176.558366
 20
-436.904016
 30
737.195931
 70
    32
  0
VERTEX
  5
238
  8
TEAM-NET
 10
186.192239
 20
-441.542078
 30
742.585908
 70
    32
  0
VERTEX
  5
239
  8
TEAM-NET
 10
195.24178
 20
-446.221332
 30
748.588033
 70
    32
  0
VERTEX
  5
23A
  8
TEAM-NET
 10
165.324526
 20
-450.782133
 30
755.097337
 70
    32
  0
VERTEX
  5
23B
  8
TEAM-NET
 10
166.325545
 20
-451.337539
 30
755.941904
 70
    32
  0
VERTEX
  5
23C
  8
TEAM-NET
 10
166.824701
 20
-451.615283
 30
756.368892
 70
    32
  0
VERTEX
  5
23D
  8
TEAM-NET
 10
167.074452
 20
-451.754443
 30
756.58401
 70
    32
  0
VERTEX
  5
23E
  8
TEAM-NET
 10
167.701865
 20
-451.824128
 30
756.692028
 70
    32
  0
VERTEX
  5
23F
  8
TEAM-NET
 10
169.471875
 20
-451.893863
 30
756.800327
 70
    32
  0
VERTEX
  5
240
  8
TEAM-NET
 10
182.340648
 20
-452.453122
 30
757.676286
 70
    32
  0
VERTEX
  5
241
  8
TEAM-NET
 10
193.064757
 20
-453.014475
 30
758.569072
 70
    32
  0
VERTEX
  5
242
  8
TEAM-NET
 10
201.857353
 20
-453.577426
 30
759.478419
 70
    32
  0
VERTEX
  5
243
  8
TEAM-NET
 10
208.931592
 20
-454.141478
 30
760.404065
 70
    32
  0
VERTEX
  5
244
  8
TEAM-NET
 10
214.500627
 20
-454.706136
 30
761.345744
 70
    32
  0
VERTEX
  5
245
  8
TEAM-NET
 10
218.777613
 20
-455.270902
 30
762.303191
 70
    32
  0
VERTEX
  5
246
  8
TEAM-NET
 10
221.975702
 20
-455.835281
 30
763.276143
 70
    32
  0
VERTEX
  5
247
  8
TEAM-NET
 10
224.30805
 20
-456.398777
 30
764.264335
 70
    32
  0
VERTEX
  5
248
  8
TEAM-NET
 10
227.228134
 20
-457.521132
 30
766.285382
 70
    32
  0
VERTEX
  5
249
  8
TEAM-NET
 10
231.127791
 20
-459.733405
 30
770.497892
 70
    32
  0
VERTEX
  5
24A
  8
TEAM-NET
 10
457.04503
 20
-463.927606
 30
779.514155
 70
    32
  0
VERTEX
  5
24B
  8
TEAM-NET
 10
463.643141
 20
-467.641281
 30
789.120276
 70
    32
  0
VERTEX
  5
24C
  8
TEAM-NET
 10
469.336725
 20
-470.712804
 30
799.010208
 70
    32
  0
VERTEX
  5
24D
  8
TEAM-NET
 10
474.163018
 20
-473.117688
 30
809.15134
 70
    32
  0
VERTEX
  5
24E
  8
TEAM-NET
 10
478.315388
 20
-474.897819
 30
820.00089
 70
    32
  0
SEQEND
  5
24F
  8
TEAM-NET
  0
POLYLINE
  5
250
  8
TEAM-NET
 66
     1
 10
0.0
 20
0.0
 30
0.0
 70
     8
  0
VERTEX
  5
251
  8
TEAM-NET
 10
485.237991
 20
-474.897816
 30
820.000891
 70
    32
  0
VERTEX
  5
252
  8
TEAM-NET
 10
483.668123
 20
-473.030437
 30
808.718496
 70
    32
  0
VERTEX
  5
253
  8
TEAM-NET
 10
481.539392
 20
-470.374936
 30
797.795132
 70
    32
  0
VERTEX
  5
254
  8
TEAM-NET
 10
478.898773
 20
-466.990248
 30
787.287999
 70
    32
  0
VERTEX
  5
255
  8
TEAM-NET
 10
257.183089
 20
-462.911871
 30
777.183683
 70
    32
  0
VERTEX
  5
256
  8
TEAM-NET
 10
255.457833
 20
-460.631686
 30
772.303337
 70
    32
  0
VERTEX
  5
257
  8
TEAM-NET
 10
252.685827
 20
-458.202562
 30
767.549095
 70
    32
  0
VERTEX
  5
258
  8
TEAM-NET
 10
249.690102
 20
-456.93524
 30
765.221397
 70
    32
  0
VERTEX
  5
259
  8
TEAM-NET
 10
244.846932
 20
-455.634437
 30
762.927712
 70
    32
  0
VERTEX
  5
25A
  8
TEAM-NET
 10
237.575595
 20
-454.30142
 30
760.668838
 70
    32
  0
VERTEX
  5
25B
  8
TEAM-NET
 10
232.847888
 20
-453.623228
 30
759.552704
 70
    32
  0
VERTEX
  5
25C
  8
TEAM-NET
 10
227.295367
 20
-452.937459
 30
758.445573
 70
    32
  0
VERTEX
  5
25D
  8
TEAM-NET
 10
220.845444
 20
-452.24427
 30
757.347543
 70
    32
  0
VERTEX
  5
25E
  8
TEAM-NET
 10
213.453439
 20
-451.543822
 30
756.258715
 70
    32
  0
VERTEX
  5
25F
  8
TEAM-NET
 10
205.965665
 20
-450.836288
 30
755.179169
 70
    32
  0
VERTEX
  5
260
  8
TEAM-NET
 10
238.593496
 20
-450.121859
 30
754.108964
 70
    32
  0
VERTEX
  5
261
  8
TEAM-NET
 10
235.849241
 20
-449.400721
 30
753.048159
 70
    32
  0
VERTEX
  5
262
  8
TEAM-NET
 10
234.901682
 20
-448.673031
 30
751.996808
 70
    32
  0
VERTEX
  5
263
  8
TEAM-NET
 10
233.825044
 20
-447.198144
 30
749.922065
 70
    32
  0
VERTEX
  5
264
  8
TEAM-NET
 10
229.362071
 20
-441.017937
 30
741.95018
 70
    32
  0
VERTEX
  5
265
  8
TEAM-NET
 10
219.789052
 20
-427.412984
 30
727.567486
 70
    32
  0
VERTEX
  5
266
  8
TEAM-NET
 10
209.686675
 20
-412.390888
 30
715.308286
 70
    32
  0
VERTEX
  5
267
  8
TEAM-NET
 10
199.446245
 20
-396.087746
 30
705.139937
 70
    32
  0
VERTEX
  5
268
  8
TEAM-NET
 10
189.496835
 20
-378.334473
 30
696.989466
 70
    32
  0
SEQEND
  5
269
  8
TEAM-NET
  0
POLYLINE
  5
26A
  8
TEAM-NET
 66
     1
 10
0.0
 20
0.0
 30
0.0
 70
     8
  0
VERTEX
  5
26B
  8
TEAM-NET
 10
91.24954
 20
-420.264264
 30
721.335175
 70
    32
  0
VERTEX
  5
26C
  8
TEAM-NET
 10
102.637754
 20
-420.843159
 30
721.811063
 70
    32
  0
VERTEX
  5
26D
  8
TEAM-NET
 10
113.992239
 20
-422.482942
 30
723.186021
 70
    32
  0
VERTEX
  5
26E
  8
TEAM-NET
 10
119.617726
 20
-423.671274
 30
724.20757
 70
    32
  0
VERTEX
  5
26F
  8
TEAM-NET
 10
122.411409
 20
-424.349771
 30
724.80058
 70
    32
  0
VERTEX
  5
270
  8
TEAM-NET
 10
123.802727
 20
-424.709118
 30
725.117481
 70
    32
  0
VERTEX
  5
271
  8
TEAM-NET
 10
124.627274
 20
-424.893691
 30
725.281009
 70
    32
  0
VERTEX
  5
272
  8
TEAM-NET
 10
126.597218
 20
-425.081456
 30
725.447911
 70
    32
  0
VERTEX
  5
273
  8
TEAM-NET
 10
129.848471
 20
-425.272363
 30
725.618175
 70
    32
  0
VERTEX
  5
274
  8
TEAM-NET
 10
134.283064
 20
-425.466364
 30
725.791789
 70
    32
  0
VERTEX
  5
275
  8
TEAM-NET
 10
139.803027
 20
-425.663409
 30
725.968742
 70
    32
  0
VERTEX
  5
276
  8
TEAM-NET
 10
146.310391
 20
-425.863452
 30
726.149023
 70
    32
  0
VERTEX
  5
277
  8
TEAM-NET
 10
153.707187
 20
-426.066444
 30
726.332618
 70
    32
  0
VERTEX
  5
278
  8
TEAM-NET
 10
161.895444
 20
-426.272337
 30
726.519518
 70
    32
  0
VERTEX
  5
279
  8
TEAM-NET
 10
180.254467
 20
-426.692634
 30
726.903183
 70
    32
  0
VERTEX
  5
27A
  8
TEAM-NET
 10
200.603705
 20
-427.123959
 30
727.299925
 70
    32
  0
VERTEX
  5
27B
  8
TEAM-NET
 10
222.159401
 20
-427.565926
 30
727.709652
 70
    32
  0
VERTEX
  5
27C
  8
TEAM-NET
 10
85.471352
 20
-428.480253
 30
728.567687
 70
    32
  0
VERTEX
  5
27D
  8
TEAM-NET
 10
105.943891
 20
-428.951843
 30
729.01581
 70
    32
  0
VERTEX
  5
27E
  8
TEAM-NET
 10
124.487866
 20
-429.432539
 30
729.476547
 70
    32
  0
VERTEX
  5
27F
  8
TEAM-NET
 10
132.791719
 20
-429.676181
 30
729.711617
 70
    32
  0
VERTEX
  5
280
  8
TEAM-NET
 10
140.319522
 20
-429.921955
 30
729.949806
 70
    32
  0
VERTEX
  5
281
  8
TEAM-NET
 10
146.973307
 20
-430.169813
 30
730.191101
 70
    32
  0
VERTEX
  5
282
  8
TEAM-NET
 10
152.655103
 20
-430.419707
 30
730.435492
 70
    32
  0
VERTEX
  5
283
  8
TEAM-NET
 10
157.266942
 20
-430.671589
 30
730.682967
 70
    32
  0
VERTEX
  5
284
  8
TEAM-NET
 10
160.710853
 20
-430.925411
 30
730.933515
 70
    32
  0
VERTEX
  5
285
  8
TEAM-NET
 10
162.888868
 20
-431.181125
 30
731.187123
 70
    32
  0
VERTEX
  5
286
  8
TEAM-NET
 10
163.809493
 20
-431.438683
 30
731.443782
 70
    32
  0
VERTEX
  5
287
  8
TEAM-NET
 10
166.415602
 20
-432.486358
 30
732.500788
 70
    32
  0
VERTEX
  5
288
  8
TEAM-NET
 10
176.558366
 20
-436.904016
 30
737.195931
 70
    32
  0
VERTEX
  5
289
  8
TEAM-NET
 10
186.192239
 20
-441.542078
 30
742.585908
 70
    32
  0
VERTEX
  5
28A
  8
TEAM-NET
 10
195.24178
 20
-446.221332
 30
748.588033
 70
    32
  0
VERTEX
  5
28B
  8
TEAM-NET
 10
165.324526
 20
-450.782133
 30
755.097337
 70
    32
  0
VERTEX
  5
28C
  8
TEAM-NET
 10
166.325545
 20
-451.337539
 30
755.941904
 70
    32
  0
VERTEX
  5
28D
  8
TEAM-NET
 10
166.824701
 20
-451.615283
 30
756.368892
 70
    32
  0
VERTEX
  5
28E
  8
TEAM-NET
 10
167.074452
 20
-451.754443
 30
756.58401
 70
    32
  0
VERTEX
  5
28F
  8
TEAM-NET
 10
167.701865
 20
-451.824128
 30
756.692028
 70
    32
  0
VERTEX
  5
290
  8
TEAM-NET
 10
169.471875
 20
-451.893863
 30
756.800327
 70
    32
  0
VERTEX
  5
291
  8
TEAM-NET
 10
182.340648
 20
-452.453122
 30
757.676286
 70
    32
  0
VERTEX
  5
292
  8
TEAM-NET
 10
193.064757
 20
-453.014475
 30
758.569072
 70
    32
  0
VERTEX
  5
293
  8
TEAM-NET
 10
201.857353
 20
-453.577426
 30
759.478419
 70
    32
  0
VERTEX
  5
294
  8
TEAM-NET
 10
208.931592
 20
-454.141478
 30
760.404065
 70
    32
  0
VERTEX
  5
295
  8
TEAM-NET
 10
214.500627
 20
-454.706136
 30
761.345744
 70
    32
  0
VERTEX
  5
296
  8
TEAM-NET
 10
218.777613
 20
-455.270902
 30
762.303191
 70
    32
  0
VERTEX
  5
297
  8
TEAM-NET
 10
221.975702
 20
-455.835281
 30
763.276143
 70
    32
  0
VERTEX
  5
298
  8
TEAM-NET
 10
224.30805
 20
-456.398777
 30
764.264335
 70
    32
  0
VERTEX
  5
299
  8
TEAM-NET
 10
227.228134
 20
-457.521132
 30
766.285382
 70
    32
  0
VERTEX
  5
29A
  8
TEAM-NET
 10
231.127791
 20
-459.733405
 30
770.497892
 70
    32
  0
VERTEX
  5
29B
  8
TEAM-NET
 10
457.04503
 20
-463.927606
 30
779.514155
 70
    32
  0
VERTEX
  5
29C
  8
TEAM-NET
 10
463.643141
 20
-467.641281
 30
789.120276
 70
    32
  0
VERTEX
  5
29D
  8
TEAM-NET
 10
469.336725
 20
-470.712804
 30
799.010208
 70
    32
  0
VERTEX
  5
29E
  8
TEAM-NET
 10
474.163018
 20
-473.117688
 30
809.15134
 70
    32
  0
VERTEX
  5
29F
  8
TEAM-NET
 10
478.315388
 20
-474.897819
 30
820.00089
 70
    32
  0
SEQEND
  5
2A0
  8
TEAM-NET
  0
POLYLINE
  5
2A1
  8
TEAM-NET
 66
     1
 10
0.0
 20
0.0
 30
0.0
 70
     8
  0
VERTEX
  5
2A2
  8
TEAM-NET
 10
-190.744937
 20
-378.334473
 30
696.989466
 70
    32
  0
VERTEX
  5
2A3
  8
TEAM-NET
 10
-199.916167
 20
-396.583295
 30
705.408359
 70
    32
  0
VERTEX
  5
2A4
  8
TEAM-NET
 10
-209.667996
 20
-413.160304
 30
715.862148
 70
    32
  0
VERTEX
  5
2A5
  8
TEAM-NET
 10
-219.501665
 20
-428.232282
 30
728.333406
 70
    32
  0
VERTEX
  5
2A6
  8
TEAM-NET
 10
-229.032596
 20
-441.750003
 30
742.839454
 70
    32
  0
VERTEX
  5
2A7
  8
TEAM-NET
 10
-233.558737
 20
-447.848486
 30
750.827845
 70
    32
  0
VERTEX
  5
2A8
  8
TEAM-NET
 10
-236.167163
 20
-450.717587
 30
754.999944
 70
    32
  0
VERTEX
  5
2A9
  8
TEAM-NET
 10
-238.327283
 20
-451.415972
 30
756.062175
 70
    32
  0
VERTEX
  5
2AA
  8
TEAM-NET
 10
-242.515411
 20
-452.107263
 30
757.132985
 70
    32
  0
VERTEX
  5
2AB
  8
TEAM-NET
 10
-209.35786
 20
-452.791561
 30
758.212668
 70
    32
  0
VERTEX
  5
2AC
  8
TEAM-NET
 10
-216.653997
 20
-453.468704
 30
759.30117
 70
    32
  0
VERTEX
  5
2AD
  8
TEAM-NET
 10
-223.801826
 20
-454.138504
 30
760.398408
 70
    32
  0
VERTEX
  5
2AE
  8
TEAM-NET
 10
-230.021497
 20
-454.80079
 30
761.504298
 70
    32
  0
VERTEX
  5
2AF
  8
TEAM-NET
 10
-235.304404
 20
-455.455416
 30
762.618746
 70
    32
  0
VERTEX
  5
2B0
  8
TEAM-NET
 10
-239.733843
 20
-456.102239
 30
763.741657
 70
    32
  0
VERTEX
  5
2B1
  8
TEAM-NET
 10
-246.365495
 20
-457.371904
 30
766.012492
 70
    32
  0
VERTEX
  5
2B2
  8
TEAM-NET
 10
-250.582811
 20
-458.608643
 30
768.316048
 70
    32
  0
VERTEX
  5
2B3
  8
TEAM-NET
 10
-253.052148
 20
-459.811313
 30
770.65157
 70
    32
  0
VERTEX
  5
2B4
  8
TEAM-NET
 10
-254.439866
 20
-460.97877
 30
773.018305
 70
    32
  0
VERTEX
  5
2B5
  8
TEAM-NET
 10
-256.326051
 20
-463.203551
 30
777.842284
 70
    32
  0
VERTEX
  5
2B6
  8
TEAM-NET
 10
-259.788738
 20
-467.184166
 30
787.825849
 70
    32
  0
VERTEX
  5
2B7
  8
TEAM-NET
 10
-480.324913
 20
-470.489452
 30
798.202796
 70
    32
  0
VERTEX
  5
2B8
  8
TEAM-NET
 10
-482.960444
 20
-473.070944
 30
808.917464
 70
    32
  0
VERTEX
  5
2B9
  8
TEAM-NET
 10
-485.145019
 20
-474.897795
 30
820.000897
 70
    32
  0
SEQEND
  5
2BA
  8
TEAM-NET
  0
POLYLINE
  5
2BB
  8
TEAM-NET
 66
     1
 10
0.0
 20
0.0
 30
0.0
 70
     8
  0
VERTEX
  5
2BC
  8
TEAM-NET
 10
-190.744937
 20
-378.334473
 30
696.989466
 70
    32
  0
VERTEX
  5
2BD
  8
TEAM-NET
 10
-199.916167
 20
-396.583295
 30
705.408359
 70
    32
  0
VERTEX
  5
2BE
  8
TEAM-NET
 10
-209.667996
 20
-413.160304
 30
715.862148
 70
    32
  0
VERTEX
  5
2BF
  8
TEAM-NET
 10
-219.501665
 20
-428.232282
 30
728.333406
 70
    32
  0
VERTEX
  5
2C0
  8
TEAM-NET
 10
-229.032596
 20
-441.750003
 30
742.839454
 70
    32
  0
VERTEX
  5
2C1
  8
TEAM-NET
 10
-233.558737
 20
-447.848486
 30
750.827845
 70
    32
  0
VERTEX
  5
2C2
  8
TEAM-NET
 10
-236.167163
 20
-450.717587
 30
754.999944
 70
    32
  0
VERTEX
  5
2C3
  8
TEAM-NET
 10
-238.327283
 20
-451.415972
 30
756.062175
 70
    32
  0
VERTEX
  5
2C4
  8
TEAM-NET
 10
-242.515411
 20
-452.107263
 30
757.132985
 70
    32
  0
VERTEX
  5
2C5
  8
TEAM-NET
 10
-209.35786
 20
-452.791561
 30
758.212668
 70
    32
  0
VERTEX
  5
2C6
  8
TEAM-NET
 10
-216.653997
 20
-453.468704
 30
759.30117
 70
    32
  0
VERTEX
  5
2C7
  8
TEAM-NET
 10
-223.801826
 20
-454.138504
 30
760.398408
 70
    32
  0
VERTEX
  5
2C8
  8
TEAM-NET
 10
-230.021497
 20
-454.80079
 30
761.504298
 70
    32
  0
VERTEX
  5
2C9
  8
TEAM-NET
 10
-235.304404
 20
-455.455416
 30
762.618746
 70
    32
  0
VERTEX
  5
2CA
  8
TEAM-NET
 10
-239.733843
 20
-456.102239
 30
763.741657
 70
    32
  0
VERTEX
  5
2CB
  8
TEAM-NET
 10
-246.365495
 20
-457.371904
 30
766.012492
 70
    32
  0
VERTEX
  5
2CC
  8
TEAM-NET
 10
-250.582811
 20
-458.608643
 30
768.316048
 70
    32
  0
VERTEX
  5
2CD
  8
TEAM-NET
 10
-253.052148
 20
-459.811313
 30
770.65157
 70
    32
  0
VERTEX
  5
2CE
  8
TEAM-NET
 10
-254.439866
 20
-460.97877
 30
773.018305
 70
    32
  0
VERTEX
  5
2CF
  8
TEAM-NET
 10
-256.326051
 20
-463.203551
 30
777.842284
 70
    32
  0
VERTEX
  5
2D0
  8
TEAM-NET
 10
-259.788738
 20
-467.184166
 30
787.825849
 70
    32
  0
VERTEX
  5
2D1
  8
TEAM-NET
 10
-480.324913
 20
-470.489452
 30
798.202796
 70
    32
  0
VERTEX
  5
2D2
  8
TEAM-NET
 10
-482.960444
 20
-473.070944
 30
808.917464
 70
    32
  0
VERTEX
  5
2D3
  8
TEAM-NET
 10
-485.145019
 20
-474.897795
 30
820.000897
 70
    32
  0
SEQEND
  5
2D4
  8
TEAM-NET
  0
POLYLINE
  5
2D5
  8
TEAM-NET
 66
     1
 10
0.0
 20
0.0
 30
0.0
 70
     8
  0
VERTEX
  5
2D6
  8
TEAM-NET
 10
-90.89494
 20
-394.455006
 30
721.334742
 70
    32
  0
VERTEX
  5
2D7
  8
TEAM-NET
 10
-104.048511
 20
-394.81917
 30
721.932346
 70
    32
  0
VERTEX
  5
2D8
  8
TEAM-NET
 10
-107.385406
 20
-395.023109
 30
722.268939
 70
    32
  0
VERTEX
  5
2D9
  8
TEAM-NET
 10
-109.526884
 20
-395.141743
 30
722.465285
 70
    32
  0
VERTEX
  5
2DA
  8
TEAM-NET
 10
-112.637532
 20
-395.271281
 30
722.680202
 70
    32
  0
VERTEX
  5
2DB
  8
TEAM-NET
 10
-117.240276
 20
-395.411557
 30
722.913587
 70
    32
  0
VERTEX
  5
2DC
  8
TEAM-NET
 10
-123.85804
 20
-395.562409
 30
723.165336
 70
    32
  0
VERTEX
  5
2DD
  8
TEAM-NET
 10
-133.013747
 20
-395.723673
 30
723.435347
 70
    32
  0
VERTEX
  5
2DE
  8
TEAM-NET
 10
-138.706744
 20
-395.808157
 30
723.577169
 70
    32
  0
VERTEX
  5
2DF
  8
TEAM-NET
 10
-145.230324
 20
-395.895183
 30
723.723517
 70
    32
  0
VERTEX
  5
2E0
  8
TEAM-NET
 10
-152.649851
 20
-395.98473
 30
723.874378
 70
    32
  0
VERTEX
  5
2E1
  8
TEAM-NET
 10
-161.030693
 20
-396.076778
 30
724.029741
 70
    32
  0
VERTEX
  5
2E2
  8
TEAM-NET
 10
-170.438214
 20
-396.171305
 30
724.189591
 70
    32
  0
VERTEX
  5
2E3
  8
TEAM-NET
 10
-180.93778
 20
-396.268292
 30
724.353916
 70
    32
  0
VERTEX
  5
2E4
  8
TEAM-NET
 10
-192.589629
 20
-396.367717
 30
724.522703
 70
    32
  0
VERTEX
  5
2E5
  8
TEAM-NET
 10
-205.284027
 20
-396.469557
 30
724.695936
 70
    32
  0
VERTEX
  5
2E6
  8
TEAM-NET
 10
-232.52866
 20
-396.680354
 30
725.055647
 70
    32
  0
VERTEX
  5
2E7
  8
TEAM-NET
 10
-260.066825
 20
-396.900439
 30
725.432873
 70
    32
  0
VERTEX
  5
2E8
  8
TEAM-NET
 10
-95.097879
 20
-397.013887
 30
725.627999
 70
    32
  0
VERTEX
  5
2E9
  8
TEAM-NET
 10
-107.251167
 20
-397.129564
 30
725.827437
 70
    32
  0
VERTEX
  5
2EA
  8
TEAM-NET
 10
-118.169289
 20
-397.24744
 30
726.031165
 70
    32
  0
VERTEX
  5
2EB
  8
TEAM-NET
 10
-127.527129
 20
-397.367484
 30
726.239161
 70
    32
  0
VERTEX
  5
2EC
  8
TEAM-NET
 10
-135.176552
 20
-397.489663
 30
726.451401
 70
    32
  0
VERTEX
  5
2ED
  8
TEAM-NET
 10
-141.281878
 20
-397.613943
 30
726.667854
 70
    32
  0
VERTEX
  5
2EE
  8
TEAM-NET
 10
-146.03931
 20
-397.740289
 30
726.888491
 70
    32
  0
VERTEX
  5
2EF
  8
TEAM-NET
 10
-149.645054
 20
-397.868665
 30
727.113282
 70
    32
  0
VERTEX
  5
2F0
  8
TEAM-NET
 10
-152.295313
 20
-397.999037
 30
727.342198
 70
    32
  0
VERTEX
  5
2F1
  8
TEAM-NET
 10
-154.186292
 20
-398.13137
 30
727.575208
 70
    32
  0
VERTEX
  5
2F2
  8
TEAM-NET
 10
-156.475228
 20
-398.401775
 30
728.053391
 70
    32
  0
VERTEX
  5
2F3
  8
TEAM-NET
 10
-158.032839
 20
-398.67961
 30
728.547613
 70
    32
  0
VERTEX
  5
2F4
  8
TEAM-NET
 10
-164.105316
 20
-399.863864
 30
730.688255
 70
    32
  0
VERTEX
  5
2F5
  8
TEAM-NET
 10
-175.915915
 20
-402.547454
 30
735.757416
 70
    32
  0
VERTEX
  5
2F6
  8
TEAM-NET
 10
-187.196817
 20
-405.548545
 30
741.83215
 70
    32
  0
VERTEX
  5
2F7
  8
TEAM-NET
 10
-197.850687
 20
-408.736547
 30
748.843422
 70
    32
  0
VERTEX
  5
2F8
  8
TEAM-NET
 10
-207.783955
 20
-411.979876
 30
756.710005
 70
    32
  0
VERTEX
  5
2F9
  8
TEAM-NET
 10
-217.003268
 20
-415.183189
 30
765.424158
 70
    32
  0
VERTEX
  5
2FA
  8
TEAM-NET
 10
-225.491968
 20
-418.253353
 30
774.992188
 70
    32
  0
VERTEX
  5
2FB
  8
TEAM-NET
 10
-233.14504
 20
-421.070639
 30
785.33072
 70
    32
  0
VERTEX
  5
2FC
  8
TEAM-NET
 10
-239.872021
 20
-423.525531
 30
796.34304
 70
    32
  0
VERTEX
  5
2FD
  8
TEAM-NET
 10
-245.615856
 20
-425.528083
 30
807.96074
 70
    32
  0
VERTEX
  5
2FE
  8
TEAM-NET
 10
-250.342433
 20
-427.003266
 30
820.170776
 70
    32
  0
VERTEX
  5
2FF
  8
TEAM-NET
 10
-253.958593
 20
-427.865414
 30
832.800646
 70
    32
  0
VERTEX
  5
300
  8
TEAM-NET
 10
-256.4179
 20
-428.058313
 30
845.712057
 70
    32
  0
SEQEND
  5
301
  8
TEAM-NET
  0
POLYLINE
  5
302
  8
TEAM-NET
 66
     1
 10
0.0
 20
0.0
 30
0.0
 70
     8
  0
VERTEX
  5
303
  8
TEAM-NET
 10
-90.89494
 20
-394.455006
 30
721.334742
 70
    32
  0
VERTEX
  5
304
  8
TEAM-NET
 10
-104.048511
 20
-394.81917
 30
721.932346
 70
    32
  0
VERTEX
  5
305
  8
TEAM-NET
 10
-107.385406
 20
-395.023109
 30
722.268939
 70
    32
  0
VERTEX
  5
306
  8
TEAM-NET
 10
-109.526884
 20
-395.141743
 30
722.465285
 70
    32
  0
VERTEX
  5
307
  8
TEAM-NET
 10
-112.637532
 20
-395.271281
 30
722.680202
 70
    32
  0
VERTEX
  5
308
  8
TEAM-NET
 10
-117.240276
 20
-395.411557
 30
722.913587
 70
    32
  0
VERTEX
  5
309
  8
TEAM-NET
 10
-123.85804
 20
-395.562409
 30
723.165336
 70
    32
  0
VERTEX
  5
30A
  8
TEAM-NET
 10
-133.013747
 20
-395.723673
 30
723.435347
 70
    32
  0
VERTEX
  5
30B
  8
TEAM-NET
 10
-138.706744
 20
-395.808157
 30
723.577169
 70
    32
  0
VERTEX
  5
30C
  8
TEAM-NET
 10
-145.230324
 20
-395.895183
 30
723.723517
 70
    32
  0
VERTEX
  5
30D
  8
TEAM-NET
 10
-152.649851
 20
-395.98473
 30
723.874378
 70
    32
  0
VERTEX
  5
30E
  8
TEAM-NET
 10
-161.030693
 20
-396.076778
 30
724.029741
 70
    32
  0
VERTEX
  5
30F
  8
TEAM-NET
 10
-170.438214
 20
-396.171305
 30
724.189591
 70
    32
  0
VERTEX
  5
310
  8
TEAM-NET
 10
-180.93778
 20
-396.268292
 30
724.353916
 70
    32
  0
VERTEX
  5
311
  8
TEAM-NET
 10
-192.589629
 20
-396.367717
 30
724.522703
 70
    32
  0
VERTEX
  5
312
  8
TEAM-NET
 10
-205.284027
 20
-396.469557
 30
724.695936
 70
    32
  0
VERTEX
  5
313
  8
TEAM-NET
 10
-232.52866
 20
-396.680354
 30
725.055647
 70
    32
  0
VERTEX
  5
314
  8
TEAM-NET
 10
-260.066825
 20
-396.900439
 30
725.432873
 70
    32
  0
VERTEX
  5
315
  8
TEAM-NET
 10
-95.097879
 20
-397.013887
 30
725.627999
 70
    32
  0
VERTEX
  5
316
  8
TEAM-NET
 10
-107.251167
 20
-397.129564
 30
725.827437
 70
    32
  0
VERTEX
  5
317
  8
TEAM-NET
 10
-118.169289
 20
-397.24744
 30
726.031165
 70
    32
  0
VERTEX
  5
318
  8
TEAM-NET
 10
-127.527129
 20
-397.367484
 30
726.239161
 70
    32
  0
VERTEX
  5
319
  8
TEAM-NET
 10
-135.176552
 20
-397.489663
 30
726.451401
 70
    32
  0
VERTEX
  5
31A
  8
TEAM-NET
 10
-141.281878
 20
-397.613943
 30
726.667854
 70
    32
  0
VERTEX
  5
31B
  8
TEAM-NET
 10
-146.03931
 20
-397.740289
 30
726.888491
 70
    32
  0
VERTEX
  5
31C
  8
TEAM-NET
 10
-149.645054
 20
-397.868665
 30
727.113282
 70
    32
  0
VERTEX
  5
31D
  8
TEAM-NET
 10
-152.295313
 20
-397.999037
 30
727.342198
 70
    32
  0
VERTEX
  5
31E
  8
TEAM-NET
 10
-154.186292
 20
-398.13137
 30
727.575208
 70
    32
  0
VERTEX
  5
31F
  8
TEAM-NET
 10
-156.475228
 20
-398.401775
 30
728.053391
 70
    32
  0
VERTEX
  5
320
  8
TEAM-NET
 10
-158.032839
 20
-398.67961
 30
728.547613
 70
    32
  0
VERTEX
  5
321
  8
TEAM-NET
 10
-164.105316
 20
-399.863864
 30
730.688255
 70
    32
  0
VERTEX
  5
322
  8
TEAM-NET
 10
-175.915915
 20
-402.547454
 30
735.757416
 70
    32
  0
VERTEX
  5
323
  8
TEAM-NET
 10
-187.196817
 20
-405.548545
 30
741.83215
 70
    32
  0
VERTEX
  5
324
  8
TEAM-NET
 10
-197.850687
 20
-408.736547
 30
748.843422
 70
    32
  0
VERTEX
  5
325
  8
TEAM-NET
 10
-207.783955
 20
-411.979876
 30
756.710005
 70
    32
  0
VERTEX
  5
326
  8
TEAM-NET
 10
-217.003268
 20
-415.183189
 30
765.424158
 70
    32
  0
VERTEX
  5
327
  8
TEAM-NET
 10
-225.491968
 20
-418.253353
 30
774.992188
 70
    32
  0
VERTEX
  5
328
  8
TEAM-NET
 10
-233.14504
 20
-421.070639
 30
785.33072
 70
    32
  0
VERTEX
  5
329
  8
TEAM-NET
 10
-239.872021
 20
-423.525531
 30
796.34304
 70
    32
  0
VERTEX
  5
32A
  8
TEAM-NET
 10
-245.615856
 20
-425.528083
 30
807.96074
 70
    32
  0
VERTEX
  5
32B
  8
TEAM-NET
 10
-250.342433
 20
-427.003266
 30
820.170776
 70
    32
  0
VERTEX
  5
32C
  8
TEAM-NET
 10
-253.958593
 20
-427.865414
 30
832.800646
 70
    32
  0
VERTEX
  5
32D
  8
TEAM-NET
 10
-256.4179
 20
-428.058313
 30
845.712057
 70
    32
  0
SEQEND
  5
32E
  8
TEAM-NET
  0
POLYLINE
  5
32F
  8
TEAM-NET
 66
     1
 10
0.0
 20
0.0
 30
0.0
 70
     8
  0
VERTEX
  5
330
  8
TEAM-NET
 10
-514.999997
 20
-445.389815
 30
820.000891
 70
    32
  0
VERTEX
  5
331
  8
TEAM-NET
 10
-512.500345
 20
-444.048249
 30
809.210524
 70
    32
  0
VERTEX
  5
332
  8
TEAM-NET
 10
-509.440259
 20
-442.07327
 30
798.774004
 70
    32
  0
VERTEX
  5
333
  8
TEAM-NET
 10
-505.84548
 20
-439.494706
 30
788.671831
 70
    32
  0
VERTEX
  5
334
  8
TEAM-NET
 10
-503.849012
 20
-437.989756
 30
783.756253
 70
    32
  0
VERTEX
  5
335
  8
TEAM-NET
 10
-502.53854
 20
-437.185886
 30
781.336097
 70
    32
  0
VERTEX
  5
336
  8
TEAM-NET
 10
-500.449106
 20
-436.348838
 30
778.94237
 70
    32
  0
VERTEX
  5
337
  8
TEAM-NET
 10
-497.083702
 20
-435.479441
 30
776.57605
 70
    32
  0
VERTEX
  5
338
  8
TEAM-NET
 10
-491.945322
 20
-434.578525
 30
774.238117
 70
    32
  0
VERTEX
  5
339
  8
TEAM-NET
 10
-306.685566
 20
-433.646934
 30
771.929521
 70
    32
  0
VERTEX
  5
33A
  8
TEAM-NET
 10
-297.967282
 20
-432.685601
 30
769.651064
 70
    32
  0
VERTEX
  5
33B
  8
TEAM-NET
 10
-279.654759
 20
-430.67754
 30
765.187566
 70
    32
  0
VERTEX
  5
33C
  8
TEAM-NET
 10
-271.855929
 20
-429.63273
 30
763.00403
 70
    32
  0
VERTEX
  5
33D
  8
TEAM-NET
 10
-266.158995
 20
-428.562013
 30
760.853637
 70
    32
  0
VERTEX
  5
33E
  8
TEAM-NET
 10
-263.212214
 20
-427.466372
 30
758.737131
 70
    32
  0
VERTEX
  5
33F
  8
TEAM-NET
 10
-261.791825
 20
-426.346959
 30
756.655178
 70
    32
  0
VERTEX
  5
340
  8
TEAM-NET
 10
-259.181084
 20
-424.03596
 30
752.588541
 70
    32
  0
VERTEX
  5
341
  8
TEAM-NET
 10
-253.760947
 20
-419.114511
 30
744.805479
 70
    32
  0
VERTEX
  5
342
  8
TEAM-NET
 10
-242.31653
 20
-408.16989
 30
730.678022
 70
    32
  0
VERTEX
  5
343
  8
TEAM-NET
 10
-230.479415
 20
-395.931585
 30
718.543994
 70
    32
  0
VERTEX
  5
344
  8
TEAM-NET
 10
-218.730263
 20
-382.452381
 30
708.392747
 70
    32
  0
VERTEX
  5
345
  8
TEAM-NET
 10
-207.67863
 20
-367.591569
 30
700.236114
 70
    32
  0
SEQEND
  5
346
  8
TEAM-NET
  0
POLYLINE
  5
347
  8
TEAM-NET
 66
     1
 10
0.0
 20
0.0
 30
0.0
 70
     8
  0
VERTEX
  5
348
  8
TEAM-NET
 10
-514.999997
 20
-445.389815
 30
820.000891
 70
    32
  0
VERTEX
  5
349
  8
TEAM-NET
 10
-512.500345
 20
-444.048249
 30
809.210524
 70
    32
  0
VERTEX
  5
34A
  8
TEAM-NET
 10
-509.440259
 20
-442.07327
 30
798.774004
 70
    32
  0
VERTEX
  5
34B
  8
TEAM-NET
 10
-505.84548
 20
-439.494706
 30
788.671831
 70
    32
  0
VERTEX
  5
34C
  8
TEAM-NET
 10
-503.849012
 20
-437.989756
 30
783.756253
 70
    32
  0
VERTEX
  5
34D
  8
TEAM-NET
 10
-502.53854
 20
-437.185886
 30
781.336097
 70
    32
  0
VERTEX
  5
34E
  8
TEAM-NET
 10
-500.449106
 20
-436.348838
 30
778.94237
 70
    32
  0
VERTEX
  5
34F
  8
TEAM-NET
 10
-497.083702
 20
-435.479441
 30
776.57605
 70
    32
  0
VERTEX
  5
350
  8
TEAM-NET
 10
-491.945322
 20
-434.578525
 30
774.238117
 70
    32
  0
VERTEX
  5
351
  8
TEAM-NET
 10
-306.685566
 20
-433.646934
 30
771.929521
 70
    32
  0
VERTEX
  5
352
  8
TEAM-NET
 10
-297.967282
 20
-432.685601
 30
769.651064
 70
    32
  0
VERTEX
  5
353
  8
TEAM-NET
 10
-279.654759
 20
-430.67754
 30
765.187566
 70
    32
  0
VERTEX
  5
354
  8
TEAM-NET
 10
-271.855929
 20
-429.63273
 30
763.00403
 70
    32
  0
VERTEX
  5
355
  8
TEAM-NET
 10
-266.158995
 20
-428.562013
 30
760.853637
 70
    32
  0
VERTEX
  5
356
  8
TEAM-NET
 10
-263.212214
 20
-427.466372
 30
758.737131
 70
    32
  0
VERTEX
  5
357
  8
TEAM-NET
 10
-261.791825
 20
-426.346959
 30
756.655178
 70
    32
  0
VERTEX
  5
358
  8
TEAM-NET
 10
-259.181084
 20
-424.03596
 30
752.588541
 70
    32
  0
VERTEX
  5
359
  8
TEAM-NET
 10
-253.760947
 20
-419.114511
 30
744.805479
 70
    32
  0
VERTEX
  5
35A
  8
TEAM-NET
 10
-242.31653
 20
-408.16989
 30
730.678022
 70
    32
  0
VERTEX
  5
35B
  8
TEAM-NET
 10
-230.479415
 20
-395.931585
 30
718.543994
 70
    32
  0
VERTEX
  5
35C
  8
TEAM-NET
 10
-218.730263
 20
-382.452381
 30
708.392747
 70
    32
  0
VERTEX
  5
35D
  8
TEAM-NET
 10
-207.67863
 20
-367.591569
 30
700.236114
 70
    32
  0
SEQEND
  5
35E
  8
TEAM-NET
  0
ARC
  5
35F
  8
TEAM-NET
 10
-93.114233
 20
893.13219
 30
123.440306
 40
156.813153
210
0.0
220
-1.0
230
0.0
 50
200.974712
 51
270.810904
  0
ARC
  5
360
  8
TEAM-NET
 10
93.114233
 20
893.13219
 30
-123.440306
 40
156.813153
210
0.0
220
1.0
230
0.0
 50
269.189096
 51
339.025288
  0
ARC
  5
361
  8
TEAM-NET
 10
-93.406787
 20
890.370002
 30
138.440306
 40
169.053923
210
0.0
220
-1.0
230
0.0
 50
195.419102
 51
270.851347
  0
ARC
  5
362
  8
TEAM-NET
 10
-93.406787
 20
890.370002
 30
138.440306
 40
169.053923
210
0.0
220
-1.0
230
0.0
 50
195.419102
 51
270.851347
  0
ARC
  5
363
  8
TEAM-NET
 10
12.280463
 20
1655.817956
 30
1.559694
 40
975.354858
210
0.0
220
1.0
230
0.0
 50
281.556577
 51
301.025679
  0
ARC
  5
364
  8
TEAM-NET
 10
12.280463
 20
1655.817956
 30
1.559694
 40
975.354858
210
0.0
220
1.0
230
0.0
 50
281.556577
 51
301.025679
  0
LINE
  5
365
  8
TEAM-NET
 10
-181.969739
 20
-33.440306
 30
702.0
 11
-181.969739
 21
-33.440306
 31
840.0
210
0.0
220
-1.0
230
0.0
  0
LINE
  5
366
  8
TEAM-NET
 10
-181.969739
 20
-33.440306
 30
702.0
 11
-181.969739
 21
-33.440306
 31
840.0
210
1.0
220
0.0
230
0.0
  0
LINE
  5
367
  8
TEAM-NET
 10
-181.969739
 20
-108.440306
 30
702.0
 11
-181.969739
 21
-108.440306
 31
840.0
210
1.0
220
0.0
230
0.0
  0
LINE
  5
368
  8
TEAM-NET
 10
-181.969739
 20
-108.440306
 30
702.0
 11
-181.969739
 21
-108.440306
 31
840.0
210
0.0
220
1.0
230
0.0
  0
POLYLINE
  5
369
  8
TEAM-NET
 66
     1
 10
0.0
 20
0.0
 30
0.0
 70
     8
  0
VERTEX
  5
36A
  8
TEAM-NET
 10
254.164366
 20
-428.058313
 30
845.712057
 70
    32
  0
VERTEX
  5
36B
  8
TEAM-NET
 10
251.705138
 20
-427.865457
 30
832.800623
 70
    32
  0
VERTEX
  5
36C
  8
TEAM-NET
 10
248.088523
 20
-427.003121
 30
820.170266
 70
    32
  0
VERTEX
  5
36D
  8
TEAM-NET
 10
243.362658
 20
-425.52822
 30
807.961157
 70
    32
  0
VERTEX
  5
36E
  8
TEAM-NET
 10
237.618512
 20
-423.525545
 30
796.342991
 70
    32
  0
VERTEX
  5
36F
  8
TEAM-NET
 10
230.891462
 20
-421.070615
 30
785.330672
 70
    32
  0
VERTEX
  5
370
  8
TEAM-NET
 10
223.238369
 20
-418.253332
 30
774.992136
 70
    32
  0
VERTEX
  5
371
  8
TEAM-NET
 10
214.74973
 20
-415.183185
 30
765.424243
 70
    32
  0
VERTEX
  5
372
  8
TEAM-NET
 10
205.530525
 20
-411.979894
 30
756.710071
 70
    32
  0
VERTEX
  5
373
  8
TEAM-NET
 10
195.596776
 20
-408.736499
 30
748.84336
 70
    32
  0
VERTEX
  5
374
  8
TEAM-NET
 10
184.943538
 20
-405.548618
 30
741.832375
 70
    32
  0
VERTEX
  5
375
  8
TEAM-NET
 10
173.662305
 20
-402.547426
 30
735.757332
 70
    32
  0
VERTEX
  5
376
  8
TEAM-NET
 10
161.851779
 20
-399.863885
 30
730.688319
 70
    32
  0
VERTEX
  5
377
  8
TEAM-NET
 10
155.779398
 20
-398.679655
 30
728.547695
 70
    32
  0
VERTEX
  5
378
  8
TEAM-NET
 10
154.07709
 20
-398.401799
 30
728.053439
 70
    32
  0
VERTEX
  5
379
  8
TEAM-NET
 10
151.791912
 20
-398.265621
 30
727.812279
 70
    32
  0
VERTEX
  5
37A
  8
TEAM-NET
 10
149.652657
 20
-398.198237
 30
727.693207
 70
    32
  0
VERTEX
  5
37B
  8
TEAM-NET
 10
146.587295
 20
-398.131331
 30
727.575148
 70
    32
  0
VERTEX
  5
37C
  8
TEAM-NET
 10
142.39958
 20
-398.064908
 30
727.458109
 70
    32
  0
VERTEX
  5
37D
  8
TEAM-NET
 10
136.893264
 20
-397.998973
 30
727.342094
 70
    32
  0
VERTEX
  5
37E
  8
TEAM-NET
 10
129.872101
 20
-397.933532
 30
727.22711
 70
    32
  0
VERTEX
  5
37F
  8
TEAM-NET
 10
121.156259
 20
-397.86859
 30
727.113161
 70
    32
  0
VERTEX
  5
380
  8
TEAM-NET
 10
110.839776
 20
-397.804152
 30
727.000252
 70
    32
  0
VERTEX
  5
381
  8
TEAM-NET
 10
99.242961
 20
-397.740222
 30
726.888385
 70
    32
  0
VERTEX
  5
382
  8
TEAM-NET
 10
253.800526
 20
-397.613898
 30
726.667787
 70
    32
  0
VERTEX
  5
383
  8
TEAM-NET
 10
226.878149
 20
-397.489646
 30
726.451383
 70
    32
  0
VERTEX
  5
384
  8
TEAM-NET
 10
201.376414
 20
-397.367495
 30
726.239192
 70
    32
  0
VERTEX
  5
385
  8
TEAM-NET
 10
189.970828
 20
-397.307216
 30
726.134682
 70
    32
  0
VERTEX
  5
386
  8
TEAM-NET
 10
179.720783
 20
-397.247472
 30
726.031232
 70
    32
  0
VERTEX
  5
387
  8
TEAM-NET
 10
170.572976
 20
-397.188269
 30
725.928846
 70
    32
  0
VERTEX
  5
388
  8
TEAM-NET
 10
162.461995
 20
-397.12961
 30
725.827525
 70
    32
  0
VERTEX
  5
389
  8
TEAM-NET
 10
155.322426
 20
-397.071499
 30
725.727275
 70
    32
  0
VERTEX
  5
38A
  8
TEAM-NET
 10
149.088856
 20
-397.01394
 30
725.628097
 70
    32
  0
VERTEX
  5
38B
  8
TEAM-NET
 10
143.695873
 20
-396.956937
 30
725.529994
 70
    32
  0
VERTEX
  5
38C
  8
TEAM-NET
 10
139.078063
 20
-396.900494
 30
725.43297
 70
    32
  0
VERTEX
  5
38D
  8
TEAM-NET
 10
131.90631
 20
-396.789303
 30
725.242169
 70
    32
  0
VERTEX
  5
38E
  8
TEAM-NET
 10
127.050294
 20
-396.6804
 30
725.05572
 70
    32
  0
VERTEX
  5
38F
  8
TEAM-NET
 10
123.986711
 20
-396.573817
 30
724.873645
 70
    32
  0
VERTEX
  5
390
  8
TEAM-NET
 10
122.192254
 20
-396.469585
 30
724.69597
 70
    32
  0
VERTEX
  5
391
  8
TEAM-NET
 10
120.333834
 20
-396.268303
 30
724.353915
 70
    32
  0
VERTEX
  5
392
  8
TEAM-NET
 10
117.10844
 20
-395.89518
 30
723.723485
 70
    32
  0
VERTEX
  5
393
  8
TEAM-NET
 10
104.048531
 20
-394.819202
 30
721.9324
 70
    32
  0
VERTEX
  5
394
  8
TEAM-NET
 10
90.89494
 20
-394.455006
 30
721.334742
 70
    32
  0
SEQEND
  5
395
  8
TEAM-NET
  0
POLYLINE
  5
396
  8
TEAM-NET
 66
     1
 10
0.0
 20
0.0
 30
0.0
 70
     8
  0
VERTEX
  5
397
  8
TEAM-NET
 10
254.164366
 20
-428.058313
 30
845.712057
 70
    32
  0
VERTEX
  5
398
  8
TEAM-NET
 10
251.705138
 20
-427.865457
 30
832.800623
 70
    32
  0
VERTEX
  5
399
  8
TEAM-NET
 10
248.088523
 20
-427.003121
 30
820.170266
 70
    32
  0
VERTEX
  5
39A
  8
TEAM-NET
 10
243.362658
 20
-425.52822
 30
807.961157
 70
    32
  0
VERTEX
  5
39B
  8
TEAM-NET
 10
237.618512
 20
-423.525545
 30
796.342991
 70
    32
  0
VERTEX
  5
39C
  8
TEAM-NET
 10
230.891462
 20
-421.070615
 30
785.330672
 70
    32
  0
VERTEX
  5
39D
  8
TEAM-NET
 10
223.238369
 20
-418.253332
 30
774.992136
 70
    32
  0
VERTEX
  5
39E
  8
TEAM-NET
 10
214.74973
 20
-415.183185
 30
765.424243
 70
    32
  0
VERTEX
  5
39F
  8
TEAM-NET
 10
205.530525
 20
-411.979894
 30
756.710071
 70
    32
  0
VERTEX
  5
3A0
  8
TEAM-NET
 10
195.596776
 20
-408.736499
 30
748.84336
 70
    32
  0
VERTEX
  5
3A1
  8
TEAM-NET
 10
184.943538
 20
-405.548618
 30
741.832375
 70
    32
  0
VERTEX
  5
3A2
  8
TEAM-NET
 10
173.662305
 20
-402.547426
 30
735.757332
 70
    32
  0
VERTEX
  5
3A3
  8
TEAM-NET
 10
161.851779
 20
-399.863885
 30
730.688319
 70
    32
  0
VERTEX
  5
3A4
  8
TEAM-NET
 10
155.779398
 20
-398.679655
 30
728.547695
 70
    32
  0
VERTEX
  5
3A5
  8
TEAM-NET
 10
154.07709
 20
-398.401799
 30
728.053439
 70
    32
  0
VERTEX
  5
3A6
  8
TEAM-NET
 10
151.791912
 20
-398.265621
 30
727.812279
 70
    32
  0
VERTEX
  5
3A7
  8
TEAM-NET
 10
149.652657
 20
-398.198237
 30
727.693207
 70
    32
  0
VERTEX
  5
3A8
  8
TEAM-NET
 10
146.587295
 20
-398.131331
 30
727.575148
 70
    32
  0
VERTEX
  5
3A9
  8
TEAM-NET
 10
142.39958
 20
-398.064908
 30
727.458109
 70
    32
  0
VERTEX
  5
3AA
  8
TEAM-NET
 10
136.893264
 20
-397.998973
 30
727.342094
 70
    32
  0
VERTEX
  5
3AB
  8
TEAM-NET
 10
129.872101
 20
-397.933532
 30
727.22711
 70
    32
  0
VERTEX
  5
3AC
  8
TEAM-NET
 10
121.156259
 20
-397.86859
 30
727.113161
 70
    32
  0
VERTEX
  5
3AD
  8
TEAM-NET
 10
110.839776
 20
-397.804152
 30
727.000252
 70
    32
  0
VERTEX
  5
3AE
  8
TEAM-NET
 10
99.242961
 20
-397.740222
 30
726.888385
 70
    32
  0
VERTEX
  5
3AF
  8
TEAM-NET
 10
253.800526
 20
-397.613898
 30
726.667787
 70
    32
  0
VERTEX
  5
3B0
  8
TEAM-NET
 10
226.878149
 20
-397.489646
 30
726.451383
 70
    32
  0
VERTEX
  5
3B1
  8
TEAM-NET
 10
201.376414
 20
-397.367495
 30
726.239192
 70
    32
  0
VERTEX
  5
3B2
  8
TEAM-NET
 10
189.970828
 20
-397.307216
 30
726.134682
 70
    32
  0
VERTEX
  5
3B3
  8
TEAM-NET
 10
179.720783
 20
-397.247472
 30
726.031232
 70
    32
  0
VERTEX
  5
3B4
  8
TEAM-NET
 10
170.572976
 20
-397.188269
 30
725.928846
 70
    32
  0
VERTEX
  5
3B5
  8
TEAM-NET
 10
162.461995
 20
-397.12961
 30
725.827525
 70
    32
  0
VERTEX
  5
3B6
  8
TEAM-NET
 10
155.322426
 20
-397.071499
 30
725.727275
 70
    32
  0
VERTEX
  5
3B7
  8
TEAM-NET
 10
149.088856
 20
-397.01394
 30
725.628097
 70
    32
  0
VERTEX
  5
3B8
  8
TEAM-NET
 10
143.695873
 20
-396.956937
 30
725.529994
 70
    32
  0
VERTEX
  5
3B9
  8
TEAM-NET
 10
139.078063
 20
-396.900494
 30
725.43297
 70
    32
  0
VERTEX
  5
3BA
  8
TEAM-NET
 10
131.90631
 20
-396.789303
 30
725.242169
 70
    32
  0
VERTEX
  5
3BB
  8
TEAM-NET
 10
127.050294
 20
-396.6804
 30
725.05572
 70
    32
  0
VERTEX
  5
3BC
  8
TEAM-NET
 10
123.986711
 20
-396.573817
 30
724.873645
 70
    32
  0
VERTEX
  5
3BD
  8
TEAM-NET
 10
122.192254
 20
-396.469585
 30
724.69597
 70
    32
  0
VERTEX
  5
3BE
  8
TEAM-NET
 10
120.333834
 20
-396.268303
 30
724.353915
 70
    32
  0
VERTEX
  5
3BF
  8
TEAM-NET
 10
117.10844
 20
-395.89518
 30
723.723485
 70
    32
  0
VERTEX
  5
3C0
  8
TEAM-NET
 10
104.048531
 20
-394.819202
 30
721.9324
 70
    32
  0
VERTEX
  5
3C1
  8
TEAM-NET
 10
90.89494
 20
-394.455006
 30
721.334742
 70
    32
  0
SEQEND
  5
3C2
  8
TEAM-NET
  0
POLYLINE
  5
3C3
  8
TEAM-NET
 66
     1
 10
0.0
 20
0.0
 30
0.0
 70
     8
  0
VERTEX
  5
3C4
  8
TEAM-NET
 10
204.879812
 20
-367.591569
 30
699.244146
 70
    32
  0
VERTEX
  5
3C5
  8
TEAM-NET
 10
216.341303
 20
-381.114399
 30
706.743927
 70
    32
  0
VERTEX
  5
3C6
  8
TEAM-NET
 10
228.154794
 20
-393.589666
 30
716.015194
 70
    32
  0
VERTEX
  5
3C7
  8
TEAM-NET
 10
239.855474
 20
-405.136685
 30
727.106751
 70
    32
  0
VERTEX
  5
3C8
  8
TEAM-NET
 10
251.052829
 20
-415.696311
 30
740.066252
 70
    32
  0
VERTEX
  5
3C9
  8
TEAM-NET
 10
261.333156
 20
-425.076289
 30
754.860434
 70
    32
  0
VERTEX
  5
3CA
  8
TEAM-NET
 10
266.601475
 20
-429.288725
 30
762.997028
 70
    32
  0
VERTEX
  5
3CB
  8
TEAM-NET
 10
271.401677
 20
-431.261367
 30
767.252545
 70
    32
  0
VERTEX
  5
3CC
  8
TEAM-NET
 10
275.017671
 20
-432.211259
 30
769.424806
 70
    32
  0
VERTEX
  5
3CD
  8
TEAM-NET
 10
279.70582
 20
-433.135714
 30
771.625854
 70
    32
  0
VERTEX
  5
3CE
  8
TEAM-NET
 10
285.660032
 20
-434.033869
 30
773.855023
 70
    32
  0
VERTEX
  5
3CF
  8
TEAM-NET
 10
292.801984
 20
-434.904902
 30
776.111563
 70
    32
  0
VERTEX
  5
3D0
  8
TEAM-NET
 10
488.447315
 20
-436.562657
 30
780.703033
 70
    32
  0
VERTEX
  5
3D1
  8
TEAM-NET
 10
495.333279
 20
-437.347919
 30
783.036075
 70
    32
  0
VERTEX
  5
3D2
  8
TEAM-NET
 10
500.809442
 20
-438.103132
 30
785.39273
 70
    32
  0
VERTEX
  5
3D3
  8
TEAM-NET
 10
504.630999
 20
-438.827641
 30
787.772127
 70
    32
  0
VERTEX
  5
3D4
  8
TEAM-NET
 10
507.125118
 20
-439.520884
 30
790.173491
 70
    32
  0
VERTEX
  5
3D5
  8
TEAM-NET
 10
509.607874
 20
-440.811372
 30
795.039055
 70
    32
  0
VERTEX
  5
3D6
  8
TEAM-NET
 10
511.004287
 20
-441.971216
 30
799.98788
 70
    32
  0
VERTEX
  5
3D7
  8
TEAM-NET
 10
513.3561
 20
-443.892348
 30
810.174657
 70
    32
  0
SEQEND
  5
3D8
  8
TEAM-NET
  0
POLYLINE
  5
3D9
  8
TEAM-NET
 66
     1
 10
0.0
 20
0.0
 30
0.0
 70
     8
  0
VERTEX
  5
3DA
  8
TEAM-NET
 10
204.879812
 20
-367.591569
 30
699.244146
 70
    32
  0
VERTEX
  5
3DB
  8
TEAM-NET
 10
216.341303
 20
-381.114399
 30
706.743927
 70
    32
  0
VERTEX
  5
3DC
  8
TEAM-NET
 10
228.154794
 20
-393.589666
 30
716.015194
 70
    32
  0
VERTEX
  5
3DD
  8
TEAM-NET
 10
239.855474
 20
-405.136685
 30
727.106751
 70
    32
  0
VERTEX
  5
3DE
  8
TEAM-NET
 10
251.052829
 20
-415.696311
 30
740.066252
 70
    32
  0
VERTEX
  5
3DF
  8
TEAM-NET
 10
261.333156
 20
-425.076289
 30
754.860434
 70
    32
  0
VERTEX
  5
3E0
  8
TEAM-NET
 10
266.601475
 20
-429.288725
 30
762.997028
 70
    32
  0
VERTEX
  5
3E1
  8
TEAM-NET
 10
271.401677
 20
-431.261367
 30
767.252545
 70
    32
  0
VERTEX
  5
3E2
  8
TEAM-NET
 10
275.017671
 20
-432.211259
 30
769.424806
 70
    32
  0
VERTEX
  5
3E3
  8
TEAM-NET
 10
279.70582
 20
-433.135714
 30
771.625854
 70
    32
  0
VERTEX
  5
3E4
  8
TEAM-NET
 10
285.660032
 20
-434.033869
 30
773.855023
 70
    32
  0
VERTEX
  5
3E5
  8
TEAM-NET
 10
292.801984
 20
-434.904902
 30
776.111563
 70
    32
  0
VERTEX
  5
3E6
  8
TEAM-NET
 10
488.447315
 20
-436.562657
 30
780.703033
 70
    32
  0
VERTEX
  5
3E7
  8
TEAM-NET
 10
495.333279
 20
-437.347919
 30
783.036075
 70
    32
  0
VERTEX
  5
3E8
  8
TEAM-NET
 10
500.809442
 20
-438.103132
 30
785.39273
 70
    32
  0
VERTEX
  5
3E9
  8
TEAM-NET
 10
504.630999
 20
-438.827641
 30
787.772127
 70
    32
  0
VERTEX
  5
3EA
  8
TEAM-NET
 10
507.125118
 20
-439.520884
 30
790.173491
 70
    32
  0
VERTEX
  5
3EB
  8
TEAM-NET
 10
509.607874
 20
-440.811372
 30
795.039055
 70
    32
  0
VERTEX
  5
3EC
  8
TEAM-NET
 10
511.004287
 20
-441.971216
 30
799.98788
 70
    32
  0
VERTEX
  5
3ED
  8
TEAM-NET
 10
513.3561
 20
-443.892348
 30
810.174657
 70
    32
  0
SEQEND
  5
3EE
  8
TEAM-NET
  0
ARC
  5
3EF
  8
TEAM-NET
 10
92.900069
 20
890.19098
 30
123.440306
 40
153.869303
210
0.0
220
-1.0
230
0.0
 50
269.253336
 51
339.776118
  0
ARC
  5
3F0
  8
TEAM-NET
 10
-92.900069
 20
890.19098
 30
-123.440306
 40
153.869303
210
0.0
220
1.0
230
0.0
 50
200.223882
 51
270.746664
  0
ARC
  5
3F1
  8
TEAM-NET
 10
93.162697
 20
887.751892
 30
138.440306
 40
166.432601
210
0.0
220
-1.0
230
0.0
 50
269.219282
 51
345.265854
  0
ARC
  5
3F2
  8
TEAM-NET
 10
93.162697
 20
887.751892
 30
138.440306
 40
166.432601
210
0.0
220
-1.0
230
0.0
 50
269.219282
 51
345.265854
  0
ARC
  5
3F3
  8
TEAM-NET
 10
-46.042813
 20
1625.310804
 30
1.559694
 40
939.589617
210
0.0
220
1.0
230
0.0
 50
240.174578
 51
260.26745
  0
ARC
  5
3F4
  8
TEAM-NET
 10
-46.042813
 20
1625.310804
 30
1.559694
 40
939.589617
210
0.0
220
1.0
230
0.0
 50
240.174578
 51
260.26745
  0
LINE
  5
3F5
  8
TEAM-NET
 10
179.716205
 20
-33.440306
 30
702.0
 11
179.716205
 21
-33.440306
 31
840.0
210
0.0
220
-1.0
230
0.0
  0
LINE
  5
3F6
  8
TEAM-NET
 10
179.716205
 20
-108.440306
 30
702.0
 11
179.716205
 21
-108.440306
 31
840.0
210
-1.0
220
0.0
230
0.0
  0
LINE
  5
3F7
  8
TEAM-NET
 10
179.716205
 20
-33.440306
 30
702.0
 11
179.716205
 21
-33.440306
 31
840.0
210
-1.0
220
0.0
230
0.0
  0
LINE
  5
3F8
  8
TEAM-NET
 10
179.716205
 20
-108.440306
 30
702.0
 11
179.716205
 21
-108.440306
 31
840.0
210
0.0
220
1.0
230
0.0
  0
CIRCLE
  5
3F9
  8
TEAM-INSP
 10
0.0
 20
0.0
 30
0.0
 40
10.0
  0
LINE
  5
3FB
  8
TEAM-NET
 10
21.0
 20
-213.440306
 30
713.529763
 11
21.0
 21
-213.440306
 31
683.687382
  0
LINE
  5
3FC
  8
TEAM-NET
 10
-21.0
 20
-213.440306
 30
713.529763
 11
-21.0
 21
-213.440306
 31
683.687382
  0
LINE
  5
3FD
  8
TEAM-NET
 10
22.0
 20
-213.440306
 30
713.687382
 11
22.0
 21
-213.440306
 31
683.687382
  0
LINE
  5
3FE
  8
TEAM-NET
 10
-22.0
 20
-213.440306
 30
713.687382
 11
-22.0
 21
-213.440306
 31
683.687382
  0
LINE
  5
3FF
  8
TEAM-NET
 10
22.0
 20
-213.440306
 30
713.687382
 11
22.0
 21
-213.440306
 31
683.687382
  0
LINE
  5
400
  8
TEAM-NET
 10
-22.0
 20
-213.440306
 30
713.687382
 11
-22.0
 21
-213.440306
 31
683.687382
  0
LINE
  5
401
  8
TEAM-NET
 10
21.0
 20
-213.440306
 30
713.529763
 11
21.0
 21
-213.440306
 31
683.687382
  0
LINE
  5
402
  8
TEAM-NET
 10
-21.0
 20
-213.440306
 30
713.529763
 11
-21.0
 21
-213.440306
 31
683.687382
  0
LINE
  5
403
  8
TEAM-NET
 10
26.0
 20
-213.440306
 30
670.0
 11
26.0
 21
-213.440306
 31
714.092101
  0
LINE
  5
404
  8
TEAM-NET
 10
-26.0
 20
-213.440306
 30
670.0
 11
-26.0
 21
-213.440306
 31
714.092101
  0
LINE
  5
405
  8
TEAM-NET
 10
26.0
 20
-213.440306
 30
670.0
 11
26.0
 21
-213.440306
 31
714.092101
  0
LINE
  5
406
  8
TEAM-NET
 10
-26.0
 20
-213.440306
 30
670.0
 11
-26.0
 21
-213.440306
 31
714.092101
  0
LINE
  5
407
  8
TEAM-NET
 10
-3.506501
 20
-208.571584
 30
685.391501
 11
-3.506501
 21
-208.571584
 31
725.391501
210
0.702701
220
0.711485
230
0.0
  0
LINE
  5
408
  8
TEAM-NET
 10
4.868722
 20
-209.933805
 30
685.391501
 11
4.868722
 21
-209.933805
 31
725.391501
210
0.711485
220
-0.702701
230
0.0
  0
LINE
  5
409
  8
TEAM-NET
 10
3.506501
 20
-218.309027
 30
685.391501
 11
3.506501
 21
-218.309027
 31
725.391501
210
-0.702701
220
-0.711485
230
0.0
  0
LINE
  5
40A
  8
TEAM-NET
 10
-4.868722
 20
-216.946807
 30
725.391501
 11
-4.868722
 21
-216.946807
 31
685.391501
210
-0.711485
220
0.702701
230
-0.0
  0
LINE
  5
40B
  8
TEAM-NET
 10
4.911903
 20
-216.886057
 30
725.391501
 11
4.911903
 21
-216.886057
 31
685.391501
210
0.702701
220
0.711485
230
0.0
  0
LINE
  5
40C
  8
TEAM-NET
 10
-3.445752
 20
-218.352209
 30
725.391501
 11
-3.445752
 21
-218.352209
 31
685.391501
  0
LINE
  5
40D
  8
TEAM-NET
 10
3.506501
 20
-218.309027
 30
685.391501
 11
3.506501
 21
-218.309027
 31
725.391501
  0
LINE
  5
40E
  8
TEAM-NET
 10
3.445752
 20
-208.528402
 30
725.391501
 11
3.445752
 21
-208.528402
 31
685.391501
210
-0.711485
220
0.702701
230
-0.0
  0
LINE
  5
40F
  8
TEAM-NET
 10
4.868722
 20
-209.933805
 30
685.391501
 11
4.868722
 21
-209.933805
 31
725.391501
  0
LINE
  5
410
  8
TEAM-NET
 10
4.911903
 20
-216.886057
 30
725.391501
 11
4.911903
 21
-216.886057
 31
685.391501
  0
LINE
  5
411
  8
TEAM-NET
 10
-4.911903
 20
-209.994554
 30
725.391501
 11
-4.911903
 21
-209.994554
 31
685.391501
210
-0.702701
220
-0.711485
230
0.0
  0
LINE
  5
412
  8
TEAM-NET
 10
-4.868722
 20
-216.946807
 30
725.391501
 11
-4.868722
 21
-216.946807
 31
685.391501
  0
LINE
  5
413
  8
TEAM-NET
 10
-4.911903
 20
-209.994554
 30
725.391501
 11
-4.911903
 21
-209.994554
 31
685.391501
  0
LINE
  5
414
  8
TEAM-NET
 10
-3.506501
 20
-208.571584
 30
685.391501
 11
-3.506501
 21
-208.571584
 31
725.391501
  0
LINE
  5
415
  8
TEAM-NET
 10
3.445752
 20
-208.528402
 30
725.391501
 11
3.445752
 21
-208.528402
 31
685.391501
  0
LINE
  5
416
  8
TEAM-NET
 10
-3.445752
 20
-218.352209
 30
725.391501
 11
-3.445752
 21
-218.352209
 31
685.391501
210
0.711485
220
-0.702701
230
0.0
  0
LINE
  5
417
  8
TEAM-NET
 10
-14.221535
 20
-197.988835
 30
725.391501
 11
-14.221535
 21
-197.988835
 31
690.391501
210
0.702701
220
0.711485
230
0.0
  0
LINE
  5
418
  8
TEAM-NET
 10
-14.221535
 20
-197.988835
 30
725.391501
 11
-14.221535
 21
-197.988835
 31
690.391501
  0
LINE
  5
419
  8
TEAM-NET
 10
-15.626937
 20
-199.411805
 30
725.391501
 11
-15.626937
 21
-199.411805
 31
690.391501
  0
LINE
  5
41A
  8
TEAM-NET
 10
15.451471
 20
-199.218771
 30
725.391501
 11
15.451471
 21
-199.218771
 31
690.391501
210
0.711485
220
-0.702701
230
0.0
  0
LINE
  5
41B
  8
TEAM-NET
 10
15.451471
 20
-199.218771
 30
725.391501
 11
15.451471
 21
-199.218771
 31
690.391501
  0
LINE
  5
41C
  8
TEAM-NET
 10
14.028501
 20
-197.813369
 30
725.391501
 11
14.028501
 21
-197.813369
 31
690.391501
  0
LINE
  5
41D
  8
TEAM-NET
 10
14.221535
 20
-228.891777
 30
725.391501
 11
14.221535
 21
-228.891777
 31
690.391501
210
-0.702701
220
-0.711485
230
0.0
  0
LINE
  5
41E
  8
TEAM-NET
 10
14.221535
 20
-228.891777
 30
725.391501
 11
14.221535
 21
-228.891777
 31
690.391501
  0
LINE
  5
41F
  8
TEAM-NET
 10
15.626937
 20
-227.468807
 30
725.391501
 11
15.626937
 21
-227.468807
 31
690.391501
  0
LINE
  5
420
  8
TEAM-NET
 10
-15.451471
 20
-227.66184
 30
725.391501
 11
-15.451471
 21
-227.66184
 31
690.391501
210
-0.711485
220
0.702701
230
-0.0
  0
LINE
  5
421
  8
TEAM-NET
 10
-15.451471
 20
-227.66184
 30
725.391501
 11
-15.451471
 21
-227.66184
 31
690.391501
  0
LINE
  5
422
  8
TEAM-NET
 10
-14.028501
 20
-229.067243
 30
725.391501
 11
-14.028501
 21
-229.067243
 31
690.391501
  0
LINE
  5
423
  8
TEAM-NET
 10
15.626937
 20
-227.468807
 30
725.391501
 11
15.626937
 21
-227.468807
 31
690.391501
210
0.702701
220
0.711485
230
0.0
  0
LINE
  5
424
  8
TEAM-NET
 10
14.028501
 20
-197.813369
 30
725.391501
 11
14.028501
 21
-197.813369
 31
690.391501
210
-0.711485
220
0.702701
230
-0.0
  0
LINE
  5
425
  8
TEAM-NET
 10
-15.626937
 20
-199.411805
 30
725.391501
 11
-15.626937
 21
-199.411805
 31
690.391501
210
-0.702701
220
-0.711485
230
0.0
  0
LINE
  5
426
  8
TEAM-NET
 10
-14.028501
 20
-229.067243
 30
725.391501
 11
-14.028501
 21
-229.067243
 31
690.391501
210
0.711485
220
-0.702701
230
0.0
  0
LINE
  5
427
  8
TEAM-NET
 10
-181.969739
 20
-33.440306
 30
702.0
 11
-181.969739
 21
-108.440306
 31
702.0
210
1.0
220
0.0
230
0.0
  0
LINE
  5
428
  8
TEAM-NET
 10
-181.969739
 20
-33.440306
 30
702.0
 11
-181.969739
 21
-108.440306
 31
702.0
  0
LINE
  5
429
  8
TEAM-NET
 10
179.716205
 20
-33.440306
 30
702.0
 11
-181.969739
 21
-33.440306
 31
702.0
  0
LINE
  5
42A
  8
TEAM-NET
 10
-181.969739
 20
-108.440306
 30
702.0
 11
179.716205
 21
-108.440306
 31
702.0
  0
LINE
  5
42B
  8
TEAM-NET
 10
-181.969739
 20
-108.440306
 30
702.0
 11
179.716205
 21
-108.440306
 31
702.0
210
0.0
220
1.0
230
0.0
  0
LINE
  5
42C
  8
TEAM-NET
 10
179.716205
 20
-33.440306
 30
702.0
 11
-181.969739
 21
-33.440306
 31
702.0
210
0.0
220
-1.0
230
0.0
  0
LINE
  5
42D
  8
TEAM-NET
 10
179.716205
 20
-108.440306
 30
702.0
 11
179.716205
 21
-33.440306
 31
702.0
210
-1.0
220
0.0
230
0.0
  0
LINE
  5
42E
  8
TEAM-NET
 10
179.716205
 20
-108.440306
 30
702.0
 11
179.716205
 21
-33.440306
 31
702.0
  0
LINE
  5
42F
  8
TEAM-NET
 10
189.496835
 20
-378.334473
 30
696.989466
 11
-190.744937
 21
-378.334473
 31
696.989466
  0
LINE
  5
430
  8
TEAM-NET
 10
189.496835
 20
-378.334473
 30
696.989466
 11
-190.744937
 21
-378.334473
 31
696.989466
  0
LINE
  5
431
  8
TEAM-NET
 10
-207.67863
 20
-367.591569
 30
700.236114
 11
-207.67863
 21
1.559694
 31
700.236114
  0
LINE
  5
432
  8
TEAM-NET
 10
-207.67863
 20
-367.591569
 30
700.236114
 11
-207.67863
 21
1.559694
 31
700.236114
  0
LINE
  5
433
  8
TEAM-NET
 10
204.879812
 20
1.559694
 30
699.244146
 11
204.879812
 21
-367.591569
 31
699.244146
  0
LINE
  5
434
  8
TEAM-NET
 10
204.879812
 20
1.559694
 30
699.244146
 11
204.879812
 21
-367.591569
 31
699.244146
  0
LINE
  5
435
  8
TEAM-NET
 10
-188.969739
 20
-26.440306
 30
695.0
 11
186.716205
 21
-26.440306
 31
695.0
210
0.0
220
0.0
230
-1.0
  0
LINE
  5
436
  8
TEAM-NET
 10
189.496835
 20
1.559694
 30
695.0
 11
-190.744937
 21
1.559694
 31
695.0
210
0.0
220
0.0
230
-1.0
  0
LINE
  5
437
  8
TEAM-NET
 10
-188.969739
 20
-26.440306
 30
695.0
 11
186.716205
 21
-26.440306
 31
695.0
  0
LINE
  5
438
  8
TEAM-NET
 10
189.496835
 20
1.559694
 30
695.0
 11
-190.744937
 21
1.559694
 31
695.0
210
0.0
220
1.0
230
0.0
  0
LINE
  5
439
  8
TEAM-NET
 10
186.716205
 20
-115.440306
 30
695.0
 11
-188.969739
 21
-115.440306
 31
695.0
210
0.0
220
0.0
230
-1.0
  0
LINE
  5
43A
  8
TEAM-NET
 10
186.716205
 20
-115.440306
 30
695.0
 11
-188.969739
 21
-115.440306
 31
695.0
  0
LINE
  5
43B
  8
TEAM-NET
 10
-190.744937
 20
-367.591569
 30
695.0
 11
189.496835
 21
-367.591569
 31
695.0
  0
LINE
  5
43C
  8
TEAM-NET
 10
-190.744937
 20
-367.591569
 30
695.0
 11
189.496835
 21
-367.591569
 31
695.0
210
0.0
220
0.0
230
-1.0
  0
ARC
  5
43D
  8
TEAM-NET
 10
-44.5
 20
688.0
 30
213.440306
 40
7.0
210
0.0
220
-1.0
230
0.0
 50
360.0
 51
90.0
  0
ARC
  5
43E
  8
TEAM-NET
 10
-44.5
 20
688.0
 30
-213.440306
 40
7.0
210
0.0
220
1.0
230
0.0
 50
360.0
 51
90.0
  0
ARC
  5
43F
  8
TEAM-NET
 10
-44.5
 20
688.0
 30
213.440306
 40
7.0
210
0.0
220
-1.0
230
0.0
 50
360.0
 51
90.0
  0
ARC
  5
440
  8
TEAM-NET
 10
-44.5
 20
688.0
 30
-213.440306
 40
7.0
210
0.0
220
1.0
230
0.0
 50
360.0
 51
90.0
  0
POLYLINE
  5
441
  8
TEAM-NET
 66
     1
 10
0.0
 20
0.0
 30
0.0
 70
     8
  0
VERTEX
  5
442
  8
TEAM-NET
 10
-10.509754
 20
-225.504512
 30
685.391501
 70
    32
  0
VERTEX
  5
443
  8
TEAM-NET
 10
-11.856021
 20
-226.867607
 30
685.77163
 70
    32
  0
VERTEX
  5
444
  8
TEAM-NET
 10
-12.997202
 20
-228.023052
 30
686.854603
 70
    32
  0
VERTEX
  5
445
  8
TEAM-NET
 10
-13.760562
 20
-228.795954
 30
688.477389
 70
    32
  0
VERTEX
  5
446
  8
TEAM-NET
 10
-14.028501
 20
-229.067243
 30
690.391501
 70
    32
  0
SEQEND
  5
447
  8
TEAM-NET
  0
POLYLINE
  5
448
  8
TEAM-NET
 66
     1
 10
0.0
 20
0.0
 30
0.0
 70
     8
  0
VERTEX
  5
449
  8
TEAM-NET
 10
-12.064206
 20
-202.930552
 30
685.391501
 70
    32
  0
VERTEX
  5
44A
  8
TEAM-NET
 10
-13.427301
 20
-201.584285
 30
685.77163
 70
    32
  0
VERTEX
  5
44B
  8
TEAM-NET
 10
-14.582747
 20
-200.443104
 30
686.854603
 70
    32
  0
VERTEX
  5
44C
  8
TEAM-NET
 10
-15.355649
 20
-199.679744
 30
688.477389
 70
    32
  0
VERTEX
  5
44D
  8
TEAM-NET
 10
-15.626937
 20
-199.411805
 30
690.391501
 70
    32
  0
SEQEND
  5
44E
  8
TEAM-NET
  0
POLYLINE
  5
44F
  8
TEAM-NET
 66
     1
 10
0.0
 20
0.0
 30
0.0
 70
     8
  0
VERTEX
  5
450
  8
TEAM-NET
 10
10.509754
 20
-201.3761
 30
685.391501
 70
    32
  0
VERTEX
  5
451
  8
TEAM-NET
 10
11.856021
 20
-200.013005
 30
685.77163
 70
    32
  0
VERTEX
  5
452
  8
TEAM-NET
 10
12.997202
 20
-198.857559
 30
686.854603
 70
    32
  0
VERTEX
  5
453
  8
TEAM-NET
 10
13.760562
 20
-198.084657
 30
688.477389
 70
    32
  0
VERTEX
  5
454
  8
TEAM-NET
 10
14.028501
 20
-197.813369
 30
690.391501
 70
    32
  0
SEQEND
  5
455
  8
TEAM-NET
  0
POLYLINE
  5
456
  8
TEAM-NET
 66
     1
 10
0.0
 20
0.0
 30
0.0
 70
     8
  0
VERTEX
  5
457
  8
TEAM-NET
 10
12.064206
 20
-223.95006
 30
685.391501
 70
    32
  0
VERTEX
  5
458
  8
TEAM-NET
 10
13.427301
 20
-225.296326
 30
685.77163
 70
    32
  0
VERTEX
  5
459
  8
TEAM-NET
 10
14.582747
 20
-226.437507
 30
686.854603
 70
    32
  0
VERTEX
  5
45A
  8
TEAM-NET
 10
15.355649
 20
-227.200867
 30
688.477389
 70
    32
  0
VERTEX
  5
45B
  8
TEAM-NET
 10
15.626937
 20
-227.468807
 30
690.391501
 70
    32
  0
SEQEND
  5
45C
  8
TEAM-NET
  0
POLYLINE
  5
45D
  8
TEAM-NET
 66
     1
 10
0.0
 20
0.0
 30
0.0
 70
     8
  0
VERTEX
  5
45E
  8
TEAM-NET
 10
-15.451471
 20
-227.66184
 30
690.391501
 70
    32
  0
VERTEX
  5
45F
  8
TEAM-NET
 10
-15.183236
 20
-227.390252
 30
688.476368
 70
    32
  0
VERTEX
  5
460
  8
TEAM-NET
 10
-14.420167
 20
-226.617645
 30
686.854596
 70
    32
  0
VERTEX
  5
461
  8
TEAM-NET
 10
-13.278273
 20
-225.461477
 30
685.771279
 70
    32
  0
VERTEX
  5
462
  8
TEAM-NET
 10
-11.932724
 20
-224.099109
 30
685.391501
 70
    32
  0
SEQEND
  5
463
  8
TEAM-NET
  0
POLYLINE
  5
464
  8
TEAM-NET
 66
     1
 10
0.0
 20
0.0
 30
0.0
 70
     8
  0
VERTEX
  5
465
  8
TEAM-NET
 10
14.221535
 20
-228.891777
 30
690.391501
 70
    32
  0
VERTEX
  5
466
  8
TEAM-NET
 10
13.949947
 20
-228.623542
 30
688.476368
 70
    32
  0
VERTEX
  5
467
  8
TEAM-NET
 10
13.177339
 20
-227.860473
 30
686.854596
 70
    32
  0
VERTEX
  5
468
  8
TEAM-NET
 10
12.021172
 20
-226.718579
 30
685.771279
 70
    32
  0
VERTEX
  5
469
  8
TEAM-NET
 10
10.658804
 20
-225.37303
 30
685.391501
 70
    32
  0
SEQEND
  5
46A
  8
TEAM-NET
  0
POLYLINE
  5
46B
  8
TEAM-NET
 66
     1
 10
0.0
 20
0.0
 30
0.0
 70
     8
  0
VERTEX
  5
46C
  8
TEAM-NET
 10
15.451471
 20
-199.218771
 30
690.391501
 70
    32
  0
VERTEX
  5
46D
  8
TEAM-NET
 10
15.183236
 20
-199.490359
 30
688.476368
 70
    32
  0
VERTEX
  5
46E
  8
TEAM-NET
 10
14.420167
 20
-200.262967
 30
686.854596
 70
    32
  0
VERTEX
  5
46F
  8
TEAM-NET
 10
13.278273
 20
-201.419134
 30
685.771279
 70
    32
  0
VERTEX
  5
470
  8
TEAM-NET
 10
11.932724
 20
-202.781502
 30
685.391501
 70
    32
  0
SEQEND
  5
471
  8
TEAM-NET
  0
POLYLINE
  5
472
  8
TEAM-NET
 66
     1
 10
0.0
 20
0.0
 30
0.0
 70
     8
  0
VERTEX
  5
473
  8
TEAM-NET
 10
-14.221535
 20
-197.988835
 30
690.391501
 70
    32
  0
VERTEX
  5
474
  8
TEAM-NET
 10
-13.949947
 20
-198.25707
 30
688.476368
 70
    32
  0
VERTEX
  5
475
  8
TEAM-NET
 10
-13.177339
 20
-199.020139
 30
686.854596
 70
    32
  0
VERTEX
  5
476
  8
TEAM-NET
 10
-12.021172
 20
-200.162033
 30
685.771279
 70
    32
  0
VERTEX
  5
477
  8
TEAM-NET
 10
-10.658804
 20
-201.507581
 30
685.391501
 70
    32
  0
SEQEND
  5
478
  8
TEAM-NET
  0
POLYLINE
  5
479
  8
TEAM-NET
 66
     1
 10
0.0
 20
0.0
 30
0.0
 70
     8
  0
VERTEX
  5
47A
  8
TEAM-NET
 10
-10.509754
 20
-225.504512
 30
685.391501
 70
    32
  0
VERTEX
  5
47B
  8
TEAM-NET
 10
-11.856021
 20
-226.867607
 30
685.77163
 70
    32
  0
VERTEX
  5
47C
  8
TEAM-NET
 10
-12.997202
 20
-228.023052
 30
686.854603
 70
    32
  0
VERTEX
  5
47D
  8
TEAM-NET
 10
-13.760562
 20
-228.795954
 30
688.477389
 70
    32
  0
VERTEX
  5
47E
  8
TEAM-NET
 10
-14.028501
 20
-229.067243
 30
690.391501
 70
    32
  0
SEQEND
  5
47F
  8
TEAM-NET
  0
POLYLINE
  5
480
  8
TEAM-NET
 66
     1
 10
0.0
 20
0.0
 30
0.0
 70
     8
  0
VERTEX
  5
481
  8
TEAM-NET
 10
-15.451471
 20
-227.66184
 30
690.391501
 70
    32
  0
VERTEX
  5
482
  8
TEAM-NET
 10
-15.183236
 20
-227.390252
 30
688.476368
 70
    32
  0
VERTEX
  5
483
  8
TEAM-NET
 10
-14.420167
 20
-226.617645
 30
686.854596
 70
    32
  0
VERTEX
  5
484
  8
TEAM-NET
 10
-13.278273
 20
-225.461477
 30
685.771279
 70
    32
  0
VERTEX
  5
485
  8
TEAM-NET
 10
-11.932724
 20
-224.099109
 30
685.391501
 70
    32
  0
SEQEND
  5
486
  8
TEAM-NET
  0
POLYLINE
  5
487
  8
TEAM-NET
 66
     1
 10
0.0
 20
0.0
 30
0.0
 70
     8
  0
VERTEX
  5
488
  8
TEAM-NET
 10
12.064206
 20
-223.95006
 30
685.391501
 70
    32
  0
VERTEX
  5
489
  8
TEAM-NET
 10
13.427301
 20
-225.296326
 30
685.77163
 70
    32
  0
VERTEX
  5
48A
  8
TEAM-NET
 10
14.582747
 20
-226.437507
 30
686.854603
 70
    32
  0
VERTEX
  5
48B
  8
TEAM-NET
 10
15.355649
 20
-227.200867
 30
688.477389
 70
    32
  0
VERTEX
  5
48C
  8
TEAM-NET
 10
15.626937
 20
-227.468807
 30
690.391501
 70
    32
  0
SEQEND
  5
48D
  8
TEAM-NET
  0
POLYLINE
  5
48E
  8
TEAM-NET
 66
     1
 10
0.0
 20
0.0
 30
0.0
 70
     8
  0
VERTEX
  5
48F
  8
TEAM-NET
 10
14.221535
 20
-228.891777
 30
690.391501
 70
    32
  0
VERTEX
  5
490
  8
TEAM-NET
 10
13.949947
 20
-228.623542
 30
688.476368
 70
    32
  0
VERTEX
  5
491
  8
TEAM-NET
 10
13.177339
 20
-227.860473
 30
686.854596
 70
    32
  0
VERTEX
  5
492
  8
TEAM-NET
 10
12.021172
 20
-226.718579
 30
685.771279
 70
    32
  0
VERTEX
  5
493
  8
TEAM-NET
 10
10.658804
 20
-225.37303
 30
685.391501
 70
    32
  0
SEQEND
  5
494
  8
TEAM-NET
  0
POLYLINE
  5
495
  8
TEAM-NET
 66
     1
 10
0.0
 20
0.0
 30
0.0
 70
     8
  0
VERTEX
  5
496
  8
TEAM-NET
 10
10.509754
 20
-201.3761
 30
685.391501
 70
    32
  0
VERTEX
  5
497
  8
TEAM-NET
 10
11.856021
 20
-200.013005
 30
685.77163
 70
    32
  0
VERTEX
  5
498
  8
TEAM-NET
 10
12.997202
 20
-198.857559
 30
686.854603
 70
    32
  0
VERTEX
  5
499
  8
TEAM-NET
 10
13.760562
 20
-198.084657
 30
688.477389
 70
    32
  0
VERTEX
  5
49A
  8
TEAM-NET
 10
14.028501
 20
-197.813369
 30
690.391501
 70
    32
  0
SEQEND
  5
49B
  8
TEAM-NET
  0
POLYLINE
  5
49C
  8
TEAM-NET
 66
     1
 10
0.0
 20
0.0
 30
0.0
 70
     8
  0
VERTEX
  5
49D
  8
TEAM-NET
 10
15.451471
 20
-199.218771
 30
690.391501
 70
    32
  0
VERTEX
  5
49E
  8
TEAM-NET
 10
15.183236
 20
-199.490359
 30
688.476368
 70
    32
  0
VERTEX
  5
49F
  8
TEAM-NET
 10
14.420167
 20
-200.262967
 30
686.854596
 70
    32
  0
VERTEX
  5
4A0
  8
TEAM-NET
 10
13.278273
 20
-201.419134
 30
685.771279
 70
    32
  0
VERTEX
  5
4A1
  8
TEAM-NET
 10
11.932724
 20
-202.781502
 30
685.391501
 70
    32
  0
SEQEND
  5
4A2
  8
TEAM-NET
  0
POLYLINE
  5
4A3
  8
TEAM-NET
 66
     1
 10
0.0
 20
0.0
 30
0.0
 70
     8
  0
VERTEX
  5
4A4
  8
TEAM-NET
 10
-12.064206
 20
-202.930552
 30
685.391501
 70
    32
  0
VERTEX
  5
4A5
  8
TEAM-NET
 10
-13.427301
 20
-201.584285
 30
685.77163
 70
    32
  0
VERTEX
  5
4A6
  8
TEAM-NET
 10
-14.582747
 20
-200.443104
 30
686.854603
 70
    32
  0
VERTEX
  5
4A7
  8
TEAM-NET
 10
-15.355649
 20
-199.679744
 30
688.477389
 70
    32
  0
VERTEX
  5
4A8
  8
TEAM-NET
 10
-15.626937
 20
-199.411805
 30
690.391501
 70
    32
  0
SEQEND
  5
4A9
  8
TEAM-NET
  0
POLYLINE
  5
4AA
  8
TEAM-NET
 66
     1
 10
0.0
 20
0.0
 30
0.0
 70
     8
  0
VERTEX
  5
4AB
  8
TEAM-NET
 10
-14.221535
 20
-197.988835
 30
690.391501
 70
    32
  0
VERTEX
  5
4AC
  8
TEAM-NET
 10
-13.949947
 20
-198.25707
 30
688.476368
 70
    32
  0
VERTEX
  5
4AD
  8
TEAM-NET
 10
-13.177339
 20
-199.020139
 30
686.854596
 70
    32
  0
VERTEX
  5
4AE
  8
TEAM-NET
 10
-12.021172
 20
-200.162033
 30
685.771279
 70
    32
  0
VERTEX
  5
4AF
  8
TEAM-NET
 10
-10.658804
 20
-201.507581
 30
685.391501
 70
    32
  0
SEQEND
  5
4B0
  8
TEAM-NET
  0
ARC
  5
4B1
  8
TEAM-NET
 10
0.0
 20
-213.440306
 30
688.0
 40
37.5
 50
360.0
 51
180.0
  0
ARC
  5
4B2
  8
TEAM-NET
 10
0.0
 20
-213.440306
 30
688.0
 40
37.5
 50
180.0
 51
0.0
  0
ARC
  5
4B3
  8
TEAM-NET
 10
0.0
 20
-213.440306
 30
685.391501
 40
16.0
 50
131.772548
 51
138.939192
  0
ARC
  5
4B4
  8
TEAM-NET
 10
0.0
 20
-213.440306
 30
685.391501
 40
16.0
 50
41.772548
 51
48.939192
  0
ARC
  5
4B5
  8
TEAM-NET
 10
0.0
 20
-213.440306
 30
685.391501
 40
16.0
 50
311.772548
 51
318.939192
  0
ARC
  5
4B6
  8
TEAM-NET
 10
0.0
 20
-213.440306
 30
685.391501
 40
16.0
 50
221.772548
 51
228.939192
  0
ARC
  5
4B7
  8
TEAM-NET
 10
0.0
 20
-213.440306
 30
-685.391501
 40
16.0
210
0.0
220
-0.0
230
-1.0
 50
221.060808
 51
228.227452
  0
LINE
  5
4B8
  8
TEAM-NET
 10
3.506501
 20
-218.309027
 30
685.391501
 11
10.658804
 21
-225.37303
 31
685.391501
210
0.0
220
-0.0
230
-1.0
  0
LINE
  5
4B9
  8
TEAM-NET
 10
12.064206
 20
-223.95006
 30
685.391501
 11
4.911903
 21
-216.886057
 31
685.391501
210
0.0
220
-0.0
230
-1.0
  0
ARC
  5
4BA
  8
TEAM-NET
 10
0.0
 20
-213.440306
 30
-685.391501
 40
6.0
210
0.0
220
-0.0
230
-1.0
 50
234.238198
 51
305.050062
  0
ARC
  5
4BB
  8
TEAM-NET
 10
0.0
 20
-213.440306
 30
-685.391501
 40
6.0
210
0.0
220
-0.0
230
-1.0
 50
144.238198
 51
215.050062
  0
LINE
  5
4BC
  8
TEAM-NET
 10
-10.509754
 20
-225.504512
 30
685.391501
 11
-3.445752
 21
-218.352209
 31
685.391501
210
0.0
220
-0.0
230
-1.0
  0
LINE
  5
4BD
  8
TEAM-NET
 10
4.868722
 20
-209.933805
 30
685.391501
 11
11.932724
 21
-202.781502
 31
685.391501
210
0.0
220
-0.0
230
-1.0
  0
ARC
  5
4BE
  8
TEAM-NET
 10
0.0
 20
-213.440306
 30
-685.391501
 40
16.0
210
0.0
220
-0.0
230
-1.0
 50
311.060808
 51
318.227452
  0
ARC
  5
4BF
  8
TEAM-NET
 10
0.0
 20
-213.440306
 30
-685.391501
 40
16.0
210
0.0
220
-0.0
230
-1.0
 50
131.060808
 51
138.227452
  0
LINE
  5
4C0
  8
TEAM-NET
 10
-4.868722
 20
-216.946807
 30
685.391501
 11
-11.932724
 21
-224.099109
 31
685.391501
210
0.0
220
-0.0
230
-1.0
  0
LINE
  5
4C1
  8
TEAM-NET
 10
10.509754
 20
-201.3761
 30
685.391501
 11
3.445752
 21
-208.528402
 31
685.391501
210
0.0
220
-0.0
230
-1.0
  0
ARC
  5
4C2
  8
TEAM-NET
 10
0.0
 20
-213.440306
 30
-685.391501
 40
6.0
210
0.0
220
-0.0
230
-1.0
 50
324.238198
 51
35.050062
  0
ARC
  5
4C3
  8
TEAM-NET
 10
0.0
 20
-213.440306
 30
-685.391501
 40
6.0
210
0.0
220
-0.0
230
-1.0
 50
54.238198
 51
125.050062
  0
LINE
  5
4C4
  8
TEAM-NET
 10
-12.064206
 20
-202.930552
 30
685.391501
 11
-4.911903
 21
-209.994554
 31
685.391501
210
0.0
220
-0.0
230
-1.0
  0
LINE
  5
4C5
  8
TEAM-NET
 10
-3.506501
 20
-208.571584
 30
685.391501
 11
-10.658804
 21
-201.507581
 31
685.391501
210
0.0
220
-0.0
230
-1.0
  0
ARC
  5
4C6
  8
TEAM-NET
 10
0.0
 20
-213.440306
 30
-685.391501
 40
16.0
210
0.0
220
-0.0
230
-1.0
 50
41.060808
 51
48.227452
  0
ARC
  5
4C7
  8
TEAM-NET
 10
0.0
 20
-213.440306
 30
-683.687382
 40
21.0
210
0.0
220
-0.0
230
-1.0
 50
0.0
 51
180.0
  0
ARC
  5
4C8
  8
TEAM-NET
 10
0.0
 20
-213.440306
 30
-683.687382
 40
21.0
210
0.0
220
-0.0
230
-1.0
 50
180.0
 51
0.0
  0
ARC
  5
4C9
  8
TEAM-NET
 10
0.0
 20
-213.440306
 30
-683.687382
 40
22.0
210
0.0
220
-0.0
230
-1.0
 50
0.0
 51
180.0
  0
ARC
  5
4CA
  8
TEAM-NET
 10
0.0
 20
-213.440306
 30
-683.687382
 40
22.0
210
0.0
220
-0.0
230
-1.0
 50
180.0
 51
0.0
  0
ARC
  5
4CB
  8
TEAM-NET
 10
0.0
 20
-213.440306
 30
683.687382
 40
21.0
 50
180.0
 51
0.0
  0
ARC
  5
4CC
  8
TEAM-NET
 10
0.0
 20
-213.440306
 30
683.687382
 40
22.0
 50
360.0
 51
180.0
  0
ARC
  5
4CD
  8
TEAM-NET
 10
0.0
 20
-213.440306
 30
683.687382
 40
22.0
 50
180.0
 51
0.0
  0
ARC
  5
4CE
  8
TEAM-NET
 10
0.0
 20
-213.440306
 30
683.687382
 40
21.0
 50
360.0
 51
180.0
  0
ARC
  5
4CF
  8
TEAM-NET
 10
0.0
 20
-213.440306
 30
688.0
 40
37.5
 50
360.0
 51
180.0
  0
ARC
  5
4D0
  8
TEAM-NET
 10
0.0
 20
-213.440306
 30
688.0
 40
37.5
 50
180.0
 51
0.0
  0
LINE
  5
4D1
  8
TEAM-NET
 10
-3.506501
 20
-208.571584
 30
685.391501
 11
-10.658804
 21
-201.507581
 31
685.391501
210
0.702701
220
0.711485
230
0.0
  0
LINE
  5
4D2
  8
TEAM-NET
 10
4.868722
 20
-209.933805
 30
685.391501
 11
11.932724
 21
-202.781502
 31
685.391501
210
0.711485
220
-0.702701
230
0.0
  0
LINE
  5
4D3
  8
TEAM-NET
 10
3.506501
 20
-218.309027
 30
685.391501
 11
10.658804
 21
-225.37303
 31
685.391501
210
-0.702701
220
-0.711485
230
0.0
  0
LINE
  5
4D4
  8
TEAM-NET
 10
-4.868722
 20
-216.946807
 30
685.391501
 11
-11.932724
 21
-224.099109
 31
685.391501
210
-0.711485
220
0.702701
230
-0.0
  0
LINE
  5
4D5
  8
TEAM-NET
 10
12.064206
 20
-223.95006
 30
685.391501
 11
4.911903
 21
-216.886057
 31
685.391501
210
0.702701
220
0.711485
230
0.0
  0
ARC
  5
4D6
  8
TEAM-NET
 10
0.0
 20
-213.440306
 30
685.391501
 40
6.0
 50
234.949938
 51
305.761802
  0
LINE
  5
4D7
  8
TEAM-NET
 10
10.509754
 20
-201.3761
 30
685.391501
 11
3.445752
 21
-208.528402
 31
685.391501
210
-0.711485
220
0.702701
230
-0.0
  0
ARC
  5
4D8
  8
TEAM-NET
 10
0.0
 20
-213.440306
 30
685.391501
 40
6.0
 50
324.949938
 51
35.761802
  0
LINE
  5
4D9
  8
TEAM-NET
 10
-12.064206
 20
-202.930552
 30
685.391501
 11
-4.911903
 21
-209.994554
 31
685.391501
210
-0.702701
220
-0.711485
230
0.0
  0
ARC
  5
4DA
  8
TEAM-NET
 10
0.0
 20
-213.440306
 30
685.391501
 40
6.0
 50
144.949938
 51
215.761802
  0
ARC
  5
4DB
  8
TEAM-NET
 10
0.0
 20
-213.440306
 30
685.391501
 40
6.0
 50
54.949938
 51
125.761802
  0
LINE
  5
4DC
  8
TEAM-NET
 10
-10.509754
 20
-225.504512
 30
685.391501
 11
-3.445752
 21
-218.352209
 31
685.391501
210
0.711485
220
-0.702701
230
0.0
  0
ARC
  5
4DD
  8
TEAM-NET
 10
0.0
 20
-213.440306
 30
-695.0
 40
44.5
210
0.0
220
0.0
230
-1.0
 50
0.0
 51
180.0
  0
ARC
  5
4DE
  8
TEAM-NET
 10
0.0
 20
-213.440306
 30
-695.0
 40
44.5
210
0.0
220
0.0
230
-1.0
 50
0.0
 51
180.0
  0
ARC
  5
4DF
  8
TEAM-NET
 10
0.0
 20
-213.440306
 30
-695.0
 40
44.5
210
0.0
220
0.0
230
-1.0
 50
180.0
 51
0.0
  0
ARC
  5
4E0
  8
TEAM-NET
 10
0.0
 20
-213.440306
 30
-695.0
 40
44.5
210
0.0
220
0.0
230
-1.0
 50
180.0
 51
0.0
  0
ARC
  5
4E1
  8
TEAM-NET
 10
0.0
 20
-213.440306
 30
-690.391501
 40
21.0
210
0.0
220
-0.0
230
-1.0
 50
41.914727
 51
47.373533
  0
ARC
  5
4E2
  8
TEAM-NET
 10
0.0
 20
-213.440306
 30
-690.391501
 40
21.0
210
0.0
220
-0.0
230
-1.0
 50
131.914727
 51
137.373533
  0
ARC
  5
4E3
  8
TEAM-NET
 10
0.0
 20
-213.440306
 30
-690.391501
 40
21.0
210
0.0
220
-0.0
230
-1.0
 50
221.914727
 51
227.373533
  0
ARC
  5
4E4
  8
TEAM-NET
 10
0.0
 20
-213.440306
 30
-690.391501
 40
21.0
210
0.0
220
-0.0
230
-1.0
 50
311.914727
 51
317.373533
  0
ARC
  5
4E5
  8
TEAM-NET
 10
0.0
 20
-213.440306
 30
-690.391501
 40
21.0
210
0.0
220
-0.0
230
-1.0
 50
41.914727
 51
47.373533
  0
ARC
  5
4E6
  8
TEAM-NET
 10
0.0
 20
-213.440306
 30
-690.391501
 40
21.0
210
0.0
220
-0.0
230
-1.0
 50
131.914727
 51
137.373533
  0
ARC
  5
4E7
  8
TEAM-NET
 10
0.0
 20
-213.440306
 30
-690.391501
 40
21.0
210
0.0
220
-0.0
230
-1.0
 50
221.914727
 51
227.373533
  0
ARC
  5
4E8
  8
TEAM-NET
 10
0.0
 20
-213.440306
 30
-690.391501
 40
21.0
210
0.0
220
-0.0
230
-1.0
 50
311.914727
 51
317.373533
  0
LINE
  5
4E9
  8
TEAM-NET
 10
-190.744937
 20
1.559694
 30
695.0
 11
-190.744937
 21
-367.591569
 31
695.0
210
0.0
220
0.0
230
-1.0
  0
LINE
  5
4EA
  8
TEAM-NET
 10
-190.744937
 20
1.559694
 30
695.0
 11
-190.744937
 21
-367.591569
 31
695.0
  0
LINE
  5
4EB
  8
TEAM-NET
 10
-188.969739
 20
-115.440306
 30
695.0
 11
-188.969739
 21
-26.440306
 31
695.0
  0
LINE
  5
4EC
  8
TEAM-NET
 10
-188.969739
 20
-115.440306
 30
695.0
 11
-188.969739
 21
-26.440306
 31
695.0
210
0.0
220
0.0
230
-1.0
  0
LINE
  5
4ED
  8
TEAM-NET
 10
189.496835
 20
-367.591569
 30
695.0
 11
189.496835
 21
1.559694
 31
695.0
210
0.0
220
0.0
230
-1.0
  0
LINE
  5
4EE
  8
TEAM-NET
 10
189.496835
 20
-367.591569
 30
695.0
 11
189.496835
 21
1.559694
 31
695.0
  0
LINE
  5
4EF
  8
TEAM-NET
 10
186.716205
 20
-26.440306
 30
695.0
 11
186.716205
 21
-115.440306
 31
695.0
  0
LINE
  5
4F0
  8
TEAM-NET
 10
186.716205
 20
-26.440306
 30
695.0
 11
186.716205
 21
-115.440306
 31
695.0
210
0.0
220
0.0
230
-1.0
  0
ARC
  5
4F1
  8
TEAM-NET
 10
190.744937
 20
725.0
 30
1.559694
 40
30.0
210
0.0
220
1.0
230
0.0
 50
270.0
 51
304.364554
  0
ARC
  5
4F2
  8
TEAM-NET
 10
-190.744937
 20
725.0
 30
-1.559694
 40
30.0
210
0.0
220
-1.0
230
0.0
 50
235.635446
 51
270.0
  0
ARC
  5
4F3
  8
TEAM-NET
 10
-189.496835
 20
725.0
 30
1.559694
 40
30.0
210
0.0
220
1.0
230
0.0
 50
239.151759
 51
270.0
  0
ARC
  5
4F4
  8
TEAM-NET
 10
189.496835
 20
725.0
 30
-1.559694
 40
30.0
210
0.0
220
-1.0
230
0.0
 50
270.0
 51
300.848241
  0
POLYLINE
  5
4F5
  8
TEAM-NET
 66
     1
 10
0.0
 20
0.0
 30
177.879566
 70
   128
210
0.707107
220
0.707107
230
0.0
  0
VERTEX
  5
C12
  8
TEAM-NET
 10
-213.656917
 20
695.0
 30
177.879566
  0
VERTEX
  5
C13
  8
TEAM-NET
 10
-211.937888
 20
695.106346
 30
177.879566
  0
VERTEX
  5
C14
  8
TEAM-NET
 10
-210.271091
 20
695.422152
 30
177.879566
  0
VERTEX
  5
C15
  8
TEAM-NET
 10
-208.70717
 20
695.937822
 30
177.879566
  0
VERTEX
  5
C16
  8
TEAM-NET
 10
-207.293645
 20
696.637689
 30
177.879566
  0
VERTEX
  5
C17
  8
TEAM-NET
 10
-206.073464
 20
697.500487
 30
177.879566
  0
VERTEX
  5
C18
  8
TEAM-NET
 10
-205.083703
 20
698.5
 30
177.879566
  0
VERTEX
  5
C19
  8
TEAM-NET
 10
-204.354435
 20
699.605859
 30
177.879566
  0
VERTEX
  5
C1A
  8
TEAM-NET
 10
-203.907818
 20
700.784463
 30
177.879566
  0
VERTEX
  5
C1B
  8
TEAM-NET
 10
-203.757423
 20
702.0
 30
177.879566
  0
SEQEND
  5
C1C
  8
TEAM-NET
  0
POLYLINE
  5
4F6
  8
TEAM-NET
 66
     1
 10
0.0
 20
0.0
 30
177.879566
 70
   128
210
0.707107
220
0.707107
230
0.0
  0
VERTEX
  5
C1D
  8
TEAM-NET
 10
-213.656917
 20
695.0
 30
177.879566
  0
VERTEX
  5
C1E
  8
TEAM-NET
 10
-211.937888
 20
695.106346
 30
177.879566
  0
VERTEX
  5
C1F
  8
TEAM-NET
 10
-210.271091
 20
695.422152
 30
177.879566
  0
VERTEX
  5
C20
  8
TEAM-NET
 10
-208.70717
 20
695.937822
 30
177.879566
  0
VERTEX
  5
C21
  8
TEAM-NET
 10
-207.293645
 20
696.637689
 30
177.879566
  0
VERTEX
  5
C22
  8
TEAM-NET
 10
-206.073464
 20
697.500487
 30
177.879566
  0
VERTEX
  5
C23
  8
TEAM-NET
 10
-205.083703
 20
698.5
 30
177.879566
  0
VERTEX
  5
C24
  8
TEAM-NET
 10
-204.354435
 20
699.605859
 30
177.879566
  0
VERTEX
  5
C25
  8
TEAM-NET
 10
-203.907818
 20
700.784463
 30
177.879566
  0
VERTEX
  5
C26
  8
TEAM-NET
 10
-203.757423
 20
702.0
 30
177.879566
  0
SEQEND
  5
C27
  8
TEAM-NET
  0
POLYLINE
  5
4F7
  8
TEAM-NET
 66
     1
 10
0.0
 20
0.0
 30
-177.879566
 70
   128
210
0.707107
220
-0.707107
230
0.0
  0
VERTEX
  5
C28
  8
TEAM-NET
 10
-215.250407
 20
695.0
 30
-177.879566
  0
VERTEX
  5
C29
  8
TEAM-NET
 10
-213.531377
 20
695.106346
 30
-177.879566
  0
VERTEX
  5
C2A
  8
TEAM-NET
 10
-211.86458
 20
695.422152
 30
-177.879566
  0
VERTEX
  5
C2B
  8
TEAM-NET
 10
-210.300659
 20
695.937822
 30
-177.879566
  0
VERTEX
  5
C2C
  8
TEAM-NET
 10
-208.887134
 20
696.637689
 30
-177.879566
  0
VERTEX
  5
C2D
  8
TEAM-NET
 10
-207.666953
 20
697.500487
 30
-177.879566
  0
VERTEX
  5
C2E
  8
TEAM-NET
 10
-206.677192
 20
698.5
 30
-177.879566
  0
VERTEX
  5
C2F
  8
TEAM-NET
 10
-205.947924
 20
699.605859
 30
-177.879566
  0
VERTEX
  5
C30
  8
TEAM-NET
 10
-205.501307
 20
700.784463
 30
-177.879566
  0
VERTEX
  5
C31
  8
TEAM-NET
 10
-205.350912
 20
702.0
 30
-177.879566
  0
SEQEND
  5
C32
  8
TEAM-NET
  0
POLYLINE
  5
4F8
  8
TEAM-NET
 66
     1
 10
0.0
 20
0.0
 30
-177.879566
 70
   128
210
0.707107
220
-0.707107
230
0.0
  0
VERTEX
  5
C33
  8
TEAM-NET
 10
-215.250407
 20
695.0
 30
-177.879566
  0
VERTEX
  5
C34
  8
TEAM-NET
 10
-213.531377
 20
695.106346
 30
-177.879566
  0
VERTEX
  5
C35
  8
TEAM-NET
 10
-211.86458
 20
695.422152
 30
-177.879566
  0
VERTEX
  5
C36
  8
TEAM-NET
 10
-210.300659
 20
695.937822
 30
-177.879566
  0
VERTEX
  5
C37
  8
TEAM-NET
 10
-208.887134
 20
696.637689
 30
-177.879566
  0
VERTEX
  5
C38
  8
TEAM-NET
 10
-207.666953
 20
697.500487
 30
-177.879566
  0
VERTEX
  5
C39
  8
TEAM-NET
 10
-206.677192
 20
698.5
 30
-177.879566
  0
VERTEX
  5
C3A
  8
TEAM-NET
 10
-205.947924
 20
699.605859
 30
-177.879566
  0
VERTEX
  5
C3B
  8
TEAM-NET
 10
-205.501307
 20
700.784463
 30
-177.879566
  0
VERTEX
  5
C3C
  8
TEAM-NET
 10
-205.350912
 20
702.0
 30
-177.879566
  0
SEQEND
  5
C3D
  8
TEAM-NET
  0
ARC
  5
4F9
  8
TEAM-NET
 10
13.456518
 20
556.246269
 30
622.528075
 40
30.0
210
-0.463918
220
-0.827131
230
0.31723
 50
240.507638
 51
280.088883
  0
ARC
  5
4FA
  8
TEAM-NET
 10
-190.744937
 20
725.0
 30
367.591569
 40
30.0
210
0.0
220
-1.0
230
0.0
 50
235.635446
 51
270.0
  0
ARC
  5
4FB
  8
TEAM-NET
 10
367.591569
 20
725.0
 30
190.744937
 40
30.0
210
-1.0
220
-0.0
230
0.0
 50
270.0
 51
290.983359
  0
ARC
  5
4FC
  8
TEAM-NET
 10
367.591569
 20
725.0
 30
190.744937
 40
30.0
210
-1.0
220
-0.0
230
0.0
 50
270.0
 51
290.983359
  0
ARC
  5
4FD
  8
TEAM-NET
 10
13.456518
 20
556.246269
 30
622.528075
 40
30.0
210
-0.463918
220
-0.827131
230
0.31723
 50
240.507638
 51
280.088883
  0
ARC
  5
4FE
  8
TEAM-NET
 10
-190.744937
 20
725.0
 30
367.591569
 40
30.0
210
0.0
220
-1.0
230
0.0
 50
235.635446
 51
270.0
  0
ARC
  5
4FF
  8
TEAM-NET
 10
39.170938
 20
563.51665
 30
-614.469068
 40
30.0
210
-0.514221
220
0.800782
230
-0.307124
 50
244.439332
 51
281.156677
  0
ARC
  5
500
  8
TEAM-NET
 10
189.496835
 20
725.0
 30
367.591569
 40
30.0
210
-0.0
220
-1.0
230
0.0
 50
270.0
 51
300.848241
  0
ARC
  5
501
  8
TEAM-NET
 10
367.591569
 20
725.0
 30
-189.496835
 40
30.0
210
-1.0
220
0.0
230
0.0
 50
270.0
 51
290.983359
  0
ARC
  5
502
  8
TEAM-NET
 10
39.170938
 20
563.51665
 30
-614.469068
 40
30.0
210
-0.514221
220
0.800782
230
-0.307124
 50
244.439332
 51
281.156677
  0
ARC
  5
503
  8
TEAM-NET
 10
367.591569
 20
725.0
 30
-189.496835
 40
30.0
210
-1.0
220
0.0
230
0.0
 50
270.0
 51
290.983359
  0
ARC
  5
504
  8
TEAM-NET
 10
189.496835
 20
725.0
 30
367.591569
 40
30.0
210
-0.0
220
-1.0
230
0.0
 50
270.0
 51
300.848241
  0
ARC
  5
505
  8
TEAM-NET
 10
0.0
 20
-213.440306
 30
-670.0
 40
26.0
210
0.0
220
0.0
230
-1.0
 50
180.0
 51
0.0
  0
ARC
  5
506
  8
TEAM-NET
 10
0.0
 20
-213.440306
 30
-670.0
 40
26.0
210
0.0
220
0.0
230
-1.0
 50
0.0
 51
180.0
  0
ARC
  5
507
  8
TEAM-NET
 10
0.0
 20
-213.440306
 30
-670.0
 40
37.5
210
0.0
220
0.0
230
-1.0
 50
360.0
 51
180.0
  0
ARC
  5
508
  8
TEAM-NET
 10
0.0
 20
-213.440306
 30
-670.0
 40
37.5
210
0.0
220
0.0
230
-1.0
 50
180.0
 51
0.0
  0
ARC
  5
509
  8
TEAM-NET
 10
0.0
 20
-213.440306
 30
670.0
 40
37.5
 50
0.0
 51
180.0
  0
ARC
  5
50A
  8
TEAM-NET
 10
0.0
 20
-213.440306
 30
-670.0
 40
26.0
210
0.0
220
0.0
230
-1.0
 50
0.0
 51
180.0
  0
ARC
  5
50B
  8
TEAM-NET
 10
0.0
 20
-213.440306
 30
-670.0
 40
26.0
210
0.0
220
0.0
230
-1.0
 50
180.0
 51
0.0
  0
ARC
  5
50C
  8
TEAM-NET
 10
0.0
 20
-213.440306
 30
670.0
 40
37.5
 50
180.0
 51
0.0
  0
LINE
  5
50D
  8
TEAM-NET
 10
-37.5
 20
-213.440306
 30
670.0
 11
-37.5
 21
-213.440306
 31
688.0
  0
LINE
  5
50E
  8
TEAM-NET
 10
37.5
 20
-213.440306
 30
670.0
 11
37.5
 21
-213.440306
 31
688.0
  0
LINE
  5
50F
  8
TEAM-NET
 10
-37.5
 20
-213.440306
 30
670.0
 11
-37.5
 21
-213.440306
 31
688.0
  0
LINE
  5
510
  8
TEAM-NET
 10
37.5
 20
-213.440306
 30
670.0
 11
37.5
 21
-213.440306
 31
688.0
  0
LINE
  5
511
  8
TEAM-NET
 10
90.89494
 20
-123.440306
 30
736.334742
 11
-90.89494
 21
-123.440306
 31
736.334742
  0
LINE
  5
512
  8
TEAM-NET
 10
90.89494
 20
-123.440306
 30
736.334742
 11
-90.89494
 21
-123.440306
 31
736.334742
210
0.0
220
-1.0
230
0.0
  0
ARC
  5
513
  8
TEAM-NET
 10
212.793877
 20
639.242206
 30
0.0
 40
91.7912
210
-1.0
220
-0.0
230
-0.0
 50
89.596498
 51
108.650003
  0
ARC
  5
514
  8
TEAM-NET
 10
-214.086735
 20
639.242206
 30
0.0
 40
91.7912
210
1.0
220
0.0
230
0.0
 50
89.596498
 51
108.650003
  0
ARC
  5
515
  8
TEAM-NET
 10
212.793877
 20
639.242206
 30
0.0
 40
91.7912
210
-1.0
220
-0.0
230
-0.0
 50
89.596498
 51
108.650003
  0
ARC
  5
516
  8
TEAM-NET
 10
-214.086735
 20
639.242206
 30
0.0
 40
91.7912
210
1.0
220
0.0
230
0.0
 50
89.596498
 51
108.650003
  0
ARC
  5
517
  8
TEAM-NET
 10
0.0
 20
-213.440306
 30
-725.391501
 40
6.0
210
0.0
220
-0.0
230
-1.0
 50
324.238198
 51
35.050062
  0
ARC
  5
518
  8
TEAM-NET
 10
0.0
 20
-213.440306
 30
-725.391501
 40
21.0
210
0.0
220
-0.0
230
-1.0
 50
41.914727
 51
47.373533
  0
LINE
  5
519
  8
TEAM-NET
 10
-4.868722
 20
-216.946807
 30
725.391501
 11
-15.451471
 21
-227.66184
 31
725.391501
210
0.0
220
-0.0
230
-1.0
  0
LINE
  5
51A
  8
TEAM-NET
 10
-3.506501
 20
-208.571584
 30
725.391501
 11
-14.221535
 21
-197.988835
 31
725.391501
210
0.0
220
-0.0
230
-1.0
  0
ARC
  5
51B
  8
TEAM-NET
 10
0.0
 20
-213.440306
 30
-725.391501
 40
21.0
210
0.0
220
-0.0
230
-1.0
 50
311.914727
 51
317.373533
  0
ARC
  5
51C
  8
TEAM-NET
 10
0.0
 20
-213.440306
 30
-725.391501
 40
6.0
210
0.0
220
-0.0
230
-1.0
 50
54.238198
 51
125.050062
  0
LINE
  5
51D
  8
TEAM-NET
 10
-14.028501
 20
-229.067243
 30
725.391501
 11
-3.445752
 21
-218.352209
 31
725.391501
210
0.0
220
-0.0
230
-1.0
  0
LINE
  5
51E
  8
TEAM-NET
 10
14.028501
 20
-197.813369
 30
725.391501
 11
3.445752
 21
-208.528402
 31
725.391501
210
0.0
220
-0.0
230
-1.0
  0
ARC
  5
51F
  8
TEAM-NET
 10
0.0
 20
-213.440306
 30
-725.391501
 40
6.0
210
0.0
220
-0.0
230
-1.0
 50
234.238198
 51
305.050062
  0
ARC
  5
520
  8
TEAM-NET
 10
0.0
 20
-213.440306
 30
-725.391501
 40
21.0
210
0.0
220
-0.0
230
-1.0
 50
131.914727
 51
137.373533
  0
LINE
  5
521
  8
TEAM-NET
 10
3.506501
 20
-218.309027
 30
725.391501
 11
14.221535
 21
-228.891777
 31
725.391501
210
0.0
220
-0.0
230
-1.0
  0
LINE
  5
522
  8
TEAM-NET
 10
4.868722
 20
-209.933805
 30
725.391501
 11
15.451471
 21
-199.218771
 31
725.391501
210
0.0
220
-0.0
230
-1.0
  0
ARC
  5
523
  8
TEAM-NET
 10
0.0
 20
-213.440306
 30
-725.391501
 40
21.0
210
0.0
220
-0.0
230
-1.0
 50
221.914727
 51
227.373533
  0
ARC
  5
524
  8
TEAM-NET
 10
0.0
 20
-213.440306
 30
-725.391501
 40
6.0
210
0.0
220
-0.0
230
-1.0
 50
144.238198
 51
215.050062
  0
LINE
  5
525
  8
TEAM-NET
 10
15.626937
 20
-227.468807
 30
725.391501
 11
4.911903
 21
-216.886057
 31
725.391501
210
0.0
220
-0.0
230
-1.0
  0
ARC
  5
526
  8
TEAM-NET
 10
0.0
 20
-213.440306
 30
-725.391501
 40
30.0
210
0.0
220
-0.0
230
-1.0
 50
0.0
 51
180.0
  0
ARC
  5
527
  8
TEAM-NET
 10
0.0
 20
-213.440306
 30
-725.391501
 40
30.0
210
0.0
220
-0.0
230
-1.0
 50
180.0
 51
0.0
  0
ARC
  5
528
  8
TEAM-NET
 10
0.0
 20
-213.440306
 30
726.213421
 40
30.0
 50
270.0
 51
0.0
  0
LINE
  5
529
  8
TEAM-NET
 10
30.0
 20
-213.440306
 30
726.213421
 11
30.0
 21
-213.440306
 31
725.391501
  0
ARC
  5
52A
  8
TEAM-NET
 10
0.0
 20
-213.440306
 30
726.213421
 40
30.0
 50
180.0
 51
270.0
  0
ARC
  5
52B
  8
TEAM-NET
 10
0.0
 20
-213.440306
 30
725.391501
 40
30.0
 50
180.0
 51
0.0
  0
LINE
  5
52C
  8
TEAM-NET
 10
-30.0
 20
-213.440306
 30
726.213421
 11
-30.0
 21
-213.440306
 31
725.391501
  0
ARC
  5
52D
  8
TEAM-NET
 10
0.0
 20
-213.440306
 30
726.213421
 40
30.0
 50
360.0
 51
90.0
  0
ARC
  5
52E
  8
TEAM-NET
 10
0.0
 20
-213.440306
 30
726.213421
 40
30.0
 50
270.0
 51
0.0
  0
LINE
  5
52F
  8
TEAM-NET
 10
-3.506501
 20
-208.571584
 30
725.391501
 11
-14.221535
 21
-197.988835
 31
725.391501
210
0.702701
220
0.711485
230
0.0
  0
ARC
  5
530
  8
TEAM-NET
 10
0.0
 20
-213.440306
 30
725.391501
 40
21.0
 50
132.626467
 51
138.085273
  0
LINE
  5
531
  8
TEAM-NET
 10
4.868722
 20
-209.933805
 30
725.391501
 11
15.451471
 21
-199.218771
 31
725.391501
210
0.711485
220
-0.702701
230
0.0
  0
ARC
  5
532
  8
TEAM-NET
 10
0.0
 20
-213.440306
 30
725.391501
 40
21.0
 50
42.626467
 51
48.085273
  0
LINE
  5
533
  8
TEAM-NET
 10
3.506501
 20
-218.309027
 30
725.391501
 11
14.221535
 21
-228.891777
 31
725.391501
210
-0.702701
220
-0.711485
230
0.0
  0
ARC
  5
534
  8
TEAM-NET
 10
0.0
 20
-213.440306
 30
725.391501
 40
21.0
 50
312.626467
 51
318.085273
  0
LINE
  5
535
  8
TEAM-NET
 10
-4.868722
 20
-216.946807
 30
725.391501
 11
-15.451471
 21
-227.66184
 31
725.391501
210
-0.711485
220
0.702701
230
-0.0
  0
ARC
  5
536
  8
TEAM-NET
 10
0.0
 20
-213.440306
 30
725.391501
 40
21.0
 50
222.626467
 51
228.085273
  0
LINE
  5
537
  8
TEAM-NET
 10
15.626937
 20
-227.468807
 30
725.391501
 11
4.911903
 21
-216.886057
 31
725.391501
210
0.702701
220
0.711485
230
0.0
  0
ARC
  5
538
  8
TEAM-NET
 10
0.0
 20
-213.440306
 30
725.391501
 40
6.0
 50
234.949938
 51
305.761802
  0
LINE
  5
539
  8
TEAM-NET
 10
14.028501
 20
-197.813369
 30
725.391501
 11
3.445752
 21
-208.528402
 31
725.391501
210
-0.711485
220
0.702701
230
-0.0
  0
ARC
  5
53A
  8
TEAM-NET
 10
0.0
 20
-213.440306
 30
725.391501
 40
6.0
 50
324.949938
 51
35.761802
  0
LINE
  5
53B
  8
TEAM-NET
 10
-15.626937
 20
-199.411805
 30
725.391501
 11
-4.911903
 21
-209.994554
 31
725.391501
210
-0.702701
220
-0.711485
230
0.0
  0
ARC
  5
53C
  8
TEAM-NET
 10
0.0
 20
-213.440306
 30
725.391501
 40
6.0
 50
144.949938
 51
215.761802
  0
ARC
  5
53D
  8
TEAM-NET
 10
0.0
 20
-213.440306
 30
725.391501
 40
6.0
 50
54.949938
 51
125.761802
  0
LINE
  5
53E
  8
TEAM-NET
 10
-14.028501
 20
-229.067243
 30
725.391501
 11
-3.445752
 21
-218.352209
 31
725.391501
210
0.711485
220
-0.702701
230
0.0
  0
ARC
  5
53F
  8
TEAM-NET
 10
0.0
 20
-213.440306
 30
726.213421
 40
30.0
 50
90.0
 51
180.0
  0
ARC
  5
540
  8
TEAM-NET
 10
0.0
 20
-213.440306
 30
726.213421
 40
30.0
 50
180.0
 51
270.0
  0
LINE
  5
541
  8
TEAM-NET
 10
30.0
 20
-213.440306
 30
726.213421
 11
30.0
 21
-213.440306
 31
725.391501
  0
ARC
  5
542
  8
TEAM-NET
 10
0.0
 20
-213.440306
 30
726.213421
 40
30.0
 50
360.0
 51
90.0
  0
ARC
  5
543
  8
TEAM-NET
 10
0.0
 20
-213.440306
 30
725.391501
 40
30.0
 50
360.0
 51
180.0
  0
ARC
  5
544
  8
TEAM-NET
 10
0.0
 20
-213.440306
 30
726.213421
 40
30.0
 50
90.0
 51
180.0
  0
LINE
  5
545
  8
TEAM-NET
 10
-30.0
 20
-213.440306
 30
726.213421
 11
-30.0
 21
-213.440306
 31
725.391501
  0
LINE
  5
546
  8
TEAM-NET
 10
-15.626937
 20
-199.411805
 30
725.391501
 11
-4.911903
 21
-209.994554
 31
725.391501
210
0.0
220
-0.0
230
-1.0
  0
LINE
  5
547
  8
TEAM-NET
 10
-90.89494
 20
-406.846467
 30
727.881832
 11
90.89494
 21
-406.846467
 31
727.881832
  0
LINE
  5
548
  8
TEAM-NET
 10
-90.89494
 20
-406.846467
 30
727.881832
 11
90.89494
 21
-406.846467
 31
727.881832
  0
LINE
  5
549
  8
TEAM-NET
 10
-26.87868
 20
-213.440306
 30
716.213421
 11
-31.12132
 21
-213.440306
 31
720.456062
  0
ARC
  5
54A
  8
TEAM-NET
 10
0.0
 20
-213.440306
 30
716.213421
 40
26.87868
 50
0.0
 51
180.0
  0
ARC
  5
54B
  8
TEAM-NET
 10
0.0
 20
-213.440306
 30
-720.456062
 40
31.12132
210
0.0
220
0.0
230
-1.0
 50
360.0
 51
180.0
  0
LINE
  5
54C
  8
TEAM-NET
 10
26.87868
 20
-213.440306
 30
716.213421
 11
31.12132
 21
-213.440306
 31
720.456062
  0
ARC
  5
54D
  8
TEAM-NET
 10
29.0
 20
714.092101
 30
213.440306
 40
3.0
210
0.0
220
-1.0
230
0.0
 50
135.0
 51
180.0
  0
ARC
  5
54E
  8
TEAM-NET
 10
0.0
 20
-213.440306
 30
716.213421
 40
26.87868
 50
0.0
 51
180.0
  0
ARC
  5
54F
  8
TEAM-NET
 10
0.0
 20
-213.440306
 30
-714.092101
 40
26.0
210
0.0
220
0.0
230
-1.0
 50
360.0
 51
180.0
  0
ARC
  5
550
  8
TEAM-NET
 10
29.0
 20
714.092101
 30
-213.440306
 40
3.0
210
0.0
220
1.0
230
0.0
 50
135.0
 51
180.0
  0
ARC
  5
551
  8
TEAM-NET
 10
0.0
 20
-213.440306
 30
713.529763
 40
21.0
 50
180.0
 51
0.0
  0
ARC
  5
552
  8
TEAM-NET
 10
0.0
 20
-213.440306
 30
713.687382
 40
22.0
 50
360.0
 51
180.0
  0
ARC
  5
553
  8
TEAM-NET
 10
0.0
 20
-213.440306
 30
713.687382
 40
22.0
 50
180.0
 51
0.0
  0
ARC
  5
554
  8
TEAM-NET
 10
0.0
 20
-213.440306
 30
713.529763
 40
21.0
 50
360.0
 51
180.0
  0
ARC
  5
555
  8
TEAM-NET
 10
0.0
 20
-213.440306
 30
-714.092101
 40
26.0
210
0.0
220
0.0
230
-1.0
 50
360.0
 51
180.0
  0
ARC
  5
556
  8
TEAM-NET
 10
0.0
 20
-213.440306
 30
-714.092101
 40
26.0
210
0.0
220
0.0
230
-1.0
 50
180.0
 51
0.0
  0
ARC
  5
557
  8
TEAM-NET
 10
0.0
 20
-213.440306
 30
-720.456062
 40
31.12132
210
0.0
220
0.0
230
-1.0
 50
180.0
 51
0.0
  0
ARC
  5
558
  8
TEAM-NET
 10
0.0
 20
-213.440306
 30
-720.456062
 40
31.12132
210
0.0
220
0.0
230
-1.0
 50
360.0
 51
180.0
  0
ARC
  5
559
  8
TEAM-NET
 10
0.0
 20
-213.440306
 30
713.529763
 40
21.0
 50
180.0
 51
0.0
  0
ARC
  5
55A
  8
TEAM-NET
 10
0.0
 20
-213.440306
 30
713.687382
 40
22.0
 50
360.0
 51
180.0
  0
ARC
  5
55B
  8
TEAM-NET
 10
0.0
 20
-213.440306
 30
713.687382
 40
22.0
 50
180.0
 51
0.0
  0
ARC
  5
55C
  8
TEAM-NET
 10
0.0
 20
-213.440306
 30
713.529763
 40
21.0
 50
360.0
 51
180.0
  0
LINE
  5
55D
  8
TEAM-NET
 10
-90.89494
 20
-138.440306
 30
721.334742
 11
90.89494
 21
-138.440306
 31
721.334742
  0
LINE
  5
55E
  8
TEAM-NET
 10
-90.89494
 20
-138.440306
 30
721.334742
 11
90.89494
 21
-138.440306
 31
721.334742
  0
LINE
  5
55F
  8
TEAM-NET
 10
-90.89494
 20
-420.263734
 30
721.334742
 11
-90.89494
 21
-420.26408
 31
721.334742
  0
LINE
  5
560
  8
TEAM-NET
 10
-90.89494
 20
-420.263734
 30
721.334742
 11
-90.89494
 21
-420.26408
 31
721.334742
210
0.0
220
0.0
230
-1.0
  0
LINE
  5
561
  8
TEAM-NET
 10
-90.89494
 20
-138.440306
 30
721.334742
 11
-90.89494
 21
-394.455006
 31
721.334742
  0
LINE
  5
562
  8
TEAM-NET
 10
-90.89494
 20
-138.440306
 30
721.334742
 11
-90.89494
 21
-394.455006
 31
721.334742
  0
LINE
  5
563
  8
TEAM-NET
 10
-90.89494
 20
-420.26408
 30
721.334742
 11
90.89494
 21
-420.26408
 31
721.334742
210
0.0
220
0.0
230
-1.0
  0
LINE
  5
564
  8
TEAM-NET
 10
-90.89494
 20
-420.263734
 30
721.334742
 11
90.89494
 21
-420.263734
 31
721.334742
210
0.0
220
0.0
230
-1.0
  0
LINE
  5
565
  8
TEAM-NET
 10
-90.89494
 20
-420.26408
 30
721.334742
 11
90.89494
 21
-420.26408
 31
721.334742
  0
LINE
  5
566
  8
TEAM-NET
 10
-90.89494
 20
-420.263734
 30
721.334742
 11
90.89494
 21
-420.263734
 31
721.334742
  0
LINE
  5
567
  8
TEAM-NET
 10
90.89494
 20
-394.455006
 30
721.334742
 11
-90.89494
 21
-394.455006
 31
721.334742
  0
LINE
  5
568
  8
TEAM-NET
 10
90.89494
 20
-394.455006
 30
721.334742
 11
-90.89494
 21
-394.455006
 31
721.334742
  0
LINE
  5
569
  8
TEAM-NET
 10
90.89494
 20
-420.263734
 30
721.334742
 11
90.89494
 21
-420.26408
 31
721.334742
  0
LINE
  5
56A
  8
TEAM-NET
 10
90.89494
 20
-420.263734
 30
721.334742
 11
90.89494
 21
-420.26408
 31
721.334742
210
0.0
220
0.0
230
-1.0
  0
LINE
  5
56B
  8
TEAM-NET
 10
90.89494
 20
-138.440306
 30
721.334742
 11
90.89494
 21
-394.455006
 31
721.334742
  0
LINE
  5
56C
  8
TEAM-NET
 10
90.89494
 20
-138.440306
 30
721.334742
 11
90.89494
 21
-394.455006
 31
721.334742
  0
LINE
  5
56D
  8
TEAM-NET
 10
90.89494
 20
-420.263734
 30
721.334742
 11
91.24954
 21
-420.264264
 31
721.335175
  0
LINE
  5
56E
  8
TEAM-NET
 10
90.89494
 20
-420.263734
 30
721.334742
 11
91.24954
 21
-420.264264
 31
721.335175
  0
ARC
  5
56F
  8
TEAM-NET
 10
-33.242641
 20
718.334742
 30
213.440306
 40
3.0
210
0.0
220
-1.0
230
0.0
 50
45.0
 51
90.0
  0
ARC
  5
570
  8
TEAM-NET
 10
-33.242641
 20
718.334742
 30
-213.440306
 40
3.0
210
0.0
220
1.0
230
0.0
 50
45.0
 51
90.0
  0
ARC
  5
571
  8
TEAM-NET
 10
-33.242641
 20
718.334742
 30
213.440306
 40
3.0
210
0.0
220
-1.0
230
0.0
 50
45.0
 51
90.0
  0
ARC
  5
572
  8
TEAM-NET
 10
-33.242641
 20
718.334742
 30
-213.440306
 40
3.0
210
0.0
220
1.0
230
0.0
 50
45.0
 51
90.0
  0
LINE
  5
573
  8
TEAM-NET
 10
31.895533
 20
-213.440306
 30
722.213421
 11
21.0
 21
-213.440306
 31
713.529763
  0
LINE
  5
574
  8
TEAM-NET
 10
-31.895533
 20
-213.440306
 30
722.213421
 11
-21.0
 21
-213.440306
 31
713.529763
  0
LINE
  5
575
  8
TEAM-NET
 10
32.697766
 20
-213.440306
 30
722.213421
 11
22.0
 21
-213.440306
 31
713.687382
  0
LINE
  5
576
  8
TEAM-NET
 10
-32.697766
 20
-213.440306
 30
722.213421
 11
-22.0
 21
-213.440306
 31
713.687382
  0
LINE
  5
577
  8
TEAM-NET
 10
32.697766
 20
-213.440306
 30
722.213421
 11
22.0
 21
-213.440306
 31
713.687382
  0
LINE
  5
578
  8
TEAM-NET
 10
-32.697766
 20
-213.440306
 30
722.213421
 11
-22.0
 21
-213.440306
 31
713.687382
  0
LINE
  5
579
  8
TEAM-NET
 10
31.895533
 20
-213.440306
 30
722.213421
 11
21.0
 21
-213.440306
 31
713.529763
  0
LINE
  5
57A
  8
TEAM-NET
 10
-31.895533
 20
-213.440306
 30
722.213421
 11
-21.0
 21
-213.440306
 31
713.529763
  0
ARC
  5
57B
  8
TEAM-NET
 10
0.0
 20
-213.440306
 30
722.213421
 40
31.895533
 50
360.0
 51
180.0
  0
ARC
  5
57C
  8
TEAM-NET
 10
0.0
 20
-213.440306
 30
722.213421
 40
31.895533
 50
180.0
 51
0.0
  0
ARC
  5
57D
  8
TEAM-NET
 10
0.0
 20
-213.440306
 30
722.213421
 40
32.697766
 50
360.0
 51
180.0
  0
ARC
  5
57E
  8
TEAM-NET
 10
0.0
 20
-213.440306
 30
722.213421
 40
32.697766
 50
180.0
 51
0.0
  0
ARC
  5
57F
  8
TEAM-NET
 10
0.0
 20
-213.440306
 30
722.213421
 40
31.895533
 50
180.0
 51
0.0
  0
ARC
  5
580
  8
TEAM-NET
 10
0.0
 20
-213.440306
 30
722.213421
 40
32.697766
 50
360.0
 51
180.0
  0
ARC
  5
581
  8
TEAM-NET
 10
0.0
 20
-213.440306
 30
722.213421
 40
32.697766
 50
180.0
 51
0.0
  0
ARC
  5
582
  8
TEAM-NET
 10
0.0
 20
-213.440306
 30
722.213421
 40
31.895533
 50
360.0
 51
180.0
  0
ARC
  5
583
  8
TEAM-NET
 10
0.0
 20
-213.440306
 30
721.334742
 40
33.242641
 50
0.0
 51
180.0
  0
ARC
  5
584
  8
TEAM-NET
 10
0.0
 20
-213.440306
 30
721.334742
 40
33.242641
 50
180.0
 51
0.0
  0
ARC
  5
585
  8
TEAM-NET
 10
0.0
 20
-213.440306
 30
721.334742
 40
33.242641
 50
180.0
 51
0.0
  0
ARC
  5
586
  8
TEAM-NET
 10
0.0
 20
-213.440306
 30
721.334742
 40
33.242641
 50
0.0
 51
180.0
  0
ARC
  5
587
  8
TEAM-NET
 10
29.0
 20
714.092101
 30
213.440306
 40
3.0
210
0.0
220
-1.0
230
0.0
 50
135.0
 51
180.0
  0
ARC
  5
588
  8
TEAM-NET
 10
0.0
 20
-213.440306
 30
-714.092101
 40
26.0
210
0.0
220
0.0
230
-1.0
 50
180.0
 51
0.0
  0
ARC
  5
589
  8
TEAM-NET
 10
0.0
 20
-213.440306
 30
716.213421
 40
26.87868
 50
180.0
 51
0.0
  0
ARC
  5
58A
  8
TEAM-NET
 10
29.0
 20
714.092101
 30
-213.440306
 40
3.0
210
0.0
220
1.0
230
0.0
 50
135.0
 51
180.0
  0
LINE
  5
58B
  8
TEAM-NET
 10
-26.87868
 20
-213.440306
 30
716.213421
 11
-31.12132
 21
-213.440306
 31
720.456062
  0
ARC
  5
58C
  8
TEAM-NET
 10
0.0
 20
-213.440306
 30
-720.456062
 40
31.12132
210
0.0
220
0.0
230
-1.0
 50
180.0
 51
0.0
  0
ARC
  5
58D
  8
TEAM-NET
 10
0.0
 20
-213.440306
 30
716.213421
 40
26.87868
 50
180.0
 51
0.0
  0
LINE
  5
58E
  8
TEAM-NET
 10
26.87868
 20
-213.440306
 30
716.213421
 11
31.12132
 21
-213.440306
 31
720.456062
  0
ARC
  5
58F
  8
TEAM-NET
 10
-394.455006
 20
736.334742
 30
-90.89494
 40
15.0
210
1.0
220
0.0
230
0.0
 50
214.300086
 51
270.0
  0
ARC
  5
590
  8
TEAM-NET
 10
-394.455006
 20
736.334742
 30
-90.89494
 40
15.0
210
1.0
220
0.0
230
0.0
 50
214.300086
 51
270.0
  0
ARC
  5
591
  8
TEAM-NET
 10
-394.455006
 20
736.334742
 30
90.89494
 40
15.0
210
1.0
220
0.0
230
0.0
 50
214.300086
 51
270.0
  0
ARC
  5
592
  8
TEAM-NET
 10
-394.455006
 20
736.334742
 30
90.89494
 40
15.0
210
1.0
220
0.0
230
0.0
 50
214.300086
 51
270.0
  0
ARC
  5
593
  8
TEAM-NET
 10
-138.440306
 20
736.334742
 30
90.89494
 40
15.0
210
1.0
220
0.0
230
0.0
 50
270.0
 51
0.0
  0
ARC
  5
594
  8
TEAM-NET
 10
-138.440306
 20
736.334742
 30
90.89494
 40
15.0
210
1.0
220
0.0
230
0.0
 50
270.0
 51
0.0
  0
ARC
  5
595
  8
TEAM-NET
 10
-138.440306
 20
736.334742
 30
-90.89494
 40
15.0
210
1.0
220
0.0
230
0.0
 50
270.0
 51
0.0
  0
ARC
  5
596
  8
TEAM-NET
 10
-138.440306
 20
736.334742
 30
-90.89494
 40
15.0
210
1.0
220
0.0
230
0.0
 50
270.0
 51
0.0
  0
LINE
  5
597
  8
TEAM-NET
 10
4.68381
 20
-105.06418
 30
932.652518
 11
4.68381
 21
-219.378311
 31
872.622005
  0
LINE
  5
598
  8
TEAM-NET
 10
-4.68381
 20
-105.06418
 30
932.652518
 11
-4.68381
 21
-219.378311
 31
872.622005
  0
LINE
  5
599
  8
TEAM-NET
 10
-14.0
 20
-217.798506
 30
873.898163
 11
-14.0
 21
-103.508375
 31
933.909288
  0
LINE
  5
59A
  8
TEAM-NET
 10
14.0
 20
-217.798506
 30
873.898163
 11
14.0
 21
-103.508375
 31
933.909288
  0
LINE
  5
59B
  8
TEAM-NET
 10
-14.0
 20
-217.798506
 30
873.898163
 11
-14.0
 21
-103.508375
 31
933.909288
  0
LINE
  5
59C
  8
TEAM-NET
 10
14.0
 20
-217.798506
 30
873.898163
 11
14.0
 21
-103.508375
 31
933.909288
  0
LINE
  5
59D
  8
TEAM-NET
 10
4.68381
 20
-105.06418
 30
932.652518
 11
4.68381
 21
-219.378311
 31
872.622005
  0
LINE
  5
59E
  8
TEAM-NET
 10
-4.68381
 20
-105.06418
 30
932.652518
 11
-4.68381
 21
-219.378311
 31
872.622005
  0
LINE
  5
59F
  8
TEAM-NET
 10
0.0
 20
-79.164919
 30
950.328853
 11
0.0
 21
-60.06362
 31
842.0
  0
LINE
  5
5A0
  8
TEAM-NET
 10
0.0
 20
-123.481268
 30
942.514685
 11
0.0
 21
-105.757817
 31
842.0
  0
LINE
  5
5A1
  8
TEAM-NET
 10
0.0
 20
-79.164919
 30
950.328853
 11
0.0
 21
-60.06362
 31
842.0
  0
LINE
  5
5A2
  8
TEAM-NET
 10
0.0
 20
-123.481268
 30
942.514685
 11
0.0
 21
-105.757817
 31
842.0
  0
ARC
  5
5A3
  8
TEAM-NET
 10
-261.366937
 20
845.0
 30
50.152535
 40
5.0
210
0.0
220
-1.0
230
0.0
 50
8.187407
 51
90.0
  0
ARC
  5
5A4
  8
TEAM-NET
 10
-261.366937
 20
845.0
 30
50.152535
 40
5.0
210
0.0
220
-1.0
230
0.0
 50
8.187407
 51
90.0
  0
ARC
  5
5A5
  8
TEAM-NET
 10
259.113404
 20
845.0
 30
50.152535
 40
5.0
210
0.0
220
-1.0
230
0.0
 50
90.0
 51
171.812593
  0
ARC
  5
5A6
  8
TEAM-NET
 10
259.113404
 20
845.0
 30
50.152535
 40
5.0
210
0.0
220
-1.0
230
0.0
 50
90.0
 51
171.812593
  0
ARC
  5
5A7
  8
TEAM-NET
 10
518.0
 20
843.0
 30
50.152535
 40
7.0
210
0.0
220
-1.0
230
0.0
 50
0.0
 51
90.0
  0
ARC
  5
5A8
  8
TEAM-NET
 10
518.0
 20
843.0
 30
50.152535
 40
7.0
210
0.0
220
-1.0
230
0.0
 50
0.0
 51
90.0
  0
ARC
  5
5A9
  8
TEAM-NET
 10
-518.0
 20
843.0
 30
50.152535
 40
7.0
210
0.0
220
-1.0
230
0.0
 50
90.0
 51
180.0
  0
ARC
  5
5AA
  8
TEAM-NET
 10
-518.0
 20
843.0
 30
50.152535
 40
7.0
210
0.0
220
-1.0
230
0.0
 50
90.0
 51
180.0
  0
ARC
  5
5AB
  8
TEAM-NET
 10
-261.366937
 20
845.0
 30
428.058313
 40
5.0
210
0.0
220
-1.0
230
0.0
 50
8.187407
 51
90.0
  0
ARC
  5
5AC
  8
TEAM-NET
 10
-448.075178
 20
845.0
 30
-241.133097
 40
5.0
210
1.0
220
0.0
230
0.0
 50
0.075403
 51
90.0
  0
ARC
  5
5AD
  8
TEAM-NET
 10
-261.366937
 20
845.0
 30
428.058313
 40
5.0
210
0.0
220
-1.0
230
0.0
 50
8.187407
 51
90.0
  0
ARC
  5
5AE
  8
TEAM-NET
 10
-448.075178
 20
845.0
 30
-241.133097
 40
5.0
210
1.0
220
0.0
230
0.0
 50
0.075403
 51
90.0
  0
ARC
  5
5AF
  8
TEAM-NET
 10
259.113404
 20
845.0
 30
428.058313
 40
5.0
210
0.0
220
-1.0
230
0.0
 50
90.0
 51
171.812593
  0
ARC
  5
5B0
  8
TEAM-NET
 10
259.113404
 20
845.0
 30
428.058313
 40
5.0
210
0.0
220
-1.0
230
0.0
 50
90.0
 51
171.812593
  0
ARC
  5
5B1
  8
TEAM-NET
 10
448.075178
 20
845.0
 30
-238.879563
 40
5.0
210
-1.0
220
0.0
230
0.0
 50
90.0
 51
179.924597
  0
ARC
  5
5B2
  8
TEAM-NET
 10
448.075178
 20
845.0
 30
-238.879563
 40
5.0
210
-1.0
220
0.0
230
0.0
 50
90.0
 51
179.924597
  0
ARC
  5
5B3
  8
TEAM-NET
 10
518.0
 20
843.0
 30
448.440306
 40
7.0
210
0.0
220
-1.0
230
0.0
 50
0.0
 51
90.0
  0
ARC
  5
5B4
  8
TEAM-NET
 10
518.0
 20
843.0
 30
448.440306
 40
7.0
210
0.0
220
-1.0
230
0.0
 50
0.0
 51
90.0
  0
ARC
  5
5B5
  8
TEAM-NET
 10
481.440306
 20
843.0
 30
-485.0
 40
7.0
210
-1.0
220
0.0
230
0.0
 50
0.0
 51
90.0
  0
ARC
  5
5B6
  8
TEAM-NET
 10
481.440306
 20
843.0
 30
-485.0
 40
7.0
210
-1.0
220
0.0
230
0.0
 50
0.0
 51
90.0
  0
ARC
  5
5B7
  8
TEAM-NET
 10
-518.0
 20
843.0
 30
448.440306
 40
7.0
210
0.0
220
-1.0
230
0.0
 50
90.0
 51
180.0
  0
ARC
  5
5B8
  8
TEAM-NET
 10
-518.0
 20
843.0
 30
448.440306
 40
7.0
210
0.0
220
-1.0
230
0.0
 50
90.0
 51
180.0
  0
ARC
  5
5B9
  8
TEAM-NET
 10
-481.440306
 20
843.0
 30
-485.0
 40
7.0
210
1.0
220
0.0
230
0.0
 50
90.0
 51
180.0
  0
ARC
  5
5BA
  8
TEAM-NET
 10
-481.440306
 20
843.0
 30
-485.0
 40
7.0
210
1.0
220
0.0
230
0.0
 50
90.0
 51
180.0
  0
LINE
  5
5BB
  8
TEAM-NET
 10
-257.296833
 20
-32.0657
 30
853.195264
 11
-256.389049
 21
-33.009022
 31
845.512523
  0
POLYLINE
  5
5BC
  8
TEAM-NET
 66
     1
 10
0.0
 20
0.0
 30
0.0
 70
     8
  0
VERTEX
  5
5BD
  8
TEAM-NET
 10
-256.4179
 20
-50.152535
 30
845.712057
 70
    32
  0
VERTEX
  5
5BE
  8
TEAM-NET
 10
-256.488075
 20
-45.124498
 30
846.205846
 70
    32
  0
VERTEX
  5
5BF
  8
TEAM-NET
 10
-256.685223
 20
-40.308789
 30
847.66412
 70
    32
  0
VERTEX
  5
5C0
  8
TEAM-NET
 10
-256.9731
 20
-35.892024
 30
850.029487
 70
    32
  0
VERTEX
  5
5C1
  8
TEAM-NET
 10
-257.296841
 20
-32.065722
 30
853.195285
 70
    32
  0
SEQEND
  5
5C2
  8
TEAM-NET
  0
LINE
  5
5C3
  8
TEAM-NET
 10
-257.296833
 20
-32.0657
 30
853.195264
 11
-256.389049
 21
-33.009022
 31
845.512523
  0
POLYLINE
  5
5C4
  8
TEAM-NET
 66
     1
 10
0.0
 20
0.0
 30
0.0
 70
     8
  0
VERTEX
  5
5C5
  8
TEAM-NET
 10
-256.4179
 20
-50.152535
 30
845.712057
 70
    32
  0
VERTEX
  5
5C6
  8
TEAM-NET
 10
-256.488075
 20
-45.124498
 30
846.205846
 70
    32
  0
VERTEX
  5
5C7
  8
TEAM-NET
 10
-256.685223
 20
-40.308789
 30
847.66412
 70
    32
  0
VERTEX
  5
5C8
  8
TEAM-NET
 10
-256.9731
 20
-35.892024
 30
850.029487
 70
    32
  0
VERTEX
  5
5C9
  8
TEAM-NET
 10
-257.296841
 20
-32.065722
 30
853.195285
 70
    32
  0
SEQEND
  5
5CA
  8
TEAM-NET
  0
LINE
  5
5CB
  8
TEAM-NET
 10
254.135516
 20
-33.009022
 30
845.512523
 11
255.043299
 21
-32.0657
 31
853.195264
  0
POLYLINE
  5
5CC
  8
TEAM-NET
 66
     1
 10
0.0
 20
0.0
 30
0.0
 70
     8
  0
VERTEX
  5
5CD
  8
TEAM-NET
 10
255.04331
 20
-32.06572
 30
853.195283
 70
    32
  0
VERTEX
  5
5CE
  8
TEAM-NET
 10
254.719587
 20
-35.891827
 30
850.029579
 70
    32
  0
VERTEX
  5
5CF
  8
TEAM-NET
 10
254.431706
 20
-40.308481
 30
847.664202
 70
    32
  0
VERTEX
  5
5D0
  8
TEAM-NET
 10
254.234548
 20
-45.124303
 30
846.205861
 70
    32
  0
VERTEX
  5
5D1
  8
TEAM-NET
 10
254.164366
 20
-50.152535
 30
845.712057
 70
    32
  0
SEQEND
  5
5D2
  8
TEAM-NET
  0
LINE
  5
5D3
  8
TEAM-NET
 10
255.043299
 20
-32.0657
 30
853.195264
 11
254.135516
 21
-33.009022
 31
845.512523
  0
POLYLINE
  5
5D4
  8
TEAM-NET
 66
     1
 10
0.0
 20
0.0
 30
0.0
 70
     8
  0
VERTEX
  5
5D5
  8
TEAM-NET
 10
255.04331
 20
-32.06572
 30
853.195283
 70
    32
  0
VERTEX
  5
5D6
  8
TEAM-NET
 10
254.719587
 20
-35.891827
 30
850.029579
 70
    32
  0
VERTEX
  5
5D7
  8
TEAM-NET
 10
254.431706
 20
-40.308481
 30
847.664202
 70
    32
  0
VERTEX
  5
5D8
  8
TEAM-NET
 10
254.234548
 20
-45.124303
 30
846.205861
 70
    32
  0
VERTEX
  5
5D9
  8
TEAM-NET
 10
254.164366
 20
-50.152535
 30
845.712057
 70
    32
  0
SEQEND
  5
5DA
  8
TEAM-NET
  0
LINE
  5
5DB
  8
TEAM-NET
 10
-3.0
 20
-69.056515
 30
877.068735
 11
-3.0
 21
-75.501964
 31
842.745107
  0
LINE
  5
5DC
  8
TEAM-NET
 10
-2.0
 20
-76.484785
 30
842.929666
 11
-2.0
 21
-70.039337
 31
877.253294
  0
LINE
  5
5DD
  8
TEAM-NET
 10
2.0
 20
-70.039337
 30
877.253294
 11
2.0
 21
-76.484785
 31
842.929666
210
-0.0
220
-0.982821
230
0.184559
  0
LINE
  5
5DE
  8
TEAM-NET
 10
-2.0
 20
-76.484785
 30
842.929666
 11
-2.0
 21
-70.039337
 31
877.253294
210
-0.0
220
-0.982821
230
0.184559
  0
LINE
  5
5DF
  8
TEAM-NET
 10
2.0
 20
-70.039337
 30
877.253294
 11
2.0
 21
-76.484785
 31
842.929666
  0
LINE
  5
5E0
  8
TEAM-NET
 10
3.0
 20
-75.501964
 30
842.745107
 11
3.0
 21
-69.056515
 31
877.068735
  0
LINE
  5
5E1
  8
TEAM-NET
 10
-1.0
 20
-66.093941
 30
876.590182
 11
-1.0
 21
-72.553496
 31
842.19143
  0
LINE
  5
5E2
  8
TEAM-NET
 10
-3.0
 20
-68.059584
 30
876.9593
 11
-3.0
 21
-74.519139
 31
842.560548
  0
LINE
  5
5E3
  8
TEAM-NET
 10
1.0
 20
-72.553496
 30
842.19143
 11
1.0
 21
-66.093941
 31
876.590182
210
0.0
220
0.982821
230
-0.184559
  0
LINE
  5
5E4
  8
TEAM-NET
 10
-1.0
 20
-66.093941
 30
876.590182
 11
-1.0
 21
-72.553496
 31
842.19143
210
0.0
220
0.982821
230
-0.184559
  0
LINE
  5
5E5
  8
TEAM-NET
 10
3.0
 20
-68.059584
 30
876.9593
 11
3.0
 21
-74.519139
 31
842.560548
  0
LINE
  5
5E6
  8
TEAM-NET
 10
1.0
 20
-72.553496
 30
842.19143
 11
1.0
 21
-66.093941
 31
876.590182
  0
LINE
  5
5E7
  8
TEAM-NET
 10
3.0
 20
-68.059584
 30
876.9593
 11
3.0
 21
-74.519139
 31
842.560548
210
1.0
220
-0.0
230
-0.0
  0
LINE
  5
5E8
  8
TEAM-NET
 10
3.0
 20
-75.501964
 30
842.745107
 11
3.0
 21
-69.056515
 31
877.068735
210
1.0
220
-0.0
230
-0.0
  0
LINE
  5
5E9
  8
TEAM-NET
 10
-3.0
 20
-69.056515
 30
877.068735
 11
-3.0
 21
-75.501964
 31
842.745107
210
-1.0
220
0.0
230
0.0
  0
LINE
  5
5EA
  8
TEAM-NET
 10
-3.0
 20
-68.059584
 30
876.9593
 11
-3.0
 21
-74.519139
 31
842.560548
210
-1.0
220
0.0
230
0.0
  0
ARC
  5
5EB
  8
TEAM-NET
 10
50.152535
 20
870.0
 30
-518.0
 40
20.0
210
-1.0
220
0.0
230
0.0
 50
187.0
 51
270.0
  0
ARC
  5
5EC
  8
TEAM-NET
 10
50.152535
 20
870.0
 30
-518.0
 40
20.0
210
-1.0
220
0.0
230
0.0
 50
187.0
 51
270.0
  0
ARC
  5
5ED
  8
TEAM-NET
 10
-50.152535
 20
870.0
 30
-518.0
 40
20.0
210
1.0
220
0.0
230
0.0
 50
270.0
 51
353.0
  0
ARC
  5
5EE
  8
TEAM-NET
 10
-50.152535
 20
870.0
 30
-518.0
 40
20.0
210
1.0
220
0.0
230
0.0
 50
270.0
 51
353.0
  0
ARC
  5
5EF
  8
TEAM-NET
 10
-50.152535
 20
870.0
 30
525.0
 40
27.0
210
1.0
220
0.0
230
0.0
 50
270.0
 51
353.0
  0
ARC
  5
5F0
  8
TEAM-NET
 10
-50.152535
 20
870.0
 30
525.0
 40
27.0
210
1.0
220
0.0
230
0.0
 50
270.0
 51
353.0
  0
ARC
  5
5F1
  8
TEAM-NET
 10
50.152535
 20
870.0
 30
525.0
 40
27.0
210
-1.0
220
0.0
230
0.0
 50
187.0
 51
270.0
  0
ARC
  5
5F2
  8
TEAM-NET
 10
50.152535
 20
870.0
 30
525.0
 40
27.0
210
-1.0
220
0.0
230
0.0
 50
187.0
 51
270.0
  0
LINE
  5
5F3
  8
TEAM-NET
 10
525.0
 20
1.559694
 30
825.00089
 11
525.0
 21
1.559694
 31
878.0
210
0.0
220
1.0
230
0.0
  0
LINE
  5
5F4
  8
TEAM-NET
 10
525.0
 20
1.559694
 30
825.00089
 11
525.0
 21
1.559694
 31
878.0
210
1.0
220
0.0
230
0.0
  0
LINE
  5
5F5
  8
TEAM-NET
 10
-525.0
 20
1.559694
 30
825.00089
 11
-525.0
 21
1.559694
 31
878.0
210
0.0
220
1.0
230
0.0
  0
LINE
  5
5F6
  8
TEAM-NET
 10
-525.0
 20
1.559694
 30
825.00089
 11
-525.0
 21
1.559694
 31
878.0
210
-1.0
220
0.0
230
0.0
  0
ARC
  5
5F7
  8
TEAM-NET
 10
-91.126244
 20
885.863098
 30
1.559694
 40
428.960128
210
0.0
220
1.0
230
0.0
 50
188.832086
 51
190.162837
  0
ARC
  5
5F8
  8
TEAM-NET
 10
-91.126244
 20
885.863098
 30
1.559694
 40
428.960128
210
0.0
220
1.0
230
0.0
 50
188.832086
 51
190.162837
  0
POLYLINE
  5
5F9
  8
TEAM-NET
 66
     1
 10
0.0
 20
0.0
 30
0.0
 70
     8
  0
VERTEX
  5
5FA
  8
TEAM-NET
 10
513.3561
 20
-443.892349
 30
810.174656
 70
    32
  0
VERTEX
  5
5FB
  8
TEAM-NET
 10
513.707236
 20
-445.537241
 30
812.160428
 70
    32
  0
VERTEX
  5
5FC
  8
TEAM-NET
 10
514.260258
 20
-446.303363
 30
815.404614
 70
    32
  0
VERTEX
  5
5FD
  8
TEAM-NET
 10
514.770089
 20
-446.198868
 30
818.537893
 70
    32
  0
VERTEX
  5
5FE
  8
TEAM-NET
 10
515.0
 20
-445.172874
 30
820.00089
 70
    32
  0
SEQEND
  5
5FF
  8
TEAM-NET
  0
POLYLINE
  5
600
  8
TEAM-NET
 66
     1
 10
0.0
 20
0.0
 30
0.0
 70
     8
  0
VERTEX
  5
601
  8
TEAM-NET
 10
513.3561
 20
-443.892349
 30
810.174656
 70
    32
  0
VERTEX
  5
602
  8
TEAM-NET
 10
513.707236
 20
-445.537241
 30
812.160428
 70
    32
  0
VERTEX
  5
603
  8
TEAM-NET
 10
514.260258
 20
-446.303363
 30
815.404614
 70
    32
  0
VERTEX
  5
604
  8
TEAM-NET
 10
514.770089
 20
-446.198868
 30
818.537893
 70
    32
  0
VERTEX
  5
605
  8
TEAM-NET
 10
515.0
 20
-445.172874
 30
820.00089
 70
    32
  0
SEQEND
  5
606
  8
TEAM-NET
  0
ARC
  5
607
  8
TEAM-NET
 10
-40.0
 20
815.0
 30
-120.440306
 40
10.0
210
0.0
220
1.0
230
0.0
 50
180.0
 51
270.0
  0
ARC
  5
608
  8
TEAM-NET
 10
-40.0
 20
815.0
 30
-120.440306
 40
10.0
210
0.0
220
1.0
230
0.0
 50
270.0
 51
0.0
  0
ARC
  5
609
  8
TEAM-NET
 10
-40.0
 20
815.0
 30
-120.440306
 40
10.0
210
0.0
220
1.0
230
0.0
 50
270.0
 51
0.0
  0
ARC
  5
60A
  8
TEAM-NET
 10
-40.0
 20
815.0
 30
-120.440306
 40
10.0
210
0.0
220
1.0
230
0.0
 50
180.0
 51
270.0
  0
ARC
  5
60B
  8
TEAM-NET
 10
40.0
 20
815.0
 30
118.440306
 40
10.0
210
0.0
220
-1.0
230
0.0
 50
180.0
 51
0.0
  0
ARC
  5
60C
  8
TEAM-NET
 10
40.0
 20
815.0
 30
118.440306
 40
10.0
210
0.0
220
-1.0
230
0.0
 50
360.0
 51
180.0
  0
ARC
  5
60D
  8
TEAM-NET
 10
40.0
 20
815.0
 30
118.440306
 40
10.0
210
0.0
220
-1.0
230
0.0
 50
180.0
 51
0.0
  0
ARC
  5
60E
  8
TEAM-NET
 10
40.0
 20
815.0
 30
118.440306
 40
10.0
210
0.0
220
-1.0
230
0.0
 50
360.0
 51
180.0
  0
ARC
  5
60F
  8
TEAM-NET
 10
40.0
 20
815.0
 30
123.440306
 40
13.0
210
0.0
220
-1.0
230
0.0
 50
270.0
 51
0.0
  0
ARC
  5
610
  8
TEAM-NET
 10
40.0
 20
815.0
 30
123.440306
 40
13.0
210
0.0
220
-1.0
230
0.0
 50
270.0
 51
0.0
  0
ARC
  5
611
  8
TEAM-NET
 10
40.0
 20
815.0
 30
123.440306
 40
13.0
210
0.0
220
-1.0
230
0.0
 50
90.0
 51
270.0
  0
ARC
  5
612
  8
TEAM-NET
 10
40.0
 20
815.0
 30
123.440306
 40
13.0
210
0.0
220
-1.0
230
0.0
 50
90.0
 51
270.0
  0
ARC
  5
613
  8
TEAM-NET
 10
-120.440306
 20
802.0
 30
40.0
 40
3.0
210
1.0
220
0.0
230
0.0
 50
90.0
 51
180.0
  0
ARC
  5
614
  8
TEAM-NET
 10
-120.440306
 20
802.0
 30
40.0
 40
3.0
210
1.0
220
0.0
230
0.0
 50
90.0
 51
180.0
  0
LINE
  5
615
  8
TEAM-NET
 10
513.3561
 20
-443.892349
 30
810.174656
 11
513.3561
 21
1.559694
 31
810.174656
  0
LINE
  5
616
  8
TEAM-NET
 10
513.3561
 20
-443.892349
 30
810.174656
 11
513.3561
 21
1.559694
 31
810.174656
  0
LINE
  5
617
  8
TEAM-NET
 10
-169.469739
 20
1.559694
 30
785.0
 11
-169.469739
 21
-33.440306
 31
785.0
  0
LINE
  5
618
  8
TEAM-NET
 10
-154.469739
 20
1.559694
 30
785.0
 11
-154.469739
 21
-33.440306
 31
785.0
  0
LINE
  5
619
  8
TEAM-NET
 10
-169.469739
 20
1.559694
 30
785.0
 11
-169.469739
 21
-33.440306
 31
785.0
  0
LINE
  5
61A
  8
TEAM-NET
 10
-154.469739
 20
1.559694
 30
785.0
 11
-154.469739
 21
-33.440306
 31
785.0
  0
ARC
  5
61B
  8
TEAM-NET
 10
-161.969739
 20
785.0
 30
33.440306
 40
7.5
210
0.0
220
-1.0
230
0.0
 50
180.0
 51
0.0
  0
ARC
  5
61C
  8
TEAM-NET
 10
-161.969739
 20
785.0
 30
33.440306
 40
7.5
210
0.0
220
-1.0
230
0.0
 50
360.0
 51
180.0
  0
ARC
  5
61D
  8
TEAM-NET
 10
161.969739
 20
785.0
 30
1.559694
 40
7.5
210
0.0
220
1.0
230
0.0
 50
0.0
 51
180.0
  0
ARC
  5
61E
  8
TEAM-NET
 10
161.969739
 20
785.0
 30
1.559694
 40
7.5
210
0.0
220
1.0
230
0.0
 50
180.0
 51
0.0
  0
ARC
  5
61F
  8
TEAM-NET
 10
161.969739
 20
785.0
 30
-33.440306
 40
7.5
210
0.0
220
1.0
230
0.0
 50
180.0
 51
0.0
  0
ARC
  5
620
  8
TEAM-NET
 10
-161.969739
 20
785.0
 30
-1.559694
 40
7.5
210
0.0
220
-1.0
230
0.0
 50
180.0
 51
0.0
  0
ARC
  5
621
  8
TEAM-NET
 10
-161.969739
 20
785.0
 30
-1.559694
 40
7.5
210
0.0
220
-1.0
230
0.0
 50
360.0
 51
180.0
  0
ARC
  5
622
  8
TEAM-NET
 10
161.969739
 20
785.0
 30
-33.440306
 40
7.5
210
0.0
220
1.0
230
0.0
 50
0.0
 51
180.0
  0
LINE
  5
623
  8
TEAM-NET
 10
152.216205
 20
1.559694
 30
785.0
 11
152.216205
 21
-33.440306
 31
785.0
  0
LINE
  5
624
  8
TEAM-NET
 10
167.216205
 20
1.559694
 30
785.0
 11
167.216205
 21
-33.440306
 31
785.0
  0
LINE
  5
625
  8
TEAM-NET
 10
152.216205
 20
1.559694
 30
785.0
 11
152.216205
 21
-33.440306
 31
785.0
  0
LINE
  5
626
  8
TEAM-NET
 10
167.216205
 20
1.559694
 30
785.0
 11
167.216205
 21
-33.440306
 31
785.0
  0
ARC
  5
627
  8
TEAM-NET
 10
159.716205
 20
785.0
 30
33.440306
 40
7.5
210
0.0
220
-1.0
230
0.0
 50
180.0
 51
0.0
  0
ARC
  5
628
  8
TEAM-NET
 10
159.716205
 20
785.0
 30
33.440306
 40
7.5
210
0.0
220
-1.0
230
0.0
 50
360.0
 51
180.0
  0
ARC
  5
629
  8
TEAM-NET
 10
-159.716205
 20
785.0
 30
1.559694
 40
7.5
210
0.0
220
1.0
230
0.0
 50
0.0
 51
180.0
  0
ARC
  5
62A
  8
TEAM-NET
 10
-159.716205
 20
785.0
 30
1.559694
 40
7.5
210
0.0
220
1.0
230
0.0
 50
180.0
 51
0.0
  0
ARC
  5
62B
  8
TEAM-NET
 10
-159.716205
 20
785.0
 30
-33.440306
 40
7.5
210
0.0
220
1.0
230
0.0
 50
180.0
 51
0.0
  0
ARC
  5
62C
  8
TEAM-NET
 10
159.716205
 20
785.0
 30
-1.559694
 40
7.5
210
0.0
220
-1.0
230
0.0
 50
180.0
 51
0.0
  0
ARC
  5
62D
  8
TEAM-NET
 10
159.716205
 20
785.0
 30
-1.559694
 40
7.5
210
0.0
220
-1.0
230
0.0
 50
360.0
 51
180.0
  0
ARC
  5
62E
  8
TEAM-NET
 10
-159.716205
 20
785.0
 30
-33.440306
 40
7.5
210
0.0
220
1.0
230
0.0
 50
0.0
 51
180.0
  0
LINE
  5
62F
  8
TEAM-NET
 10
-181.969739
 20
-108.440306
 30
840.0
 11
-181.969739
 21
-33.440306
 31
840.0
210
1.0
220
0.0
230
0.0
  0
LINE
  5
630
  8
TEAM-NET
 10
-181.969739
 20
-108.440306
 30
840.0
 11
-181.969739
 21
-33.440306
 31
840.0
210
0.0
220
0.0
230
-1.0
  0
LINE
  5
631
  8
TEAM-NET
 10
-181.969739
 20
-33.440306
 30
840.0
 11
179.716205
 21
-33.440306
 31
840.0
210
0.0
220
0.0
230
-1.0
  0
LINE
  5
632
  8
TEAM-NET
 10
179.716205
 20
-108.440306
 30
840.0
 11
-181.969739
 21
-108.440306
 31
840.0
210
0.0
220
0.0
230
-1.0
  0
LINE
  5
633
  8
TEAM-NET
 10
179.716205
 20
-108.440306
 30
840.0
 11
-181.969739
 21
-108.440306
 31
840.0
210
0.0
220
1.0
230
0.0
  0
LINE
  5
634
  8
TEAM-NET
 10
-181.969739
 20
-33.440306
 30
840.0
 11
179.716205
 21
-33.440306
 31
840.0
210
0.0
220
-1.0
230
0.0
  0
LINE
  5
635
  8
TEAM-NET
 10
-256.375921
 20
-33.021134
 30
845.422365
 11
-256.389049
 21
-33.009022
 31
845.512523
  0
LINE
  5
636
  8
TEAM-NET
 10
-256.375921
 20
-33.021134
 30
845.422365
 11
-256.389049
 21
-33.009022
 31
845.512523
  0
LINE
  5
637
  8
TEAM-NET
 10
-252.417848
 20
-36.979207
 30
842.0
 11
250.164315
 21
-36.979207
 31
842.0
  0
LINE
  5
638
  8
TEAM-NET
 10
-252.417848
 20
-36.979207
 30
842.0
 11
250.164315
 21
-36.979207
 31
842.0
  0
LINE
  5
639
  8
TEAM-NET
 10
254.135516
 20
-33.009022
 30
845.512523
 11
-256.389049
 21
-33.009022
 31
845.512523
  0
LINE
  5
63A
  8
TEAM-NET
 10
254.135516
 20
-33.009022
 30
845.512523
 11
-256.389049
 21
-33.009022
 31
845.512523
210
0.0
220
-0.992546
230
0.121869
  0
LINE
  5
63B
  8
TEAM-NET
 10
254.135516
 20
-33.009022
 30
845.512523
 11
254.122387
 21
-33.021134
 31
845.422365
  0
LINE
  5
63C
  8
TEAM-NET
 10
254.135516
 20
-33.009022
 30
845.512523
 11
254.122387
 21
-33.021134
 31
845.422365
  0
LINE
  5
63D
  8
TEAM-NET
 10
179.716205
 20
-33.440306
 30
840.0
 11
179.716205
 21
-108.440306
 31
840.0
210
-1.0
220
0.0
230
0.0
  0
LINE
  5
63E
  8
TEAM-NET
 10
179.716205
 20
-33.440306
 30
840.0
 11
179.716205
 21
-108.440306
 31
840.0
210
0.0
220
0.0
230
-1.0
  0
ARC
  5
63F
  8
TEAM-NET
 10
-20.328427
 20
839.0
 30
82.910718
 40
3.0
210
0.0
220
-1.0
230
0.0
 50
19.471221
 51
90.0
  0
ARC
  5
640
  8
TEAM-NET
 10
0.0
 20
-82.910718
 30
842.0
 40
20.328427
 50
180.0
 51
0.0
  0
ARC
  5
641
  8
TEAM-NET
 10
0.0
 20
-82.910718
 30
-840.0
 40
17.5
210
0.0
220
0.0
230
-1.0
 50
180.0
 51
0.0
  0
ARC
  5
642
  8
TEAM-NET
 10
-20.328427
 20
839.0
 30
-82.910718
 40
3.0
210
0.0
220
1.0
230
0.0
 50
19.471221
 51
90.0
  0
ARC
  5
643
  8
TEAM-NET
 10
0.0
 20
-82.910718
 30
842.0
 40
20.328427
 50
0.0
 51
180.0
  0
ARC
  5
644
  8
TEAM-NET
 10
0.0
 20
-82.910718
 30
842.0
 40
20.328427
 50
180.0
 51
0.0
  0
ARC
  5
645
  8
TEAM-NET
 10
-20.328427
 20
839.0
 30
82.910718
 40
3.0
210
0.0
220
-1.0
230
0.0
 50
19.471221
 51
90.0
  0
ARC
  5
646
  8
TEAM-NET
 10
0.0
 20
-82.910718
 30
-840.0
 40
17.5
210
0.0
220
0.0
230
-1.0
 50
0.0
 51
180.0
  0
ARC
  5
647
  8
TEAM-NET
 10
0.0
 20
-82.910718
 30
842.0
 40
20.328427
 50
0.0
 51
180.0
  0
ARC
  5
648
  8
TEAM-NET
 10
-20.328427
 20
839.0
 30
-82.910718
 40
3.0
210
0.0
220
1.0
230
0.0
 50
19.471221
 51
90.0
  0
ARC
  5
649
  8
TEAM-NET
 10
0.0
 20
-82.910718
 30
-840.0
 40
17.5
210
0.0
220
0.0
230
-1.0
 50
180.0
 51
0.0
  0
ARC
  5
64A
  8
TEAM-NET
 10
0.0
 20
-82.910718
 30
-840.0
 40
17.5
210
0.0
220
0.0
230
-1.0
 50
0.0
 51
180.0
  0
LINE
  5
64B
  8
TEAM-NET
 10
1.0
 20
-72.553496
 30
842.19143
 11
-1.0
 21
-72.553496
 31
842.19143
210
-0.0
220
-0.184559
230
-0.982821
  0
ARC
  5
64C
  8
TEAM-NET
 10
1.0
 20
228.740917
 30
-814.333452
 40
2.0
210
-0.0
220
-0.184559
230
-0.982821
 50
270.0
 51
360.0
  0
ARC
  5
64D
  8
TEAM-NET
 10
-1.0
 20
228.740917
 30
-814.333452
 40
2.0
210
-0.0
220
-0.184559
230
-0.982821
 50
180.0
 51
270.0
  0
LINE
  5
64E
  8
TEAM-NET
 10
3.0
 20
-75.501964
 30
842.745107
 11
3.0
 21
-74.519139
 31
842.560548
210
-0.0
220
-0.184559
230
-0.982821
  0
LINE
  5
64F
  8
TEAM-NET
 10
-3.0
 20
-74.519139
 30
842.560548
 11
-3.0
 21
-75.501964
 31
842.745107
210
-0.0
220
-0.184559
230
-0.982821
  0
ARC
  5
650
  8
TEAM-NET
 10
2.0
 20
229.74092
 30
-814.333452
 40
1.0
210
-0.0
220
-0.184559
230
-0.982821
 50
360.0
 51
90.0
  0
ARC
  5
651
  8
TEAM-NET
 10
-2.0
 20
229.74092
 30
-814.333452
 40
1.0
210
-0.0
220
-0.184559
230
-0.982821
 50
90.0
 51
180.0
  0
LINE
  5
652
  8
TEAM-NET
 10
-2.0
 20
-76.484785
 30
842.929666
 11
2.0
 21
-76.484785
 31
842.929666
210
-0.0
220
-0.184559
230
-0.982821
  0
ARC
  5
653
  8
TEAM-NET
 10
2.0
 20
229.74092
 30
814.333452
 40
1.0
210
0.0
220
0.184559
230
0.982821
 50
0.0
 51
90.0
  0
LINE
  5
654
  8
TEAM-NET
 10
-2.0
 20
-76.484785
 30
842.929666
 11
2.0
 21
-76.484785
 31
842.929666
210
-0.0
220
-0.982821
230
0.184559
  0
ARC
  5
655
  8
TEAM-NET
 10
-2.0
 20
229.74092
 30
814.333452
 40
1.0
210
0.0
220
0.184559
230
0.982821
 50
90.0
 51
180.0
  0
ARC
  5
656
  8
TEAM-NET
 10
1.0
 20
228.740917
 30
814.333452
 40
2.0
210
0.0
220
0.184559
230
0.982821
 50
270.0
 51
0.0
  0
LINE
  5
657
  8
TEAM-NET
 10
1.0
 20
-72.553496
 30
842.19143
 11
-1.0
 21
-72.553496
 31
842.19143
210
0.0
220
0.982821
230
-0.184559
  0
ARC
  5
658
  8
TEAM-NET
 10
-1.0
 20
228.740917
 30
814.333452
 40
2.0
210
0.0
220
0.184559
230
0.982821
 50
180.0
 51
270.0
  0
LINE
  5
659
  8
TEAM-NET
 10
3.0
 20
-75.501964
 30
842.745107
 11
3.0
 21
-74.519139
 31
842.560548
210
1.0
220
-0.0
230
-0.0
  0
LINE
  5
65A
  8
TEAM-NET
 10
-3.0
 20
-74.519139
 30
842.560548
 11
-3.0
 21
-75.501964
 31
842.745107
210
-1.0
220
0.0
230
0.0
  0
POLYLINE
  5
65B
  8
TEAM-NET
 66
     1
 10
0.0
 20
0.0
 30
842.0
 70
   128
  0
VERTEX
  5
C3E
  8
TEAM-NET
 10
0.0
 20
-105.757817
 30
842.0
  0
VERTEX
  5
C3F
  8
TEAM-NET
 10
4.134364
 20
-105.368802
 30
842.0
  0
VERTEX
  5
C40
  8
TEAM-NET
 10
8.127937
 20
-104.215003
 30
842.0
  0
VERTEX
  5
C41
  8
TEAM-NET
 10
11.844724
 20
-102.335713
 30
842.0
  0
VERTEX
  5
C42
  8
TEAM-NET
 10
15.158152
 20
-99.794928
 30
842.0
  0
VERTEX
  5
C43
  8
TEAM-NET
 10
17.955388
 20
-96.679171
 30
842.0
  0
VERTEX
  5
C44
  8
TEAM-NET
 10
20.141174
 20
-93.094547
 30
842.0
  0
VERTEX
  5
C45
  8
TEAM-NET
 10
21.641077
 20
-89.163124
 30
842.0
  0
VERTEX
  5
C46
  8
TEAM-NET
 10
22.404019
 20
-85.018783
 30
842.0
  0
VERTEX
  5
C47
  8
TEAM-NET
 10
22.404019
 20
-80.802654
 30
842.0
  0
VERTEX
  5
C48
  8
TEAM-NET
 10
21.641077
 20
-76.658313
 30
842.0
  0
VERTEX
  5
C49
  8
TEAM-NET
 10
20.141174
 20
-72.72689
 30
842.0
  0
VERTEX
  5
C4A
  8
TEAM-NET
 10
17.955388
 20
-69.142265
 30
842.0
  0
VERTEX
  5
C4B
  8
TEAM-NET
 10
15.158152
 20
-66.026509
 30
842.0
  0
VERTEX
  5
C4C
  8
TEAM-NET
 10
11.844724
 20
-63.485723
 30
842.0
  0
VERTEX
  5
C4D
  8
TEAM-NET
 10
8.127937
 20
-61.606433
 30
842.0
  0
VERTEX
  5
C4E
  8
TEAM-NET
 10
4.134364
 20
-60.452635
 30
842.0
  0
VERTEX
  5
C4F
  8
TEAM-NET
 10
0.0
 20
-60.06362
 30
842.0
  0
SEQEND
  5
C50
  8
TEAM-NET
  0
POLYLINE
  5
65C
  8
TEAM-NET
 66
     1
 10
0.0
 20
0.0
 30
842.0
 70
   128
  0
VERTEX
  5
C51
  8
TEAM-NET
 10
0.0
 20
-60.06362
 30
842.0
  0
VERTEX
  5
C52
  8
TEAM-NET
 10
-4.134364
 20
-60.452635
 30
842.0
  0
VERTEX
  5
C53
  8
TEAM-NET
 10
-8.127937
 20
-61.606433
 30
842.0
  0
VERTEX
  5
C54
  8
TEAM-NET
 10
-11.844724
 20
-63.485723
 30
842.0
  0
VERTEX
  5
C55
  8
TEAM-NET
 10
-15.158152
 20
-66.026509
 30
842.0
  0
VERTEX
  5
C56
  8
TEAM-NET
 10
-17.955388
 20
-69.142265
 30
842.0
  0
VERTEX
  5
C57
  8
TEAM-NET
 10
-20.141174
 20
-72.72689
 30
842.0
  0
VERTEX
  5
C58
  8
TEAM-NET
 10
-21.641077
 20
-76.658313
 30
842.0
  0
VERTEX
  5
C59
  8
TEAM-NET
 10
-22.404019
 20
-80.802654
 30
842.0
  0
VERTEX
  5
C5A
  8
TEAM-NET
 10
-22.404019
 20
-85.018783
 30
842.0
  0
VERTEX
  5
C5B
  8
TEAM-NET
 10
-21.641077
 20
-89.163124
 30
842.0
  0
VERTEX
  5
C5C
  8
TEAM-NET
 10
-20.141174
 20
-93.094547
 30
842.0
  0
VERTEX
  5
C5D
  8
TEAM-NET
 10
-17.955388
 20
-96.679171
 30
842.0
  0
VERTEX
  5
C5E
  8
TEAM-NET
 10
-15.158152
 20
-99.794928
 30
842.0
  0
VERTEX
  5
C5F
  8
TEAM-NET
 10
-11.844724
 20
-102.335713
 30
842.0
  0
VERTEX
  5
C60
  8
TEAM-NET
 10
-8.127937
 20
-104.215003
 30
842.0
  0
VERTEX
  5
C61
  8
TEAM-NET
 10
-4.134364
 20
-105.368802
 30
842.0
  0
VERTEX
  5
C62
  8
TEAM-NET
 10
0.0
 20
-105.757817
 30
842.0
  0
SEQEND
  5
C63
  8
TEAM-NET
  0
POLYLINE
  5
65D
  8
TEAM-NET
 66
     1
 10
0.0
 20
0.0
 30
-842.0
 70
   128
210
0.0
220
0.0
230
-1.0
  0
VERTEX
  5
C64
  8
TEAM-NET
 10
0.0
 20
-105.757817
 30
-842.0
  0
VERTEX
  5
C65
  8
TEAM-NET
 10
4.134364
 20
-105.368802
 30
-842.0
  0
VERTEX
  5
C66
  8
TEAM-NET
 10
8.127937
 20
-104.215003
 30
-842.0
  0
VERTEX
  5
C67
  8
TEAM-NET
 10
11.844724
 20
-102.335713
 30
-842.0
  0
VERTEX
  5
C68
  8
TEAM-NET
 10
15.158152
 20
-99.794928
 30
-842.0
  0
VERTEX
  5
C69
  8
TEAM-NET
 10
17.955388
 20
-96.679171
 30
-842.0
  0
VERTEX
  5
C6A
  8
TEAM-NET
 10
20.141174
 20
-93.094547
 30
-842.0
  0
VERTEX
  5
C6B
  8
TEAM-NET
 10
21.641077
 20
-89.163124
 30
-842.0
  0
VERTEX
  5
C6C
  8
TEAM-NET
 10
22.404019
 20
-85.018783
 30
-842.0
  0
VERTEX
  5
C6D
  8
TEAM-NET
 10
22.404019
 20
-80.802654
 30
-842.0
  0
VERTEX
  5
C6E
  8
TEAM-NET
 10
21.641077
 20
-76.658313
 30
-842.0
  0
VERTEX
  5
C6F
  8
TEAM-NET
 10
20.141174
 20
-72.72689
 30
-842.0
  0
VERTEX
  5
C70
  8
TEAM-NET
 10
17.955388
 20
-69.142265
 30
-842.0
  0
VERTEX
  5
C71
  8
TEAM-NET
 10
15.158152
 20
-66.026509
 30
-842.0
  0
VERTEX
  5
C72
  8
TEAM-NET
 10
11.844724
 20
-63.485723
 30
-842.0
  0
VERTEX
  5
C73
  8
TEAM-NET
 10
8.127937
 20
-61.606433
 30
-842.0
  0
VERTEX
  5
C74
  8
TEAM-NET
 10
4.134364
 20
-60.452635
 30
-842.0
  0
VERTEX
  5
C75
  8
TEAM-NET
 10
0.0
 20
-60.06362
 30
-842.0
  0
SEQEND
  5
C76
  8
TEAM-NET
  0
POLYLINE
  5
65E
  8
TEAM-NET
 66
     1
 10
0.0
 20
0.0
 30
-842.0
 70
   128
210
0.0
220
0.0
230
-1.0
  0
VERTEX
  5
C77
  8
TEAM-NET
 10
0.0
 20
-60.06362
 30
-842.0
  0
VERTEX
  5
C78
  8
TEAM-NET
 10
-4.134364
 20
-60.452635
 30
-842.0
  0
VERTEX
  5
C79
  8
TEAM-NET
 10
-8.127937
 20
-61.606433
 30
-842.0
  0
VERTEX
  5
C7A
  8
TEAM-NET
 10
-11.844724
 20
-63.485723
 30
-842.0
  0
VERTEX
  5
C7B
  8
TEAM-NET
 10
-15.158152
 20
-66.026509
 30
-842.0
  0
VERTEX
  5
C7C
  8
TEAM-NET
 10
-17.955388
 20
-69.142265
 30
-842.0
  0
VERTEX
  5
C7D
  8
TEAM-NET
 10
-20.141174
 20
-72.72689
 30
-842.0
  0
VERTEX
  5
C7E
  8
TEAM-NET
 10
-21.641077
 20
-76.658313
 30
-842.0
  0
VERTEX
  5
C7F
  8
TEAM-NET
 10
-22.404019
 20
-80.802654
 30
-842.0
  0
VERTEX
  5
C80
  8
TEAM-NET
 10
-22.404019
 20
-85.018783
 30
-842.0
  0
VERTEX
  5
C81
  8
TEAM-NET
 10
-21.641077
 20
-89.163124
 30
-842.0
  0
VERTEX
  5
C82
  8
TEAM-NET
 10
-20.141174
 20
-93.094547
 30
-842.0
  0
VERTEX
  5
C83
  8
TEAM-NET
 10
-17.955388
 20
-96.679171
 30
-842.0
  0
VERTEX
  5
C84
  8
TEAM-NET
 10
-15.158152
 20
-99.794928
 30
-842.0
  0
VERTEX
  5
C85
  8
TEAM-NET
 10
-11.844724
 20
-102.335713
 30
-842.0
  0
VERTEX
  5
C86
  8
TEAM-NET
 10
-8.127937
 20
-104.215003
 30
-842.0
  0
VERTEX
  5
C87
  8
TEAM-NET
 10
-4.134364
 20
-105.368802
 30
-842.0
  0
VERTEX
  5
C88
  8
TEAM-NET
 10
0.0
 20
-105.757817
 30
-842.0
  0
SEQEND
  5
C89
  8
TEAM-NET
  0
POLYLINE
  5
65F
  8
TEAM-NET
 66
     1
 10
0.0
 20
0.0
 30
0.0
 70
     8
  0
VERTEX
  5
660
  8
TEAM-NET
 10
-256.375921
 20
-138.440306
 30
845.422365
 70
    32
  0
VERTEX
  5
661
  8
TEAM-NET
 10
-254.202738
 20
-132.282902
 30
840.367296
 70
    32
  0
VERTEX
  5
662
  8
TEAM-NET
 10
-252.091043
 20
-129.376112
 30
838.52376
 70
    32
  0
VERTEX
  5
663
  8
TEAM-NET
 10
-249.340734
 20
-126.778026
 30
837.647518
 70
    32
  0
SEQEND
  5
664
  8
TEAM-NET
  0
POLYLINE
  5
665
  8
TEAM-NET
 66
     1
 10
0.0
 20
0.0
 30
0.0
 70
     8
  0
VERTEX
  5
666
  8
TEAM-NET
 10
-256.375921
 20
-138.440306
 30
845.422365
 70
    32
  0
VERTEX
  5
667
  8
TEAM-NET
 10
-254.202738
 20
-132.282902
 30
840.367296
 70
    32
  0
VERTEX
  5
668
  8
TEAM-NET
 10
-252.091043
 20
-129.376112
 30
838.52376
 70
    32
  0
VERTEX
  5
669
  8
TEAM-NET
 10
-249.340734
 20
-126.778026
 30
837.647518
 70
    32
  0
SEQEND
  5
66A
  8
TEAM-NET
  0
ARC
  5
66B
  8
TEAM-NET
 10
60.305932
 20
837.0
 30
-274.189832
 40
5.0
210
0.784088
220
0.620649
230
0.0
 50
90.0
 51
172.559097
  0
ARC
  5
66C
  8
TEAM-NET
 10
60.305932
 20
837.0
 30
-274.189832
 40
5.0
210
0.784088
220
0.620649
230
0.0
 50
90.0
 51
172.559097
  0
ARC
  5
66D
  8
TEAM-NET
 10
-118.440306
 20
837.0
 30
-239.536712
 40
5.0
210
1.0
220
0.0
230
0.0
 50
90.0
 51
180.0
  0
ARC
  5
66E
  8
TEAM-NET
 10
-118.440306
 20
837.0
 30
-239.536712
 40
5.0
210
1.0
220
0.0
230
0.0
 50
90.0
 51
180.0
  0
POLYLINE
  5
66F
  8
TEAM-NET
 66
     1
 10
0.0
 20
0.0
 30
0.0
 70
     8
  0
VERTEX
  5
670
  8
TEAM-NET
 10
-241.133097
 20
-443.075182
 30
845.00658
 70
    32
  0
VERTEX
  5
671
  8
TEAM-NET
 10
-246.958139
 20
-441.944057
 30
845.277205
 70
    32
  0
VERTEX
  5
672
  8
TEAM-NET
 10
-251.912736
 20
-438.706228
 30
845.495019
 70
    32
  0
VERTEX
  5
673
  8
TEAM-NET
 10
-255.24158
 20
-433.832369
 30
845.644467
 70
    32
  0
VERTEX
  5
674
  8
TEAM-NET
 10
-256.4179
 20
-428.058313
 30
845.712057
 70
    32
  0
SEQEND
  5
675
  8
TEAM-NET
  0
POLYLINE
  5
676
  8
TEAM-NET
 66
     1
 10
0.0
 20
0.0
 30
0.0
 70
     8
  0
VERTEX
  5
677
  8
TEAM-NET
 10
-241.133097
 20
-443.075182
 30
845.00658
 70
    32
  0
VERTEX
  5
678
  8
TEAM-NET
 10
-246.958139
 20
-441.944057
 30
845.277205
 70
    32
  0
VERTEX
  5
679
  8
TEAM-NET
 10
-251.912736
 20
-438.706228
 30
845.495019
 70
    32
  0
VERTEX
  5
67A
  8
TEAM-NET
 10
-255.24158
 20
-433.832369
 30
845.644467
 70
    32
  0
VERTEX
  5
67B
  8
TEAM-NET
 10
-256.4179
 20
-428.058313
 30
845.712057
 70
    32
  0
SEQEND
  5
67C
  8
TEAM-NET
  0
LINE
  5
67D
  8
TEAM-NET
 10
237.283178
 20
-118.440306
 30
842.0
 11
-239.536712
 21
-118.440306
 31
842.0
  0
LINE
  5
67E
  8
TEAM-NET
 10
237.283178
 20
-118.440306
 30
842.0
 11
-239.536712
 21
-118.440306
 31
842.0
  0
LINE
  5
67F
  8
TEAM-NET
 10
238.879563
 20
-443.075182
 30
845.00658
 11
-241.133097
 21
-443.075182
 31
845.00658
  0
LINE
  5
680
  8
TEAM-NET
 10
238.879563
 20
-443.075182
 30
845.00658
 11
-241.133097
 21
-443.075182
 31
845.00658
  0
LINE
  5
681
  8
TEAM-NET
 10
-239.536712
 20
-123.440306
 30
837.0
 11
237.283178
 21
-123.440306
 31
837.0
  0
LINE
  5
682
  8
TEAM-NET
 10
-239.536712
 20
-123.440306
 30
837.0
 11
237.283178
 21
-123.440306
 31
837.0
210
0.0
220
-1.0
230
0.0
  0
POLYLINE
  5
683
  8
TEAM-NET
 66
     1
 10
0.0
 20
0.0
 30
0.0
 70
     8
  0
VERTEX
  5
684
  8
TEAM-NET
 10
247.0872
 20
-126.778026
 30
837.647518
 70
    32
  0
VERTEX
  5
685
  8
TEAM-NET
 10
249.837511
 20
-129.376114
 30
838.523761
 70
    32
  0
VERTEX
  5
686
  8
TEAM-NET
 10
251.949215
 20
-132.282911
 30
840.367301
 70
    32
  0
VERTEX
  5
687
  8
TEAM-NET
 10
254.122387
 20
-138.440306
 30
845.422365
 70
    32
  0
SEQEND
  5
688
  8
TEAM-NET
  0
POLYLINE
  5
689
  8
TEAM-NET
 66
     1
 10
0.0
 20
0.0
 30
0.0
 70
     8
  0
VERTEX
  5
68A
  8
TEAM-NET
 10
247.0872
 20
-126.778026
 30
837.647518
 70
    32
  0
VERTEX
  5
68B
  8
TEAM-NET
 10
249.837511
 20
-129.376114
 30
838.523761
 70
    32
  0
VERTEX
  5
68C
  8
TEAM-NET
 10
251.949215
 20
-132.282911
 30
840.367301
 70
    32
  0
VERTEX
  5
68D
  8
TEAM-NET
 10
254.122387
 20
-138.440306
 30
845.422365
 70
    32
  0
SEQEND
  5
68E
  8
TEAM-NET
  0
ARC
  5
68F
  8
TEAM-NET
 10
-58.907277
 20
837.0
 30
-272.422863
 40
5.0
210
-0.784088
220
0.620649
230
0.0
 50
7.440903
 51
90.0
  0
ARC
  5
690
  8
TEAM-NET
 10
118.440306
 20
837.0
 30
-237.283178
 40
5.0
210
-1.0
220
0.0
230
0.0
 50
0.0
 51
90.0
  0
ARC
  5
691
  8
TEAM-NET
 10
-58.907277
 20
837.0
 30
-272.422863
 40
5.0
210
-0.784088
220
0.620649
230
0.0
 50
7.440903
 51
90.0
  0
ARC
  5
692
  8
TEAM-NET
 10
118.440306
 20
837.0
 30
-237.283178
 40
5.0
210
-1.0
220
0.0
230
0.0
 50
0.0
 51
90.0
  0
POLYLINE
  5
693
  8
TEAM-NET
 66
     1
 10
0.0
 20
0.0
 30
0.0
 70
     8
  0
VERTEX
  5
694
  8
TEAM-NET
 10
254.164366
 20
-428.058313
 30
845.712057
 70
    32
  0
VERTEX
  5
695
  8
TEAM-NET
 10
252.987691
 20
-433.832622
 30
845.644451
 70
    32
  0
VERTEX
  5
696
  8
TEAM-NET
 10
249.659148
 20
-438.706449
 30
845.495018
 70
    32
  0
VERTEX
  5
697
  8
TEAM-NET
 10
244.704871
 20
-441.943862
 30
845.277217
 70
    32
  0
VERTEX
  5
698
  8
TEAM-NET
 10
238.879563
 20
-443.075182
 30
845.00658
 70
    32
  0
SEQEND
  5
699
  8
TEAM-NET
  0
POLYLINE
  5
69A
  8
TEAM-NET
 66
     1
 10
0.0
 20
0.0
 30
0.0
 70
     8
  0
VERTEX
  5
69B
  8
TEAM-NET
 10
254.164366
 20
-428.058313
 30
845.712057
 70
    32
  0
VERTEX
  5
69C
  8
TEAM-NET
 10
252.987691
 20
-433.832622
 30
845.644451
 70
    32
  0
VERTEX
  5
69D
  8
TEAM-NET
 10
249.659148
 20
-438.706449
 30
845.495018
 70
    32
  0
VERTEX
  5
69E
  8
TEAM-NET
 10
244.704871
 20
-441.943862
 30
845.277217
 70
    32
  0
VERTEX
  5
69F
  8
TEAM-NET
 10
238.879563
 20
-443.075182
 30
845.00658
 70
    32
  0
SEQEND
  5
6A0
  8
TEAM-NET
  0
ARC
  5
6A1
  8
TEAM-NET
 10
485.0
 20
-448.440306
 30
843.0
 40
40.0
 50
270.0
 51
0.0
  0
ARC
  5
6A2
  8
TEAM-NET
 10
485.0
 20
-448.440306
 30
843.0
 40
40.0
 50
270.0
 51
0.0
  0
POLYLINE
  5
6A3
  8
TEAM-NET
 66
     1
 10
0.0
 20
0.0
 30
842.0
 70
   128
  0
VERTEX
  5
C8A
  8
TEAM-NET
 10
250.164315
 20
-122.890599
 30
842.0
  0
VERTEX
  5
C8B
  8
TEAM-NET
 10
244.100009
 20
-119.577877
 30
842.0
  0
VERTEX
  5
C8C
  8
TEAM-NET
 10
237.283178
 20
-118.440306
 30
842.0
  0
SEQEND
  5
C8D
  8
TEAM-NET
  0
POLYLINE
  5
6A4
  8
TEAM-NET
 66
     1
 10
0.0
 20
0.0
 30
842.0
 70
   128
  0
VERTEX
  5
C8E
  8
TEAM-NET
 10
250.164315
 20
-122.890599
 30
842.0
  0
VERTEX
  5
C8F
  8
TEAM-NET
 10
244.100009
 20
-119.577877
 30
842.0
  0
VERTEX
  5
C90
  8
TEAM-NET
 10
237.283178
 20
-118.440306
 30
842.0
  0
SEQEND
  5
C91
  8
TEAM-NET
  0
POLYLINE
  5
6A5
  8
TEAM-NET
 66
     1
 10
0.0
 20
0.0
 30
842.0
 70
   128
  0
VERTEX
  5
C92
  8
TEAM-NET
 10
-239.536712
 20
-118.440306
 30
842.0
  0
VERTEX
  5
C93
  8
TEAM-NET
 10
-246.353152
 20
-119.577918
 30
842.0
  0
VERTEX
  5
C94
  8
TEAM-NET
 10
-252.417848
 20
-122.890599
 30
842.0
  0
SEQEND
  5
C95
  8
TEAM-NET
  0
POLYLINE
  5
6A6
  8
TEAM-NET
 66
     1
 10
0.0
 20
0.0
 30
842.0
 70
   128
  0
VERTEX
  5
C96
  8
TEAM-NET
 10
-239.536712
 20
-118.440306
 30
842.0
  0
VERTEX
  5
C97
  8
TEAM-NET
 10
-246.353152
 20
-119.577918
 30
842.0
  0
VERTEX
  5
C98
  8
TEAM-NET
 10
-252.417848
 20
-122.890599
 30
842.0
  0
SEQEND
  5
C99
  8
TEAM-NET
  0
ARC
  5
6A7
  8
TEAM-NET
 10
-485.0
 20
-448.440306
 30
843.0
 40
40.0
 50
180.0
 51
270.0
  0
ARC
  5
6A8
  8
TEAM-NET
 10
-485.0
 20
-448.440306
 30
843.0
 40
40.0
 50
180.0
 51
270.0
  0
LINE
  5
6A9
  8
TEAM-NET
 10
-485.0
 20
-488.440306
 30
843.0
 11
485.0
 21
-488.440306
 31
843.0
  0
LINE
  5
6AA
  8
TEAM-NET
 10
-485.0
 20
-488.440306
 30
843.0
 11
485.0
 21
-488.440306
 31
843.0
210
0.0
220
-1.0
230
0.0
  0
LINE
  5
6AB
  8
TEAM-NET
 10
-256.4179
 20
-428.058313
 30
845.712057
 11
-256.4179
 21
-50.152535
 31
845.712057
  0
LINE
  5
6AC
  8
TEAM-NET
 10
-256.4179
 20
-428.058313
 30
845.712057
 11
-256.4179
 21
-50.152535
 31
845.712057
  0
LINE
  5
6AD
  8
TEAM-NET
 10
-256.375921
 20
-33.021134
 30
845.422365
 11
-256.375921
 21
-138.440306
 31
845.422365
  0
LINE
  5
6AE
  8
TEAM-NET
 10
-252.417848
 20
-122.890599
 30
842.0
 11
-252.417848
 21
-36.979207
 31
842.0
  0
LINE
  5
6AF
  8
TEAM-NET
 10
-252.417848
 20
-122.890599
 30
842.0
 11
-252.417848
 21
-36.979207
 31
842.0
  0
LINE
  5
6B0
  8
TEAM-NET
 10
-256.375921
 20
-33.021134
 30
845.422365
 11
-256.375921
 21
-138.440306
 31
845.422365
  0
LINE
  5
6B1
  8
TEAM-NET
 10
254.164366
 20
-50.152535
 30
845.712057
 11
254.164366
 21
-428.058313
 31
845.712057
  0
LINE
  5
6B2
  8
TEAM-NET
 10
254.164366
 20
-50.152535
 30
845.712057
 11
254.164366
 21
-428.058313
 31
845.712057
  0
LINE
  5
6B3
  8
TEAM-NET
 10
254.122387
 20
-138.440306
 30
845.422365
 11
254.122387
 21
-33.021134
 31
845.422365
  0
LINE
  5
6B4
  8
TEAM-NET
 10
254.122387
 20
-138.440306
 30
845.422365
 11
254.122387
 21
-33.021134
 31
845.422365
  0
LINE
  5
6B5
  8
TEAM-NET
 10
250.164315
 20
-36.979207
 30
842.0
 11
250.164315
 21
-122.890599
 31
842.0
  0
LINE
  5
6B6
  8
TEAM-NET
 10
250.164315
 20
-36.979207
 30
842.0
 11
250.164315
 21
-122.890599
 31
842.0
  0
LINE
  5
6B7
  8
TEAM-NET
 10
-525.0
 20
-50.152535
 30
843.0
 11
-525.0
 21
-448.440306
 31
843.0
210
-1.0
220
0.0
230
0.0
  0
LINE
  5
6B8
  8
TEAM-NET
 10
-525.0
 20
-50.152535
 30
843.0
 11
-525.0
 21
-448.440306
 31
843.0
  0
LINE
  5
6B9
  8
TEAM-NET
 10
525.0
 20
-448.440306
 30
843.0
 11
525.0
 21
-50.152535
 31
843.0
210
1.0
220
0.0
230
0.0
  0
LINE
  5
6BA
  8
TEAM-NET
 10
525.0
 20
-448.440306
 30
843.0
 11
525.0
 21
-50.152535
 31
843.0
  0
LINE
  5
6BB
  8
TEAM-NET
 10
520.0
 20
1.559694
 30
820.00089
 11
515.0
 21
1.559694
 31
820.00089
210
0.0
220
1.0
230
0.0
  0
LINE
  5
6BC
  8
TEAM-NET
 10
520.0
 20
1.559694
 30
820.00089
 11
515.0
 21
1.559694
 31
820.00089
210
0.0
220
0.0
230
-1.0
  0
ARC
  5
6BD
  8
TEAM-NET
 10
-520.0
 20
825.00089
 30
1.559694
 40
5.0
210
0.0
220
1.0
230
0.0
 50
180.0
 51
270.0
  0
ARC
  5
6BE
  8
TEAM-NET
 10
520.0
 20
825.00089
 30
-1.559694
 40
5.0
210
0.0
220
-1.0
230
0.0
 50
270.0
 51
0.0
  0
LINE
  5
6BF
  8
TEAM-NET
 10
-515.0
 20
1.559694
 30
820.00089
 11
-520.0
 21
1.559694
 31
820.00089
210
0.0
220
1.0
230
0.0
  0
LINE
  5
6C0
  8
TEAM-NET
 10
-515.0
 20
1.559694
 30
820.00089
 11
-520.0
 21
1.559694
 31
820.00089
210
0.0
220
0.0
230
-1.0
  0
ARC
  5
6C1
  8
TEAM-NET
 10
520.0
 20
825.00089
 30
1.559694
 40
5.0
210
0.0
220
1.0
230
0.0
 50
270.0
 51
0.0
  0
ARC
  5
6C2
  8
TEAM-NET
 10
-520.0
 20
825.00089
 30
-1.559694
 40
5.0
210
0.0
220
-1.0
230
0.0
 50
180.0
 51
270.0
  0
LINE
  5
6C3
  8
TEAM-NET
 10
485.237993
 20
-474.897819
 30
820.00089
 11
478.315388
 21
-474.897819
 31
820.00089
  0
ARC
  5
6C4
  8
TEAM-NET
 10
-485.0
 20
-448.440306
 30
-825.00089
 40
40.0
210
0.0
220
0.0
230
-1.0
 50
180.0
 51
270.0
  0
ARC
  5
6C5
  8
TEAM-NET
 10
-485.0
 20
-448.440306
 30
-825.00089
 40
40.0
210
0.0
220
0.0
230
-1.0
 50
180.0
 51
270.0
  0
ARC
  5
6C6
  8
TEAM-NET
 10
485.0
 20
-448.440306
 30
820.00089
 40
35.0
 50
270.0
 51
0.0
  0
ARC
  5
6C7
  8
TEAM-NET
 10
-485.0
 20
-448.440306
 30
-820.00089
 40
35.0
210
0.0
220
0.0
230
-1.0
 50
180.0
 51
270.0
  0
LINE
  5
6C8
  8
TEAM-NET
 10
485.237993
 20
-474.897819
 30
820.00089
 11
478.315388
 21
-474.897819
 31
820.00089
210
0.0
220
0.0
230
-1.0
  0
POLYLINE
  5
6C9
  8
TEAM-NET
 66
     1
 10
0.0
 20
0.0
 30
0.0
 70
     8
  0
VERTEX
  5
6CA
  8
TEAM-NET
 10
485.237993
 20
-474.897819
 30
820.00089
 70
    32
  0
VERTEX
  5
6CB
  8
TEAM-NET
 10
491.046436
 20
-474.332498
 30
820.00089
 70
    32
  0
VERTEX
  5
6CC
  8
TEAM-NET
 10
496.63342
 20
-472.652371
 30
820.00089
 70
    32
  0
VERTEX
  5
6CD
  8
TEAM-NET
 10
501.78534
 20
-469.914365
 30
820.00089
 70
    32
  0
VERTEX
  5
6CE
  8
TEAM-NET
 10
506.300329
 20
-466.220272
 30
820.00089
 70
    32
  0
VERTEX
  5
6CF
  8
TEAM-NET
 10
510.001913
 20
-461.712027
 30
820.00089
 70
    32
  0
VERTEX
  5
6D0
  8
TEAM-NET
 10
512.747693
 20
-456.563603
 30
820.00089
 70
    32
  0
VERTEX
  5
6D1
  8
TEAM-NET
 10
514.432734
 20
-450.980036
 30
820.00089
 70
    32
  0
VERTEX
  5
6D2
  8
TEAM-NET
 10
515.0
 20
-445.172874
 30
820.00089
 70
    32
  0
SEQEND
  5
6D3
  8
TEAM-NET
  0
POLYLINE
  5
6D4
  8
TEAM-NET
 66
     1
 10
0.0
 20
0.0
 30
0.0
 70
     8
  0
VERTEX
  5
6D5
  8
TEAM-NET
 10
485.237993
 20
-474.897819
 30
820.00089
 70
    32
  0
VERTEX
  5
6D6
  8
TEAM-NET
 10
491.046436
 20
-474.332498
 30
820.00089
 70
    32
  0
VERTEX
  5
6D7
  8
TEAM-NET
 10
496.63342
 20
-472.652371
 30
820.00089
 70
    32
  0
VERTEX
  5
6D8
  8
TEAM-NET
 10
501.78534
 20
-469.914365
 30
820.00089
 70
    32
  0
VERTEX
  5
6D9
  8
TEAM-NET
 10
506.300329
 20
-466.220272
 30
820.00089
 70
    32
  0
VERTEX
  5
6DA
  8
TEAM-NET
 10
510.001913
 20
-461.712027
 30
820.00089
 70
    32
  0
VERTEX
  5
6DB
  8
TEAM-NET
 10
512.747693
 20
-456.563603
 30
820.00089
 70
    32
  0
VERTEX
  5
6DC
  8
TEAM-NET
 10
514.432734
 20
-450.980036
 30
820.00089
 70
    32
  0
VERTEX
  5
6DD
  8
TEAM-NET
 10
515.0
 20
-445.172874
 30
820.00089
 70
    32
  0
SEQEND
  5
6DE
  8
TEAM-NET
  0
LINE
  5
6DF
  8
TEAM-NET
 10
50.0
 20
-120.440306
 30
815.0
 11
50.0
 21
-118.440306
 31
815.0
  0
LINE
  5
6E0
  8
TEAM-NET
 10
30.0
 20
-120.440306
 30
815.0
 11
30.0
 21
-118.440306
 31
815.0
  0
LINE
  5
6E1
  8
TEAM-NET
 10
50.0
 20
-120.440306
 30
815.0
 11
50.0
 21
-118.440306
 31
815.0
  0
LINE
  5
6E2
  8
TEAM-NET
 10
30.0
 20
-120.440306
 30
815.0
 11
30.0
 21
-118.440306
 31
815.0
  0
ARC
  5
6E3
  8
TEAM-NET
 10
520.0
 20
825.00089
 30
448.440306
 40
5.0
210
0.0
220
-1.0
230
0.0
 50
270.0
 51
0.0
  0
ARC
  5
6E4
  8
TEAM-NET
 10
520.0
 20
825.00089
 30
448.440306
 40
5.0
210
0.0
220
-1.0
230
0.0
 50
270.0
 51
0.0
  0
ARC
  5
6E5
  8
TEAM-NET
 10
483.440306
 20
825.00089
 30
-485.0
 40
5.0
210
-1.0
220
0.0
230
0.0
 50
270.0
 51
0.0
  0
ARC
  5
6E6
  8
TEAM-NET
 10
483.440306
 20
825.00089
 30
-485.0
 40
5.0
210
-1.0
220
0.0
230
0.0
 50
270.0
 51
0.0
  0
POLYLINE
  5
6E7
  8
TEAM-NET
 66
     1
 10
0.0
 20
0.0
 30
-806.985507
 70
   128
210
0.071127
220
0.01544
230
-0.997348
  0
VERTEX
  5
C9A
  8
TEAM-NET
 10
-170.967477
 20
266.07092
 30
-806.985507
  0
VERTEX
  5
C9B
  8
TEAM-NET
 10
-172.902932
 20
270.97805
 30
-806.985507
  0
VERTEX
  5
C9C
  8
TEAM-NET
 10
-176.309031
 20
274.96734
 30
-806.985507
  0
SEQEND
  5
C9D
  8
TEAM-NET
  0
POLYLINE
  5
6E8
  8
TEAM-NET
 66
     1
 10
0.0
 20
0.0
 30
-806.985507
 70
   128
210
0.071127
220
0.01544
230
-0.997348
  0
VERTEX
  5
C9E
  8
TEAM-NET
 10
-170.967477
 20
266.07092
 30
-806.985507
  0
VERTEX
  5
C9F
  8
TEAM-NET
 10
-172.902932
 20
270.97805
 30
-806.985507
  0
VERTEX
  5
CA0
  8
TEAM-NET
 10
-176.309031
 20
274.96734
 30
-806.985507
  0
SEQEND
  5
CA1
  8
TEAM-NET
  0
POLYLINE
  5
6E9
  8
TEAM-NET
 66
     1
 10
0.0
 20
0.0
 30
-806.985631
 70
   128
210
-0.071127
220
0.015438
230
-0.997348
  0
VERTEX
  5
CA2
  8
TEAM-NET
 10
176.780473
 20
277.168031
 30
-806.985631
  0
VERTEX
  5
CA3
  8
TEAM-NET
 10
173.374462
 20
273.178337
 30
-806.985631
  0
VERTEX
  5
CA4
  8
TEAM-NET
 10
171.439189
 20
268.271448
 30
-806.985631
  0
SEQEND
  5
CA5
  8
TEAM-NET
  0
POLYLINE
  5
6EA
  8
TEAM-NET
 66
     1
 10
0.0
 20
0.0
 30
-806.985631
 70
   128
210
-0.071127
220
0.015438
230
-0.997348
  0
VERTEX
  5
CA6
  8
TEAM-NET
 10
176.780473
 20
277.168031
 30
-806.985631
  0
VERTEX
  5
CA7
  8
TEAM-NET
 10
173.374462
 20
273.178337
 30
-806.985631
  0
VERTEX
  5
CA8
  8
TEAM-NET
 10
171.439189
 20
268.271448
 30
-806.985631
  0
SEQEND
  5
CA9
  8
TEAM-NET
  0
LINE
  5
6EB
  8
TEAM-NET
 10
-478.315388
 20
-474.897819
 30
820.00089
 11
-485.145035
 21
-474.897819
 31
820.00089
  0
ARC
  5
6EC
  8
TEAM-NET
 10
485.0
 20
-448.440306
 30
-825.00089
 40
40.0
210
0.0
220
0.0
230
-1.0
 50
270.0
 51
0.0
  0
ARC
  5
6ED
  8
TEAM-NET
 10
-485.0
 20
-448.440306
 30
820.00089
 40
35.0
 50
180.0
 51
270.0
  0
ARC
  5
6EE
  8
TEAM-NET
 10
485.0
 20
-448.440306
 30
-825.00089
 40
40.0
210
0.0
220
0.0
230
-1.0
 50
270.0
 51
0.0
  0
ARC
  5
6EF
  8
TEAM-NET
 10
485.0
 20
-448.440306
 30
-820.00089
 40
35.0
210
0.0
220
0.0
230
-1.0
 50
270.0
 51
0.0
  0
LINE
  5
6F0
  8
TEAM-NET
 10
-478.315388
 20
-474.897819
 30
820.00089
 11
-485.145035
 21
-474.897819
 31
820.00089
210
0.0
220
0.0
230
-1.0
  0
POLYLINE
  5
6F1
  8
TEAM-NET
 66
     1
 10
0.0
 20
0.0
 30
0.0
 70
     8
  0
VERTEX
  5
6F2
  8
TEAM-NET
 10
-515.0
 20
-445.389818
 30
820.00089
 70
    32
  0
VERTEX
  5
6F3
  8
TEAM-NET
 10
-514.427921
 20
-451.180488
 30
820.00089
 70
    32
  0
VERTEX
  5
6F4
  8
TEAM-NET
 10
-512.728162
 20
-456.744751
 30
820.00089
 70
    32
  0
VERTEX
  5
6F5
  8
TEAM-NET
 10
-509.963077
 20
-461.862965
 30
820.00089
 70
    32
  0
VERTEX
  5
6F6
  8
TEAM-NET
 10
-506.239759
 20
-466.336097
 30
820.00089
 70
    32
  0
VERTEX
  5
6F7
  8
TEAM-NET
 10
-501.711225
 20
-469.987899
 30
820.00089
 70
    32
  0
VERTEX
  5
6F8
  8
TEAM-NET
 10
-496.551675
 20
-472.688083
 30
820.00089
 70
    32
  0
VERTEX
  5
6F9
  8
TEAM-NET
 10
-490.955323
 20
-474.3429
 30
820.00089
 70
    32
  0
VERTEX
  5
6FA
  8
TEAM-NET
 10
-485.145035
 20
-474.897819
 30
820.00089
 70
    32
  0
SEQEND
  5
6FB
  8
TEAM-NET
  0
POLYLINE
  5
6FC
  8
TEAM-NET
 66
     1
 10
0.0
 20
0.0
 30
0.0
 70
     8
  0
VERTEX
  5
6FD
  8
TEAM-NET
 10
-515.0
 20
-445.389818
 30
820.00089
 70
    32
  0
VERTEX
  5
6FE
  8
TEAM-NET
 10
-514.427921
 20
-451.180488
 30
820.00089
 70
    32
  0
VERTEX
  5
6FF
  8
TEAM-NET
 10
-512.728162
 20
-456.744751
 30
820.00089
 70
    32
  0
VERTEX
  5
700
  8
TEAM-NET
 10
-509.963077
 20
-461.862965
 30
820.00089
 70
    32
  0
VERTEX
  5
701
  8
TEAM-NET
 10
-506.239759
 20
-466.336097
 30
820.00089
 70
    32
  0
VERTEX
  5
702
  8
TEAM-NET
 10
-501.711225
 20
-469.987899
 30
820.00089
 70
    32
  0
VERTEX
  5
703
  8
TEAM-NET
 10
-496.551675
 20
-472.688083
 30
820.00089
 70
    32
  0
VERTEX
  5
704
  8
TEAM-NET
 10
-490.955323
 20
-474.3429
 30
820.00089
 70
    32
  0
VERTEX
  5
705
  8
TEAM-NET
 10
-485.145035
 20
-474.897819
 30
820.00089
 70
    32
  0
SEQEND
  5
706
  8
TEAM-NET
  0
ARC
  5
707
  8
TEAM-NET
 10
-520.0
 20
825.00089
 30
448.440306
 40
5.0
210
0.0
220
-1.0
230
0.0
 50
180.0
 51
270.0
  0
ARC
  5
708
  8
TEAM-NET
 10
-520.0
 20
825.00089
 30
448.440306
 40
5.0
210
0.0
220
-1.0
230
0.0
 50
180.0
 51
270.0
  0
ARC
  5
709
  8
TEAM-NET
 10
-483.440306
 20
825.00089
 30
-485.0
 40
5.0
210
1.0
220
0.0
230
0.0
 50
180.0
 51
270.0
  0
ARC
  5
70A
  8
TEAM-NET
 10
-483.440306
 20
825.00089
 30
-485.0
 40
5.0
210
1.0
220
0.0
230
0.0
 50
180.0
 51
270.0
  0
LINE
  5
70B
  8
TEAM-NET
 10
-478.315388
 20
-474.897819
 30
820.00089
 11
478.315388
 21
-474.897819
 31
820.00089
210
0.0
220
0.0
230
-1.0
  0
LINE
  5
70C
  8
TEAM-NET
 10
-485.0
 20
-483.440306
 30
820.00089
 11
485.0
 21
-483.440306
 31
820.00089
210
0.0
220
0.0
230
-1.0
  0
LINE
  5
70D
  8
TEAM-NET
 10
485.0
 20
-488.440306
 30
825.00089
 11
-485.0
 21
-488.440306
 31
825.00089
  0
LINE
  5
70E
  8
TEAM-NET
 10
-485.0
 20
-483.440306
 30
820.00089
 11
485.0
 21
-483.440306
 31
820.00089
  0
LINE
  5
70F
  8
TEAM-NET
 10
485.0
 20
-488.440306
 30
825.00089
 11
-485.0
 21
-488.440306
 31
825.00089
210
0.0
220
-1.0
230
0.0
  0
LINE
  5
710
  8
TEAM-NET
 10
-478.315388
 20
-474.897819
 30
820.00089
 11
478.315388
 21
-474.897819
 31
820.00089
  0
LINE
  5
711
  8
TEAM-NET
 10
-515.0
 20
-445.389818
 30
820.00089
 11
-515.0
 21
1.559694
 31
820.00089
  0
LINE
  5
712
  8
TEAM-NET
 10
-525.0
 20
-448.440306
 30
825.00089
 11
-525.0
 21
1.559694
 31
825.00089
210
-1.0
220
0.0
230
0.0
  0
LINE
  5
713
  8
TEAM-NET
 10
-520.0
 20
1.559694
 30
820.00089
 11
-520.0
 21
-448.440306
 31
820.00089
  0
LINE
  5
714
  8
TEAM-NET
 10
-525.0
 20
-448.440306
 30
825.00089
 11
-525.0
 21
1.559694
 31
825.00089
  0
LINE
  5
715
  8
TEAM-NET
 10
-520.0
 20
1.559694
 30
820.00089
 11
-520.0
 21
-448.440306
 31
820.00089
210
0.0
220
0.0
230
-1.0
  0
LINE
  5
716
  8
TEAM-NET
 10
-515.0
 20
-445.389818
 30
820.00089
 11
-515.0
 21
1.559694
 31
820.00089
210
0.0
220
0.0
230
-1.0
  0
LINE
  5
717
  8
TEAM-NET
 10
525.0
 20
1.559694
 30
825.00089
 11
525.0
 21
-448.440306
 31
825.00089
210
1.0
220
0.0
230
0.0
  0
LINE
  5
718
  8
TEAM-NET
 10
515.0
 20
1.559694
 30
820.00089
 11
515.0
 21
-445.172874
 31
820.00089
  0
LINE
  5
719
  8
TEAM-NET
 10
525.0
 20
1.559694
 30
825.00089
 11
525.0
 21
-448.440306
 31
825.00089
  0
LINE
  5
71A
  8
TEAM-NET
 10
520.0
 20
-448.440306
 30
820.00089
 11
520.0
 21
1.559694
 31
820.00089
  0
LINE
  5
71B
  8
TEAM-NET
 10
520.0
 20
-448.440306
 30
820.00089
 11
520.0
 21
1.559694
 31
820.00089
210
0.0
220
0.0
230
-1.0
  0
LINE
  5
71C
  8
TEAM-NET
 10
515.0
 20
1.559694
 30
820.00089
 11
515.0
 21
-445.172874
 31
820.00089
210
0.0
220
0.0
230
-1.0
  0
ARC
  5
71D
  8
TEAM-NET
 10
40.0
 20
815.0
 30
123.440306
 40
13.0
210
0.0
220
-1.0
230
0.0
 50
360.0
 51
90.0
  0
ARC
  5
71E
  8
TEAM-NET
 10
40.0
 20
815.0
 30
123.440306
 40
13.0
210
0.0
220
-1.0
230
0.0
 50
360.0
 51
90.0
  0
LINE
  5
71F
  8
TEAM-NET
 10
-525.0
 20
-448.440306
 30
843.0
 11
-525.0
 21
-448.440306
 31
825.00089
210
-1.0
220
0.0
230
0.0
  0
LINE
  5
720
  8
TEAM-NET
 10
-485.0
 20
-488.440306
 30
825.00089
 11
-485.0
 21
-488.440306
 31
843.0
  0
LINE
  5
721
  8
TEAM-NET
 10
-525.0
 20
-448.440306
 30
843.0
 11
-525.0
 21
-448.440306
 31
825.00089
  0
LINE
  5
722
  8
TEAM-NET
 10
-485.0
 20
-488.440306
 30
825.00089
 11
-485.0
 21
-488.440306
 31
843.0
210
0.0
220
-1.0
230
0.0
  0
LINE
  5
723
  8
TEAM-NET
 10
485.0
 20
-488.440306
 30
843.0
 11
485.0
 21
-488.440306
 31
825.00089
210
0.0
220
-1.0
230
0.0
  0
LINE
  5
724
  8
TEAM-NET
 10
525.0
 20
-448.440306
 30
825.00089
 11
525.0
 21
-448.440306
 31
843.0
  0
LINE
  5
725
  8
TEAM-NET
 10
485.0
 20
-488.440306
 30
843.0
 11
485.0
 21
-488.440306
 31
825.00089
  0
LINE
  5
726
  8
TEAM-NET
 10
525.0
 20
-448.440306
 30
825.00089
 11
525.0
 21
-448.440306
 31
843.0
210
1.0
220
0.0
230
0.0
  0
ARC
  5
727
  8
TEAM-NET
 10
120.440306
 20
828.0
 30
-40.0
 40
3.0
210
-1.0
220
0.0
230
0.0
 50
270.0
 51
360.0
  0
ARC
  5
728
  8
TEAM-NET
 10
120.440306
 20
828.0
 30
-40.0
 40
3.0
210
-1.0
220
0.0
230
0.0
 50
270.0
 51
360.0
  0
ARC
  5
729
  8
TEAM-NET
 10
-40.0
 20
815.0
 30
-120.440306
 40
10.0
210
0.0
220
1.0
230
0.0
 50
0.0
 51
90.0
  0
ARC
  5
72A
  8
TEAM-NET
 10
-40.0
 20
815.0
 30
-120.440306
 40
10.0
210
0.0
220
1.0
230
0.0
 50
90.0
 51
180.0
  0
ARC
  5
72B
  8
TEAM-NET
 10
-40.0
 20
815.0
 30
-120.440306
 40
10.0
210
0.0
220
1.0
230
0.0
 50
0.0
 51
90.0
  0
ARC
  5
72C
  8
TEAM-NET
 10
-40.0
 20
815.0
 30
-120.440306
 40
10.0
210
0.0
220
1.0
230
0.0
 50
90.0
 51
180.0
  0
ARC
  5
72D
  8
TEAM-NET
 10
-21.967493
 20
878.0
 30
518.0
 40
7.0
210
1.0
220
0.0
230
0.0
 50
90.0
 51
173.0
  0
ARC
  5
72E
  8
TEAM-NET
 10
-21.967493
 20
878.0
 30
518.0
 40
7.0
210
1.0
220
0.0
230
0.0
 50
90.0
 51
173.0
  0
ARC
  5
72F
  8
TEAM-NET
 10
21.967493
 20
878.0
 30
518.0
 40
7.0
210
-1.0
220
0.0
230
0.0
 50
7.0
 51
90.0
  0
ARC
  5
730
  8
TEAM-NET
 10
21.967493
 20
878.0
 30
518.0
 40
7.0
210
-1.0
220
0.0
230
0.0
 50
7.0
 51
90.0
  0
ARC
  5
731
  8
TEAM-NET
 10
50.950743
 20
873.746523
 30
3.0
 40
17.407882
210
-1.0
220
0.0
230
0.0
 50
10.635407
 51
94.182905
  0
ARC
  5
732
  8
TEAM-NET
 10
-50.950743
 20
873.746523
 30
-1.0
 40
15.407882
210
1.0
220
-0.0
230
-0.0
 50
86.21218
 51
169.364593
  0
ARC
  5
733
  8
TEAM-NET
 10
-50.950743
 20
873.746523
 30
-1.0
 40
15.407882
210
1.0
220
-0.0
230
-0.0
 50
86.21218
 51
169.364593
  0
ARC
  5
734
  8
TEAM-NET
 10
50.950743
 20
873.746523
 30
-1.0
 40
15.407882
210
-1.0
220
0.0
230
0.0
 50
10.635407
 51
93.78782
  0
ARC
  5
735
  8
TEAM-NET
 10
50.950743
 20
873.746523
 30
-1.0
 40
15.407882
210
-1.0
220
0.0
230
0.0
 50
10.635407
 51
93.78782
  0
ARC
  5
736
  8
TEAM-NET
 10
-50.950743
 20
873.746523
 30
3.0
 40
17.407882
210
1.0
220
-0.0
230
-0.0
 50
85.817095
 51
169.364593
  0
ARC
  5
737
  8
TEAM-NET
 10
-50.950743
 20
873.746523
 30
3.0
 40
17.407882
210
1.0
220
-0.0
230
-0.0
 50
85.817095
 51
169.364593
  0
ARC
  5
738
  8
TEAM-NET
 10
-50.877735
 20
873.65504
 30
3.0
 40
18.496523
210
1.0
220
-0.0
230
-0.0
 50
85.712041
 51
169.364593
  0
ARC
  5
739
  8
TEAM-NET
 10
50.877735
 20
873.65504
 30
2.0
 40
19.496523
210
-1.0
220
0.0
230
0.0
 50
10.635407
 51
94.287959
  0
ARC
  5
73A
  8
TEAM-NET
 10
-50.877735
 20
873.65504
 30
-3.0
 40
18.496523
210
1.0
220
-0.0
230
-0.0
 50
85.712041
 51
169.364593
  0
ARC
  5
73B
  8
TEAM-NET
 10
-50.877735
 20
873.65504
 30
2.0
 40
19.496523
210
1.0
220
-0.0
230
-0.0
 50
85.712041
 51
169.364593
  0
ARC
  5
73C
  8
TEAM-NET
 10
50.877735
 20
873.65504
 30
2.0
 40
19.496523
210
-1.0
220
0.0
230
0.0
 50
10.635407
 51
94.287959
  0
ARC
  5
73D
  8
TEAM-NET
 10
50.877735
 20
873.65504
 30
-3.0
 40
18.496523
210
-1.0
220
0.0
230
0.0
 50
10.635407
 51
94.287959
  0
ARC
  5
73E
  8
TEAM-NET
 10
-50.877735
 20
873.65504
 30
2.0
 40
19.496523
210
1.0
220
-0.0
230
-0.0
 50
85.712041
 51
169.364593
  0
ARC
  5
73F
  8
TEAM-NET
 10
50.877735
 20
873.65504
 30
3.0
 40
18.496523
210
-1.0
220
0.0
230
0.0
 50
10.635407
 51
94.287959
  0
ARC
  5
740
  8
TEAM-NET
 10
50.950743
 20
873.746523
 30
3.0
 40
17.407882
210
-1.0
220
0.0
230
0.0
 50
10.635407
 51
94.182905
  0
ARC
  5
741
  8
TEAM-NET
 10
-518.0
 20
878.0
 30
1.559694
 40
7.0
210
0.0
220
1.0
230
0.0
 50
90.0
 51
180.0
  0
ARC
  5
742
  8
TEAM-NET
 10
518.0
 20
878.0
 30
21.967493
 40
7.0
210
0.0
220
-1.0
230
0.0
 50
0.0
 51
90.0
  0
ARC
  5
743
  8
TEAM-NET
 10
518.0
 20
878.0
 30
-1.559694
 40
7.0
210
0.0
220
-1.0
230
0.0
 50
0.0
 51
90.0
  0
ARC
  5
744
  8
TEAM-NET
 10
518.0
 20
878.0
 30
21.967493
 40
7.0
210
0.0
220
-1.0
230
0.0
 50
0.0
 51
90.0
  0
ARC
  5
745
  8
TEAM-NET
 10
518.0
 20
878.0
 30
1.559694
 40
7.0
210
0.0
220
1.0
230
0.0
 50
0.0
 51
90.0
  0
ARC
  5
746
  8
TEAM-NET
 10
-518.0
 20
878.0
 30
21.967493
 40
7.0
210
0.0
220
-1.0
230
0.0
 50
90.0
 51
180.0
  0
ARC
  5
747
  8
TEAM-NET
 10
-518.0
 20
878.0
 30
-1.559694
 40
7.0
210
0.0
220
-1.0
230
0.0
 50
90.0
 51
180.0
  0
ARC
  5
748
  8
TEAM-NET
 10
-518.0
 20
878.0
 30
21.967493
 40
7.0
210
0.0
220
-1.0
230
0.0
 50
90.0
 51
180.0
  0
POLYLINE
  5
749
  8
TEAM-NET
 66
     1
 10
0.0
 20
0.0
 30
-497.49775
 70
   128
210
0.0
220
-0.675261
230
-0.737579
  0
VERTEX
  5
CAA
  8
TEAM-NET
 10
14.0
 20
750.753074
 30
-497.49775
  0
VERTEX
  5
CAB
  8
TEAM-NET
 10
13.787309
 20
753.211757
 30
-497.49775
  0
VERTEX
  5
CAC
  8
TEAM-NET
 10
13.155697
 20
755.595735
 30
-497.49775
  0
VERTEX
  5
CAD
  8
TEAM-NET
 10
12.124356
 20
757.832571
 30
-497.49775
  0
VERTEX
  5
CAE
  8
TEAM-NET
 10
10.724622
 20
759.8543
 30
-497.49775
  0
VERTEX
  5
CAF
  8
TEAM-NET
 10
8.999027
 20
761.599493
 30
-497.49775
  0
VERTEX
  5
CB0
  8
TEAM-NET
 10
7.0
 20
763.015123
 30
-497.49775
  0
VERTEX
  5
CB1
  8
TEAM-NET
 10
4.788282
 20
764.058176
 30
-497.49775
  0
VERTEX
  5
CB2
  8
TEAM-NET
 10
2.431074
 20
764.696961
 30
-497.49775
  0
VERTEX
  5
CB3
  8
TEAM-NET
 10
0.0
 20
764.912068
 30
-497.49775
  0
SEQEND
  5
CB4
  8
TEAM-NET
  0
POLYLINE
  5
74A
  8
TEAM-NET
 66
     1
 10
0.0
 20
0.0
 30
-497.49775
 70
   128
210
0.0
220
-0.675261
230
-0.737579
  0
VERTEX
  5
CB5
  8
TEAM-NET
 10
0.0
 20
764.912068
 30
-497.49775
  0
VERTEX
  5
CB6
  8
TEAM-NET
 10
-2.431074
 20
764.696961
 30
-497.49775
  0
VERTEX
  5
CB7
  8
TEAM-NET
 10
-4.788282
 20
764.058176
 30
-497.49775
  0
VERTEX
  5
CB8
  8
TEAM-NET
 10
-7.0
 20
763.015123
 30
-497.49775
  0
VERTEX
  5
CB9
  8
TEAM-NET
 10
-8.999027
 20
761.599493
 30
-497.49775
  0
VERTEX
  5
CBA
  8
TEAM-NET
 10
-10.724622
 20
759.8543
 30
-497.49775
  0
VERTEX
  5
CBB
  8
TEAM-NET
 10
-12.124356
 20
757.832571
 30
-497.49775
  0
VERTEX
  5
CBC
  8
TEAM-NET
 10
-13.155697
 20
755.595735
 30
-497.49775
  0
VERTEX
  5
CBD
  8
TEAM-NET
 10
-13.787309
 20
753.211757
 30
-497.49775
  0
VERTEX
  5
CBE
  8
TEAM-NET
 10
-14.0
 20
750.753074
 30
-497.49775
  0
SEQEND
  5
CBF
  8
TEAM-NET
  0
POLYLINE
  5
74B
  8
TEAM-NET
 66
     1
 10
0.0
 20
0.0
 30
-497.49775
 70
   128
210
0.0
220
-0.675261
230
-0.737579
  0
VERTEX
  5
CC0
  8
TEAM-NET
 10
0.0
 20
764.912068
 30
-497.49775
  0
VERTEX
  5
CC1
  8
TEAM-NET
 10
-2.431074
 20
764.696961
 30
-497.49775
  0
VERTEX
  5
CC2
  8
TEAM-NET
 10
-4.788282
 20
764.058176
 30
-497.49775
  0
VERTEX
  5
CC3
  8
TEAM-NET
 10
-7.0
 20
763.015123
 30
-497.49775
  0
VERTEX
  5
CC4
  8
TEAM-NET
 10
-8.999027
 20
761.599493
 30
-497.49775
  0
VERTEX
  5
CC5
  8
TEAM-NET
 10
-10.724622
 20
759.8543
 30
-497.49775
  0
VERTEX
  5
CC6
  8
TEAM-NET
 10
-12.124356
 20
757.832571
 30
-497.49775
  0
VERTEX
  5
CC7
  8
TEAM-NET
 10
-13.155697
 20
755.595735
 30
-497.49775
  0
VERTEX
  5
CC8
  8
TEAM-NET
 10
-13.787309
 20
753.211757
 30
-497.49775
  0
VERTEX
  5
CC9
  8
TEAM-NET
 10
-14.0
 20
750.753074
 30
-497.49775
  0
SEQEND
  5
CCA
  8
TEAM-NET
  0
POLYLINE
  5
74C
  8
TEAM-NET
 66
     1
 10
0.0
 20
0.0
 30
-497.49775
 70
   128
210
0.0
220
-0.675261
230
-0.737579
  0
VERTEX
  5
CCB
  8
TEAM-NET
 10
14.0
 20
750.753074
 30
-497.49775
  0
VERTEX
  5
CCC
  8
TEAM-NET
 10
13.787309
 20
753.211757
 30
-497.49775
  0
VERTEX
  5
CCD
  8
TEAM-NET
 10
13.155697
 20
755.595735
 30
-497.49775
  0
VERTEX
  5
CCE
  8
TEAM-NET
 10
12.124356
 20
757.832571
 30
-497.49775
  0
VERTEX
  5
CCF
  8
TEAM-NET
 10
10.724622
 20
759.8543
 30
-497.49775
  0
VERTEX
  5
CD0
  8
TEAM-NET
 10
8.999027
 20
761.599493
 30
-497.49775
  0
VERTEX
  5
CD1
  8
TEAM-NET
 10
7.0
 20
763.015123
 30
-497.49775
  0
VERTEX
  5
CD2
  8
TEAM-NET
 10
4.788282
 20
764.058176
 30
-497.49775
  0
VERTEX
  5
CD3
  8
TEAM-NET
 10
2.431074
 20
764.696961
 30
-497.49775
  0
VERTEX
  5
CD4
  8
TEAM-NET
 10
0.0
 20
764.912068
 30
-497.49775
  0
SEQEND
  5
CD5
  8
TEAM-NET
  0
LINE
  5
74D
  8
TEAM-NET
 10
-518.0
 20
-28.915316
 30
878.853085
 11
518.0
 21
-28.915316
 31
878.853085
210
0.0
220
-0.992546
230
0.121869
  0
LINE
  5
74E
  8
TEAM-NET
 10
-518.0
 20
-28.915316
 30
878.853085
 11
518.0
 21
-28.915316
 31
878.853085
  0
LINE
  5
74F
  8
TEAM-NET
 10
518.0
 20
-30.301611
 30
867.562613
 11
260.641442
 21
-30.301611
 31
867.562613
210
0.0
220
-0.992546
230
0.121869
  0
LINE
  5
750
  8
TEAM-NET
 10
518.0
 20
-30.301611
 30
867.562613
 11
260.641442
 21
-30.301611
 31
867.562613
  0
LINE
  5
751
  8
TEAM-NET
 10
525.0
 20
-23.353788
 30
866.709528
 11
525.0
 21
-21.967493
 31
878.0
210
1.0
220
0.0
230
0.0
  0
LINE
  5
752
  8
TEAM-NET
 10
525.0
 20
-23.353788
 30
866.709528
 11
525.0
 21
-21.967493
 31
878.0
  0
ARC
  5
753
  8
TEAM-NET
 10
518.0
 20
128.805034
 30
-857.403095
 40
7.0
210
0.0
220
-0.121869
230
-0.992546
 50
0.0
 51
90.0
  0
ARC
  5
754
  8
TEAM-NET
 10
518.0
 20
128.805034
 30
-857.403095
 40
7.0
210
0.0
220
-0.121869
230
-0.992546
 50
0.0
 51
90.0
  0
ARC
  5
755
  8
TEAM-NET
 10
-2.0
 20
229.74092
 30
-849.257015
 40
1.0
210
-0.0
220
-0.184559
230
-0.982821
 50
90.0
 51
180.0
  0
LINE
  5
756
  8
TEAM-NET
 10
2.0
 20
-70.039337
 30
877.253294
 11
-2.0
 21
-70.039337
 31
877.253294
210
-0.0
220
-0.982821
230
0.184559
  0
ARC
  5
757
  8
TEAM-NET
 10
2.0
 20
229.74092
 30
-849.257015
 40
1.0
210
-0.0
220
-0.184559
230
-0.982821
 50
360.0
 51
90.0
  0
ARC
  5
758
  8
TEAM-NET
 10
-1.0
 20
228.740917
 30
-849.333452
 40
2.0
210
-0.0
220
-0.184559
230
-0.982821
 50
180.0
 51
270.0
  0
LINE
  5
759
  8
TEAM-NET
 10
-1.0
 20
-66.093941
 30
876.590182
 11
1.0
 21
-66.093941
 31
876.590182
210
0.0
220
0.982821
230
-0.184559
  0
ARC
  5
75A
  8
TEAM-NET
 10
1.0
 20
228.740917
 30
-849.333452
 40
2.0
210
-0.0
220
-0.184559
230
-0.982821
 50
270.0
 51
360.0
  0
ARC
  5
75B
  8
TEAM-NET
 10
-1.0
 20
228.740917
 30
-849.333452
 40
2.0
210
-0.0
220
-0.184559
230
-0.982821
 50
180.0
 51
270.0
  0
LINE
  5
75C
  8
TEAM-NET
 10
-1.0
 20
-66.093941
 30
876.590182
 11
1.0
 21
-66.093941
 31
876.590182
  0
ARC
  5
75D
  8
TEAM-NET
 10
1.0
 20
228.740917
 30
-849.333452
 40
2.0
210
-0.0
220
-0.184559
230
-0.982821
 50
270.0
 51
360.0
  0
ARC
  5
75E
  8
TEAM-NET
 10
-2.0
 20
229.74092
 30
-849.257015
 40
1.0
210
-0.0
220
-0.184559
230
-0.982821
 50
90.0
 51
180.0
  0
LINE
  5
75F
  8
TEAM-NET
 10
2.0
 20
-70.039337
 30
877.253294
 11
-2.0
 21
-70.039337
 31
877.253294
  0
ARC
  5
760
  8
TEAM-NET
 10
2.0
 20
229.74092
 30
-849.257015
 40
1.0
210
-0.0
220
-0.184559
230
-0.982821
 50
360.0
 51
90.0
  0
LINE
  5
761
  8
TEAM-NET
 10
525.0
 20
-21.967493
 30
878.0
 11
525.0
 21
1.559694
 31
878.0
  0
LINE
  5
762
  8
TEAM-NET
 10
525.0
 20
-21.967493
 30
878.0
 11
525.0
 21
1.559694
 31
878.0
210
1.0
220
0.0
230
0.0
  0
POLYLINE
  5
763
  8
TEAM-NET
 66
     1
 10
0.0
 20
0.0
 30
135.805034
 70
   128
210
-0.0
220
-0.992546
230
0.121869
  0
VERTEX
  5
CD6
  8
TEAM-NET
 10
260.641442
 20
857.403095
 30
135.805034
  0
VERTEX
  5
CD7
  8
TEAM-NET
 10
257.136558
 20
850.219241
 30
135.805034
  0
VERTEX
  5
CD8
  8
TEAM-NET
 10
255.043299
 20
842.92785
 30
135.805034
  0
SEQEND
  5
CD9
  8
TEAM-NET
  0
POLYLINE
  5
764
  8
TEAM-NET
 66
     1
 10
0.0
 20
0.0
 30
135.805034
 70
   128
210
-0.0
220
-0.992546
230
0.121869
  0
VERTEX
  5
CDA
  8
TEAM-NET
 10
260.641442
 20
857.403095
 30
135.805034
  0
VERTEX
  5
CDB
  8
TEAM-NET
 10
257.136558
 20
850.219241
 30
135.805034
  0
VERTEX
  5
CDC
  8
TEAM-NET
 10
255.043299
 20
842.92785
 30
135.805034
  0
SEQEND
  5
CDD
  8
TEAM-NET
  0
POLYLINE
  5
765
  8
TEAM-NET
 66
     1
 10
0.0
 20
0.0
 30
135.805034
 70
   128
210
0.0
220
-0.992546
230
0.121869
  0
VERTEX
  5
CDE
  8
TEAM-NET
 10
-257.296833
 20
842.92785
 30
135.805034
  0
VERTEX
  5
CDF
  8
TEAM-NET
 10
-259.46928
 20
850.400745
 30
135.805034
  0
VERTEX
  5
CE0
  8
TEAM-NET
 10
-262.894976
 20
857.403095
 30
135.805034
  0
SEQEND
  5
CE1
  8
TEAM-NET
  0
POLYLINE
  5
766
  8
TEAM-NET
 66
     1
 10
0.0
 20
0.0
 30
135.805034
 70
   128
210
0.0
220
-0.992546
230
0.121869
  0
VERTEX
  5
CE2
  8
TEAM-NET
 10
-257.296833
 20
842.92785
 30
135.805034
  0
VERTEX
  5
CE3
  8
TEAM-NET
 10
-259.46928
 20
850.400745
 30
135.805034
  0
VERTEX
  5
CE4
  8
TEAM-NET
 10
-262.894976
 20
857.403095
 30
135.805034
  0
SEQEND
  5
CE5
  8
TEAM-NET
  0
LINE
  5
767
  8
TEAM-NET
 10
-525.0
 20
-21.967493
 30
878.0
 11
-525.0
 21
-23.353788
 31
866.709528
210
-1.0
220
0.0
230
0.0
  0
LINE
  5
768
  8
TEAM-NET
 10
-525.0
 20
-21.967493
 30
878.0
 11
-525.0
 21
-23.353788
 31
866.709528
  0
ARC
  5
769
  8
TEAM-NET
 10
-518.0
 20
128.805034
 30
-857.403095
 40
7.0
210
0.0
220
-0.121869
230
-0.992546
 50
90.0
 51
180.0
  0
ARC
  5
76A
  8
TEAM-NET
 10
-518.0
 20
128.805034
 30
-857.403095
 40
7.0
210
0.0
220
-0.121869
230
-0.992546
 50
90.0
 51
180.0
  0
LINE
  5
76B
  8
TEAM-NET
 10
-525.0
 20
1.559694
 30
878.0
 11
-525.0
 21
-21.967493
 31
878.0
  0
LINE
  5
76C
  8
TEAM-NET
 10
-525.0
 20
1.559694
 30
878.0
 11
-525.0
 21
-21.967493
 31
878.0
210
-1.0
220
0.0
230
0.0
  0
LINE
  5
76D
  8
TEAM-NET
 10
-262.894976
 20
-30.301611
 30
867.562613
 11
-518.0
 21
-30.301611
 31
867.562613
  0
LINE
  5
76E
  8
TEAM-NET
 10
-262.894976
 20
-30.301611
 30
867.562613
 11
-518.0
 21
-30.301611
 31
867.562613
210
0.0
220
-0.992546
230
0.121869
  0
ARC
  5
76F
  8
TEAM-NET
 10
0.071736
 20
738.483916
 30
508.587395
 40
8.0
210
0.0
220
0.656966
230
0.75392
 50
181.882117
 51
1.882117
  0
ARC
  5
770
  8
TEAM-NET
 10
-0.741393
 20
509.817268
 30
738.083159
 40
1.0
210
0.032843
220
-0.753513
230
0.656612
 50
268.360663
 51
358.360663
  0
ARC
  5
771
  8
TEAM-NET
 10
-0.071736
 20
738.483916
 30
-509.587395
 40
10.0
210
-0.0
220
-0.656966
230
-0.75392
 50
358.117883
 51
178.117883
  0
ARC
  5
772
  8
TEAM-NET
 10
0.071736
 20
738.483916
 30
508.587395
 40
9.0
210
0.0
220
0.656966
230
0.75392
 50
1.882117
 51
181.882117
  0
ARC
  5
773
  8
TEAM-NET
 10
-0.741393
 20
509.817268
 30
738.083159
 40
1.0
210
0.032843
220
-0.753513
230
0.656612
 50
268.360663
 51
358.360663
  0
ARC
  5
774
  8
TEAM-NET
 10
0.071736
 20
738.483916
 30
508.587395
 40
9.0
210
0.0
220
0.656966
230
0.75392
 50
181.882117
 51
1.882117
  0
ARC
  5
775
  8
TEAM-NET
 10
-0.071736
 20
738.483916
 30
-509.587395
 40
10.0
210
-0.0
220
-0.656966
230
-0.75392
 50
178.117883
 51
358.117883
  0
ARC
  5
776
  8
TEAM-NET
 10
-0.071736
 20
738.483916
 30
-508.587395
 40
8.0
210
-0.0
220
-0.656966
230
-0.75392
 50
178.117883
 51
358.117883
  0
ARC
  5
777
  8
TEAM-NET
 10
-0.071736
 20
738.483916
 30
-508.587395
 40
9.0
210
-0.0
220
-0.656966
230
-0.75392
 50
358.117883
 51
178.117883
  0
ARC
  5
778
  8
TEAM-NET
 10
-0.071736
 20
738.483916
 30
-508.587395
 40
9.0
210
-0.0
220
-0.656966
230
-0.75392
 50
178.117883
 51
358.117883
  0
ARC
  5
779
  8
TEAM-NET
 10
-0.071736
 20
738.483916
 30
-509.587395
 40
10.0
210
-0.0
220
-0.656966
230
-0.75392
 50
178.117883
 51
358.117883
  0
ARC
  5
77A
  8
TEAM-NET
 10
-0.071736
 20
738.483916
 30
-509.587395
 40
10.0
210
-0.0
220
-0.656966
230
-0.75392
 50
358.117883
 51
178.117883
  0
LINE
  5
77B
  8
TEAM-NET
 10
7.923948
 20
-222.434657
 30
868.420669
 11
7.923948
 21
-215.864992
 31
875.959866
  0
LINE
  5
77C
  8
TEAM-NET
 10
-8.06742
 20
-222.830836
 30
868.765899
 11
-8.06742
 21
-216.261171
 31
876.305097
  0
ARC
  5
77D
  8
TEAM-NET
 10
18.734026
 20
510.33221
 30
-738.083159
 40
1.0
210
-0.032843
220
0.753513
230
-0.656612
 50
271.639337
 51
1.639337
  0
ARC
  5
77E
  8
TEAM-NET
 10
18.734026
 20
510.33221
 30
-738.083159
 40
1.0
210
-0.032843
220
0.753513
230
-0.656612
 50
271.639337
 51
1.639337
  0
ARC
  5
77F
  8
TEAM-NET
 10
-0.071736
 20
738.483916
 30
-508.587395
 40
8.0
210
-0.0
220
-0.656966
230
-0.75392
 50
358.117883
 51
178.117883
  0
ARC
  5
780
  8
TEAM-NET
 10
-0.512529
 20
517.813993
 30
738.083159
 40
1.0
210
0.032843
220
-0.753513
230
0.656612
 50
358.360663
 51
88.360663
  0
ARC
  5
781
  8
TEAM-NET
 10
18.505162
 20
518.328936
 30
-738.083159
 40
1.0
210
-0.032843
220
0.753513
230
-0.656612
 50
1.639337
 51
91.639337
  0
LINE
  5
782
  8
TEAM-NET
 10
9.922869
 20
-216.472436
 30
875.162793
 11
9.922869
 21
-221.728168
 31
869.131435
  0
ARC
  5
783
  8
TEAM-NET
 10
0.071736
 20
738.483916
 30
517.587395
 40
10.0
210
0.0
220
0.656966
230
0.75392
 50
181.882117
 51
1.882117
  0
LINE
  5
784
  8
TEAM-NET
 10
-10.066341
 20
-216.967659
 30
875.594331
 11
-10.066341
 21
-222.223391
 31
869.562973
  0
LINE
  5
785
  8
TEAM-NET
 10
9.922869
 20
-216.472436
 30
875.162793
 11
9.922869
 21
-221.728168
 31
869.131435
  0
LINE
  5
786
  8
TEAM-NET
 10
-10.066341
 20
-216.967659
 30
875.594331
 11
-10.066341
 21
-222.223391
 31
869.562973
  0
ARC
  5
787
  8
TEAM-NET
 10
-0.512529
 20
517.813993
 30
738.083159
 40
1.0
210
0.032843
220
-0.753513
230
0.656612
 50
358.360663
 51
88.360663
  0
ARC
  5
788
  8
TEAM-NET
 10
0.071736
 20
738.483916
 30
517.587395
 40
10.0
210
0.0
220
0.656966
230
0.75392
 50
181.882117
 51
1.882117
  0
ARC
  5
789
  8
TEAM-NET
 10
18.505162
 20
518.328936
 30
-738.083159
 40
1.0
210
-0.032843
220
0.753513
230
-0.656612
 50
1.639337
 51
91.639337
  0
LINE
  5
78A
  8
TEAM-NET
 10
7.923948
 20
-222.434657
 30
868.420669
 11
7.923948
 21
-215.864992
 31
875.959866
  0
ARC
  5
78B
  8
TEAM-NET
 10
0.071736
 20
738.483916
 30
508.587395
 40
8.0
210
0.0
220
0.656966
230
0.75392
 50
1.882117
 51
181.882117
  0
LINE
  5
78C
  8
TEAM-NET
 10
-8.06742
 20
-222.830836
 30
868.765899
 11
-8.06742
 21
-216.261171
 31
876.305097
  0
POLYLINE
  5
78D
  8
TEAM-NET
 66
     1
 10
0.0
 20
0.0
 30
-497.49775
 70
   128
210
0.0
220
-0.675261
230
-0.737579
  0
VERTEX
  5
CE6
  8
TEAM-NET
 10
-14.0
 20
750.753074
 30
-497.49775
  0
VERTEX
  5
CE7
  8
TEAM-NET
 10
-13.761623
 20
748.151365
 30
-497.49775
  0
VERTEX
  5
CE8
  8
TEAM-NET
 10
-13.054611
 20
745.638255
 30
-497.49775
  0
VERTEX
  5
CE9
  8
TEAM-NET
 10
-11.90304
 20
743.299323
 30
-497.49775
  0
VERTEX
  5
CEA
  8
TEAM-NET
 10
-10.346125
 20
741.21422
 30
-497.49775
  0
VERTEX
  5
CEB
  8
TEAM-NET
 10
-8.436885
 20
739.453952
 30
-497.49775
  0
VERTEX
  5
CEC
  8
TEAM-NET
 10
-6.240337
 20
738.078461
 30
-497.49775
  0
VERTEX
  5
CED
  8
TEAM-NET
 10
-3.831282
 20
737.134589
 30
-497.49775
  0
VERTEX
  5
CEE
  8
TEAM-NET
 10
-1.291757
 20
736.654478
 30
-497.49775
  0
VERTEX
  5
CEF
  8
TEAM-NET
 10
1.291757
 20
736.654478
 30
-497.49775
  0
VERTEX
  5
CF0
  8
TEAM-NET
 10
3.831282
 20
737.134589
 30
-497.49775
  0
VERTEX
  5
CF1
  8
TEAM-NET
 10
6.240337
 20
738.078461
 30
-497.49775
  0
VERTEX
  5
CF2
  8
TEAM-NET
 10
8.436885
 20
739.453952
 30
-497.49775
  0
VERTEX
  5
CF3
  8
TEAM-NET
 10
10.346125
 20
741.21422
 30
-497.49775
  0
VERTEX
  5
CF4
  8
TEAM-NET
 10
11.90304
 20
743.299323
 30
-497.49775
  0
VERTEX
  5
CF5
  8
TEAM-NET
 10
13.054611
 20
745.638255
 30
-497.49775
  0
VERTEX
  5
CF6
  8
TEAM-NET
 10
13.761623
 20
748.151365
 30
-497.49775
  0
VERTEX
  5
CF7
  8
TEAM-NET
 10
14.0
 20
750.753074
 30
-497.49775
  0
SEQEND
  5
CF8
  8
TEAM-NET
  0
POLYLINE
  5
78E
  8
TEAM-NET
 66
     1
 10
0.0
 20
0.0
 30
-497.49775
 70
   128
210
0.0
220
-0.675261
230
-0.737579
  0
VERTEX
  5
CF9
  8
TEAM-NET
 10
-14.0
 20
750.753074
 30
-497.49775
  0
VERTEX
  5
CFA
  8
TEAM-NET
 10
-13.761623
 20
748.151365
 30
-497.49775
  0
VERTEX
  5
CFB
  8
TEAM-NET
 10
-13.054611
 20
745.638255
 30
-497.49775
  0
VERTEX
  5
CFC
  8
TEAM-NET
 10
-11.90304
 20
743.299323
 30
-497.49775
  0
VERTEX
  5
CFD
  8
TEAM-NET
 10
-10.346125
 20
741.21422
 30
-497.49775
  0
VERTEX
  5
CFE
  8
TEAM-NET
 10
-8.436885
 20
739.453952
 30
-497.49775
  0
VERTEX
  5
CFF
  8
TEAM-NET
 10
-6.240337
 20
738.078461
 30
-497.49775
  0
VERTEX
  5
D00
  8
TEAM-NET
 10
-3.831282
 20
737.134589
 30
-497.49775
  0
VERTEX
  5
D01
  8
TEAM-NET
 10
-1.291757
 20
736.654478
 30
-497.49775
  0
VERTEX
  5
D02
  8
TEAM-NET
 10
1.291757
 20
736.654478
 30
-497.49775
  0
VERTEX
  5
D03
  8
TEAM-NET
 10
3.831282
 20
737.134589
 30
-497.49775
  0
VERTEX
  5
D04
  8
TEAM-NET
 10
6.240337
 20
738.078461
 30
-497.49775
  0
VERTEX
  5
D05
  8
TEAM-NET
 10
8.436885
 20
739.453952
 30
-497.49775
  0
VERTEX
  5
D06
  8
TEAM-NET
 10
10.346125
 20
741.21422
 30
-497.49775
  0
VERTEX
  5
D07
  8
TEAM-NET
 10
11.90304
 20
743.299323
 30
-497.49775
  0
VERTEX
  5
D08
  8
TEAM-NET
 10
13.054611
 20
745.638255
 30
-497.49775
  0
VERTEX
  5
D09
  8
TEAM-NET
 10
13.761623
 20
748.151365
 30
-497.49775
  0
VERTEX
  5
D0A
  8
TEAM-NET
 10
14.0
 20
750.753074
 30
-497.49775
  0
SEQEND
  5
D0B
  8
TEAM-NET
  0
POLYLINE
  5
78F
  8
TEAM-NET
 66
     1
 10
0.0
 20
0.0
 30
513.762782
 70
   128
210
0.0
220
0.656966
230
0.75392
  0
VERTEX
  5
D0C
  8
TEAM-NET
 10
-4.68381
 20
738.677069
 30
513.762782
  0
VERTEX
  5
D0D
  8
TEAM-NET
 10
-4.604059
 20
737.803144
 30
513.762782
  0
VERTEX
  5
D0E
  8
TEAM-NET
 10
-4.367523
 20
736.95898
 30
513.762782
  0
VERTEX
  5
D0F
  8
TEAM-NET
 10
-3.982256
 20
736.173323
 30
513.762782
  0
VERTEX
  5
D10
  8
TEAM-NET
 10
-3.461377
 20
735.472928
 30
513.762782
  0
VERTEX
  5
D11
  8
TEAM-NET
 10
-2.822626
 20
734.881646
 30
513.762782
  0
VERTEX
  5
D12
  8
TEAM-NET
 10
-2.087754
 20
734.419613
 30
513.762782
  0
VERTEX
  5
D13
  8
TEAM-NET
 10
-1.281785
 20
734.102563
 30
513.762782
  0
VERTEX
  5
D14
  8
TEAM-NET
 10
-0.432167
 20
733.941292
 30
513.762782
  0
VERTEX
  5
D15
  8
TEAM-NET
 10
0.432167
 20
733.941292
 30
513.762782
  0
VERTEX
  5
D16
  8
TEAM-NET
 10
1.281785
 20
734.102563
 30
513.762782
  0
VERTEX
  5
D17
  8
TEAM-NET
 10
2.087754
 20
734.419613
 30
513.762782
  0
VERTEX
  5
D18
  8
TEAM-NET
 10
2.822626
 20
734.881646
 30
513.762782
  0
VERTEX
  5
D19
  8
TEAM-NET
 10
3.461377
 20
735.472928
 30
513.762782
  0
VERTEX
  5
D1A
  8
TEAM-NET
 10
3.982256
 20
736.173323
 30
513.762782
  0
VERTEX
  5
D1B
  8
TEAM-NET
 10
4.367523
 20
736.95898
 30
513.762782
  0
VERTEX
  5
D1C
  8
TEAM-NET
 10
4.604059
 20
737.803144
 30
513.762782
  0
VERTEX
  5
D1D
  8
TEAM-NET
 10
4.68381
 20
738.677069
 30
513.762782
  0
SEQEND
  5
D1E
  8
TEAM-NET
  0
POLYLINE
  5
790
  8
TEAM-NET
 66
     1
 10
0.0
 20
0.0
 30
-513.762782
 70
   128
210
-0.0
220
-0.656966
230
-0.75392
  0
VERTEX
  5
D1F
  8
TEAM-NET
 10
4.68381
 20
738.677069
 30
-513.762782
  0
VERTEX
  5
D20
  8
TEAM-NET
 10
4.593812
 20
739.604931
 30
-513.762782
  0
VERTEX
  5
D21
  8
TEAM-NET
 10
4.327276
 20
740.497136
 30
-513.762782
  0
VERTEX
  5
D22
  8
TEAM-NET
 10
3.894446
 20
741.319397
 30
-513.762782
  0
VERTEX
  5
D23
  8
TEAM-NET
 10
3.311954
 20
742.040115
 30
-513.762782
  0
VERTEX
  5
D24
  8
TEAM-NET
 10
2.602185
 20
742.631592
 30
-513.762782
  0
VERTEX
  5
D25
  8
TEAM-NET
 10
1.792416
 20
743.0711
 30
-513.762782
  0
VERTEX
  5
D26
  8
TEAM-NET
 10
0.913766
 20
743.341747
 30
-513.762782
  0
VERTEX
  5
D27
  8
TEAM-NET
 10
0.0
 20
743.433134
 30
-513.762782
  0
SEQEND
  5
D28
  8
TEAM-NET
  0
POLYLINE
  5
791
  8
TEAM-NET
 66
     1
 10
0.0
 20
0.0
 30
-513.762782
 70
   128
210
-0.0
220
-0.656966
230
-0.75392
  0
VERTEX
  5
D29
  8
TEAM-NET
 10
-4.68381
 20
738.677069
 30
-513.762782
  0
VERTEX
  5
D2A
  8
TEAM-NET
 10
-4.604059
 20
737.803144
 30
-513.762782
  0
VERTEX
  5
D2B
  8
TEAM-NET
 10
-4.367523
 20
736.95898
 30
-513.762782
  0
VERTEX
  5
D2C
  8
TEAM-NET
 10
-3.982256
 20
736.173323
 30
-513.762782
  0
VERTEX
  5
D2D
  8
TEAM-NET
 10
-3.461377
 20
735.472928
 30
-513.762782
  0
VERTEX
  5
D2E
  8
TEAM-NET
 10
-2.822626
 20
734.881646
 30
-513.762782
  0
VERTEX
  5
D2F
  8
TEAM-NET
 10
-2.087754
 20
734.419613
 30
-513.762782
  0
VERTEX
  5
D30
  8
TEAM-NET
 10
-1.281785
 20
734.102563
 30
-513.762782
  0
VERTEX
  5
D31
  8
TEAM-NET
 10
-0.432167
 20
733.941292
 30
-513.762782
  0
VERTEX
  5
D32
  8
TEAM-NET
 10
0.432167
 20
733.941292
 30
-513.762782
  0
VERTEX
  5
D33
  8
TEAM-NET
 10
1.281785
 20
734.102563
 30
-513.762782
  0
VERTEX
  5
D34
  8
TEAM-NET
 10
2.087754
 20
734.419613
 30
-513.762782
  0
VERTEX
  5
D35
  8
TEAM-NET
 10
2.822626
 20
734.881646
 30
-513.762782
  0
VERTEX
  5
D36
  8
TEAM-NET
 10
3.461377
 20
735.472928
 30
-513.762782
  0
VERTEX
  5
D37
  8
TEAM-NET
 10
3.982256
 20
736.173323
 30
-513.762782
  0
VERTEX
  5
D38
  8
TEAM-NET
 10
4.367523
 20
736.95898
 30
-513.762782
  0
VERTEX
  5
D39
  8
TEAM-NET
 10
4.604059
 20
737.803144
 30
-513.762782
  0
VERTEX
  5
D3A
  8
TEAM-NET
 10
4.68381
 20
738.677069
 30
-513.762782
  0
SEQEND
  5
D3B
  8
TEAM-NET
  0
POLYLINE
  5
792
  8
TEAM-NET
 66
     1
 10
0.0
 20
0.0
 30
-513.762782
 70
   128
210
0.0
220
-0.656966
230
-0.75392
  0
VERTEX
  5
D3C
  8
TEAM-NET
 10
0.0
 20
743.433134
 30
-513.762782
  0
VERTEX
  5
D3D
  8
TEAM-NET
 10
-0.913766
 20
743.341747
 30
-513.762782
  0
VERTEX
  5
D3E
  8
TEAM-NET
 10
-1.792416
 20
743.0711
 30
-513.762782
  0
VERTEX
  5
D3F
  8
TEAM-NET
 10
-2.602185
 20
742.631592
 30
-513.762782
  0
VERTEX
  5
D40
  8
TEAM-NET
 10
-3.311954
 20
742.040115
 30
-513.762782
  0
VERTEX
  5
D41
  8
TEAM-NET
 10
-3.894446
 20
741.319397
 30
-513.762782
  0
VERTEX
  5
D42
  8
TEAM-NET
 10
-4.327276
 20
740.497136
 30
-513.762782
  0
VERTEX
  5
D43
  8
TEAM-NET
 10
-4.593812
 20
739.604931
 30
-513.762782
  0
VERTEX
  5
D44
  8
TEAM-NET
 10
-4.68381
 20
738.677069
 30
-513.762782
  0
SEQEND
  5
D45
  8
TEAM-NET
  0
POLYLINE
  5
793
  8
TEAM-NET
 66
     1
 10
0.0
 20
0.0
 30
513.762782
 70
   128
210
0.0
220
0.656966
230
0.75392
  0
VERTEX
  5
D46
  8
TEAM-NET
 10
4.68381
 20
738.677069
 30
513.762782
  0
VERTEX
  5
D47
  8
TEAM-NET
 10
4.593812
 20
739.604931
 30
513.762782
  0
VERTEX
  5
D48
  8
TEAM-NET
 10
4.327276
 20
740.497136
 30
513.762782
  0
VERTEX
  5
D49
  8
TEAM-NET
 10
3.894446
 20
741.319397
 30
513.762782
  0
VERTEX
  5
D4A
  8
TEAM-NET
 10
3.311954
 20
742.040115
 30
513.762782
  0
VERTEX
  5
D4B
  8
TEAM-NET
 10
2.602185
 20
742.631592
 30
513.762782
  0
VERTEX
  5
D4C
  8
TEAM-NET
 10
1.792416
 20
743.0711
 30
513.762782
  0
VERTEX
  5
D4D
  8
TEAM-NET
 10
0.913766
 20
743.341747
 30
513.762782
  0
VERTEX
  5
D4E
  8
TEAM-NET
 10
0.0
 20
743.433134
 30
513.762782
  0
SEQEND
  5
D4F
  8
TEAM-NET
  0
POLYLINE
  5
794
  8
TEAM-NET
 66
     1
 10
0.0
 20
0.0
 30
513.762782
 70
   128
210
-0.0
220
0.656966
230
0.75392
  0
VERTEX
  5
D50
  8
TEAM-NET
 10
0.0
 20
743.433134
 30
513.762782
  0
VERTEX
  5
D51
  8
TEAM-NET
 10
-0.913766
 20
743.341747
 30
513.762782
  0
VERTEX
  5
D52
  8
TEAM-NET
 10
-1.792416
 20
743.0711
 30
513.762782
  0
VERTEX
  5
D53
  8
TEAM-NET
 10
-2.602185
 20
742.631592
 30
513.762782
  0
VERTEX
  5
D54
  8
TEAM-NET
 10
-3.311954
 20
742.040115
 30
513.762782
  0
VERTEX
  5
D55
  8
TEAM-NET
 10
-3.894446
 20
741.319397
 30
513.762782
  0
VERTEX
  5
D56
  8
TEAM-NET
 10
-4.327276
 20
740.497136
 30
513.762782
  0
VERTEX
  5
D57
  8
TEAM-NET
 10
-4.593812
 20
739.604931
 30
513.762782
  0
VERTEX
  5
D58
  8
TEAM-NET
 10
-4.68381
 20
738.677069
 30
513.762782
  0
SEQEND
  5
D59
  8
TEAM-NET
  0
LINE
  5
795
  8
TEAM-AXE
 10
-102.5
 20
-102.371193
 30
850.0
 11
-102.5
 21
-62.371193
 31
850.0
  0
LINE
  5
798
  8
TEAM-AXE
 10
-122.5
 20
-82.371193
 30
850.0
 11
-82.5
 21
-82.371193
 31
850.0
  0
CIRCLE
  5
799
  8
TEAM-HIDE
 10
-102.5
 20
-82.371193
 30
850.0
 40
15.0
  0
LINE
  5
79C
  8
TEAM-AXE
 10
107.5
 20
-102.371193
 30
850.0
 11
107.5
 21
-62.371193
 31
850.0
  0
LINE
  5
79D
  8
TEAM-AXE
 10
87.5
 20
-82.371193
 30
850.0
 11
127.5
 21
-82.371193
 31
850.0
  0
CIRCLE
  5
79E
  8
TEAM-HIDE
 10
107.5
 20
-82.371193
 30
850.0
 40
15.0
  0
LINE
  5
79F
  8
TEAM-NET
 10
259.113404
 20
-50.152535
 30
850.0
 11
518.0
 21
-50.152535
 31
850.0
  0
LINE
  5
7A0
  8
TEAM-NET
 10
259.113404
 20
-50.152535
 30
850.0
 11
518.0
 21
-50.152535
 31
850.0
  0
LINE
  5
7A1
  8
TEAM-NET
 10
-518.0
 20
-50.152535
 30
850.0
 11
-261.366937
 21
-50.152535
 31
850.0
  0
LINE
  5
7A2
  8
TEAM-NET
 10
-518.0
 20
-50.152535
 30
850.0
 11
-261.366937
 21
-50.152535
 31
850.0
  0
TEXT
  5
7A3
  8
TEAM-TXT
 10
-259.909103
 20
-338.433332
 30
851.0
 40
30.0
  1
team 212209
 41
0.8
 51
15.0
  7
TEAM
  0
LINE
  5
7A6
  8
TEAM-NET
 10
-241.133097
 20
-448.075178
 30
850.0
 11
238.879563
 21
-448.075178
 31
850.0
  0
LINE
  5
7A7
  8
TEAM-NET
 10
-241.133097
 20
-448.075178
 30
850.0
 11
238.879563
 21
-448.075178
 31
850.0
  0
POLYLINE
  5
7A8
  8
TEAM-NET
 66
     1
 10
0.0
 20
0.0
 30
0.0
 70
     8
  0
VERTEX
  5
7A9
  8
TEAM-NET
 10
238.879563
 20
-448.075178
 30
850.0
 70
    32
  0
VERTEX
  5
7AA
  8
TEAM-NET
 10
242.807331
 20
-447.694718
 30
850.0
 70
    32
  0
VERTEX
  5
7AB
  8
TEAM-NET
 10
246.588169
 20
-446.567286
 30
850.0
 70
    32
  0
VERTEX
  5
7AC
  8
TEAM-NET
 10
250.079616
 20
-444.731287
 30
850.0
 70
    32
  0
VERTEX
  5
7AD
  8
TEAM-NET
 10
253.149079
 20
-442.252634
 30
850.0
 70
    32
  0
VERTEX
  5
7AE
  8
TEAM-NET
 10
255.674573
 20
-439.222986
 30
850.0
 70
    32
  0
VERTEX
  5
7AF
  8
TEAM-NET
 10
257.557569
 20
-435.756258
 30
850.0
 70
    32
  0
VERTEX
  5
7B0
  8
TEAM-NET
 10
258.719777
 20
-431.985298
 30
850.0
 70
    32
  0
VERTEX
  5
7B1
  8
TEAM-NET
 10
259.113404
 20
-428.058313
 30
850.0
 70
    32
  0
SEQEND
  5
7B2
  8
TEAM-NET
  0
POLYLINE
  5
7B3
  8
TEAM-NET
 66
     1
 10
0.0
 20
0.0
 30
0.0
 70
     8
  0
VERTEX
  5
7B4
  8
TEAM-NET
 10
238.879563
 20
-448.075178
 30
850.0
 70
    32
  0
VERTEX
  5
7B5
  8
TEAM-NET
 10
242.807331
 20
-447.694718
 30
850.0
 70
    32
  0
VERTEX
  5
7B6
  8
TEAM-NET
 10
246.588169
 20
-446.567286
 30
850.0
 70
    32
  0
VERTEX
  5
7B7
  8
TEAM-NET
 10
250.079616
 20
-444.731287
 30
850.0
 70
    32
  0
VERTEX
  5
7B8
  8
TEAM-NET
 10
253.149079
 20
-442.252634
 30
850.0
 70
    32
  0
VERTEX
  5
7B9
  8
TEAM-NET
 10
255.674573
 20
-439.222986
 30
850.0
 70
    32
  0
VERTEX
  5
7BA
  8
TEAM-NET
 10
257.557569
 20
-435.756258
 30
850.0
 70
    32
  0
VERTEX
  5
7BB
  8
TEAM-NET
 10
258.719777
 20
-431.985298
 30
850.0
 70
    32
  0
VERTEX
  5
7BC
  8
TEAM-NET
 10
259.113404
 20
-428.058313
 30
850.0
 70
    32
  0
SEQEND
  5
7BD
  8
TEAM-NET
  0
ARC
  5
7BE
  8
TEAM-NET
 10
485.0
 20
-448.440306
 30
850.0
 40
33.0
 50
270.0
 51
0.0
  0
ARC
  5
7BF
  8
TEAM-NET
 10
-485.0
 20
-448.440306
 30
-850.0
 40
33.0
210
0.0
220
0.0
230
-1.0
 50
180.0
 51
270.0
  0
POLYLINE
  5
7C0
  8
TEAM-NET
 66
     1
 10
0.0
 20
0.0
 30
850.0
 70
   128
  0
VERTEX
  5
D5A
  8
TEAM-NET
 10
-261.366937
 20
-428.058313
 30
850.0
  0
VERTEX
  5
D5B
  8
TEAM-NET
 10
-260.973625
 20
-431.985079
 30
850.0
  0
VERTEX
  5
D5C
  8
TEAM-NET
 10
-259.811574
 20
-435.75592
 30
850.0
  0
VERTEX
  5
D5D
  8
TEAM-NET
 10
-257.928965
 20
-439.222381
 30
850.0
  0
VERTEX
  5
D5E
  8
TEAM-NET
 10
-255.402686
 20
-442.252339
 30
850.0
  0
VERTEX
  5
D5F
  8
TEAM-NET
 10
-252.332956
 20
-444.731565
 30
850.0
  0
VERTEX
  5
D60
  8
TEAM-NET
 10
-248.841351
 20
-446.567546
 30
850.0
  0
VERTEX
  5
D61
  8
TEAM-NET
 10
-245.060516
 20
-447.69486
 30
850.0
  0
VERTEX
  5
D62
  8
TEAM-NET
 10
-241.133097
 20
-448.075178
 30
850.0
  0
SEQEND
  5
D63
  8
TEAM-NET
  0
POLYLINE
  5
7C1
  8
TEAM-NET
 66
     1
 10
0.0
 20
0.0
 30
850.0
 70
   128
  0
VERTEX
  5
D64
  8
TEAM-NET
 10
-261.366937
 20
-428.058313
 30
850.0
  0
VERTEX
  5
D65
  8
TEAM-NET
 10
-260.973625
 20
-431.985079
 30
850.0
  0
VERTEX
  5
D66
  8
TEAM-NET
 10
-259.811574
 20
-435.75592
 30
850.0
  0
VERTEX
  5
D67
  8
TEAM-NET
 10
-257.928965
 20
-439.222381
 30
850.0
  0
VERTEX
  5
D68
  8
TEAM-NET
 10
-255.402686
 20
-442.252339
 30
850.0
  0
VERTEX
  5
D69
  8
TEAM-NET
 10
-252.332956
 20
-444.731565
 30
850.0
  0
VERTEX
  5
D6A
  8
TEAM-NET
 10
-248.841351
 20
-446.567546
 30
850.0
  0
VERTEX
  5
D6B
  8
TEAM-NET
 10
-245.060516
 20
-447.69486
 30
850.0
  0
VERTEX
  5
D6C
  8
TEAM-NET
 10
-241.133097
 20
-448.075178
 30
850.0
  0
SEQEND
  5
D6D
  8
TEAM-NET
  0
ARC
  5
7C2
  8
TEAM-NET
 10
-485.0
 20
-448.440306
 30
850.0
 40
33.0
 50
180.0
 51
270.0
  0
ARC
  5
7C3
  8
TEAM-NET
 10
485.0
 20
-448.440306
 30
-850.0
 40
33.0
210
0.0
220
0.0
230
-1.0
 50
270.0
 51
0.0
  0
LINE
  5
7C4
  8
TEAM-NET
 10
485.0
 20
-481.440306
 30
850.0
 11
-485.0
 21
-481.440306
 31
850.0
  0
LINE
  5
7C5
  8
TEAM-NET
 10
485.0
 20
-481.440306
 30
850.0
 11
-485.0
 21
-481.440306
 31
850.0
  0
LINE
  5
7C6
  8
TEAM-NET
 10
-261.366937
 20
-50.152535
 30
850.0
 11
-261.366937
 21
-428.058313
 31
850.0
  0
LINE
  5
7C7
  8
TEAM-NET
 10
-261.366937
 20
-50.152535
 30
850.0
 11
-261.366937
 21
-428.058313
 31
850.0
  0
LINE
  5
7C8
  8
TEAM-NET
 10
259.113404
 20
-428.058313
 30
850.0
 11
259.113404
 21
-50.152535
 31
850.0
  0
LINE
  5
7C9
  8
TEAM-NET
 10
259.113404
 20
-428.058313
 30
850.0
 11
259.113404
 21
-50.152535
 31
850.0
  0
LINE
  5
7CA
  8
TEAM-NET
 10
-518.0
 20
-448.440306
 30
850.0
 11
-518.0
 21
-50.152535
 31
850.0
  0
LINE
  5
7CB
  8
TEAM-NET
 10
-518.0
 20
-448.440306
 30
850.0
 11
-518.0
 21
-50.152535
 31
850.0
  0
LINE
  5
7CC
  8
TEAM-NET
 10
518.0
 20
-50.152535
 30
850.0
 11
518.0
 21
-448.440306
 31
850.0
  0
LINE
  5
7CD
  8
TEAM-NET
 10
518.0
 20
-50.152535
 30
850.0
 11
518.0
 21
-448.440306
 31
850.0
  0
POLYLINE
  5
7CE
  8
TEAM-NET
 66
     1
 10
0.0
 20
0.0
 30
0.0
 70
     8
  0
VERTEX
  5
7CF
  8
TEAM-NET
 10
-262.894976
 20
-30.301611
 30
867.562613
 70
    32
  0
VERTEX
  5
7D0
  8
TEAM-NET
 10
-262.682868
 20
-32.448595
 30
860.695804
 70
    32
  0
VERTEX
  5
7D1
  8
TEAM-NET
 10
-262.136221
 20
-36.892344
 30
855.027964
 70
    32
  0
VERTEX
  5
7D2
  8
TEAM-NET
 10
-261.591855
 20
-43.056521
 30
851.301104
 70
    32
  0
VERTEX
  5
7D3
  8
TEAM-NET
 10
-261.366937
 20
-50.152535
 30
850.0
 70
    32
  0
SEQEND
  5
7D4
  8
TEAM-NET
  0
POLYLINE
  5
7D5
  8
TEAM-NET
 66
     1
 10
0.0
 20
0.0
 30
0.0
 70
     8
  0
VERTEX
  5
7D6
  8
TEAM-NET
 10
-262.894976
 20
-30.301611
 30
867.562613
 70
    32
  0
VERTEX
  5
7D7
  8
TEAM-NET
 10
-262.682868
 20
-32.448595
 30
860.695804
 70
    32
  0
VERTEX
  5
7D8
  8
TEAM-NET
 10
-262.136221
 20
-36.892344
 30
855.027964
 70
    32
  0
VERTEX
  5
7D9
  8
TEAM-NET
 10
-261.591855
 20
-43.056521
 30
851.301104
 70
    32
  0
VERTEX
  5
7DA
  8
TEAM-NET
 10
-261.366937
 20
-50.152535
 30
850.0
 70
    32
  0
SEQEND
  5
7DB
  8
TEAM-NET
  0
POLYLINE
  5
7DC
  8
TEAM-NET
 66
     1
 10
0.0
 20
0.0
 30
0.0
 70
     8
  0
VERTEX
  5
7DD
  8
TEAM-NET
 10
259.113404
 20
-50.152535
 30
850.0
 70
    32
  0
VERTEX
  5
7DE
  8
TEAM-NET
 10
259.338323
 20
-43.05647
 30
851.301084
 70
    32
  0
VERTEX
  5
7DF
  8
TEAM-NET
 10
259.882687
 20
-36.892405
 30
855.027876
 70
    32
  0
VERTEX
  5
7E0
  8
TEAM-NET
 10
260.429334
 20
-32.448622
 30
860.695856
 70
    32
  0
VERTEX
  5
7E1
  8
TEAM-NET
 10
260.641442
 20
-30.301611
 30
867.562613
 70
    32
  0
SEQEND
  5
7E2
  8
TEAM-NET
  0
POLYLINE
  5
7E3
  8
TEAM-NET
 66
     1
 10
0.0
 20
0.0
 30
0.0
 70
     8
  0
VERTEX
  5
7E4
  8
TEAM-NET
 10
259.113404
 20
-50.152535
 30
850.0
 70
    32
  0
VERTEX
  5
7E5
  8
TEAM-NET
 10
259.338323
 20
-43.05647
 30
851.301084
 70
    32
  0
VERTEX
  5
7E6
  8
TEAM-NET
 10
259.882687
 20
-36.892405
 30
855.027876
 70
    32
  0
VERTEX
  5
7E7
  8
TEAM-NET
 10
260.429334
 20
-32.448622
 30
860.695856
 70
    32
  0
VERTEX
  5
7E8
  8
TEAM-NET
 10
260.641442
 20
-30.301611
 30
867.562613
 70
    32
  0
SEQEND
  5
7E9
  8
TEAM-NET
  0
LINE
  5
7EA
  8
TEAM-NET
 10
518.0
 20
-28.915316
 30
878.853085
 11
518.0
 21
-30.301611
 31
867.562613
210
0.0
220
-0.992546
230
0.121869
  0
LINE
  5
7EB
  8
TEAM-NET
 10
518.0
 20
-28.915316
 30
878.853085
 11
518.0
 21
-30.301611
 31
867.562613
  0
LINE
  5
7EC
  8
TEAM-NET
 10
-518.0
 20
-30.301611
 30
867.562613
 11
-518.0
 21
-28.915316
 31
878.853085
210
0.0
220
-0.992546
230
0.121869
  0
LINE
  5
7ED
  8
TEAM-NET
 10
-518.0
 20
-30.301611
 30
867.562613
 11
-518.0
 21
-28.915316
 31
878.853085
  0
ARC
  5
7EE
  8
TEAM-NET
 10
518.0
 20
128.805034
 30
-868.778357
 40
7.0
210
0.0
220
-0.121869
230
-0.992546
 50
0.0
 51
90.0
  0
ARC
  5
7EF
  8
TEAM-NET
 10
518.0
 20
128.805034
 30
-868.778357
 40
7.0
210
0.0
220
-0.121869
230
-0.992546
 50
0.0
 51
90.0
  0
ARC
  5
7F0
  8
TEAM-NET
 10
-518.0
 20
128.805034
 30
-868.778357
 40
7.0
210
0.0
220
-0.121869
230
-0.992546
 50
90.0
 51
180.0
  0
ARC
  5
7F1
  8
TEAM-NET
 10
-518.0
 20
128.805034
 30
-868.778357
 40
7.0
210
0.0
220
-0.121869
230
-0.992546
 50
90.0
 51
180.0
  0
ARC
  5
7F2
  8
TEAM-NET
 10
-0.071736
 20
738.483916
 30
-518.587395
 40
8.0
210
-0.0
220
-0.656966
230
-0.75392
 50
178.117883
 51
358.117883
  0
ARC
  5
7F3
  8
TEAM-NET
 10
-0.071736
 20
738.483916
 30
-518.587395
 40
9.0
210
-0.0
220
-0.656966
230
-0.75392
 50
358.117883
 51
178.117883
  0
ARC
  5
7F4
  8
TEAM-NET
 10
0.071736
 20
738.483916
 30
517.587395
 40
10.0
210
0.0
220
0.656966
230
0.75392
 50
1.882117
 51
181.882117
  0
ARC
  5
7F5
  8
TEAM-NET
 10
0.071736
 20
738.483916
 30
517.587395
 40
10.0
210
0.0
220
0.656966
230
0.75392
 50
1.882117
 51
181.882117
  0
ARC
  5
7F6
  8
TEAM-NET
 10
-0.071736
 20
738.483916
 30
-518.587395
 40
9.0
210
-0.0
220
-0.656966
230
-0.75392
 50
178.117883
 51
358.117883
  0
ARC
  5
7F7
  8
TEAM-NET
 10
0.071736
 20
738.483916
 30
518.587395
 40
8.0
210
0.0
220
0.656966
230
0.75392
 50
181.882117
 51
1.882117
  0
ARC
  5
7F8
  8
TEAM-NET
 10
0.071736
 20
738.483916
 30
518.587395
 40
8.0
210
0.0
220
0.656966
230
0.75392
 50
1.882117
 51
181.882117
  0
ARC
  5
7F9
  8
TEAM-NET
 10
0.071736
 20
738.483916
 30
518.587395
 40
9.0
210
0.0
220
0.656966
230
0.75392
 50
181.882117
 51
1.882117
  0
ARC
  5
7FA
  8
TEAM-NET
 10
0.071736
 20
738.483916
 30
518.587395
 40
9.0
210
0.0
220
0.656966
230
0.75392
 50
1.882117
 51
181.882117
  0
ARC
  5
7FB
  8
TEAM-NET
 10
-0.071736
 20
738.483916
 30
-518.587395
 40
8.0
210
-0.0
220
-0.656966
230
-0.75392
 50
358.117883
 51
178.117883
  0
POLYLINE
  5
7FC
  8
TEAM-NET
 66
     1
 10
0.0
 20
0.0
 30
-513.762782
 70
   129
210
-0.0
220
-0.656966
230
-0.75392
  0
VERTEX
  5
D6E
  8
TEAM-NET
 10
0.0
 20
750.509534
 30
-513.762782
  0
VERTEX
  5
D6F
  8
TEAM-NET
 10
-2.271015
 20
750.289333
 30
-513.762782
  0
VERTEX
  5
D70
  8
TEAM-NET
 10
-4.459949
 20
749.636689
 30
-513.762782
  0
VERTEX
  5
D71
  8
TEAM-NET
 10
-6.48769
 20
748.575189
 30
-513.762782
  0
VERTEX
  5
D72
  8
TEAM-NET
 10
-8.280948
 20
747.1432
 30
-513.762782
  0
VERTEX
  5
D73
  8
TEAM-NET
 10
-9.774911
 20
745.392477
 30
-513.762782
  0
VERTEX
  5
D74
  8
TEAM-NET
 10
-10.915584
 20
743.386296
 30
-513.762782
  0
VERTEX
  5
D75
  8
TEAM-NET
 10
-11.661739
 20
741.197165
 30
-513.762782
  0
VERTEX
  5
D76
  8
TEAM-NET
 10
-11.986408
 20
738.904206
 30
-513.762782
  0
VERTEX
  5
D77
  8
TEAM-NET
 10
-11.877857
 20
736.590291
 30
-513.762782
  0
VERTEX
  5
D78
  8
TEAM-NET
 10
-11.34001
 20
734.339052
 30
-513.762782
  0
VERTEX
  5
D79
  8
TEAM-NET
 10
-10.392305
 20
732.231855
 30
-513.762782
  0
VERTEX
  5
D7A
  8
TEAM-NET
 10
-9.068995
 20
730.344858
 30
-513.762782
  0
VERTEX
  5
D7B
  8
TEAM-NET
 10
-7.417908
 20
728.746264
 30
-513.762782
  0
VERTEX
  5
D7C
  8
TEAM-NET
 10
-5.498718
 20
727.493849
 30
-513.762782
  0
VERTEX
  5
D7D
  8
TEAM-NET
 10
-3.380791
 20
726.632878
 30
-513.762782
  0
VERTEX
  5
D7E
  8
TEAM-NET
 10
-1.140673
 20
726.19447
 30
-513.762782
  0
VERTEX
  5
D7F
  8
TEAM-NET
 10
1.140673
 20
726.19447
 30
-513.762782
  0
VERTEX
  5
D80
  8
TEAM-NET
 10
3.380791
 20
726.632878
 30
-513.762782
  0
VERTEX
  5
D81
  8
TEAM-NET
 10
5.498718
 20
727.493849
 30
-513.762782
  0
VERTEX
  5
D82
  8
TEAM-NET
 10
7.417908
 20
728.746264
 30
-513.762782
  0
VERTEX
  5
D83
  8
TEAM-NET
 10
9.068995
 20
730.344858
 30
-513.762782
  0
VERTEX
  5
D84
  8
TEAM-NET
 10
10.392305
 20
732.231855
 30
-513.762782
  0
VERTEX
  5
D85
  8
TEAM-NET
 10
11.34001
 20
734.339052
 30
-513.762782
  0
VERTEX
  5
D86
  8
TEAM-NET
 10
11.877857
 20
736.590291
 30
-513.762782
  0
VERTEX
  5
D87
  8
TEAM-NET
 10
11.986408
 20
738.904206
 30
-513.762782
  0
VERTEX
  5
D88
  8
TEAM-NET
 10
11.661739
 20
741.197165
 30
-513.762782
  0
VERTEX
  5
D89
  8
TEAM-NET
 10
10.915584
 20
743.386296
 30
-513.762782
  0
VERTEX
  5
D8A
  8
TEAM-NET
 10
9.774911
 20
745.392477
 30
-513.762782
  0
VERTEX
  5
D8B
  8
TEAM-NET
 10
8.280948
 20
747.1432
 30
-513.762782
  0
VERTEX
  5
D8C
  8
TEAM-NET
 10
6.48769
 20
748.575189
 30
-513.762782
  0
VERTEX
  5
D8D
  8
TEAM-NET
 10
4.459949
 20
749.636689
 30
-513.762782
  0
VERTEX
  5
D8E
  8
TEAM-NET
 10
2.271015
 20
750.289333
 30
-513.762782
  0
SEQEND
  5
D8F
  8
TEAM-NET
  0
POLYLINE
  5
7FD
  8
TEAM-NET
 66
     1
 10
0.0
 20
0.0
 30
513.762782
 70
   129
210
-0.0
220
0.656966
230
0.75392
  0
VERTEX
  5
D90
  8
TEAM-NET
 10
0.0
 20
750.509534
 30
513.762782
  0
VERTEX
  5
D91
  8
TEAM-NET
 10
-2.271015
 20
750.289333
 30
513.762782
  0
VERTEX
  5
D92
  8
TEAM-NET
 10
-4.459949
 20
749.636689
 30
513.762782
  0
VERTEX
  5
D93
  8
TEAM-NET
 10
-6.48769
 20
748.575189
 30
513.762782
  0
VERTEX
  5
D94
  8
TEAM-NET
 10
-8.280948
 20
747.1432
 30
513.762782
  0
VERTEX
  5
D95
  8
TEAM-NET
 10
-9.774911
 20
745.392477
 30
513.762782
  0
VERTEX
  5
D96
  8
TEAM-NET
 10
-10.915584
 20
743.386296
 30
513.762782
  0
VERTEX
  5
D97
  8
TEAM-NET
 10
-11.661739
 20
741.197165
 30
513.762782
  0
VERTEX
  5
D98
  8
TEAM-NET
 10
-11.986408
 20
738.904206
 30
513.762782
  0
VERTEX
  5
D99
  8
TEAM-NET
 10
-11.877857
 20
736.590291
 30
513.762782
  0
VERTEX
  5
D9A
  8
TEAM-NET
 10
-11.34001
 20
734.339052
 30
513.762782
  0
VERTEX
  5
D9B
  8
TEAM-NET
 10
-10.392305
 20
732.231855
 30
513.762782
  0
VERTEX
  5
D9C
  8
TEAM-NET
 10
-9.068995
 20
730.344858
 30
513.762782
  0
VERTEX
  5
D9D
  8
TEAM-NET
 10
-7.417908
 20
728.746264
 30
513.762782
  0
VERTEX
  5
D9E
  8
TEAM-NET
 10
-5.498718
 20
727.493849
 30
513.762782
  0
VERTEX
  5
D9F
  8
TEAM-NET
 10
-3.380791
 20
726.632878
 30
513.762782
  0
VERTEX
  5
DA0
  8
TEAM-NET
 10
-1.140673
 20
726.19447
 30
513.762782
  0
VERTEX
  5
DA1
  8
TEAM-NET
 10
1.140673
 20
726.19447
 30
513.762782
  0
VERTEX
  5
DA2
  8
TEAM-NET
 10
3.380791
 20
726.632878
 30
513.762782
  0
VERTEX
  5
DA3
  8
TEAM-NET
 10
5.498718
 20
727.493849
 30
513.762782
  0
VERTEX
  5
DA4
  8
TEAM-NET
 10
7.417908
 20
728.746264
 30
513.762782
  0
VERTEX
  5
DA5
  8
TEAM-NET
 10
9.068995
 20
730.344858
 30
513.762782
  0
VERTEX
  5
DA6
  8
TEAM-NET
 10
10.392305
 20
732.231855
 30
513.762782
  0
VERTEX
  5
DA7
  8
TEAM-NET
 10
11.34001
 20
734.339052
 30
513.762782
  0
VERTEX
  5
DA8
  8
TEAM-NET
 10
11.877857
 20
736.590291
 30
513.762782
  0
VERTEX
  5
DA9
  8
TEAM-NET
 10
11.986408
 20
738.904206
 30
513.762782
  0
VERTEX
  5
DAA
  8
TEAM-NET
 10
11.661739
 20
741.197165
 30
513.762782
  0
VERTEX
  5
DAB
  8
TEAM-NET
 10
10.915584
 20
743.386296
 30
513.762782
  0
VERTEX
  5
DAC
  8
TEAM-NET
 10
9.774911
 20
745.392477
 30
513.762782
  0
VERTEX
  5
DAD
  8
TEAM-NET
 10
8.280948
 20
747.1432
 30
513.762782
  0
VERTEX
  5
DAE
  8
TEAM-NET
 10
6.48769
 20
748.575189
 30
513.762782
  0
VERTEX
  5
DAF
  8
TEAM-NET
 10
4.459949
 20
749.636689
 30
513.762782
  0
VERTEX
  5
DB0
  8
TEAM-NET
 10
2.271015
 20
750.289333
 30
513.762782
  0
SEQEND
  5
DB1
  8
TEAM-NET
  0
LINE
  5
7FE
  8
TEAM-NET
 10
518.0
 20
1.559694
 30
885.0
 11
518.0
 21
-21.967493
 31
885.0
  0
LINE
  5
7FF
  8
TEAM-NET
 10
518.0
 20
1.559694
 30
885.0
 11
518.0
 21
-21.967493
 31
885.0
  0
ARC
  5
800
  8
TEAM-NET
 10
2.0
 20
213.289324
 30
866.631061
 40
1.0
210
0.0
220
0.184559
230
0.982821
 50
270.0
 51
0.0
  0
LINE
  5
801
  8
TEAM-NET
 10
-3.0
 20
-49.681002
 30
891.108035
 11
-3.0
 21
-49.494766
 31
892.099789
  0
LINE
  5
802
  8
TEAM-NET
 10
-2.0
 20
-48.511944
 30
891.91523
 11
-2.0
 21
-48.69818
 31
890.923476
  0
ARC
  5
803
  8
TEAM-NET
 10
-2.0
 20
213.289324
 30
-867.64015
 40
1.0
210
-0.0
220
-0.184559
230
-0.982821
 50
180.0
 51
270.0
  0
ARC
  5
804
  8
TEAM-NET
 10
2.0
 20
213.289324
 30
866.631061
 40
1.0
210
0.0
220
0.184559
230
0.982821
 50
270.0
 51
0.0
  0
ARC
  5
805
  8
TEAM-NET
 10
49.866809
 20
890.118562
 30
1.0
 40
1.0
210
-1.0
220
0.0
230
0.0
 50
190.635407
 51
273.78782
  0
ARC
  5
806
  8
TEAM-NET
 10
-2.0
 20
213.289324
 30
866.631061
 40
1.0
210
0.0
220
0.184559
230
0.982821
 50
180.0
 51
270.0
  0
LINE
  5
807
  8
TEAM-NET
 10
2.0
 20
-48.69818
 30
890.923476
 11
2.0
 21
-48.511944
 31
891.91523
  0
LINE
  5
808
  8
TEAM-NET
 10
3.0
 20
-49.494766
 30
892.099789
 11
3.0
 21
-49.681002
 31
891.108035
  0
ARC
  5
809
  8
TEAM-NET
 10
2.0
 20
213.289324
 30
-867.64015
 40
1.0
210
-0.0
220
-0.184559
230
-0.982821
 50
270.0
 51
360.0
  0
ARC
  5
80A
  8
TEAM-NET
 10
-49.866809
 20
890.118562
 30
1.0
 40
1.0
210
1.0
220
-0.0
230
-0.0
 50
266.21218
 51
349.364593
  0
ARC
  5
80B
  8
TEAM-NET
 10
-2.0
 20
213.289324
 30
866.631061
 40
1.0
210
0.0
220
0.184559
230
0.982821
 50
180.0
 51
270.0
  0
ARC
  5
80C
  8
TEAM-NET
 10
49.866809
 20
890.118562
 30
1.0
 40
1.0
210
-1.0
220
0.0
230
0.0
 50
190.635407
 51
273.78782
  0
LINE
  5
80D
  8
TEAM-NET
 10
-1.0
 20
-48.883988
 30
889.934004
 11
1.0
 21
-48.883988
 31
889.934004
  0
LINE
  5
80E
  8
TEAM-NET
 10
1.0
 20
-49.932871
 30
889.120747
 11
-1.0
 21
-49.932871
 31
889.120747
  0
ARC
  5
80F
  8
TEAM-NET
 10
-49.866809
 20
890.118562
 30
1.0
 40
1.0
210
1.0
220
-0.0
230
-0.0
 50
266.21218
 51
349.364593
  0
ARC
  5
810
  8
TEAM-NET
 10
2.0
 20
885.902002
 30
-116.057784
 40
1.0
210
0.0
220
0.997201
230
-0.074769
 50
0.0
 51
90.0
  0
ARC
  5
811
  8
TEAM-NET
 10
-2.0
 20
213.289324
 30
-867.64015
 40
1.0
210
-0.0
220
-0.184559
230
-0.982821
 50
180.0
 51
270.0
  0
ARC
  5
812
  8
TEAM-NET
 10
49.494766
 20
892.099789
 30
2.0
 40
1.0
210
-1.0
220
0.0
230
0.0
 50
94.287959
 51
190.635407
  0
ARC
  5
813
  8
TEAM-NET
 10
2.0
 20
213.289324
 30
-867.64015
 40
1.0
210
-0.0
220
-0.184559
230
-0.982821
 50
270.0
 51
360.0
  0
ARC
  5
814
  8
TEAM-NET
 10
-2.0
 20
885.902002
 30
-116.057784
 40
1.0
210
0.0
220
0.997201
230
-0.074769
 50
90.0
 51
180.0
  0
ARC
  5
815
  8
TEAM-NET
 10
-49.494766
 20
892.099789
 30
2.0
 40
1.0
210
1.0
220
-0.0
230
-0.0
 50
349.364593
 51
85.712041
  0
ARC
  5
816
  8
TEAM-NET
 10
49.494766
 20
892.099789
 30
2.0
 40
1.0
210
-1.0
220
0.0
230
0.0
 50
94.287959
 51
190.635407
  0
LINE
  5
817
  8
TEAM-NET
 10
-2.0
 20
-49.419996
 30
893.09699
 11
2.0
 21
-49.419996
 31
893.09699
  0
LINE
  5
818
  8
TEAM-NET
 10
2.0
 20
-48.511944
 30
891.91523
 11
-2.0
 21
-48.511944
 31
891.91523
  0
ARC
  5
819
  8
TEAM-NET
 10
-49.494766
 20
892.099789
 30
2.0
 40
1.0
210
1.0
220
-0.0
230
-0.0
 50
349.364593
 51
85.712041
  0
LINE
  5
81A
  8
TEAM-NET
 10
-2.0
 20
-48.511944
 30
891.91523
 11
-2.0
 21
-48.69818
 31
890.923476
210
0.0
220
0.982821
230
-0.184559
  0
LINE
  5
81B
  8
TEAM-NET
 10
-1.0
 20
-48.883988
 30
889.934004
 11
1.0
 21
-48.883988
 31
889.934004
210
0.0
220
0.982821
230
-0.184559
  0
LINE
  5
81C
  8
TEAM-NET
 10
2.0
 20
-48.511944
 30
891.91523
 11
-2.0
 21
-48.511944
 31
891.91523
210
0.0
220
0.982821
230
-0.184559
  0
LINE
  5
81D
  8
TEAM-NET
 10
2.0
 20
-48.69818
 30
890.923476
 11
2.0
 21
-48.511944
 31
891.91523
210
0.0
220
0.982821
230
-0.184559
  0
LINE
  5
81E
  8
TEAM-NET
 10
1.0
 20
-49.932871
 30
889.120747
 11
-1.0
 21
-49.932871
 31
889.120747
  0
LINE
  5
81F
  8
TEAM-NET
 10
3.0
 20
-49.494766
 30
892.099789
 11
3.0
 21
-49.681002
 31
891.108035
210
1.0
220
-0.0
230
-0.0
  0
ARC
  5
820
  8
TEAM-NET
 10
2.0
 20
885.902002
 30
-116.057784
 40
1.0
210
0.0
220
0.997201
230
-0.074769
 50
0.0
 51
90.0
  0
LINE
  5
821
  8
TEAM-NET
 10
-2.0
 20
-49.419996
 30
893.09699
 11
2.0
 21
-49.419996
 31
893.09699
  0
ARC
  5
822
  8
TEAM-NET
 10
-2.0
 20
885.902002
 30
-116.057784
 40
1.0
210
0.0
220
0.997201
230
-0.074769
 50
90.0
 51
180.0
  0
LINE
  5
823
  8
TEAM-NET
 10
-3.0
 20
-49.681002
 30
891.108035
 11
-3.0
 21
-49.494766
 31
892.099789
210
-1.0
220
0.0
230
0.0
  0
LINE
  5
824
  8
TEAM-NET
 10
1.0
 20
-48.883988
 30
889.934004
 11
2.0
 21
-48.69818
 31
890.923476
  0
LINE
  5
825
  8
TEAM-NET
 10
-2.0
 20
-48.69818
 30
890.923476
 11
-1.0
 21
-48.883988
 31
889.934004
  0
LINE
  5
826
  8
TEAM-NET
 10
1.0
 20
-48.883988
 30
889.934004
 11
2.0
 21
-48.69818
 31
890.923476
  0
LINE
  5
827
  8
TEAM-NET
 10
-2.0
 20
-48.69818
 30
890.923476
 11
-1.0
 21
-48.883988
 31
889.934004
  0
POLYLINE
  5
828
  8
TEAM-NET
 66
     1
 10
0.0
 20
0.0
 30
-162.892253
 70
   128
210
0.00179
220
0.991836
230
-0.127507
  0
VERTEX
  5
DB2
  8
TEAM-NET
 10
-3.089636
 20
877.500599
 30
-162.892253
  0
VERTEX
  5
DB3
  8
TEAM-NET
 10
-2.505301
 20
876.085011
 30
-162.892253
  0
VERTEX
  5
DB4
  8
TEAM-NET
 10
-1.090094
 20
875.496956
 30
-162.892253
  0
SEQEND
  5
DB5
  8
TEAM-NET
  0
POLYLINE
  5
829
  8
TEAM-NET
 66
     1
 10
0.0
 20
0.0
 30
-162.893048
 70
   128
210
-0.001791
220
0.991836
230
-0.127508
  0
VERTEX
  5
DB6
  8
TEAM-NET
 10
1.09014
 20
875.496808
 30
-162.893048
  0
VERTEX
  5
DB7
  8
TEAM-NET
 10
2.50542
 20
876.085209
 30
-162.893048
  0
VERTEX
  5
DB8
  8
TEAM-NET
 10
3.089682
 20
877.500451
 30
-162.893048
  0
SEQEND
  5
DB9
  8
TEAM-NET
  0
POLYLINE
  5
82A
  8
TEAM-NET
 66
     1
 10
0.0
 20
0.0
 30
-162.892253
 70
   128
210
0.00179
220
0.991836
230
-0.127507
  0
VERTEX
  5
DBA
  8
TEAM-NET
 10
-3.089636
 20
877.500599
 30
-162.892253
  0
VERTEX
  5
DBB
  8
TEAM-NET
 10
-2.505301
 20
876.085011
 30
-162.892253
  0
VERTEX
  5
DBC
  8
TEAM-NET
 10
-1.090094
 20
875.496956
 30
-162.892253
  0
SEQEND
  5
DBD
  8
TEAM-NET
  0
POLYLINE
  5
82B
  8
TEAM-NET
 66
     1
 10
0.0
 20
0.0
 30
-162.893048
 70
   128
210
-0.001791
220
0.991836
230
-0.127508
  0
VERTEX
  5
DBE
  8
TEAM-NET
 10
1.09014
 20
875.496808
 30
-162.893048
  0
VERTEX
  5
DBF
  8
TEAM-NET
 10
2.50542
 20
876.085209
 30
-162.893048
  0
VERTEX
  5
DC0
  8
TEAM-NET
 10
3.089682
 20
877.500451
 30
-162.893048
  0
SEQEND
  5
DC1
  8
TEAM-NET
  0
LINE
  5
82C
  8
TEAM-NET
 10
-518.0
 20
-21.967493
 30
885.0
 11
-518.0
 21
1.559694
 31
885.0
  0
LINE
  5
82D
  8
TEAM-NET
 10
-518.0
 20
-21.967493
 30
885.0
 11
-518.0
 21
1.559694
 31
885.0
  0
LINE
  5
82E
  8
TEAM-NET
 10
518.0
 20
-21.967493
 30
885.0
 11
-518.0
 21
-21.967493
 31
885.0
  0
LINE
  5
82F
  8
TEAM-NET
 10
518.0
 20
1.559694
 30
885.0
 11
-518.0
 21
1.559694
 31
885.0
  0
LINE
  5
830
  8
TEAM-NET
 10
518.0
 20
-21.967493
 30
885.0
 11
-518.0
 21
-21.967493
 31
885.0
  0
LINE
  5
831
  8
TEAM-NET
 10
518.0
 20
1.559694
 30
885.0
 11
-518.0
 21
1.559694
 31
885.0
210
0.0
220
1.0
230
0.0
  0
LINE
  5
832
  8
TEAM-NET
 10
0.0
 20
-129.81721
 30
981.326982
 11
0.0
 21
-122.988864
 31
942.601509
  0
LINE
  5
833
  8
TEAM-NET
 10
0.0
 20
-129.81721
 30
981.326982
 11
0.0
 21
-122.988864
 31
942.601509
  0
LINE
  5
834
  8
TEAM-NET
 10
0.0
 20
-86.485669
 30
988.967502
 11
0.0
 21
-79.657323
 31
950.242029
  0
LINE
  5
835
  8
TEAM-NET
 10
0.0
 20
-86.485669
 30
988.967502
 11
0.0
 21
-79.657323
 31
950.242029
  0
LINE
  5
836
  8
TEAM-NET
 10
5.850992
 20
-106.987147
 30
938.215798
 11
-5.495044
 21
-106.987147
 31
938.215798
210
0.0
220
0.628385
230
-0.777902
  0
LINE
  5
837
  8
TEAM-NET
 10
5.850992
 20
-106.987147
 30
938.215798
 11
-5.495044
 21
-106.987147
 31
938.215798
210
0.0
220
0.777902
230
0.628385
  0
LINE
  5
838
  8
TEAM-NET
 10
-5.495044
 20
-108.542952
 30
936.959028
 11
5.850992
 21
-108.542952
 31
936.959028
210
0.0
220
0.628385
230
-0.777902
  0
LINE
  5
839
  8
TEAM-NET
 10
-5.495044
 20
-108.542952
 30
936.959028
 11
5.850992
 21
-108.542952
 31
936.959028
210
0.0
220
0.777902
230
0.628385
  0
LINE
  5
83A
  8
TEAM-NET
 10
-5.495044
 20
-106.987147
 30
938.215798
 11
-5.495044
 21
-108.542952
 31
936.959028
210
1.0
220
-0.0
230
-0.0
  0
LINE
  5
83B
  8
TEAM-NET
 10
5.850992
 20
-106.987147
 30
938.215798
 11
5.850992
 21
-108.542952
 31
936.959028
210
0.0
220
0.628385
230
-0.777902
  0
LINE
  5
83C
  8
TEAM-NET
 10
-5.495044
 20
-106.987147
 30
938.215798
 11
-5.495044
 21
-108.542952
 31
936.959028
210
0.0
220
0.628385
230
-0.777902
  0
LINE
  5
83D
  8
TEAM-NET
 10
5.850992
 20
-106.987147
 30
938.215798
 11
5.850992
 21
-108.542952
 31
936.959028
210
-1.0
220
0.0
230
0.0
  0
ARC
  5
83E
  8
TEAM-NET
 10
0.0
 20
64.560647
 30
949.638066
 40
22.0
210
0.0
220
-0.173648
230
0.984808
 50
270.0
 51
90.0
  0
ARC
  5
83F
  8
TEAM-NET
 10
0.0
 20
64.560647
 30
949.638066
 40
22.0
210
0.0
220
-0.173648
230
0.984808
 50
90.0
 51
270.0
  0
ARC
  5
840
  8
TEAM-NET
 10
0.0
 20
64.560647
 30
949.638066
 40
22.5
210
0.0
220
-0.173648
230
0.984808
 50
90.0
 51
270.0
  0
ARC
  5
841
  8
TEAM-NET
 10
0.0
 20
64.560647
 30
949.638066
 40
22.5
210
0.0
220
-0.173648
230
0.984808
 50
270.0
 51
90.0
  0
ARC
  5
842
  8
TEAM-NET
 10
0.0
 20
64.560647
 30
-949.638066
 40
22.5
210
-0.0
220
0.173648
230
-0.984808
 50
270.0
 51
90.0
  0
ARC
  5
843
  8
TEAM-NET
 10
0.0
 20
64.560647
 30
-949.638066
 40
22.5
210
-0.0
220
0.173648
230
-0.984808
 50
90.0
 51
270.0
  0
ARC
  5
844
  8
TEAM-NET
 10
0.0
 20
64.560647
 30
949.638066
 40
22.0
210
0.0
220
-0.173648
230
0.984808
 50
90.0
 51
270.0
  0
ARC
  5
845
  8
TEAM-NET
 10
0.0
 20
64.560647
 30
949.638066
 40
22.0
210
0.0
220
-0.173648
230
0.984808
 50
270.0
 51
90.0
  0
LINE
  5
846
  8
TEAM-NET
 10
-5.495044
 20
-100.163463
 30
929.76849
 11
-5.495044
 21
-101.719268
 31
928.51172
210
1.0
220
-0.0
230
-0.0
  0
LINE
  5
847
  8
TEAM-NET
 10
5.850992
 20
-100.163463
 30
929.76849
 11
5.850992
 21
-101.719268
 31
928.51172
210
-1.0
220
0.0
230
0.0
  0
LINE
  5
848
  8
TEAM-NET
 10
-5.495044
 20
-100.163463
 30
929.76849
 11
5.850992
 21
-100.163463
 31
929.76849
210
-0.0
220
-0.628385
230
0.777902
  0
LINE
  5
849
  8
TEAM-NET
 10
-5.495044
 20
-100.163463
 30
929.76849
 11
-5.495044
 21
-101.719268
 31
928.51172
210
-0.0
220
-0.628385
230
0.777902
  0
LINE
  5
84A
  8
TEAM-NET
 10
5.850992
 20
-100.163463
 30
929.76849
 11
5.850992
 21
-101.719268
 31
928.51172
210
-0.0
220
-0.628385
230
0.777902
  0
LINE
  5
84B
  8
TEAM-NET
 10
5.850992
 20
-101.719268
 30
928.51172
 11
-5.495044
 21
-101.719268
 31
928.51172
210
-0.0
220
-0.628385
230
0.777902
  0
LINE
  5
84C
  8
TEAM-NET
 10
5.850992
 20
-101.719268
 30
928.51172
 11
-5.495044
 21
-101.719268
 31
928.51172
210
0.0
220
0.777902
230
0.628385
  0
LINE
  5
84D
  8
TEAM-NET
 10
-5.495044
 20
-100.163463
 30
929.76849
 11
5.850992
 21
-100.163463
 31
929.76849
210
0.0
220
0.777902
230
0.628385
  0
ARC
  5
84E
  8
TEAM-NET
 10
0.0
 20
791.533475
 30
506.335166
 40
14.0
210
0.0
220
0.777902
230
0.628385
 50
180.0
 51
0.0
  0
ARC
  5
84F
  8
TEAM-NET
 10
0.0
 20
791.533475
 30
506.335166
 40
14.0
210
0.0
220
0.777902
230
0.628385
 50
0.0
 51
180.0
  0
ARC
  5
850
  8
TEAM-NET
 10
0.0
 20
791.533475
 30
506.335166
 40
14.0
210
0.0
220
0.777902
230
0.628385
 50
180.0
 51
0.0
  0
ARC
  5
851
  8
TEAM-NET
 10
0.0
 20
791.533475
 30
506.335166
 40
14.0
210
0.0
220
0.777902
230
0.628385
 50
0.0
 51
180.0
  0
ARC
  5
852
  8
TEAM-NET
 10
0.0
 20
791.533475
 30
504.335166
 40
4.68381
210
0.0
220
0.777902
230
0.628385
 50
180.0
 51
0.0
  0
ARC
  5
853
  8
TEAM-NET
 10
0.0
 20
791.533475
 30
504.335166
 40
4.68381
210
0.0
220
0.777902
230
0.628385
 50
180.0
 51
0.0
  0
LINE
  5
854
  8
TEAM-NET
 10
-5.495044
 20
-101.719268
 30
928.51172
 11
-5.495044
 21
-108.542952
 31
936.959028
210
1.0
220
-0.0
230
-0.0
  0
LINE
  5
855
  8
TEAM-NET
 10
5.850992
 20
-108.542952
 30
936.959028
 11
5.850992
 21
-101.719268
 31
928.51172
210
-1.0
220
0.0
230
0.0
  0
ARC
  5
856
  8
TEAM-NET
 10
0.0
 20
791.533475
 30
504.335166
 40
4.68381
210
0.0
220
0.777902
230
0.628385
 50
0.0
 51
180.0
  0
LINE
  5
857
  8
TEAM-NET
 10
5.850992
 20
-108.542952
 30
936.959028
 11
5.850992
 21
-101.719268
 31
928.51172
210
0.0
220
0.777902
230
0.628385
  0
LINE
  5
858
  8
TEAM-NET
 10
-5.495044
 20
-101.719268
 30
928.51172
 11
-5.495044
 21
-108.542952
 31
936.959028
210
0.0
220
0.777902
230
0.628385
  0
ARC
  5
859
  8
TEAM-NET
 10
0.0
 20
791.533475
 30
504.335166
 40
4.68381
210
0.0
220
0.777902
230
0.628385
 50
0.0
 51
180.0
  0
LINE
  5
85A
  8
TEAM-NET
 10
-5.495044
 20
-106.987147
 30
938.215798
 11
-5.495044
 21
-100.163463
 31
929.76849
210
1.0
220
-0.0
230
-0.0
  0
LINE
  5
85B
  8
TEAM-NET
 10
5.850992
 20
-100.163463
 30
929.76849
 11
5.850992
 21
-106.987147
 31
938.215798
210
-1.0
220
0.0
230
0.0
  0
LINE
  5
85C
  8
TEAM-NET
 10
5.850992
 20
-100.163463
 30
929.76849
 11
5.850992
 21
-106.987147
 31
938.215798
210
0.0
220
0.777902
230
0.628385
  0
LINE
  5
85D
  8
TEAM-NET
 10
-5.495044
 20
-106.987147
 30
938.215798
 11
-5.495044
 21
-100.163463
 31
929.76849
210
0.0
220
0.777902
230
0.628385
  0
ARC
  5
85E
  8
TEAM-NET
 10
-87.733165
 20
987.404251
 30
0.0
 40
2.0
210
1.0
220
-0.0
230
-0.0
 50
51.409622
 51
100.0
  0
ARC
  5
85F
  8
TEAM-NET
 10
-87.733165
 20
987.404251
 30
0.0
 40
2.0
210
1.0
220
-0.0
230
-0.0
 50
51.409622
 51
100.0
  0
ARC
  5
860
  8
TEAM-NET
 10
0.0
 20
974.074746
 30
-135.105853
 40
4.0
210
0.0
220
0.99952
230
-0.030984
 50
28.695233
 51
208.695233
  0
ARC
  5
861
  8
TEAM-NET
 10
0.0
 20
974.074746
 30
-135.105853
 40
4.0
210
0.0
220
0.99952
230
-0.030984
 50
208.695233
 51
28.695233
  0
ARC
  5
862
  8
TEAM-NET
 10
0.0
 20
974.074746
 30
-135.105853
 40
4.0
210
0.0
220
0.99952
230
-0.030984
 50
28.695233
 51
208.695233
  0
ARC
  5
863
  8
TEAM-NET
 10
0.0
 20
974.074746
 30
-135.105853
 40
4.0
210
0.0
220
0.99952
230
-0.030984
 50
208.695233
 51
28.695233
  0
ARC
  5
864
  8
TEAM-NET
 10
128.110283
 20
980.284676
 30
0.0
 40
2.0
210
-1.0
220
0.0
230
0.0
 50
31.409622
 51
80.0
  0
ARC
  5
865
  8
TEAM-NET
 10
128.110283
 20
980.284676
 30
0.0
 40
2.0
210
-1.0
220
0.0
230
0.0
 50
31.409622
 51
80.0
  0
ARC
  5
866
  8
TEAM-NET
 10
217.605717
 20
480.124602
 30
-853.357689
 40
2.0
210
-0.480151
220
-0.027179
230
-0.876765
 50
273.693958
 51
3.693958
  0
ARC
  5
867
  8
TEAM-NET
 10
0.0
 20
972.835378
 30
-250.086648
 40
2.0
210
0.0
220
0.99952
230
-0.030984
 50
28.695233
 51
208.695233
  0
ARC
  5
868
  8
TEAM-NET
 10
-217.348009
 20
484.116292
 30
853.357689
 40
2.0
210
0.480151
220
0.027179
230
0.876765
 50
86.306042
 51
176.306042
  0
ARC
  5
869
  8
TEAM-NET
 10
217.605717
 20
480.124602
 30
-853.357689
 40
2.0
210
-0.480151
220
-0.027179
230
-0.876765
 50
273.693958
 51
3.693958
  0
ARC
  5
86A
  8
TEAM-NET
 10
-217.348009
 20
484.116292
 30
853.357689
 40
2.0
210
0.480151
220
0.027179
230
0.876765
 50
86.306042
 51
176.306042
  0
ARC
  5
86B
  8
TEAM-NET
 10
0.0
 20
972.835378
 30
250.086648
 40
2.0
210
-0.0
220
-0.99952
230
0.030984
 50
331.304767
 51
151.304767
  0
ARC
  5
86C
  8
TEAM-NET
 10
0.0
 20
972.835378
 30
-250.086648
 40
2.0
210
0.0
220
0.99952
230
-0.030984
 50
208.695233
 51
28.695233
  0
ARC
  5
86D
  8
TEAM-NET
 10
0.0
 20
972.835378
 30
248.086648
 40
4.0
210
-0.0
220
-0.99952
230
0.030984
 50
151.304767
 51
331.304767
  0
ARC
  5
86E
  8
TEAM-NET
 10
0.0
 20
972.835378
 30
248.086648
 40
4.0
210
-0.0
220
-0.99952
230
0.030984
 50
151.304767
 51
331.304767
  0
ARC
  5
86F
  8
TEAM-NET
 10
0.0
 20
972.835378
 30
250.086648
 40
2.0
210
-0.0
220
-0.99952
230
0.030984
 50
151.304767
 51
331.304767
  0
LINE
  5
870
  8
TEAM-NET
 10
-3.508744
 20
-217.765487
 30
981.974744
 11
-3.508744
 21
-104.800537
 31
979.712896
  0
LINE
  5
871
  8
TEAM-NET
 10
-3.508744
 20
-217.765487
 30
981.974744
 11
-3.508744
 21
-104.800537
 31
979.712896
  0
LINE
  5
872
  8
TEAM-NET
 10
3.508744
 20
-217.884504
 30
978.135384
 11
3.508744
 21
-104.919553
 31
975.873536
  0
LINE
  5
873
  8
TEAM-NET
 10
3.508744
 20
-217.884504
 30
978.135384
 11
3.508744
 21
-104.919553
 31
975.873536
  0
ARC
  5
874
  8
TEAM-NET
 10
0.0
 20
972.835378
 30
248.086648
 40
4.0
210
-0.0
220
-0.99952
230
0.030984
 50
331.304767
 51
151.304767
  0
ARC
  5
875
  8
TEAM-NET
 10
0.0
 20
972.835378
 30
248.086648
 40
4.0
210
-0.0
220
-0.99952
230
0.030984
 50
331.304767
 51
151.304767
  0
ARC
  5
876
  8
TEAM-NET
 10
0.0
 20
64.560647
 30
-989.638066
 40
20.5
210
-0.0
220
0.173648
230
-0.984808
 50
90.0
 51
270.0
  0
ARC
  5
877
  8
TEAM-NET
 10
0.0
 20
64.560647
 30
988.960942
 40
22.0
210
0.0
220
-0.173648
230
0.984808
 50
270.0
 51
90.0
  0
ARC
  5
878
  8
TEAM-NET
 10
0.0
 20
64.560647
 30
988.960942
 40
22.0
210
0.0
220
-0.173648
230
0.984808
 50
90.0
 51
270.0
  0
ARC
  5
879
  8
TEAM-NET
 10
0.0
 20
64.560647
 30
-989.638066
 40
20.5
210
-0.0
220
0.173648
230
-0.984808
 50
270.0
 51
90.0
  0
ARC
  5
87A
  8
TEAM-NET
 10
0.0
 20
64.560647
 30
989.638066
 40
20.5
210
0.0
220
-0.173648
230
0.984808
 50
90.0
 51
270.0
  0
ARC
  5
87B
  8
TEAM-NET
 10
0.0
 20
64.560647
 30
989.638066
 40
20.5
210
0.0
220
-0.173648
230
0.984808
 50
270.0
 51
90.0
  0
ARC
  5
87C
  8
TEAM-NET
 10
0.0
 20
64.560647
 30
988.960942
 40
22.0
210
0.0
220
-0.173648
230
0.984808
 50
90.0
 51
270.0
  0
ARC
  5
87D
  8
TEAM-NET
 10
0.0
 20
64.560647
 30
988.960942
 40
22.0
210
0.0
220
-0.173648
230
0.984808
 50
270.0
 51
90.0
  0
ENDSEC
  0
EOF
