  0
SECTION
  2
HEADER
  9
$ACADVER
  1
AC1009
  9
$INSBASE
 10
0.0
 20
0.0
 30
0.0
  9
$EXTMIN
 10
-624.61914
 20
-490.110375
 30
-0.016371
  9
$EXTMAX
 10
629.622822
 20
10.010234
 30
851.063642
  9
$LIMMIN
 10
-624.61914
 20
-490.110375
  9
$LIMMAX
 10
629.622822
 20
10.010234
  9
$ORTHOMODE
 70
     0
  9
$REGENMODE
 70
     1
  9
$FILLMODE
 70
     1
  9
$QTEXTMODE
 70
     0
  9
$MIRRTEXT
 70
     0
  9
$DRAGMODE
 70
     2
  9
$LTSCALE
 40
25.0
  9
$OSMODE
 70
     0
  9
$ATTMODE
 70
     1
  9
$TEXTSIZE
 40
200.0
  9
$TRACEWID
 40
1.0
  9
$TEXTSTYLE
  7
STANDARD
  9
$CLAYER
  8
TEAM-MAS
  9
$CELTYPE
  6
BYLAYER
  9
$CECOLOR
 62
   256
  9
$DIMSCALE
 40
0.0
  9
$DIMASZ
 40
20.0
  9
$DIMEXO
 40
10.0
  9
$DIMDLI
 40
1.0
  9
$DIMRND
 40
0.0
  9
$DIMDLE
 40
0.0
  9
$DIMEXE
 40
1.0
  9
$DIMTP
 40
0.0
  9
$DIMTM
 40
0.0
  9
$DIMTXT
 40
35.0
  9
$DIMCEN
 40
1.0
  9
$DIMTSZ
 40
0.0
  9
$DIMTOL
 70
     0
  9
$DIMLIM
 70
     0
  9
$DIMTIH
 70
     0
  9
$DIMTOH
 70
     0
  9
$DIMSE1
 70
     0
  9
$DIMSE2
 70
     0
  9
$DIMTAD
 70
     0
  9
$DIMZIN
 70
     0
  9
$DIMBLK
  1

  9
$DIMASO
 70
     1
  9
$DIMSHO
 70
     0
  9
$DIMPOST
  1

  9
$DIMAPOST
  1

  9
$DIMALT
 70
     0
  9
$DIMALTD
 70
     2
  9
$DIMALTF
 40
25.4
  9
$DIMLFAC
 40
1.0
  9
$DIMTOFL
 70
     0
  9
$DIMTVP
 40
0.0
  9
$DIMTIX
 70
     0
  9
$DIMSOXD
 70
     0
  9
$DIMSAH
 70
     0
  9
$DIMBLK1
  1

  9
$DIMBLK2
  1

  9
$DIMSTYLE
  2
TEAM
  9
$DIMCLRD
 70
     9
  9
$DIMCLRE
 70
     9
  9
$DIMCLRT
 70
    11
  9
$DIMTFAC
 40
1.0
  9
$DIMGAP
 40
15.0
  9
$LUNITS
 70
     2
  9
$LUPREC
 70
     1
  9
$SKETCHINC
 40
1.0
  9
$FILLETRAD
 40
20.0
  9
$AUNITS
 70
     0
  9
$AUPREC
 70
     0
  9
$MENU
  1
ROPLANS
  9
$ELEVATION
 40
0.0
  9
$PELEVATION
 40
0.0
  9
$THICKNESS
 40
0.0
  9
$LIMCHECK
 70
     0
  9
$BLIPMODE
 70
     1
  9
$CHAMFERA
 40
0.0
  9
$CHAMFERB
 40
0.0
  9
$SKPOLY
 70
     0
  9
$TDCREATE
 40
2450392.957851
  9
$TDUPDATE
 40
2455551.693537
  9
$TDINDWG
 40
2.106856
  9
$TDUSRTIMER
 40
2.106856
  9
$USRTIMER
 70
     1
  9
$ANGBASE
 50
0.0
  9
$ANGDIR
 70
     0
  9
$PDMODE
 70
     0
  9
$PDSIZE
 40
0.0
  9
$PLINEWID
 40
0.0
  9
$COORDS
 70
     2
  9
$SPLFRAME
 70
     0
  9
$SPLINETYPE
 70
     6
  9
$SPLINESEGS
 70
     8
  9
$ATTDIA
 70
     0
  9
$ATTREQ
 70
     0
  9
$HANDLING
 70
     1
  9
$HANDSEED
  5
266
  9
$SURFTAB1
 70
    48
  9
$SURFTAB2
 70
    48
  9
$SURFTYPE
 70
     6
  9
$SURFU
 70
     6
  9
$SURFV
 70
     6
  9
$UCSNAME
  2

  9
$UCSORG
 10
0.0
 20
0.0
 30
0.0
  9
$UCSXDIR
 10
1.0
 20
0.0
 30
0.0
  9
$UCSYDIR
 10
0.0
 20
1.0
 30
0.0
  9
$PUCSNAME
  2

  9
$PUCSORG
 10
0.0
 20
0.0
 30
0.0
  9
$PUCSXDIR
 10
1.0
 20
0.0
 30
0.0
  9
$PUCSYDIR
 10
0.0
 20
1.0
 30
0.0
  9
$USERI1
 70
     0
  9
$USERI2
 70
     0
  9
$USERI3
 70
     0
  9
$USERI4
 70
     0
  9
$USERI5
 70
     0
  9
$USERR1
 40
0.0
  9
$USERR2
 40
0.0
  9
$USERR3
 40
0.0
  9
$USERR4
 40
0.0
  9
$USERR5
 40
0.0
  9
$WORLDVIEW
 70
     1
  9
$SHADEDGE
 70
     0
  9
$SHADEDIF
 70
    70
  9
$TILEMODE
 70
     1
  9
$MAXACTVP
 70
    16
  9
$PLIMCHECK
 70
     0
  9
$PEXTMIN
 10
-0.805942
 20
0.005011
 30
0.0
  9
$PEXTMAX
 10
20.250094
 20
11.356329
 30
0.0
  9
$PLIMMIN
 10
0.0
 20
0.0
  9
$PLIMMAX
 10
12.0
 20
9.0
  9
$UNITMODE
 70
     0
  9
$VISRETAIN
 70
     0
  9
$PLINEGEN
 70
     0
  9
$PSLTSCALE
 70
     0
  0
ENDSEC
  0
SECTION
  2
TABLES
  0
TABLE
  2
VPORT
 70
     2
  0
VPORT
  2
*ACTIVE
 70
     0
 10
0.0
 20
0.0
 11
1.0
 21
1.0
 12
2.501841
 22
-240.050071
 13
0.0
 23
0.0
 14
1.0
 24
1.0
 15
50.0
 25
50.0
 16
0.0
 26
0.0
 36
1.0
 17
0.0
 27
0.0
 37
0.0
 40
674.447797
 41
1.865779
 42
50.0
 43
0.0
 44
0.0
 50
0.0
 51
0.0
 71
     0
 72
   100
 73
     1
 74
     1
 75
     0
 76
     0
 77
     0
 78
     0
  0
ENDTAB
  0
TABLE
  2
LTYPE
 70
     2
  0
LTYPE
  2
CONTINUOUS
 70
     0
  3
Solid Line
 72
    65
 73
     0
 40
0.0
  0
LTYPE
  2
31
 70
     0
  3

 72
    65
 73
     4
 40
2.1
 49
1.5
 49
-0.3
 49
0.0
 49
-0.3
  0
ENDTAB
  0
TABLE
  2
LAYER
 70
     9
  0
LAYER
  2
0
 70
     0
 62
     7
  6
CONTINUOUS
  0
LAYER
  2
TEAM-BODY
 70
     0
 62
     2
  6
CONTINUOUS
  0
LAYER
  2
TEAM-AXE
 70
     0
 62
    10
  6
31
  0
LAYER
  2
TEAM-MAS
 70
     0
 62
     9
  6
CONTINUOUS
  0
LAYER
  2
TEAM-TXT
 70
     0
 62
    11
  6
CONTINUOUS
  0
LAYER
  2
TEAM-DET1
 70
     0
 62
     4
  6
CONTINUOUS
  0
LAYER
  2
TEAM-KAN
 70
     0
 62
     6
  6
CONTINUOUS
  0
LAYER
  2
TEAM-NET
 70
     0
 62
    15
  6
CONTINUOUS
  0
LAYER
  2
TEAM-INSP
 70
     0
 62
     5
  6
CONTINUOUS
  0
ENDTAB
  0
TABLE
  2
STYLE
 70
     2
  0
STYLE
  2
STANDARD
 70
     0
 40
0.0
 41
1.0
 50
0.0
 71
     0
 42
200.0
  3
txt
  4

  0
STYLE
  2
TEAM
 70
     0
 40
0.0
 41
0.8
 50
15.0
 71
     0
 42
7.0
  3
ROMANS.shx
  4

  0
ENDTAB
  0
TABLE
  2
VIEW
 70
     0
  0
ENDTAB
  0
TABLE
  2
UCS
 70
     0
  0
ENDTAB
  0
TABLE
  2
APPID
 70
     1
  0
APPID
  2
ACAD
 70
     0
  0
ENDTAB
  0
TABLE
  2
DIMSTYLE
 70
     1
  0
DIMSTYLE
  2
TEAM
 70
     0
  3

  4

  5

  6

  7

 40
0.0
 41
20.0
 42
10.0
 43
1.0
 44
1.0
 45
0.0
 46
0.0
 47
0.0
 48
0.0
140
35.0
141
1.0
142
0.0
143
25.4
144
1.0
145
0.0
146
1.0
147
15.0
 71
     0
 72
     0
 73
     0
 74
     0
 75
     0
 76
     0
 77
     0
 78
     0
170
     0
171
     2
172
     0
173
     0
174
     0
175
     0
176
     9
177
     9
178
    11
  0
ENDTAB
  0
ENDSEC
  0
SECTION
  2
BLOCKS
  0
BLOCK
  8
0
  2
$MODEL_SPACE
 70
     0
 10
0.0
 20
0.0
 30
0.0
  3
$MODEL_SPACE
  1

  0
ENDBLK
  5
235
  8
0
  0
BLOCK
 67
     1
  8
0
  2
$PAPER_SPACE
 70
     0
 10
0.0
 20
0.0
 30
0.0
  3
$PAPER_SPACE
  1

  0
ENDBLK
  5
233
 67
     1
  8
0
  0
ENDSEC
  0
SECTION
  2
ENTITIES
  0
CIRCLE
  5
20
  8
TEAM-INSP
 10
0.0
 20
0.0
 30
0.0
 40
10.0
  0
POLYLINE
  5
22
  8
TEAM-NET
 66
     1
 10
0.0
 20
0.0
 30
0.0
 70
    16
 71
     2
 72
    37
  0
VERTEX
  5
23
  8
TEAM-NET
 10
277.5
 20
-243.467332
 30
850.0
 70
    64
  0
VERTEX
  5
24
  8
TEAM-NET
 10
277.5
 20
-270.022176
 30
850.0
 70
    64
  0
VERTEX
  5
25
  8
TEAM-NET
 10
277.5
 20
-296.577021
 30
850.0
 70
    64
  0
VERTEX
  5
26
  8
TEAM-NET
 10
277.5
 20
-323.131866
 30
850.0
 70
    64
  0
VERTEX
  5
27
  8
TEAM-NET
 10
277.5
 20
-349.68671
 30
850.0
 70
    64
  0
VERTEX
  5
28
  8
TEAM-NET
 10
277.5
 20
-376.241555
 30
850.0
 70
    64
  0
VERTEX
  5
29
  8
TEAM-NET
 10
277.5
 20
-402.796399
 30
850.0
 70
    64
  0
VERTEX
  5
2A
  8
TEAM-NET
 10
277.5
 20
-429.351244
 30
850.0
 70
    64
  0
VERTEX
  5
2B
  8
TEAM-NET
 10
268.048171
 20
-450.731535
 30
850.0
 70
    64
  0
VERTEX
  5
2C
  8
TEAM-NET
 10
241.493601
 20
-450.746571
 30
850.0
 70
    64
  0
VERTEX
  5
2D
  8
TEAM-NET
 10
214.938757
 20
-450.746571
 30
850.0
 70
    64
  0
VERTEX
  5
2E
  8
TEAM-NET
 10
188.383912
 20
-450.746571
 30
850.0
 70
    64
  0
VERTEX
  5
2F
  8
TEAM-NET
 10
161.829068
 20
-450.746571
 30
850.0
 70
    64
  0
VERTEX
  5
30
  8
TEAM-NET
 10
135.274223
 20
-450.746571
 30
850.0
 70
    64
  0
VERTEX
  5
31
  8
TEAM-NET
 10
108.719378
 20
-450.746571
 30
850.0
 70
    64
  0
VERTEX
  5
32
  8
TEAM-NET
 10
82.164534
 20
-450.746571
 30
850.0
 70
    64
  0
VERTEX
  5
33
  8
TEAM-NET
 10
55.609689
 20
-450.746571
 30
850.0
 70
    64
  0
VERTEX
  5
34
  8
TEAM-NET
 10
29.054845
 20
-450.746571
 30
850.0
 70
    64
  0
VERTEX
  5
35
  8
TEAM-NET
 10
2.5
 20
-450.746571
 30
850.0
 70
    64
  0
VERTEX
  5
36
  8
TEAM-NET
 10
-24.054845
 20
-450.746571
 30
850.0
 70
    64
  0
VERTEX
  5
37
  8
TEAM-NET
 10
-50.609689
 20
-450.746571
 30
850.0
 70
    64
  0
VERTEX
  5
38
  8
TEAM-NET
 10
-77.164534
 20
-450.746571
 30
850.0
 70
    64
  0
VERTEX
  5
39
  8
TEAM-NET
 10
-103.719378
 20
-450.746571
 30
850.0
 70
    64
  0
VERTEX
  5
3A
  8
TEAM-NET
 10
-130.274223
 20
-450.746571
 30
850.0
 70
    64
  0
VERTEX
  5
3B
  8
TEAM-NET
 10
-156.829068
 20
-450.746571
 30
850.0
 70
    64
  0
VERTEX
  5
3C
  8
TEAM-NET
 10
-183.383912
 20
-450.746571
 30
850.0
 70
    64
  0
VERTEX
  5
3D
  8
TEAM-NET
 10
-209.938757
 20
-450.746571
 30
850.0
 70
    64
  0
VERTEX
  5
3E
  8
TEAM-NET
 10
-236.493601
 20
-450.746571
 30
850.0
 70
    64
  0
VERTEX
  5
3F
  8
TEAM-NET
 10
-263.048171
 20
-450.731535
 30
850.0
 70
    64
  0
VERTEX
  5
40
  8
TEAM-NET
 10
-272.5
 20
-429.351244
 30
850.0
 70
    64
  0
VERTEX
  5
41
  8
TEAM-NET
 10
-272.5
 20
-402.796399
 30
850.0
 70
    64
  0
VERTEX
  5
42
  8
TEAM-NET
 10
-272.5
 20
-376.241555
 30
850.0
 70
    64
  0
VERTEX
  5
43
  8
TEAM-NET
 10
-272.5
 20
-349.68671
 30
850.0
 70
    64
  0
VERTEX
  5
44
  8
TEAM-NET
 10
-272.5
 20
-323.131866
 30
850.0
 70
    64
  0
VERTEX
  5
45
  8
TEAM-NET
 10
-272.5
 20
-296.577021
 30
850.0
 70
    64
  0
VERTEX
  5
46
  8
TEAM-NET
 10
-272.5
 20
-270.022176
 30
850.0
 70
    64
  0
VERTEX
  5
47
  8
TEAM-NET
 10
-272.5
 20
-243.467332
 30
850.0
 70
    64
  0
VERTEX
  5
48
  8
TEAM-NET
 10
277.5
 20
-243.467332
 30
680.0
 70
    64
  0
VERTEX
  5
49
  8
TEAM-NET
 10
277.5
 20
-270.022176
 30
680.0
 70
    64
  0
VERTEX
  5
4A
  8
TEAM-NET
 10
277.5
 20
-296.577021
 30
680.0
 70
    64
  0
VERTEX
  5
4B
  8
TEAM-NET
 10
277.5
 20
-323.131866
 30
680.0
 70
    64
  0
VERTEX
  5
4C
  8
TEAM-NET
 10
277.5
 20
-349.68671
 30
680.0
 70
    64
  0
VERTEX
  5
4D
  8
TEAM-NET
 10
277.5
 20
-376.241555
 30
680.0
 70
    64
  0
VERTEX
  5
4E
  8
TEAM-NET
 10
277.5
 20
-402.796399
 30
680.0
 70
    64
  0
VERTEX
  5
4F
  8
TEAM-NET
 10
277.5
 20
-429.351244
 30
680.0
 70
    64
  0
VERTEX
  5
50
  8
TEAM-NET
 10
268.048171
 20
-450.731535
 30
680.0
 70
    64
  0
VERTEX
  5
51
  8
TEAM-NET
 10
241.493601
 20
-450.746571
 30
680.0
 70
    64
  0
VERTEX
  5
52
  8
TEAM-NET
 10
214.938757
 20
-450.746571
 30
680.0
 70
    64
  0
VERTEX
  5
53
  8
TEAM-NET
 10
188.383912
 20
-450.746571
 30
680.0
 70
    64
  0
VERTEX
  5
54
  8
TEAM-NET
 10
161.829068
 20
-450.746571
 30
680.0
 70
    64
  0
VERTEX
  5
55
  8
TEAM-NET
 10
135.274223
 20
-450.746571
 30
680.0
 70
    64
  0
VERTEX
  5
56
  8
TEAM-NET
 10
108.719378
 20
-450.746571
 30
680.0
 70
    64
  0
VERTEX
  5
57
  8
TEAM-NET
 10
82.164534
 20
-450.746571
 30
680.0
 70
    64
  0
VERTEX
  5
58
  8
TEAM-NET
 10
55.609689
 20
-450.746571
 30
680.0
 70
    64
  0
VERTEX
  5
59
  8
TEAM-NET
 10
29.054845
 20
-450.746571
 30
680.0
 70
    64
  0
VERTEX
  5
5A
  8
TEAM-NET
 10
2.5
 20
-450.746571
 30
680.0
 70
    64
  0
VERTEX
  5
5B
  8
TEAM-NET
 10
-24.054845
 20
-450.746571
 30
680.0
 70
    64
  0
VERTEX
  5
5C
  8
TEAM-NET
 10
-50.609689
 20
-450.746571
 30
680.0
 70
    64
  0
VERTEX
  5
5D
  8
TEAM-NET
 10
-77.164534
 20
-450.746571
 30
680.0
 70
    64
  0
VERTEX
  5
5E
  8
TEAM-NET
 10
-103.719378
 20
-450.746571
 30
680.0
 70
    64
  0
VERTEX
  5
5F
  8
TEAM-NET
 10
-130.274223
 20
-450.746571
 30
680.0
 70
    64
  0
VERTEX
  5
60
  8
TEAM-NET
 10
-156.829068
 20
-450.746571
 30
680.0
 70
    64
  0
VERTEX
  5
61
  8
TEAM-NET
 10
-183.383912
 20
-450.746571
 30
680.0
 70
    64
  0
VERTEX
  5
62
  8
TEAM-NET
 10
-209.938757
 20
-450.746571
 30
680.0
 70
    64
  0
VERTEX
  5
63
  8
TEAM-NET
 10
-236.493601
 20
-450.746571
 30
680.0
 70
    64
  0
VERTEX
  5
64
  8
TEAM-NET
 10
-263.048171
 20
-450.731535
 30
680.0
 70
    64
  0
VERTEX
  5
65
  8
TEAM-NET
 10
-272.5
 20
-429.351244
 30
680.0
 70
    64
  0
VERTEX
  5
66
  8
TEAM-NET
 10
-272.5
 20
-402.796399
 30
680.0
 70
    64
  0
VERTEX
  5
67
  8
TEAM-NET
 10
-272.5
 20
-376.241555
 30
680.0
 70
    64
  0
VERTEX
  5
68
  8
TEAM-NET
 10
-272.5
 20
-349.68671
 30
680.0
 70
    64
  0
VERTEX
  5
69
  8
TEAM-NET
 10
-272.5
 20
-323.131866
 30
680.0
 70
    64
  0
VERTEX
  5
6A
  8
TEAM-NET
 10
-272.5
 20
-296.577021
 30
680.0
 70
    64
  0
VERTEX
  5
6B
  8
TEAM-NET
 10
-272.5
 20
-270.022176
 30
680.0
 70
    64
  0
VERTEX
  5
6C
  8
TEAM-NET
 10
-272.5
 20
-243.467332
 30
680.0
 70
    64
  0
SEQEND
  5
6E
  8
TEAM-NET
  0
POLYLINE
  5
6F
  8
TEAM-NET
 66
     1
 10
0.0
 20
0.0
 30
0.0
 70
    16
 71
     2
 72
    37
  0
VERTEX
  5
70
  8
TEAM-NET
 10
277.5
 20
-243.467332
 30
680.0
 70
    64
  0
VERTEX
  5
71
  8
TEAM-NET
 10
277.5
 20
-222.679815
 30
680.0
 70
    64
  0
VERTEX
  5
72
  8
TEAM-NET
 10
277.5
 20
-201.892299
 30
680.0
 70
    64
  0
VERTEX
  5
73
  8
TEAM-NET
 10
277.5
 20
-181.104783
 30
680.0
 70
    64
  0
VERTEX
  5
74
  8
TEAM-NET
 10
277.5
 20
-160.317266
 30
680.0
 70
    64
  0
VERTEX
  5
75
  8
TEAM-NET
 10
272.501494
 20
-141.340609
 30
680.0
 70
    64
  0
VERTEX
  5
76
  8
TEAM-NET
 10
251.950197
 20
-140.0
 30
680.0
 70
    64
  0
VERTEX
  5
77
  8
TEAM-NET
 10
231.16268
 20
-140.0
 30
680.0
 70
    64
  0
VERTEX
  5
78
  8
TEAM-NET
 10
210.375164
 20
-140.0
 30
680.0
 70
    64
  0
VERTEX
  5
79
  8
TEAM-NET
 10
189.587648
 20
-140.0
 30
680.0
 70
    64
  0
VERTEX
  5
7A
  8
TEAM-NET
 10
168.800131
 20
-140.0
 30
680.0
 70
    64
  0
VERTEX
  5
7B
  8
TEAM-NET
 10
148.012615
 20
-140.0
 30
680.0
 70
    64
  0
VERTEX
  5
7C
  8
TEAM-NET
 10
127.225098
 20
-140.0
 30
680.0
 70
    64
  0
VERTEX
  5
7D
  8
TEAM-NET
 10
106.437582
 20
-140.0
 30
680.0
 70
    64
  0
VERTEX
  5
7E
  8
TEAM-NET
 10
85.650066
 20
-140.0
 30
680.0
 70
    64
  0
VERTEX
  5
7F
  8
TEAM-NET
 10
64.862549
 20
-140.0
 30
680.0
 70
    64
  0
VERTEX
  5
80
  8
TEAM-NET
 10
44.075033
 20
-140.0
 30
680.0
 70
    64
  0
VERTEX
  5
81
  8
TEAM-NET
 10
23.287516
 20
-140.0
 30
680.0
 70
    64
  0
VERTEX
  5
82
  8
TEAM-NET
 10
2.5
 20
-140.0
 30
680.0
 70
    64
  0
VERTEX
  5
83
  8
TEAM-NET
 10
-18.287516
 20
-140.0
 30
680.0
 70
    64
  0
VERTEX
  5
84
  8
TEAM-NET
 10
-39.075033
 20
-140.0
 30
680.0
 70
    64
  0
VERTEX
  5
85
  8
TEAM-NET
 10
-59.862549
 20
-140.0
 30
680.0
 70
    64
  0
VERTEX
  5
86
  8
TEAM-NET
 10
-80.650066
 20
-140.0
 30
680.0
 70
    64
  0
VERTEX
  5
87
  8
TEAM-NET
 10
-101.437582
 20
-140.0
 30
680.0
 70
    64
  0
VERTEX
  5
88
  8
TEAM-NET
 10
-122.225098
 20
-140.0
 30
680.0
 70
    64
  0
VERTEX
  5
89
  8
TEAM-NET
 10
-143.012615
 20
-140.0
 30
680.0
 70
    64
  0
VERTEX
  5
8A
  8
TEAM-NET
 10
-163.800131
 20
-140.0
 30
680.0
 70
    64
  0
VERTEX
  5
8B
  8
TEAM-NET
 10
-184.587648
 20
-140.0
 30
680.0
 70
    64
  0
VERTEX
  5
8C
  8
TEAM-NET
 10
-205.375164
 20
-140.0
 30
680.0
 70
    64
  0
VERTEX
  5
8D
  8
TEAM-NET
 10
-226.16268
 20
-140.0
 30
680.0
 70
    64
  0
VERTEX
  5
8E
  8
TEAM-NET
 10
-246.950197
 20
-140.0
 30
680.0
 70
    64
  0
VERTEX
  5
8F
  8
TEAM-NET
 10
-267.501494
 20
-141.340609
 30
680.0
 70
    64
  0
VERTEX
  5
90
  8
TEAM-NET
 10
-272.5
 20
-160.317266
 30
680.0
 70
    64
  0
VERTEX
  5
91
  8
TEAM-NET
 10
-272.5
 20
-181.104783
 30
680.0
 70
    64
  0
VERTEX
  5
92
  8
TEAM-NET
 10
-272.5
 20
-201.892299
 30
680.0
 70
    64
  0
VERTEX
  5
93
  8
TEAM-NET
 10
-272.5
 20
-222.679815
 30
680.0
 70
    64
  0
VERTEX
  5
94
  8
TEAM-NET
 10
-272.5
 20
-243.467332
 30
680.0
 70
    64
  0
VERTEX
  5
95
  8
TEAM-NET
 10
277.5
 20
-243.467332
 30
850.0
 70
    64
  0
VERTEX
  5
96
  8
TEAM-NET
 10
277.5
 20
-222.679815
 30
850.0
 70
    64
  0
VERTEX
  5
97
  8
TEAM-NET
 10
277.5
 20
-201.892299
 30
850.0
 70
    64
  0
VERTEX
  5
98
  8
TEAM-NET
 10
277.5
 20
-181.104783
 30
850.0
 70
    64
  0
VERTEX
  5
99
  8
TEAM-NET
 10
277.5
 20
-160.317266
 30
850.0
 70
    64
  0
VERTEX
  5
9A
  8
TEAM-NET
 10
272.501494
 20
-141.340609
 30
850.0
 70
    64
  0
VERTEX
  5
9B
  8
TEAM-NET
 10
251.950197
 20
-140.0
 30
850.0
 70
    64
  0
VERTEX
  5
9C
  8
TEAM-NET
 10
231.16268
 20
-140.0
 30
850.0
 70
    64
  0
VERTEX
  5
9D
  8
TEAM-NET
 10
210.375164
 20
-140.0
 30
850.0
 70
    64
  0
VERTEX
  5
9E
  8
TEAM-NET
 10
189.587648
 20
-140.0
 30
850.0
 70
    64
  0
VERTEX
  5
9F
  8
TEAM-NET
 10
168.800131
 20
-140.0
 30
850.0
 70
    64
  0
VERTEX
  5
A0
  8
TEAM-NET
 10
148.012615
 20
-140.0
 30
850.0
 70
    64
  0
VERTEX
  5
A1
  8
TEAM-NET
 10
127.225098
 20
-140.0
 30
850.0
 70
    64
  0
VERTEX
  5
A2
  8
TEAM-NET
 10
106.437582
 20
-140.0
 30
850.0
 70
    64
  0
VERTEX
  5
A3
  8
TEAM-NET
 10
85.650066
 20
-140.0
 30
850.0
 70
    64
  0
VERTEX
  5
A4
  8
TEAM-NET
 10
64.862549
 20
-140.0
 30
850.0
 70
    64
  0
VERTEX
  5
A5
  8
TEAM-NET
 10
44.075033
 20
-140.0
 30
850.0
 70
    64
  0
VERTEX
  5
A6
  8
TEAM-NET
 10
23.287516
 20
-140.0
 30
850.0
 70
    64
  0
VERTEX
  5
A7
  8
TEAM-NET
 10
2.5
 20
-140.0
 30
850.0
 70
    64
  0
VERTEX
  5
A8
  8
TEAM-NET
 10
-18.287516
 20
-140.0
 30
850.0
 70
    64
  0
VERTEX
  5
A9
  8
TEAM-NET
 10
-39.075033
 20
-140.0
 30
850.0
 70
    64
  0
VERTEX
  5
AA
  8
TEAM-NET
 10
-59.862549
 20
-140.0
 30
850.0
 70
    64
  0
VERTEX
  5
AB
  8
TEAM-NET
 10
-80.650066
 20
-140.0
 30
850.0
 70
    64
  0
VERTEX
  5
AC
  8
TEAM-NET
 10
-101.437582
 20
-140.0
 30
850.0
 70
    64
  0
VERTEX
  5
AD
  8
TEAM-NET
 10
-122.225098
 20
-140.0
 30
850.0
 70
    64
  0
VERTEX
  5
AE
  8
TEAM-NET
 10
-143.012615
 20
-140.0
 30
850.0
 70
    64
  0
VERTEX
  5
AF
  8
TEAM-NET
 10
-163.800131
 20
-140.0
 30
850.0
 70
    64
  0
VERTEX
  5
B0
  8
TEAM-NET
 10
-184.587648
 20
-140.0
 30
850.0
 70
    64
  0
VERTEX
  5
B1
  8
TEAM-NET
 10
-205.375164
 20
-140.0
 30
850.0
 70
    64
  0
VERTEX
  5
B2
  8
TEAM-NET
 10
-226.16268
 20
-140.0
 30
850.0
 70
    64
  0
VERTEX
  5
B3
  8
TEAM-NET
 10
-246.950197
 20
-140.0
 30
850.0
 70
    64
  0
VERTEX
  5
B4
  8
TEAM-NET
 10
-267.501494
 20
-141.340609
 30
850.0
 70
    64
  0
VERTEX
  5
B5
  8
TEAM-NET
 10
-272.5
 20
-160.317266
 30
850.0
 70
    64
  0
VERTEX
  5
B6
  8
TEAM-NET
 10
-272.5
 20
-181.104783
 30
850.0
 70
    64
  0
VERTEX
  5
B7
  8
TEAM-NET
 10
-272.5
 20
-201.892299
 30
850.0
 70
    64
  0
VERTEX
  5
B8
  8
TEAM-NET
 10
-272.5
 20
-222.679815
 30
850.0
 70
    64
  0
VERTEX
  5
B9
  8
TEAM-NET
 10
-272.5
 20
-243.467332
 30
850.0
 70
    64
  0
SEQEND
  5
BA
  8
TEAM-NET
  0
POLYLINE
  5
BB
  8
TEAM-BODY
 66
     1
 10
0.0
 20
0.0
 30
850.0
 39
-170.0
  0
VERTEX
  5
23B
  8
TEAM-BODY
 10
-622.5
 20
-243.467332
 30
850.0
  0
VERTEX
  5
23C
  8
TEAM-BODY
 10
-622.5
 20
-477.088409
 30
850.0
 42
0.411407
  0
VERTEX
  5
23D
  8
TEAM-BODY
 10
-612.595918
 20
-487.087949
 30
850.0
 42
0.004858
  0
VERTEX
  5
23E
  8
TEAM-BODY
 10
617.598417
 20
-486.934179
 30
850.0
 42
0.411334
  0
VERTEX
  5
23F
  8
TEAM-BODY
 10
627.5
 20
-476.934663
 30
850.0
  0
VERTEX
  5
240
  8
TEAM-BODY
 10
627.5
 20
-243.467332
 30
850.0
  0
SEQEND
  5
241
  8
TEAM-BODY
  0
POLYLINE
  5
BD
  8
TEAM-BODY
 66
     1
 10
0.0
 20
0.0
 30
850.0
 39
-170.0
  0
VERTEX
  5
242
  8
TEAM-BODY
 10
627.5
 20
-243.467332
 30
850.0
  0
VERTEX
  5
243
  8
TEAM-BODY
 10
627.5
 20
-10.0
 30
850.0
 42
0.414214
  0
VERTEX
  5
244
  8
TEAM-BODY
 10
617.5
 20
0.0
 30
850.0
  0
VERTEX
  5
245
  8
TEAM-BODY
 10
-617.5
 20
0.0
 30
850.0
 42
0.414214
  0
VERTEX
  5
246
  8
TEAM-BODY
 10
-622.5
 20
-5.0
 30
850.0
  0
VERTEX
  5
247
  8
TEAM-BODY
 10
-622.5
 20
-243.467332
 30
850.0
  0
SEQEND
  5
248
  8
TEAM-BODY
  0
CIRCLE
  5
BE
  8
TEAM-KAN
 39
-20.0
 10
2.5
 20
-190.0
 30
680.0
 40
26.0
  0
CIRCLE
  5
C0
  8
TEAM-DET1
 39
-20.0
 10
2.5
 20
-190.0
 30
680.0
 40
37.5
  0
POLYLINE
  5
C2
  8
TEAM-NET
 66
     1
 10
0.0
 20
0.0
 30
0.0
 70
    16
 71
     2
 72
    37
  0
VERTEX
  5
C3
  8
TEAM-NET
 10
277.5
 20
-243.467332
 30
680.0
 70
    64
  0
VERTEX
  5
C4
  8
TEAM-NET
 10
277.5
 20
-270.022176
 30
680.0
 70
    64
  0
VERTEX
  5
C5
  8
TEAM-NET
 10
277.5
 20
-296.577021
 30
680.0
 70
    64
  0
VERTEX
  5
C6
  8
TEAM-NET
 10
277.5
 20
-323.131866
 30
680.0
 70
    64
  0
VERTEX
  5
C7
  8
TEAM-NET
 10
277.5
 20
-349.68671
 30
680.0
 70
    64
  0
VERTEX
  5
C8
  8
TEAM-NET
 10
277.5
 20
-376.241555
 30
680.0
 70
    64
  0
VERTEX
  5
C9
  8
TEAM-NET
 10
277.5
 20
-402.796399
 30
680.0
 70
    64
  0
VERTEX
  5
CA
  8
TEAM-NET
 10
277.5
 20
-429.351244
 30
680.0
 70
    64
  0
VERTEX
  5
CB
  8
TEAM-NET
 10
268.048171
 20
-450.731535
 30
680.0
 70
    64
  0
VERTEX
  5
CC
  8
TEAM-NET
 10
241.493601
 20
-450.746571
 30
680.0
 70
    64
  0
VERTEX
  5
CD
  8
TEAM-NET
 10
214.938757
 20
-450.746571
 30
680.0
 70
    64
  0
VERTEX
  5
CE
  8
TEAM-NET
 10
188.383912
 20
-450.746571
 30
680.0
 70
    64
  0
VERTEX
  5
CF
  8
TEAM-NET
 10
161.829068
 20
-450.746571
 30
680.0
 70
    64
  0
VERTEX
  5
D0
  8
TEAM-NET
 10
135.274223
 20
-450.746571
 30
680.0
 70
    64
  0
VERTEX
  5
D1
  8
TEAM-NET
 10
108.719378
 20
-450.746571
 30
680.0
 70
    64
  0
VERTEX
  5
D2
  8
TEAM-NET
 10
82.164534
 20
-450.746571
 30
680.0
 70
    64
  0
VERTEX
  5
D3
  8
TEAM-NET
 10
55.609689
 20
-450.746571
 30
680.0
 70
    64
  0
VERTEX
  5
D4
  8
TEAM-NET
 10
29.054845
 20
-450.746571
 30
680.0
 70
    64
  0
VERTEX
  5
D5
  8
TEAM-NET
 10
2.5
 20
-450.746571
 30
680.0
 70
    64
  0
VERTEX
  5
D6
  8
TEAM-NET
 10
-24.054845
 20
-450.746571
 30
680.0
 70
    64
  0
VERTEX
  5
D7
  8
TEAM-NET
 10
-50.609689
 20
-450.746571
 30
680.0
 70
    64
  0
VERTEX
  5
D8
  8
TEAM-NET
 10
-77.164534
 20
-450.746571
 30
680.0
 70
    64
  0
VERTEX
  5
D9
  8
TEAM-NET
 10
-103.719378
 20
-450.746571
 30
680.0
 70
    64
  0
VERTEX
  5
DA
  8
TEAM-NET
 10
-130.274223
 20
-450.746571
 30
680.0
 70
    64
  0
VERTEX
  5
DB
  8
TEAM-NET
 10
-156.829068
 20
-450.746571
 30
680.0
 70
    64
  0
VERTEX
  5
DC
  8
TEAM-NET
 10
-183.383912
 20
-450.746571
 30
680.0
 70
    64
  0
VERTEX
  5
DD
  8
TEAM-NET
 10
-209.938757
 20
-450.746571
 30
680.0
 70
    64
  0
VERTEX
  5
DE
  8
TEAM-NET
 10
-236.493601
 20
-450.746571
 30
680.0
 70
    64
  0
VERTEX
  5
DF
  8
TEAM-NET
 10
-263.048171
 20
-450.731535
 30
680.0
 70
    64
  0
VERTEX
  5
E0
  8
TEAM-NET
 10
-272.5
 20
-429.351244
 30
680.0
 70
    64
  0
VERTEX
  5
E1
  8
TEAM-NET
 10
-272.5
 20
-402.796399
 30
680.0
 70
    64
  0
VERTEX
  5
E2
  8
TEAM-NET
 10
-272.5
 20
-376.241555
 30
680.0
 70
    64
  0
VERTEX
  5
E3
  8
TEAM-NET
 10
-272.5
 20
-349.68671
 30
680.0
 70
    64
  0
VERTEX
  5
E4
  8
TEAM-NET
 10
-272.5
 20
-323.131866
 30
680.0
 70
    64
  0
VERTEX
  5
E5
  8
TEAM-NET
 10
-272.5
 20
-296.577021
 30
680.0
 70
    64
  0
VERTEX
  5
E6
  8
TEAM-NET
 10
-272.5
 20
-270.022176
 30
680.0
 70
    64
  0
VERTEX
  5
E7
  8
TEAM-NET
 10
-272.5
 20
-243.467332
 30
680.0
 70
    64
  0
VERTEX
  5
E8
  8
TEAM-NET
 10
277.5
 20
-243.467332
 30
680.0
 70
    64
  0
VERTEX
  5
E9
  8
TEAM-NET
 10
277.5
 20
-222.679815
 30
680.0
 70
    64
  0
VERTEX
  5
EA
  8
TEAM-NET
 10
277.5
 20
-201.892299
 30
680.0
 70
    64
  0
VERTEX
  5
EB
  8
TEAM-NET
 10
277.5
 20
-181.104783
 30
680.0
 70
    64
  0
VERTEX
  5
EC
  8
TEAM-NET
 10
277.5
 20
-160.317266
 30
680.0
 70
    64
  0
VERTEX
  5
ED
  8
TEAM-NET
 10
272.501494
 20
-141.340609
 30
680.0
 70
    64
  0
VERTEX
  5
EE
  8
TEAM-NET
 10
251.950197
 20
-140.0
 30
680.0
 70
    64
  0
VERTEX
  5
EF
  8
TEAM-NET
 10
231.16268
 20
-140.0
 30
680.0
 70
    64
  0
VERTEX
  5
F0
  8
TEAM-NET
 10
210.375164
 20
-140.0
 30
680.0
 70
    64
  0
VERTEX
  5
F1
  8
TEAM-NET
 10
189.587648
 20
-140.0
 30
680.0
 70
    64
  0
VERTEX
  5
F2
  8
TEAM-NET
 10
168.800131
 20
-140.0
 30
680.0
 70
    64
  0
VERTEX
  5
F3
  8
TEAM-NET
 10
148.012615
 20
-140.0
 30
680.0
 70
    64
  0
VERTEX
  5
F4
  8
TEAM-NET
 10
127.225098
 20
-140.0
 30
680.0
 70
    64
  0
VERTEX
  5
F5
  8
TEAM-NET
 10
106.437582
 20
-140.0
 30
680.0
 70
    64
  0
VERTEX
  5
F6
  8
TEAM-NET
 10
85.650066
 20
-140.0
 30
680.0
 70
    64
  0
VERTEX
  5
F7
  8
TEAM-NET
 10
64.862549
 20
-140.0
 30
680.0
 70
    64
  0
VERTEX
  5
F8
  8
TEAM-NET
 10
44.075033
 20
-140.0
 30
680.0
 70
    64
  0
VERTEX
  5
F9
  8
TEAM-NET
 10
23.287516
 20
-140.0
 30
680.0
 70
    64
  0
VERTEX
  5
FA
  8
TEAM-NET
 10
2.5
 20
-140.0
 30
680.0
 70
    64
  0
VERTEX
  5
FB
  8
TEAM-NET
 10
-18.287516
 20
-140.0
 30
680.0
 70
    64
  0
VERTEX
  5
FC
  8
TEAM-NET
 10
-39.075033
 20
-140.0
 30
680.0
 70
    64
  0
VERTEX
  5
FD
  8
TEAM-NET
 10
-59.862549
 20
-140.0
 30
680.0
 70
    64
  0
VERTEX
  5
FE
  8
TEAM-NET
 10
-80.650066
 20
-140.0
 30
680.0
 70
    64
  0
VERTEX
  5
FF
  8
TEAM-NET
 10
-101.437582
 20
-140.0
 30
680.0
 70
    64
  0
VERTEX
  5
100
  8
TEAM-NET
 10
-122.225098
 20
-140.0
 30
680.0
 70
    64
  0
VERTEX
  5
101
  8
TEAM-NET
 10
-143.012615
 20
-140.0
 30
680.0
 70
    64
  0
VERTEX
  5
102
  8
TEAM-NET
 10
-163.800131
 20
-140.0
 30
680.0
 70
    64
  0
VERTEX
  5
103
  8
TEAM-NET
 10
-184.587648
 20
-140.0
 30
680.0
 70
    64
  0
VERTEX
  5
104
  8
TEAM-NET
 10
-205.375164
 20
-140.0
 30
680.0
 70
    64
  0
VERTEX
  5
105
  8
TEAM-NET
 10
-226.16268
 20
-140.0
 30
680.0
 70
    64
  0
VERTEX
  5
106
  8
TEAM-NET
 10
-246.950197
 20
-140.0
 30
680.0
 70
    64
  0
VERTEX
  5
107
  8
TEAM-NET
 10
-267.501494
 20
-141.340609
 30
680.0
 70
    64
  0
VERTEX
  5
108
  8
TEAM-NET
 10
-272.5
 20
-160.317266
 30
680.0
 70
    64
  0
VERTEX
  5
109
  8
TEAM-NET
 10
-272.5
 20
-181.104783
 30
680.0
 70
    64
  0
VERTEX
  5
10A
  8
TEAM-NET
 10
-272.5
 20
-201.892299
 30
680.0
 70
    64
  0
VERTEX
  5
10B
  8
TEAM-NET
 10
-272.5
 20
-222.679815
 30
680.0
 70
    64
  0
VERTEX
  5
10C
  8
TEAM-NET
 10
-272.5
 20
-243.467332
 30
680.0
 70
    64
  0
SEQEND
  5
10D
  8
TEAM-NET
  0
POLYLINE
  5
10E
  8
TEAM-BODY
 66
     1
 10
0.0
 20
0.0
 30
680.0
  0
VERTEX
  5
249
  8
TEAM-BODY
 10
-272.5
 20
-243.467332
 30
680.0
  0
VERTEX
  5
24A
  8
TEAM-BODY
 10
-272.5
 20
-440.746571
 30
680.0
 42
0.414214
  0
VERTEX
  5
24B
  8
TEAM-BODY
 10
-262.5
 20
-450.746571
 30
680.0
  0
VERTEX
  5
24C
  8
TEAM-BODY
 10
267.5
 20
-450.746571
 30
680.0
 42
0.414214
  0
VERTEX
  5
24D
  8
TEAM-BODY
 10
277.5
 20
-440.746571
 30
680.0
  0
VERTEX
  5
24E
  8
TEAM-BODY
 10
277.5
 20
-243.467332
 30
680.0
  0
SEQEND
  5
24F
  8
TEAM-BODY
  0
POLYLINE
  5
10F
  8
TEAM-BODY
 66
     1
 10
0.0
 20
0.0
 30
680.0
  0
VERTEX
  5
250
  8
TEAM-BODY
 10
277.5
 20
-243.467332
 30
680.0
  0
VERTEX
  5
251
  8
TEAM-BODY
 10
277.5
 20
-150.0
 30
680.0
 42
0.414214
  0
VERTEX
  5
252
  8
TEAM-BODY
 10
267.5
 20
-140.0
 30
680.0
  0
VERTEX
  5
253
  8
TEAM-BODY
 10
-262.5
 20
-140.0
 30
680.0
 42
0.414214
  0
VERTEX
  5
254
  8
TEAM-BODY
 10
-272.5
 20
-150.0
 30
680.0
  0
VERTEX
  5
255
  8
TEAM-BODY
 10
-272.5
 20
-243.467332
 30
680.0
  0
SEQEND
  5
256
  8
TEAM-BODY
  0
POLYLINE
  5
110
  8
TEAM-NET
 66
     1
 10
0.0
 20
0.0
 30
0.0
 70
    16
 71
     2
 72
    37
  0
VERTEX
  5
111
  8
TEAM-NET
 10
277.5
 20
-243.467332
 30
850.0
 70
    64
  0
VERTEX
  5
112
  8
TEAM-NET
 10
277.5
 20
-270.022176
 30
850.0
 70
    64
  0
VERTEX
  5
113
  8
TEAM-NET
 10
277.5
 20
-296.577021
 30
850.0
 70
    64
  0
VERTEX
  5
114
  8
TEAM-NET
 10
277.5
 20
-323.131866
 30
850.0
 70
    64
  0
VERTEX
  5
115
  8
TEAM-NET
 10
277.5
 20
-349.68671
 30
850.0
 70
    64
  0
VERTEX
  5
116
  8
TEAM-NET
 10
277.5
 20
-376.241555
 30
850.0
 70
    64
  0
VERTEX
  5
117
  8
TEAM-NET
 10
277.5
 20
-402.796399
 30
850.0
 70
    64
  0
VERTEX
  5
118
  8
TEAM-NET
 10
277.5
 20
-429.351244
 30
850.0
 70
    64
  0
VERTEX
  5
119
  8
TEAM-NET
 10
268.048171
 20
-450.731535
 30
850.0
 70
    64
  0
VERTEX
  5
11A
  8
TEAM-NET
 10
241.493601
 20
-450.746571
 30
850.0
 70
    64
  0
VERTEX
  5
11B
  8
TEAM-NET
 10
214.938757
 20
-450.746571
 30
850.0
 70
    64
  0
VERTEX
  5
11C
  8
TEAM-NET
 10
188.383912
 20
-450.746571
 30
850.0
 70
    64
  0
VERTEX
  5
11D
  8
TEAM-NET
 10
161.829068
 20
-450.746571
 30
850.0
 70
    64
  0
VERTEX
  5
11E
  8
TEAM-NET
 10
135.274223
 20
-450.746571
 30
850.0
 70
    64
  0
VERTEX
  5
11F
  8
TEAM-NET
 10
108.719378
 20
-450.746571
 30
850.0
 70
    64
  0
VERTEX
  5
120
  8
TEAM-NET
 10
82.164534
 20
-450.746571
 30
850.0
 70
    64
  0
VERTEX
  5
121
  8
TEAM-NET
 10
55.609689
 20
-450.746571
 30
850.0
 70
    64
  0
VERTEX
  5
122
  8
TEAM-NET
 10
29.054845
 20
-450.746571
 30
850.0
 70
    64
  0
VERTEX
  5
123
  8
TEAM-NET
 10
2.5
 20
-450.746571
 30
850.0
 70
    64
  0
VERTEX
  5
124
  8
TEAM-NET
 10
-24.054845
 20
-450.746571
 30
850.0
 70
    64
  0
VERTEX
  5
125
  8
TEAM-NET
 10
-50.609689
 20
-450.746571
 30
850.0
 70
    64
  0
VERTEX
  5
126
  8
TEAM-NET
 10
-77.164534
 20
-450.746571
 30
850.0
 70
    64
  0
VERTEX
  5
127
  8
TEAM-NET
 10
-103.719378
 20
-450.746571
 30
850.0
 70
    64
  0
VERTEX
  5
128
  8
TEAM-NET
 10
-130.274223
 20
-450.746571
 30
850.0
 70
    64
  0
VERTEX
  5
129
  8
TEAM-NET
 10
-156.829068
 20
-450.746571
 30
850.0
 70
    64
  0
VERTEX
  5
12A
  8
TEAM-NET
 10
-183.383912
 20
-450.746571
 30
850.0
 70
    64
  0
VERTEX
  5
12B
  8
TEAM-NET
 10
-209.938757
 20
-450.746571
 30
850.0
 70
    64
  0
VERTEX
  5
12C
  8
TEAM-NET
 10
-236.493601
 20
-450.746571
 30
850.0
 70
    64
  0
VERTEX
  5
12D
  8
TEAM-NET
 10
-263.048171
 20
-450.731535
 30
850.0
 70
    64
  0
VERTEX
  5
12E
  8
TEAM-NET
 10
-272.5
 20
-429.351244
 30
850.0
 70
    64
  0
VERTEX
  5
12F
  8
TEAM-NET
 10
-272.5
 20
-402.796399
 30
850.0
 70
    64
  0
VERTEX
  5
130
  8
TEAM-NET
 10
-272.5
 20
-376.241555
 30
850.0
 70
    64
  0
VERTEX
  5
131
  8
TEAM-NET
 10
-272.5
 20
-349.68671
 30
850.0
 70
    64
  0
VERTEX
  5
132
  8
TEAM-NET
 10
-272.5
 20
-323.131866
 30
850.0
 70
    64
  0
VERTEX
  5
133
  8
TEAM-NET
 10
-272.5
 20
-296.577021
 30
850.0
 70
    64
  0
VERTEX
  5
134
  8
TEAM-NET
 10
-272.5
 20
-270.022176
 30
850.0
 70
    64
  0
VERTEX
  5
135
  8
TEAM-NET
 10
-272.5
 20
-243.467332
 30
850.0
 70
    64
  0
VERTEX
  5
136
  8
TEAM-NET
 10
627.5
 20
-243.467332
 30
850.0
 70
    64
  0
VERTEX
  5
137
  8
TEAM-NET
 10
627.5
 20
-291.481879
 30
850.0
 70
    64
  0
VERTEX
  5
138
  8
TEAM-NET
 10
627.5
 20
-339.496426
 30
850.0
 70
    64
  0
VERTEX
  5
139
  8
TEAM-NET
 10
627.5
 20
-387.510973
 30
850.0
 70
    64
  0
VERTEX
  5
13A
  8
TEAM-NET
 10
627.5
 20
-435.525521
 30
850.0
 70
    64
  0
VERTEX
  5
13B
  8
TEAM-NET
 10
625.396608
 20
-483.070101
 30
850.0
 70
    64
  0
VERTEX
  5
13C
  8
TEAM-NET
 10
578.589783
 20
-487.30609
 30
850.0
 70
    64
  0
VERTEX
  5
13D
  8
TEAM-NET
 10
530.577116
 20
-487.73084
 30
850.0
 70
    64
  0
VERTEX
  5
13E
  8
TEAM-NET
 10
482.56414
 20
-488.119173
 30
850.0
 70
    64
  0
VERTEX
  5
13F
  8
TEAM-NET
 10
434.550884
 20
-488.471088
 30
850.0
 70
    64
  0
VERTEX
  5
140
  8
TEAM-NET
 10
386.537374
 20
-488.786586
 30
850.0
 70
    64
  0
VERTEX
  5
141
  8
TEAM-NET
 10
338.523639
 20
-489.065666
 30
850.0
 70
    64
  0
VERTEX
  5
142
  8
TEAM-NET
 10
290.509707
 20
-489.308328
 30
850.0
 70
    64
  0
VERTEX
  5
143
  8
TEAM-NET
 10
242.495603
 20
-489.514572
 30
850.0
 70
    64
  0
VERTEX
  5
144
  8
TEAM-NET
 10
194.481358
 20
-489.684397
 30
850.0
 70
    64
  0
VERTEX
  5
145
  8
TEAM-NET
 10
146.466997
 20
-489.817805
 30
850.0
 70
    64
  0
VERTEX
  5
146
  8
TEAM-NET
 10
98.452549
 20
-489.914793
 30
850.0
 70
    64
  0
VERTEX
  5
147
  8
TEAM-NET
 10
50.438041
 20
-489.975364
 30
850.0
 70
    64
  0
VERTEX
  5
148
  8
TEAM-NET
 10
2.423501
 20
-489.999515
 30
850.0
 70
    64
  0
VERTEX
  5
149
  8
TEAM-NET
 10
-45.591044
 20
-489.987248
 30
850.0
 70
    64
  0
VERTEX
  5
14A
  8
TEAM-NET
 10
-93.605565
 20
-489.938563
 30
850.0
 70
    64
  0
VERTEX
  5
14B
  8
TEAM-NET
 10
-141.620036
 20
-489.853459
 30
850.0
 70
    64
  0
VERTEX
  5
14C
  8
TEAM-NET
 10
-189.634428
 20
-489.731936
 30
850.0
 70
    64
  0
VERTEX
  5
14D
  8
TEAM-NET
 10
-237.648714
 20
-489.573996
 30
850.0
 70
    64
  0
VERTEX
  5
14E
  8
TEAM-NET
 10
-285.662867
 20
-489.379636
 30
850.0
 70
    64
  0
VERTEX
  5
14F
  8
TEAM-NET
 10
-333.676859
 20
-489.148859
 30
850.0
 70
    64
  0
VERTEX
  5
150
  8
TEAM-NET
 10
-381.690661
 20
-488.881664
 30
850.0
 70
    64
  0
VERTEX
  5
151
  8
TEAM-NET
 10
-429.704247
 20
-488.57805
 30
850.0
 70
    64
  0
VERTEX
  5
152
  8
TEAM-NET
 10
-477.717589
 20
-488.238019
 30
850.0
 70
    64
  0
VERTEX
  5
153
  8
TEAM-NET
 10
-525.73066
 20
-487.861571
 30
850.0
 70
    64
  0
VERTEX
  5
154
  8
TEAM-NET
 10
-573.743431
 20
-487.448705
 30
850.0
 70
    64
  0
VERTEX
  5
155
  8
TEAM-NET
 10
-620.49
 20
-483.101719
 30
850.0
 70
    64
  0
VERTEX
  5
156
  8
TEAM-NET
 10
-622.5
 20
-435.525521
 30
850.0
 70
    64
  0
VERTEX
  5
157
  8
TEAM-NET
 10
-622.5
 20
-387.510973
 30
850.0
 70
    64
  0
VERTEX
  5
158
  8
TEAM-NET
 10
-622.5
 20
-339.496426
 30
850.0
 70
    64
  0
VERTEX
  5
159
  8
TEAM-NET
 10
-622.5
 20
-291.481879
 30
850.0
 70
    64
  0
VERTEX
  5
15A
  8
TEAM-NET
 10
-622.5
 20
-243.467332
 30
850.0
 70
    64
  0
SEQEND
  5
15B
  8
TEAM-NET
  0
POLYLINE
  5
15C
  8
TEAM-NET
 66
     1
 10
0.0
 20
0.0
 30
0.0
 70
    16
 71
     2
 72
    37
  0
VERTEX
  5
15D
  8
TEAM-NET
 10
277.5
 20
-243.467332
 30
850.0
 70
    64
  0
VERTEX
  5
15E
  8
TEAM-NET
 10
277.5
 20
-222.679815
 30
850.0
 70
    64
  0
VERTEX
  5
15F
  8
TEAM-NET
 10
277.5
 20
-201.892299
 30
850.0
 70
    64
  0
VERTEX
  5
160
  8
TEAM-NET
 10
277.5
 20
-181.104783
 30
850.0
 70
    64
  0
VERTEX
  5
161
  8
TEAM-NET
 10
277.5
 20
-160.317266
 30
850.0
 70
    64
  0
VERTEX
  5
162
  8
TEAM-NET
 10
272.501494
 20
-141.340609
 30
850.0
 70
    64
  0
VERTEX
  5
163
  8
TEAM-NET
 10
251.950197
 20
-140.0
 30
850.0
 70
    64
  0
VERTEX
  5
164
  8
TEAM-NET
 10
231.16268
 20
-140.0
 30
850.0
 70
    64
  0
VERTEX
  5
165
  8
TEAM-NET
 10
210.375164
 20
-140.0
 30
850.0
 70
    64
  0
VERTEX
  5
166
  8
TEAM-NET
 10
189.587648
 20
-140.0
 30
850.0
 70
    64
  0
VERTEX
  5
167
  8
TEAM-NET
 10
168.800131
 20
-140.0
 30
850.0
 70
    64
  0
VERTEX
  5
168
  8
TEAM-NET
 10
148.012615
 20
-140.0
 30
850.0
 70
    64
  0
VERTEX
  5
169
  8
TEAM-NET
 10
127.225098
 20
-140.0
 30
850.0
 70
    64
  0
VERTEX
  5
16A
  8
TEAM-NET
 10
106.437582
 20
-140.0
 30
850.0
 70
    64
  0
VERTEX
  5
16B
  8
TEAM-NET
 10
85.650066
 20
-140.0
 30
850.0
 70
    64
  0
VERTEX
  5
16C
  8
TEAM-NET
 10
64.862549
 20
-140.0
 30
850.0
 70
    64
  0
VERTEX
  5
16D
  8
TEAM-NET
 10
44.075033
 20
-140.0
 30
850.0
 70
    64
  0
VERTEX
  5
16E
  8
TEAM-NET
 10
23.287516
 20
-140.0
 30
850.0
 70
    64
  0
VERTEX
  5
16F
  8
TEAM-NET
 10
2.5
 20
-140.0
 30
850.0
 70
    64
  0
VERTEX
  5
170
  8
TEAM-NET
 10
-18.287516
 20
-140.0
 30
850.0
 70
    64
  0
VERTEX
  5
171
  8
TEAM-NET
 10
-39.075033
 20
-140.0
 30
850.0
 70
    64
  0
VERTEX
  5
172
  8
TEAM-NET
 10
-59.862549
 20
-140.0
 30
850.0
 70
    64
  0
VERTEX
  5
173
  8
TEAM-NET
 10
-80.650066
 20
-140.0
 30
850.0
 70
    64
  0
VERTEX
  5
174
  8
TEAM-NET
 10
-101.437582
 20
-140.0
 30
850.0
 70
    64
  0
VERTEX
  5
175
  8
TEAM-NET
 10
-122.225098
 20
-140.0
 30
850.0
 70
    64
  0
VERTEX
  5
176
  8
TEAM-NET
 10
-143.012615
 20
-140.0
 30
850.0
 70
    64
  0
VERTEX
  5
177
  8
TEAM-NET
 10
-163.800131
 20
-140.0
 30
850.0
 70
    64
  0
VERTEX
  5
178
  8
TEAM-NET
 10
-184.587648
 20
-140.0
 30
850.0
 70
    64
  0
VERTEX
  5
179
  8
TEAM-NET
 10
-205.375164
 20
-140.0
 30
850.0
 70
    64
  0
VERTEX
  5
17A
  8
TEAM-NET
 10
-226.16268
 20
-140.0
 30
850.0
 70
    64
  0
VERTEX
  5
17B
  8
TEAM-NET
 10
-246.950197
 20
-140.0
 30
850.0
 70
    64
  0
VERTEX
  5
17C
  8
TEAM-NET
 10
-267.501494
 20
-141.340609
 30
850.0
 70
    64
  0
VERTEX
  5
17D
  8
TEAM-NET
 10
-272.5
 20
-160.317266
 30
850.0
 70
    64
  0
VERTEX
  5
17E
  8
TEAM-NET
 10
-272.5
 20
-181.104783
 30
850.0
 70
    64
  0
VERTEX
  5
17F
  8
TEAM-NET
 10
-272.5
 20
-201.892299
 30
850.0
 70
    64
  0
VERTEX
  5
180
  8
TEAM-NET
 10
-272.5
 20
-222.679815
 30
850.0
 70
    64
  0
VERTEX
  5
181
  8
TEAM-NET
 10
-272.5
 20
-243.467332
 30
850.0
 70
    64
  0
VERTEX
  5
182
  8
TEAM-NET
 10
627.5
 20
-243.467332
 30
850.0
 70
    64
  0
VERTEX
  5
183
  8
TEAM-NET
 10
627.5
 20
-195.397982
 30
850.0
 70
    64
  0
VERTEX
  5
184
  8
TEAM-NET
 10
627.5
 20
-147.328631
 30
850.0
 70
    64
  0
VERTEX
  5
185
  8
TEAM-NET
 10
627.5
 20
-99.259281
 30
850.0
 70
    64
  0
VERTEX
  5
186
  8
TEAM-NET
 10
627.5
 20
-51.189931
 30
850.0
 70
    64
  0
VERTEX
  5
187
  8
TEAM-NET
 10
625.225544
 20
-3.650514
 30
850.0
 70
    64
  0
VERTEX
  5
188
  8
TEAM-NET
 10
578.259194
 20
0.0
 30
850.0
 70
    64
  0
VERTEX
  5
189
  8
TEAM-NET
 10
530.189843
 20
0.0
 30
850.0
 70
    64
  0
VERTEX
  5
18A
  8
TEAM-NET
 10
482.120493
 20
0.0
 30
850.0
 70
    64
  0
VERTEX
  5
18B
  8
TEAM-NET
 10
434.051143
 20
0.0
 30
850.0
 70
    64
  0
VERTEX
  5
18C
  8
TEAM-NET
 10
385.981793
 20
0.0
 30
850.0
 70
    64
  0
VERTEX
  5
18D
  8
TEAM-NET
 10
337.912442
 20
0.0
 30
850.0
 70
    64
  0
VERTEX
  5
18E
  8
TEAM-NET
 10
289.843092
 20
0.0
 30
850.0
 70
    64
  0
VERTEX
  5
18F
  8
TEAM-NET
 10
241.773742
 20
0.0
 30
850.0
 70
    64
  0
VERTEX
  5
190
  8
TEAM-NET
 10
193.704392
 20
0.0
 30
850.0
 70
    64
  0
VERTEX
  5
191
  8
TEAM-NET
 10
145.635042
 20
0.0
 30
850.0
 70
    64
  0
VERTEX
  5
192
  8
TEAM-NET
 10
97.565691
 20
0.0
 30
850.0
 70
    64
  0
VERTEX
  5
193
  8
TEAM-NET
 10
49.496341
 20
0.0
 30
850.0
 70
    64
  0
VERTEX
  5
194
  8
TEAM-NET
 10
1.426991
 20
0.0
 30
850.0
 70
    64
  0
VERTEX
  5
195
  8
TEAM-NET
 10
-46.642359
 20
0.0
 30
850.0
 70
    64
  0
VERTEX
  5
196
  8
TEAM-NET
 10
-94.71171
 20
0.0
 30
850.0
 70
    64
  0
VERTEX
  5
197
  8
TEAM-NET
 10
-142.78106
 20
0.0
 30
850.0
 70
    64
  0
VERTEX
  5
198
  8
TEAM-NET
 10
-190.85041
 20
0.0
 30
850.0
 70
    64
  0
VERTEX
  5
199
  8
TEAM-NET
 10
-238.91976
 20
0.0
 30
850.0
 70
    64
  0
VERTEX
  5
19A
  8
TEAM-NET
 10
-286.989111
 20
0.0
 30
850.0
 70
    64
  0
VERTEX
  5
19B
  8
TEAM-NET
 10
-335.058461
 20
0.0
 30
850.0
 70
    64
  0
VERTEX
  5
19C
  8
TEAM-NET
 10
-383.127811
 20
0.0
 30
850.0
 70
    64
  0
VERTEX
  5
19D
  8
TEAM-NET
 10
-431.197161
 20
0.0
 30
850.0
 70
    64
  0
VERTEX
  5
19E
  8
TEAM-NET
 10
-479.266512
 20
0.0
 30
850.0
 70
    64
  0
VERTEX
  5
19F
  8
TEAM-NET
 10
-527.335862
 20
0.0
 30
850.0
 70
    64
  0
VERTEX
  5
1A0
  8
TEAM-NET
 10
-575.405212
 20
0.0
 30
850.0
 70
    64
  0
VERTEX
  5
1A1
  8
TEAM-NET
 10
-622.150918
 20
-3.164526
 30
850.0
 70
    64
  0
VERTEX
  5
1A2
  8
TEAM-NET
 10
-622.5
 20
-51.189931
 30
850.0
 70
    64
  0
VERTEX
  5
1A3
  8
TEAM-NET
 10
-622.5
 20
-99.259281
 30
850.0
 70
    64
  0
VERTEX
  5
1A4
  8
TEAM-NET
 10
-622.5
 20
-147.328631
 30
850.0
 70
    64
  0
VERTEX
  5
1A5
  8
TEAM-NET
 10
-622.5
 20
-195.397982
 30
850.0
 70
    64
  0
VERTEX
  5
1A6
  8
TEAM-NET
 10
-622.5
 20
-243.467332
 30
850.0
 70
    64
  0
SEQEND
  5
1A7
  8
TEAM-NET
  0
POLYLINE
  5
1A8
  8
TEAM-BODY
 66
     1
 10
0.0
 20
0.0
 30
850.0
  0
VERTEX
  5
257
  8
TEAM-BODY
 10
-272.5
 20
-243.467332
 30
850.0
  0
VERTEX
  5
258
  8
TEAM-BODY
 10
-272.5
 20
-440.746571
 30
850.0
 42
0.414214
  0
VERTEX
  5
259
  8
TEAM-BODY
 10
-262.5
 20
-450.746571
 30
850.0
  0
VERTEX
  5
25A
  8
TEAM-BODY
 10
267.5
 20
-450.746571
 30
850.0
 42
0.414214
  0
VERTEX
  5
25B
  8
TEAM-BODY
 10
277.5
 20
-440.746571
 30
850.0
  0
VERTEX
  5
25C
  8
TEAM-BODY
 10
277.5
 20
-243.467332
 30
850.0
  0
SEQEND
  5
25D
  8
TEAM-BODY
  0
POLYLINE
  5
1A9
  8
TEAM-BODY
 66
     1
 10
0.0
 20
0.0
 30
850.0
  0
VERTEX
  5
25E
  8
TEAM-BODY
 10
277.5
 20
-243.467332
 30
850.0
  0
VERTEX
  5
25F
  8
TEAM-BODY
 10
277.5
 20
-150.0
 30
850.0
 42
0.414214
  0
VERTEX
  5
260
  8
TEAM-BODY
 10
267.5
 20
-140.0
 30
850.0
  0
VERTEX
  5
261
  8
TEAM-BODY
 10
-262.5
 20
-140.0
 30
850.0
 42
0.414214
  0
VERTEX
  5
262
  8
TEAM-BODY
 10
-272.5
 20
-150.0
 30
850.0
  0
VERTEX
  5
263
  8
TEAM-BODY
 10
-272.5
 20
-243.467332
 30
850.0
  0
SEQEND
  5
264
  8
TEAM-BODY
  0
TEXT
  5
1AA
  8
TEAM-TXT
 10
-91.544186
 20
-419.207707
 30
851.0
 40
24.999999
  1
team 212225
 41
0.8
 51
15.0
  7
TEAM
  0
CIRCLE
  5
1AD
  8
TEAM-DET1
 10
0.0
 20
-58.562904
 30
850.0
 40
17.5
  0
LINE
  5
1AE
  8
TEAM-AXE
 10
-30.455821
 20
-58.562904
 30
850.0
 11
30.455821
 21
-58.562904
 31
850.0
  0
LINE
  5
1B1
  8
TEAM-AXE
 10
0.0
 20
-28.104327
 30
850.0
 11
0.0
 21
-89.015968
 31
850.0
  0
ENDSEC
  0
EOF
