  0
SECTION
  2
HEADER
  9
$ACADVER
  1
AC1009
  9
$INSBASE
 10
0.0
 20
0.0
 30
850.0
  9
$EXTMIN
 10
-225.019361
 20
-450.025946
 30
-0.038511
  9
$EXTMAX
 10
225.018419
 20
10.020562
 30
850.034882
  9
$LIMMIN
 10
-225.019361
 20
-450.025946
  9
$LIMMAX
 10
225.018419
 20
10.020562
  9
$ORTHOMODE
 70
     1
  9
$REGENMODE
 70
     1
  9
$FILLMODE
 70
     1
  9
$QTEXTMODE
 70
     0
  9
$MIRRTEXT
 70
     0
  9
$DRAGMODE
 70
     2
  9
$LTSCALE
 40
50.0
  9
$OSMODE
 70
     7
  9
$ATTMODE
 70
     1
  9
$TEXTSIZE
 40
200.0
  9
$TRACEWID
 40
1.0
  9
$TEXTSTYLE
  7
STANDARD
  9
$CLAYER
  8
TEAM-MAS
  9
$CELTYPE
  6
BYLAYER
  9
$CECOLOR
 62
   256
  9
$DIMSCALE
 40
1.0
  9
$DIMASZ
 40
20.0
  9
$DIMEXO
 40
10.0
  9
$DIMDLI
 40
1.0
  9
$DIMRND
 40
0.0
  9
$DIMDLE
 40
0.0
  9
$DIMEXE
 40
1.0
  9
$DIMTP
 40
0.0
  9
$DIMTM
 40
0.0
  9
$DIMTXT
 40
35.0
  9
$DIMCEN
 40
1.0
  9
$DIMTSZ
 40
0.0
  9
$DIMTOL
 70
     0
  9
$DIMLIM
 70
     0
  9
$DIMTIH
 70
     0
  9
$DIMTOH
 70
     0
  9
$DIMSE1
 70
     0
  9
$DIMSE2
 70
     0
  9
$DIMTAD
 70
     0
  9
$DIMZIN
 70
     0
  9
$DIMBLK
  1

  9
$DIMASO
 70
     1
  9
$DIMSHO
 70
     0
  9
$DIMPOST
  1

  9
$DIMAPOST
  1

  9
$DIMALT
 70
     0
  9
$DIMALTD
 70
     2
  9
$DIMALTF
 40
25.4
  9
$DIMLFAC
 40
1.0
  9
$DIMTOFL
 70
     0
  9
$DIMTVP
 40
0.0
  9
$DIMTIX
 70
     0
  9
$DIMSOXD
 70
     0
  9
$DIMSAH
 70
     0
  9
$DIMBLK1
  1

  9
$DIMBLK2
  1

  9
$DIMSTYLE
  2
TEAM
  9
$DIMCLRD
 70
     9
  9
$DIMCLRE
 70
     9
  9
$DIMCLRT
 70
    11
  9
$DIMTFAC
 40
1.0
  9
$DIMGAP
 40
7.0
  9
$LUNITS
 70
     2
  9
$LUPREC
 70
     1
  9
$SKETCHINC
 40
1.0
  9
$FILLETRAD
 40
44.0
  9
$AUNITS
 70
     0
  9
$AUPREC
 70
     0
  9
$MENU
  1
ROPLANS
  9
$ELEVATION
 40
0.0
  9
$PELEVATION
 40
0.0
  9
$THICKNESS
 40
0.0
  9
$LIMCHECK
 70
     0
  9
$BLIPMODE
 70
     1
  9
$CHAMFERA
 40
0.0
  9
$CHAMFERB
 40
0.0
  9
$SKPOLY
 70
     0
  9
$TDCREATE
 40
2450392.957851
  9
$TDUPDATE
 40
2455981.928629
  9
$TDINDWG
 40
3.777306
  9
$TDUSRTIMER
 40
3.777306
  9
$USRTIMER
 70
     1
  9
$ANGBASE
 50
0.0
  9
$ANGDIR
 70
     0
  9
$PDMODE
 70
     0
  9
$PDSIZE
 40
0.0
  9
$PLINEWID
 40
0.0
  9
$COORDS
 70
     2
  9
$SPLFRAME
 70
     0
  9
$SPLINETYPE
 70
     6
  9
$SPLINESEGS
 70
     8
  9
$ATTDIA
 70
     0
  9
$ATTREQ
 70
     0
  9
$HANDLING
 70
     1
  9
$HANDSEED
  5
BB7
  9
$SURFTAB1
 70
    36
  9
$SURFTAB2
 70
    36
  9
$SURFTYPE
 70
     6
  9
$SURFU
 70
     6
  9
$SURFV
 70
     6
  9
$UCSNAME
  2

  9
$UCSORG
 10
0.0
 20
0.0
 30
0.0
  9
$UCSXDIR
 10
1.0
 20
0.0
 30
0.0
  9
$UCSYDIR
 10
0.0
 20
1.0
 30
0.0
  9
$PUCSNAME
  2

  9
$PUCSORG
 10
0.0
 20
0.0
 30
0.0
  9
$PUCSXDIR
 10
1.0
 20
0.0
 30
0.0
  9
$PUCSYDIR
 10
0.0
 20
1.0
 30
0.0
  9
$USERI1
 70
     0
  9
$USERI2
 70
     0
  9
$USERI3
 70
     0
  9
$USERI4
 70
     0
  9
$USERI5
 70
     0
  9
$USERR1
 40
0.0
  9
$USERR2
 40
0.0
  9
$USERR3
 40
0.0
  9
$USERR4
 40
0.0
  9
$USERR5
 40
0.0
  9
$WORLDVIEW
 70
     1
  9
$SHADEDGE
 70
     0
  9
$SHADEDIF
 70
    70
  9
$TILEMODE
 70
     1
  9
$MAXACTVP
 70
    16
  9
$PLIMCHECK
 70
     0
  9
$PEXTMIN
 10
-0.805942
 20
0.005011
 30
0.0
  9
$PEXTMAX
 10
20.250094
 20
11.356329
 30
0.0
  9
$PLIMMIN
 10
0.0
 20
0.0
  9
$PLIMMAX
 10
12.0
 20
9.0
  9
$UNITMODE
 70
     0
  9
$VISRETAIN
 70
     0
  9
$PLINEGEN
 70
     0
  9
$PSLTSCALE
 70
     0
  0
ENDSEC
  0
SECTION
  2
TABLES
  0
TABLE
  2
VPORT
 70
     2
  0
VPORT
  2
*ACTIVE
 70
     0
 10
0.0
 20
0.0
 11
1.0
 21
1.0
 12
-0.000471
 22
-220.002692
 13
0.0
 23
0.0
 14
1.0
 24
1.0
 15
50.0
 25
50.0
 16
0.0
 26
0.0
 36
1.0
 17
0.0
 27
0.0
 37
0.0
 40
462.930813
 41
1.903766
 42
50.0
 43
0.0
 44
0.0
 50
0.0
 51
0.0
 71
     0
 72
   100
 73
     1
 74
     1
 75
     0
 76
     0
 77
     0
 78
     0
  0
ENDTAB
  0
TABLE
  2
LTYPE
 70
     2
  0
LTYPE
  2
CONTINUOUS
 70
     0
  3
Solid Line
 72
    65
 73
     0
 40
0.0
  0
LTYPE
  2
31
 70
     0
  3

 72
    65
 73
     4
 40
2.1
 49
1.5
 49
-0.3
 49
0.0
 49
-0.3
  0
ENDTAB
  0
TABLE
  2
LAYER
 70
     9
  0
LAYER
  2
0
 70
     0
 62
     7
  6
CONTINUOUS
  0
LAYER
  2
TEAM-BODY
 70
     0
 62
     2
  6
CONTINUOUS
  0
LAYER
  2
TEAM-AXE
 70
     0
 62
    10
  6
31
  0
LAYER
  2
TEAM-MAS
 70
     0
 62
     9
  6
CONTINUOUS
  0
LAYER
  2
TEAM-TXT
 70
     0
 62
    11
  6
CONTINUOUS
  0
LAYER
  2
TEAM-DET1
 70
     0
 62
     4
  6
CONTINUOUS
  0
LAYER
  2
TEAM-KAN
 70
     0
 62
     6
  6
CONTINUOUS
  0
LAYER
  2
TEAM-NET
 70
     0
 62
    15
  6
CONTINUOUS
  0
LAYER
  2
TEAM-INSP
 70
     0
 62
     5
  6
CONTINUOUS
  0
ENDTAB
  0
TABLE
  2
STYLE
 70
     2
  0
STYLE
  2
STANDARD
 70
     0
 40
0.0
 41
1.0
 50
0.0
 71
     0
 42
200.0
  3
txt
  4

  0
STYLE
  2
TEAM
 70
     0
 40
0.0
 41
0.8
 50
15.0
 71
     0
 42
7.0
  3
ROMANS.shx
  4

  0
ENDTAB
  0
TABLE
  2
VIEW
 70
     0
  0
ENDTAB
  0
TABLE
  2
UCS
 70
     0
  0
ENDTAB
  0
TABLE
  2
APPID
 70
     1
  0
APPID
  2
ACAD
 70
     0
  0
ENDTAB
  0
TABLE
  2
DIMSTYLE
 70
     1
  0
DIMSTYLE
  2
TEAM
 70
     0
  3

  4

  5

  6

  7

 40
1.0
 41
20.0
 42
10.0
 43
1.0
 44
1.0
 45
0.0
 46
0.0
 47
0.0
 48
0.0
140
35.0
141
1.0
142
0.0
143
25.4
144
1.0
145
0.0
146
1.0
147
7.0
 71
     0
 72
     0
 73
     0
 74
     0
 75
     0
 76
     0
 77
     0
 78
     0
170
     0
171
     2
172
     0
173
     0
174
     0
175
     0
176
     9
177
     9
178
    11
  0
ENDTAB
  0
ENDSEC
  0
SECTION
  2
BLOCKS
  0
BLOCK
  8
0
  2
$MODEL_SPACE
 70
     0
 10
0.0
 20
0.0
 30
0.0
  3
$MODEL_SPACE
  1

  0
ENDBLK
  5
BB0
  8
0
  0
BLOCK
 67
     1
  8
0
  2
$PAPER_SPACE
 70
     0
 10
0.0
 20
0.0
 30
0.0
  3
$PAPER_SPACE
  1

  0
ENDBLK
  5
BAE
 67
     1
  8
0
  0
ENDSEC
  0
SECTION
  2
ENTITIES
  0
CIRCLE
  5
20
  8
TEAM-INSP
 10
0.0
 20
0.0
 30
0.0
 40
10.0
  0
POLYLINE
  5
22
  8
TEAM-NET
 66
     1
 10
0.0
 20
0.0
 30
0.0
 70
    16
 71
    37
 72
    37
  0
VERTEX
  5
23
  8
TEAM-NET
 10
0.0
 20
-450.0
 30
850.0
 70
    64
  0
VERTEX
  5
24
  8
TEAM-NET
 10
19.610042
 20
-449.143807
 30
850.0
 70
    64
  0
VERTEX
  5
25
  8
TEAM-NET
 10
39.07084
 20
-446.581744
 30
850.0
 70
    64
  0
VERTEX
  5
26
  8
TEAM-NET
 10
58.234285
 20
-442.333311
 30
850.0
 70
    64
  0
VERTEX
  5
27
  8
TEAM-NET
 10
76.954532
 20
-436.43084
 30
850.0
 70
    64
  0
VERTEX
  5
28
  8
TEAM-NET
 10
95.089109
 20
-428.919252
 30
850.0
 70
    64
  0
VERTEX
  5
29
  8
TEAM-NET
 10
112.5
 20
-419.855716
 30
850.0
 70
    64
  0
VERTEX
  5
2A
  8
TEAM-NET
 10
129.054698
 20
-409.30921
 30
850.0
 70
    64
  0
VERTEX
  5
2B
  8
TEAM-NET
 10
144.627212
 20
-397.36
 30
850.0
 70
    64
  0
VERTEX
  5
2C
  8
TEAM-NET
 10
159.099026
 20
-384.099026
 30
850.0
 70
    64
  0
VERTEX
  5
2D
  8
TEAM-NET
 10
172.36
 20
-369.627212
 30
850.0
 70
    64
  0
VERTEX
  5
2E
  8
TEAM-NET
 10
184.30921
 20
-354.054698
 30
850.0
 70
    64
  0
VERTEX
  5
2F
  8
TEAM-NET
 10
194.855716
 20
-337.5
 30
850.0
 70
    64
  0
VERTEX
  5
30
  8
TEAM-NET
 10
203.919252
 20
-320.089109
 30
850.0
 70
    64
  0
VERTEX
  5
31
  8
TEAM-NET
 10
211.43084
 20
-301.954532
 30
850.0
 70
    64
  0
VERTEX
  5
32
  8
TEAM-NET
 10
217.333311
 20
-283.234285
 30
850.0
 70
    64
  0
VERTEX
  5
33
  8
TEAM-NET
 10
221.581744
 20
-264.07084
 30
850.0
 70
    64
  0
VERTEX
  5
34
  8
TEAM-NET
 10
224.143807
 20
-244.610042
 30
850.0
 70
    64
  0
VERTEX
  5
35
  8
TEAM-NET
 10
225.0
 20
-225.0
 30
850.0
 70
    64
  0
VERTEX
  5
36
  8
TEAM-NET
 10
224.143807
 20
-205.389958
 30
850.0
 70
    64
  0
VERTEX
  5
37
  8
TEAM-NET
 10
221.581744
 20
-185.92916
 30
850.0
 70
    64
  0
VERTEX
  5
38
  8
TEAM-NET
 10
217.333311
 20
-166.765715
 30
850.0
 70
    64
  0
VERTEX
  5
39
  8
TEAM-NET
 10
211.43084
 20
-148.045468
 30
850.0
 70
    64
  0
VERTEX
  5
3A
  8
TEAM-NET
 10
203.919252
 20
-129.910891
 30
850.0
 70
    64
  0
VERTEX
  5
3B
  8
TEAM-NET
 10
194.855716
 20
-112.5
 30
850.0
 70
    64
  0
VERTEX
  5
3C
  8
TEAM-NET
 10
184.30921
 20
-95.945302
 30
850.0
 70
    64
  0
VERTEX
  5
3D
  8
TEAM-NET
 10
172.36
 20
-80.372788
 30
850.0
 70
    64
  0
VERTEX
  5
3E
  8
TEAM-NET
 10
159.099026
 20
-65.900974
 30
850.0
 70
    64
  0
VERTEX
  5
3F
  8
TEAM-NET
 10
144.627212
 20
-52.64
 30
850.0
 70
    64
  0
VERTEX
  5
40
  8
TEAM-NET
 10
129.054698
 20
-40.69079
 30
850.0
 70
    64
  0
VERTEX
  5
41
  8
TEAM-NET
 10
112.5
 20
-30.144284
 30
850.0
 70
    64
  0
VERTEX
  5
42
  8
TEAM-NET
 10
95.089109
 20
-21.080748
 30
850.0
 70
    64
  0
VERTEX
  5
43
  8
TEAM-NET
 10
76.954532
 20
-13.56916
 30
850.0
 70
    64
  0
VERTEX
  5
44
  8
TEAM-NET
 10
58.234285
 20
-7.666689
 30
850.0
 70
    64
  0
VERTEX
  5
45
  8
TEAM-NET
 10
39.07084
 20
-3.418256
 30
850.0
 70
    64
  0
VERTEX
  5
46
  8
TEAM-NET
 10
19.610042
 20
-0.856193
 30
850.0
 70
    64
  0
VERTEX
  5
47
  8
TEAM-NET
 10
0.0
 20
0.0
 30
850.0
 70
    64
  0
VERTEX
  5
48
  8
TEAM-NET
 10
0.0
 20
-450.0
 30
850.0
 70
    64
  0
VERTEX
  5
49
  8
TEAM-NET
 10
19.53542
 20
-449.143807
 30
848.290872
 70
    64
  0
VERTEX
  5
4A
  8
TEAM-NET
 10
38.922164
 20
-446.581744
 30
846.594752
 70
    64
  0
VERTEX
  5
4B
  8
TEAM-NET
 10
58.012686
 20
-442.333311
 30
844.924548
 70
    64
  0
VERTEX
  5
4C
  8
TEAM-NET
 10
76.661697
 20
-436.43084
 30
843.292971
 70
    64
  0
VERTEX
  5
4D
  8
TEAM-NET
 10
94.727266
 20
-428.919252
 30
841.712438
 70
    64
  0
VERTEX
  5
4E
  8
TEAM-NET
 10
112.071904
 20
-419.855716
 30
840.194979
 70
    64
  0
VERTEX
  5
4F
  8
TEAM-NET
 10
128.563606
 20
-409.30921
 30
838.752142
 70
    64
  0
VERTEX
  5
50
  8
TEAM-NET
 10
144.076862
 20
-397.36
 30
837.394908
 70
    64
  0
VERTEX
  5
51
  8
TEAM-NET
 10
158.493606
 20
-384.099026
 30
836.133606
 70
    64
  0
VERTEX
  5
52
  8
TEAM-NET
 10
171.704118
 20
-369.627212
 30
834.977836
 70
    64
  0
VERTEX
  5
53
  8
TEAM-NET
 10
183.607858
 20
-354.054698
 30
833.936394
 70
    64
  0
VERTEX
  5
54
  8
TEAM-NET
 10
194.114231
 20
-337.5
 30
833.017205
 70
    64
  0
VERTEX
  5
55
  8
TEAM-NET
 10
203.143278
 20
-320.089109
 30
832.227266
 70
    64
  0
VERTEX
  5
56
  8
TEAM-NET
 10
210.626281
 20
-301.954532
 30
831.572588
 70
    64
  0
VERTEX
  5
57
  8
TEAM-NET
 10
216.506292
 20
-283.234285
 30
831.058154
 70
    64
  0
VERTEX
  5
58
  8
TEAM-NET
 10
220.738559
 20
-264.07084
 30
830.687878
 70
    64
  0
VERTEX
  5
59
  8
TEAM-NET
 10
223.290872
 20
-244.610042
 30
830.46458
 70
    64
  0
VERTEX
  5
5A
  8
TEAM-NET
 10
224.143807
 20
-225.0
 30
830.389958
 70
    64
  0
VERTEX
  5
5B
  8
TEAM-NET
 10
223.290872
 20
-205.389958
 30
830.46458
 70
    64
  0
VERTEX
  5
5C
  8
TEAM-NET
 10
220.738559
 20
-185.92916
 30
830.687878
 70
    64
  0
VERTEX
  5
5D
  8
TEAM-NET
 10
216.506292
 20
-166.765715
 30
831.058154
 70
    64
  0
VERTEX
  5
5E
  8
TEAM-NET
 10
210.626281
 20
-148.045468
 30
831.572588
 70
    64
  0
VERTEX
  5
5F
  8
TEAM-NET
 10
203.143278
 20
-129.910891
 30
832.227266
 70
    64
  0
VERTEX
  5
60
  8
TEAM-NET
 10
194.114231
 20
-112.5
 30
833.017205
 70
    64
  0
VERTEX
  5
61
  8
TEAM-NET
 10
183.607858
 20
-95.945302
 30
833.936394
 70
    64
  0
VERTEX
  5
62
  8
TEAM-NET
 10
171.704118
 20
-80.372788
 30
834.977836
 70
    64
  0
VERTEX
  5
63
  8
TEAM-NET
 10
158.493606
 20
-65.900974
 30
836.133606
 70
    64
  0
VERTEX
  5
64
  8
TEAM-NET
 10
144.076862
 20
-52.64
 30
837.394908
 70
    64
  0
VERTEX
  5
65
  8
TEAM-NET
 10
128.563606
 20
-40.69079
 30
838.752142
 70
    64
  0
VERTEX
  5
66
  8
TEAM-NET
 10
112.071904
 20
-30.144284
 30
840.194979
 70
    64
  0
VERTEX
  5
67
  8
TEAM-NET
 10
94.727266
 20
-21.080748
 30
841.712438
 70
    64
  0
VERTEX
  5
68
  8
TEAM-NET
 10
76.661697
 20
-13.56916
 30
843.292971
 70
    64
  0
VERTEX
  5
69
  8
TEAM-NET
 10
58.012686
 20
-7.666689
 30
844.924548
 70
    64
  0
VERTEX
  5
6A
  8
TEAM-NET
 10
38.922164
 20
-3.418256
 30
846.594752
 70
    64
  0
VERTEX
  5
6B
  8
TEAM-NET
 10
19.53542
 20
-0.856193
 30
848.290872
 70
    64
  0
VERTEX
  5
6C
  8
TEAM-NET
 10
0.0
 20
0.0
 30
850.0
 70
    64
  0
VERTEX
  5
6D
  8
TEAM-NET
 10
0.0
 20
-450.0
 30
850.0
 70
    64
  0
VERTEX
  5
6E
  8
TEAM-NET
 10
19.312122
 20
-449.143807
 30
846.594752
 70
    64
  0
VERTEX
  5
6F
  8
TEAM-NET
 10
38.477266
 20
-446.581744
 30
843.21542
 70
    64
  0
VERTEX
  5
70
  8
TEAM-NET
 10
57.349576
 20
-442.333311
 30
839.887723
 70
    64
  0
VERTEX
  5
71
  8
TEAM-NET
 10
75.78542
 20
-436.43084
 30
836.636986
 70
    64
  0
VERTEX
  5
72
  8
TEAM-NET
 10
93.644492
 20
-428.919252
 30
833.48795
 70
    64
  0
VERTEX
  5
73
  8
TEAM-NET
 10
110.790872
 20
-419.855716
 30
830.46458
 70
    64
  0
VERTEX
  5
74
  8
TEAM-NET
 10
127.094067
 20
-409.30921
 30
827.589887
 70
    64
  0
VERTEX
  5
75
  8
TEAM-NET
 10
142.43
 20
-397.36
 30
824.885748
 70
    64
  0
VERTEX
  5
76
  8
TEAM-NET
 10
156.681954
 20
-384.099026
 30
822.372744
 70
    64
  0
VERTEX
  5
77
  8
TEAM-NET
 10
169.741464
 20
-369.627212
 30
820.07
 70
    64
  0
VERTEX
  5
78
  8
TEAM-NET
 10
181.509139
 20
-354.054698
 30
817.995042
 70
    64
  0
VERTEX
  5
79
  8
TEAM-NET
 10
191.89542
 20
-337.5
 30
816.16366
 70
    64
  0
VERTEX
  5
7A
  8
TEAM-NET
 10
200.82126
 20
-320.089109
 30
814.589793
 70
    64
  0
VERTEX
  5
7B
  8
TEAM-NET
 10
208.21873
 20
-301.954532
 30
813.28542
 70
    64
  0
VERTEX
  5
7C
  8
TEAM-NET
 10
214.03153
 20
-283.234285
 30
812.260467
 70
    64
  0
VERTEX
  5
7D
  8
TEAM-NET
 10
218.21542
 20
-264.07084
 30
811.522734
 70
    64
  0
VERTEX
  5
7E
  8
TEAM-NET
 10
220.738559
 20
-244.610042
 30
811.077836
 70
    64
  0
VERTEX
  5
7F
  8
TEAM-NET
 10
221.581744
 20
-225.0
 30
810.92916
 70
    64
  0
VERTEX
  5
80
  8
TEAM-NET
 10
220.738559
 20
-205.389958
 30
811.077836
 70
    64
  0
VERTEX
  5
81
  8
TEAM-NET
 10
218.21542
 20
-185.92916
 30
811.522734
 70
    64
  0
VERTEX
  5
82
  8
TEAM-NET
 10
214.03153
 20
-166.765715
 30
812.260467
 70
    64
  0
VERTEX
  5
83
  8
TEAM-NET
 10
208.21873
 20
-148.045468
 30
813.28542
 70
    64
  0
VERTEX
  5
84
  8
TEAM-NET
 10
200.82126
 20
-129.910891
 30
814.589793
 70
    64
  0
VERTEX
  5
85
  8
TEAM-NET
 10
191.89542
 20
-112.5
 30
816.16366
 70
    64
  0
VERTEX
  5
86
  8
TEAM-NET
 10
181.509139
 20
-95.945302
 30
817.995042
 70
    64
  0
VERTEX
  5
87
  8
TEAM-NET
 10
169.741464
 20
-80.372788
 30
820.07
 70
    64
  0
VERTEX
  5
88
  8
TEAM-NET
 10
156.681954
 20
-65.900974
 30
822.372744
 70
    64
  0
VERTEX
  5
89
  8
TEAM-NET
 10
142.43
 20
-52.64
 30
824.885748
 70
    64
  0
VERTEX
  5
8A
  8
TEAM-NET
 10
127.094067
 20
-40.69079
 30
827.589887
 70
    64
  0
VERTEX
  5
8B
  8
TEAM-NET
 10
110.790872
 20
-30.144284
 30
830.46458
 70
    64
  0
VERTEX
  5
8C
  8
TEAM-NET
 10
93.644492
 20
-21.080748
 30
833.48795
 70
    64
  0
VERTEX
  5
8D
  8
TEAM-NET
 10
75.78542
 20
-13.56916
 30
836.636986
 70
    64
  0
VERTEX
  5
8E
  8
TEAM-NET
 10
57.349576
 20
-7.666689
 30
839.887723
 70
    64
  0
VERTEX
  5
8F
  8
TEAM-NET
 10
38.477266
 20
-3.418256
 30
843.21542
 70
    64
  0
VERTEX
  5
90
  8
TEAM-NET
 10
19.312122
 20
-0.856193
 30
846.594752
 70
    64
  0
VERTEX
  5
91
  8
TEAM-NET
 10
0.0
 20
0.0
 30
850.0
 70
    64
  0
VERTEX
  5
92
  8
TEAM-NET
 10
0.0
 20
-450.0
 30
850.0
 70
    64
  0
VERTEX
  5
93
  8
TEAM-NET
 10
18.941846
 20
-449.143807
 30
844.924548
 70
    64
  0
VERTEX
  5
94
  8
TEAM-NET
 10
37.739533
 20
-446.581744
 30
839.887723
 70
    64
  0
VERTEX
  5
95
  8
TEAM-NET
 10
56.25
 20
-442.333311
 30
834.927858
 70
    64
  0
VERTEX
  5
96
  8
TEAM-NET
 10
74.33237
 20
-436.43084
 30
830.082701
 70
    64
  0
VERTEX
  5
97
  8
TEAM-NET
 10
91.849026
 20
-428.919252
 30
825.389128
 70
    64
  0
VERTEX
  5
98
  8
TEAM-NET
 10
108.666655
 20
-419.855716
 30
820.882857
 70
    64
  0
VERTEX
  5
99
  8
TEAM-NET
 10
124.657266
 20
-409.30921
 30
816.598186
 70
    64
  0
VERTEX
  5
9A
  8
TEAM-NET
 10
139.699159
 20
-397.36
 30
812.567723
 70
    64
  0
VERTEX
  5
9B
  8
TEAM-NET
 10
153.677858
 20
-384.099026
 30
808.822142
 70
    64
  0
VERTEX
  5
9C
  8
TEAM-NET
 10
166.486975
 20
-369.627212
 30
805.389949
 70
    64
  0
VERTEX
  5
9D
  8
TEAM-NET
 10
178.029026
 20
-354.054698
 30
802.297266
 70
    64
  0
VERTEX
  5
9E
  8
TEAM-NET
 10
188.216168
 20
-337.5
 30
799.56763
 70
    64
  0
VERTEX
  5
9F
  8
TEAM-NET
 10
196.970872
 20
-320.089109
 30
797.221814
 70
    64
  0
VERTEX
  5
A0
  8
TEAM-NET
 10
204.226509
 20
-301.954532
 30
795.277672
 70
    64
  0
VERTEX
  5
A1
  8
TEAM-NET
 10
209.927858
 20
-283.234285
 30
793.75
 70
    64
  0
VERTEX
  5
A2
  8
TEAM-NET
 10
214.03153
 20
-264.07084
 30
792.650424
 70
    64
  0
VERTEX
  5
A3
  8
TEAM-NET
 10
216.506292
 20
-244.610042
 30
791.987314
 70
    64
  0
VERTEX
  5
A4
  8
TEAM-NET
 10
217.333311
 20
-225.0
 30
791.765715
 70
    64
  0
VERTEX
  5
A5
  8
TEAM-NET
 10
216.506292
 20
-205.389958
 30
791.987314
 70
    64
  0
VERTEX
  5
A6
  8
TEAM-NET
 10
214.03153
 20
-185.92916
 30
792.650424
 70
    64
  0
VERTEX
  5
A7
  8
TEAM-NET
 10
209.927858
 20
-166.765715
 30
793.75
 70
    64
  0
VERTEX
  5
A8
  8
TEAM-NET
 10
204.226509
 20
-148.045468
 30
795.277672
 70
    64
  0
VERTEX
  5
A9
  8
TEAM-NET
 10
196.970872
 20
-129.910891
 30
797.221814
 70
    64
  0
VERTEX
  5
AA
  8
TEAM-NET
 10
188.216168
 20
-112.5
 30
799.56763
 70
    64
  0
VERTEX
  5
AB
  8
TEAM-NET
 10
178.029026
 20
-95.945302
 30
802.297266
 70
    64
  0
VERTEX
  5
AC
  8
TEAM-NET
 10
166.486975
 20
-80.372788
 30
805.389949
 70
    64
  0
VERTEX
  5
AD
  8
TEAM-NET
 10
153.677858
 20
-65.900974
 30
808.822142
 70
    64
  0
VERTEX
  5
AE
  8
TEAM-NET
 10
139.699159
 20
-52.64
 30
812.567723
 70
    64
  0
VERTEX
  5
AF
  8
TEAM-NET
 10
124.657266
 20
-40.69079
 30
816.598186
 70
    64
  0
VERTEX
  5
B0
  8
TEAM-NET
 10
108.666655
 20
-30.144284
 30
820.882857
 70
    64
  0
VERTEX
  5
B1
  8
TEAM-NET
 10
91.849026
 20
-21.080748
 30
825.389128
 70
    64
  0
VERTEX
  5
B2
  8
TEAM-NET
 10
74.33237
 20
-13.56916
 30
830.082701
 70
    64
  0
VERTEX
  5
B3
  8
TEAM-NET
 10
56.25
 20
-7.666689
 30
834.927858
 70
    64
  0
VERTEX
  5
B4
  8
TEAM-NET
 10
37.739533
 20
-3.418256
 30
839.887723
 70
    64
  0
VERTEX
  5
B5
  8
TEAM-NET
 10
18.941846
 20
-0.856193
 30
844.924548
 70
    64
  0
VERTEX
  5
B6
  8
TEAM-NET
 10
0.0
 20
0.0
 30
850.0
 70
    64
  0
VERTEX
  5
B7
  8
TEAM-NET
 10
0.0
 20
-450.0
 30
850.0
 70
    64
  0
VERTEX
  5
B8
  8
TEAM-NET
 10
18.427412
 20
-449.143807
 30
843.292971
 70
    64
  0
VERTEX
  5
B9
  8
TEAM-NET
 10
36.71458
 20
-446.581744
 30
836.636986
 70
    64
  0
VERTEX
  5
BA
  8
TEAM-NET
 10
54.722328
 20
-442.333311
 30
830.082701
 70
    64
  0
VERTEX
  5
BB
  8
TEAM-NET
 10
72.313606
 20
-436.43084
 30
823.68
 70
    64
  0
VERTEX
  5
BC
  8
TEAM-NET
 10
89.354534
 20
-428.919252
 30
817.477609
 70
    64
  0
VERTEX
  5
BD
  8
TEAM-NET
 10
105.71542
 20
-419.855716
 30
811.522734
 70
    64
  0
VERTEX
  5
BE
  8
TEAM-NET
 10
121.271748
 20
-409.30921
 30
805.860694
 70
    64
  0
VERTEX
  5
BF
  8
TEAM-NET
 10
135.905124
 20
-397.36
 30
800.53458
 70
    64
  0
VERTEX
  5
C0
  8
TEAM-NET
 10
149.50418
 20
-384.099026
 30
795.584928
 70
    64
  0
VERTEX
  5
C1
  8
TEAM-NET
 10
161.96542
 20
-369.627212
 30
791.049408
 70
    64
  0
VERTEX
  5
C2
  8
TEAM-NET
 10
173.194005
 20
-354.054698
 30
786.962538
 70
    64
  0
VERTEX
  5
C3
  8
TEAM-NET
 10
183.104478
 20
-337.5
 30
783.35542
 70
    64
  0
VERTEX
  5
C4
  8
TEAM-NET
 10
191.621416
 20
-320.089109
 30
780.255508
 70
    64
  0
VERTEX
  5
C5
  8
TEAM-NET
 10
198.68
 20
-301.954532
 30
777.686394
 70
    64
  0
VERTEX
  5
C6
  8
TEAM-NET
 10
204.226509
 20
-283.234285
 30
775.66763
 70
    64
  0
VERTEX
  5
C7
  8
TEAM-NET
 10
208.21873
 20
-264.07084
 30
774.21458
 70
    64
  0
VERTEX
  5
C8
  8
TEAM-NET
 10
210.626281
 20
-244.610042
 30
773.338303
 70
    64
  0
VERTEX
  5
C9
  8
TEAM-NET
 10
211.43084
 20
-225.0
 30
773.045468
 70
    64
  0
VERTEX
  5
CA
  8
TEAM-NET
 10
210.626281
 20
-205.389958
 30
773.338303
 70
    64
  0
VERTEX
  5
CB
  8
TEAM-NET
 10
208.21873
 20
-185.92916
 30
774.21458
 70
    64
  0
VERTEX
  5
CC
  8
TEAM-NET
 10
204.226509
 20
-166.765715
 30
775.66763
 70
    64
  0
VERTEX
  5
CD
  8
TEAM-NET
 10
198.68
 20
-148.045468
 30
777.686394
 70
    64
  0
VERTEX
  5
CE
  8
TEAM-NET
 10
191.621416
 20
-129.910891
 30
780.255508
 70
    64
  0
VERTEX
  5
CF
  8
TEAM-NET
 10
183.104478
 20
-112.5
 30
783.35542
 70
    64
  0
VERTEX
  5
D0
  8
TEAM-NET
 10
173.194005
 20
-95.945302
 30
786.962538
 70
    64
  0
VERTEX
  5
D1
  8
TEAM-NET
 10
161.96542
 20
-80.372788
 30
791.049408
 70
    64
  0
VERTEX
  5
D2
  8
TEAM-NET
 10
149.50418
 20
-65.900974
 30
795.584928
 70
    64
  0
VERTEX
  5
D3
  8
TEAM-NET
 10
135.905124
 20
-52.64
 30
800.53458
 70
    64
  0
VERTEX
  5
D4
  8
TEAM-NET
 10
121.271748
 20
-40.69079
 30
805.860694
 70
    64
  0
VERTEX
  5
D5
  8
TEAM-NET
 10
105.71542
 20
-30.144284
 30
811.522734
 70
    64
  0
VERTEX
  5
D6
  8
TEAM-NET
 10
89.354534
 20
-21.080748
 30
817.477609
 70
    64
  0
VERTEX
  5
D7
  8
TEAM-NET
 10
72.313606
 20
-13.56916
 30
823.68
 70
    64
  0
VERTEX
  5
D8
  8
TEAM-NET
 10
54.722328
 20
-7.666689
 30
830.082701
 70
    64
  0
VERTEX
  5
D9
  8
TEAM-NET
 10
36.71458
 20
-3.418256
 30
836.636986
 70
    64
  0
VERTEX
  5
DA
  8
TEAM-NET
 10
18.427412
 20
-0.856193
 30
843.292971
 70
    64
  0
VERTEX
  5
DB
  8
TEAM-NET
 10
0.0
 20
0.0
 30
850.0
 70
    64
  0
VERTEX
  5
DC
  8
TEAM-NET
 10
0.0
 20
-450.0
 30
850.0
 70
    64
  0
VERTEX
  5
DD
  8
TEAM-NET
 10
17.772734
 20
-449.143807
 30
841.712438
 70
    64
  0
VERTEX
  5
DE
  8
TEAM-NET
 10
35.410207
 20
-446.581744
 30
833.48795
 70
    64
  0
VERTEX
  5
DF
  8
TEAM-NET
 10
52.778186
 20
-442.333311
 30
825.389128
 70
    64
  0
VERTEX
  5
E0
  8
TEAM-NET
 10
69.744492
 20
-436.43084
 30
817.477609
 70
    64
  0
VERTEX
  5
E1
  8
TEAM-NET
 10
86.18
 20
-428.919252
 30
809.813606
 70
    64
  0
VERTEX
  5
E2
  8
TEAM-NET
 10
101.959626
 20
-419.855716
 30
802.455446
 70
    64
  0
VERTEX
  5
E3
  8
TEAM-NET
 10
116.963278
 20
-409.30921
 30
795.459128
 70
    64
  0
VERTEX
  5
E4
  8
TEAM-NET
 10
131.076769
 20
-397.36
 30
788.877899
 70
    64
  0
VERTEX
  5
E5
  8
TEAM-NET
 10
144.192686
 20
-384.099026
 30
782.761846
 70
    64
  0
VERTEX
  5
E6
  8
TEAM-NET
 10
156.21121
 20
-369.627212
 30
777.157517
 70
    64
  0
VERTEX
  5
E7
  8
TEAM-NET
 10
167.040872
 20
-354.054698
 30
772.107562
 70
    64
  0
VERTEX
  5
E8
  8
TEAM-NET
 10
176.599253
 20
-337.5
 30
767.650416
 70
    64
  0
VERTEX
  5
E9
  8
TEAM-NET
 10
184.813606
 20
-320.089109
 30
763.82
 70
    64
  0
VERTEX
  5
EA
  8
TEAM-NET
 10
191.621416
 20
-301.954532
 30
760.645466
 70
    64
  0
VERTEX
  5
EB
  8
TEAM-NET
 10
196.970872
 20
-283.234285
 30
758.150974
 70
    64
  0
VERTEX
  5
EC
  8
TEAM-NET
 10
200.82126
 20
-264.07084
 30
756.355508
 70
    64
  0
VERTEX
  5
ED
  8
TEAM-NET
 10
203.143278
 20
-244.610042
 30
755.272734
 70
    64
  0
VERTEX
  5
EE
  8
TEAM-NET
 10
203.919252
 20
-225.0
 30
754.910891
 70
    64
  0
VERTEX
  5
EF
  8
TEAM-NET
 10
203.143278
 20
-205.389958
 30
755.272734
 70
    64
  0
VERTEX
  5
F0
  8
TEAM-NET
 10
200.82126
 20
-185.92916
 30
756.355508
 70
    64
  0
VERTEX
  5
F1
  8
TEAM-NET
 10
196.970872
 20
-166.765715
 30
758.150974
 70
    64
  0
VERTEX
  5
F2
  8
TEAM-NET
 10
191.621416
 20
-148.045468
 30
760.645466
 70
    64
  0
VERTEX
  5
F3
  8
TEAM-NET
 10
184.813606
 20
-129.910891
 30
763.82
 70
    64
  0
VERTEX
  5
F4
  8
TEAM-NET
 10
176.599253
 20
-112.5
 30
767.650416
 70
    64
  0
VERTEX
  5
F5
  8
TEAM-NET
 10
167.040872
 20
-95.945302
 30
772.107562
 70
    64
  0
VERTEX
  5
F6
  8
TEAM-NET
 10
156.21121
 20
-80.372788
 30
777.157517
 70
    64
  0
VERTEX
  5
F7
  8
TEAM-NET
 10
144.192686
 20
-65.900974
 30
782.761846
 70
    64
  0
VERTEX
  5
F8
  8
TEAM-NET
 10
131.076769
 20
-52.64
 30
788.877899
 70
    64
  0
VERTEX
  5
F9
  8
TEAM-NET
 10
116.963278
 20
-40.69079
 30
795.459128
 70
    64
  0
VERTEX
  5
FA
  8
TEAM-NET
 10
101.959626
 20
-30.144284
 30
802.455446
 70
    64
  0
VERTEX
  5
FB
  8
TEAM-NET
 10
86.18
 20
-21.080748
 30
809.813606
 70
    64
  0
VERTEX
  5
FC
  8
TEAM-NET
 10
69.744492
 20
-13.56916
 30
817.477609
 70
    64
  0
VERTEX
  5
FD
  8
TEAM-NET
 10
52.778186
 20
-7.666689
 30
825.389128
 70
    64
  0
VERTEX
  5
FE
  8
TEAM-NET
 10
35.410207
 20
-3.418256
 30
833.48795
 70
    64
  0
VERTEX
  5
FF
  8
TEAM-NET
 10
17.772734
 20
-0.856193
 30
841.712438
 70
    64
  0
VERTEX
  5
100
  8
TEAM-NET
 10
0.0
 20
0.0
 30
850.0
 70
    64
  0
VERTEX
  5
101
  8
TEAM-NET
 10
0.0
 20
-450.0
 30
850.0
 70
    64
  0
VERTEX
  5
102
  8
TEAM-NET
 10
16.982795
 20
-449.143807
 30
840.194979
 70
    64
  0
VERTEX
  5
103
  8
TEAM-NET
 10
33.83634
 20
-446.581744
 30
830.46458
 70
    64
  0
VERTEX
  5
104
  8
TEAM-NET
 10
50.43237
 20
-442.333311
 30
820.882857
 70
    64
  0
VERTEX
  5
105
  8
TEAM-NET
 10
66.64458
 20
-436.43084
 30
811.522734
 70
    64
  0
VERTEX
  5
106
  8
TEAM-NET
 10
82.349584
 20
-428.919252
 30
802.455446
 70
    64
  0
VERTEX
  5
107
  8
TEAM-NET
 10
97.427858
 20
-419.855716
 30
793.75
 70
    64
  0
VERTEX
  5
108
  8
TEAM-NET
 10
111.764647
 20
-409.30921
 30
785.472651
 70
    64
  0
VERTEX
  5
109
  8
TEAM-NET
 10
125.25084
 20
-397.36
 30
777.686394
 70
    64
  0
VERTEX
  5
10A
  8
TEAM-NET
 10
137.783798
 20
-384.099026
 30
770.450487
 70
    64
  0
VERTEX
  5
10B
  8
TEAM-NET
 10
149.268138
 20
-369.627212
 30
763.82
 70
    64
  0
VERTEX
  5
10C
  8
TEAM-NET
 10
159.616458
 20
-354.054698
 30
757.845395
 70
    64
  0
VERTEX
  5
10D
  8
TEAM-NET
 10
168.75
 20
-337.5
 30
752.572142
 70
    64
  0
VERTEX
  5
10E
  8
TEAM-NET
 10
176.599253
 20
-320.089109
 30
748.040374
 70
    64
  0
VERTEX
  5
10F
  8
TEAM-NET
 10
183.104478
 20
-301.954532
 30
744.28458
 70
    64
  0
VERTEX
  5
110
  8
TEAM-NET
 10
188.216168
 20
-283.234285
 30
741.333345
 70
    64
  0
VERTEX
  5
111
  8
TEAM-NET
 10
191.89542
 20
-264.07084
 30
739.209128
 70
    64
  0
VERTEX
  5
112
  8
TEAM-NET
 10
194.114231
 20
-244.610042
 30
737.928096
 70
    64
  0
VERTEX
  5
113
  8
TEAM-NET
 10
194.855716
 20
-225.0
 30
737.5
 70
    64
  0
VERTEX
  5
114
  8
TEAM-NET
 10
194.114231
 20
-205.389958
 30
737.928096
 70
    64
  0
VERTEX
  5
115
  8
TEAM-NET
 10
191.89542
 20
-185.92916
 30
739.209128
 70
    64
  0
VERTEX
  5
116
  8
TEAM-NET
 10
188.216168
 20
-166.765715
 30
741.333345
 70
    64
  0
VERTEX
  5
117
  8
TEAM-NET
 10
183.104478
 20
-148.045468
 30
744.28458
 70
    64
  0
VERTEX
  5
118
  8
TEAM-NET
 10
176.599253
 20
-129.910891
 30
748.040374
 70
    64
  0
VERTEX
  5
119
  8
TEAM-NET
 10
168.75
 20
-112.5
 30
752.572142
 70
    64
  0
VERTEX
  5
11A
  8
TEAM-NET
 10
159.616458
 20
-95.945302
 30
757.845395
 70
    64
  0
VERTEX
  5
11B
  8
TEAM-NET
 10
149.268138
 20
-80.372788
 30
763.82
 70
    64
  0
VERTEX
  5
11C
  8
TEAM-NET
 10
137.783798
 20
-65.900974
 30
770.450487
 70
    64
  0
VERTEX
  5
11D
  8
TEAM-NET
 10
125.25084
 20
-52.64
 30
777.686394
 70
    64
  0
VERTEX
  5
11E
  8
TEAM-NET
 10
111.764647
 20
-40.69079
 30
785.472651
 70
    64
  0
VERTEX
  5
11F
  8
TEAM-NET
 10
97.427858
 20
-30.144284
 30
793.75
 70
    64
  0
VERTEX
  5
120
  8
TEAM-NET
 10
82.349584
 20
-21.080748
 30
802.455446
 70
    64
  0
VERTEX
  5
121
  8
TEAM-NET
 10
66.64458
 20
-13.56916
 30
811.522734
 70
    64
  0
VERTEX
  5
122
  8
TEAM-NET
 10
50.43237
 20
-7.666689
 30
820.882857
 70
    64
  0
VERTEX
  5
123
  8
TEAM-NET
 10
33.83634
 20
-3.418256
 30
830.46458
 70
    64
  0
VERTEX
  5
124
  8
TEAM-NET
 10
16.982795
 20
-0.856193
 30
840.194979
 70
    64
  0
VERTEX
  5
125
  8
TEAM-NET
 10
0.0
 20
0.0
 30
850.0
 70
    64
  0
VERTEX
  5
126
  8
TEAM-NET
 10
0.0
 20
-450.0
 30
850.0
 70
    64
  0
VERTEX
  5
127
  8
TEAM-NET
 10
16.063606
 20
-449.143807
 30
838.752142
 70
    64
  0
VERTEX
  5
128
  8
TEAM-NET
 10
32.004958
 20
-446.581744
 30
827.589887
 70
    64
  0
VERTEX
  5
129
  8
TEAM-NET
 10
47.702734
 20
-442.333311
 30
816.598186
 70
    64
  0
VERTEX
  5
12A
  8
TEAM-NET
 10
63.037462
 20
-436.43084
 30
805.860694
 70
    64
  0
VERTEX
  5
12B
  8
TEAM-NET
 10
77.892438
 20
-428.919252
 30
795.459128
 70
    64
  0
VERTEX
  5
12C
  8
TEAM-NET
 10
92.154605
 20
-419.855716
 30
785.472651
 70
    64
  0
VERTEX
  5
12D
  8
TEAM-NET
 10
105.71542
 20
-409.30921
 30
775.977266
 70
    64
  0
VERTEX
  5
12E
  8
TEAM-NET
 10
118.471677
 20
-397.36
 30
767.045239
 70
    64
  0
VERTEX
  5
12F
  8
TEAM-NET
 10
130.326292
 20
-384.099026
 30
758.744548
 70
    64
  0
VERTEX
  5
130
  8
TEAM-NET
 10
141.189046
 20
-369.627212
 30
751.138366
 70
    64
  0
VERTEX
  5
131
  8
TEAM-NET
 10
150.977266
 20
-354.054698
 30
744.28458
 70
    64
  0
VERTEX
  5
132
  8
TEAM-NET
 10
159.616458
 20
-337.5
 30
738.235353
 70
    64
  0
VERTEX
  5
133
  8
TEAM-NET
 10
167.040872
 20
-320.089109
 30
733.036722
 70
    64
  0
VERTEX
  5
134
  8
TEAM-NET
 10
173.194005
 20
-301.954532
 30
728.728252
 70
    64
  0
VERTEX
  5
135
  8
TEAM-NET
 10
178.029026
 20
-283.234285
 30
725.342734
 70
    64
  0
VERTEX
  5
136
  8
TEAM-NET
 10
181.509139
 20
-264.07084
 30
722.905933
 70
    64
  0
VERTEX
  5
137
  8
TEAM-NET
 10
183.607858
 20
-244.610042
 30
721.436394
 70
    64
  0
VERTEX
  5
138
  8
TEAM-NET
 10
184.30921
 20
-225.0
 30
720.945302
 70
    64
  0
VERTEX
  5
139
  8
TEAM-NET
 10
183.607858
 20
-205.389958
 30
721.436394
 70
    64
  0
VERTEX
  5
13A
  8
TEAM-NET
 10
181.509139
 20
-185.92916
 30
722.905933
 70
    64
  0
VERTEX
  5
13B
  8
TEAM-NET
 10
178.029026
 20
-166.765715
 30
725.342734
 70
    64
  0
VERTEX
  5
13C
  8
TEAM-NET
 10
173.194005
 20
-148.045468
 30
728.728252
 70
    64
  0
VERTEX
  5
13D
  8
TEAM-NET
 10
167.040872
 20
-129.910891
 30
733.036722
 70
    64
  0
VERTEX
  5
13E
  8
TEAM-NET
 10
159.616458
 20
-112.5
 30
738.235353
 70
    64
  0
VERTEX
  5
13F
  8
TEAM-NET
 10
150.977266
 20
-95.945302
 30
744.28458
 70
    64
  0
VERTEX
  5
140
  8
TEAM-NET
 10
141.189046
 20
-80.372788
 30
751.138366
 70
    64
  0
VERTEX
  5
141
  8
TEAM-NET
 10
130.326292
 20
-65.900974
 30
758.744548
 70
    64
  0
VERTEX
  5
142
  8
TEAM-NET
 10
118.471677
 20
-52.64
 30
767.045239
 70
    64
  0
VERTEX
  5
143
  8
TEAM-NET
 10
105.71542
 20
-40.69079
 30
775.977266
 70
    64
  0
VERTEX
  5
144
  8
TEAM-NET
 10
92.154605
 20
-30.144284
 30
785.472651
 70
    64
  0
VERTEX
  5
145
  8
TEAM-NET
 10
77.892438
 20
-21.080748
 30
795.459128
 70
    64
  0
VERTEX
  5
146
  8
TEAM-NET
 10
63.037462
 20
-13.56916
 30
805.860694
 70
    64
  0
VERTEX
  5
147
  8
TEAM-NET
 10
47.702734
 20
-7.666689
 30
816.598186
 70
    64
  0
VERTEX
  5
148
  8
TEAM-NET
 10
32.004958
 20
-3.418256
 30
827.589887
 70
    64
  0
VERTEX
  5
149
  8
TEAM-NET
 10
16.063606
 20
-0.856193
 30
838.752142
 70
    64
  0
VERTEX
  5
14A
  8
TEAM-NET
 10
0.0
 20
0.0
 30
850.0
 70
    64
  0
VERTEX
  5
14B
  8
TEAM-NET
 10
0.0
 20
-450.0
 30
850.0
 70
    64
  0
VERTEX
  5
14C
  8
TEAM-NET
 10
15.022164
 20
-449.143807
 30
837.394908
 70
    64
  0
VERTEX
  5
14D
  8
TEAM-NET
 10
29.93
 20
-446.581744
 30
824.885748
 70
    64
  0
VERTEX
  5
14E
  8
TEAM-NET
 10
44.610051
 20
-442.333311
 30
812.567723
 70
    64
  0
VERTEX
  5
14F
  8
TEAM-NET
 10
58.950592
 20
-436.43084
 30
800.53458
 70
    64
  0
VERTEX
  5
150
  8
TEAM-NET
 10
72.842483
 20
-428.919252
 30
788.877899
 70
    64
  0
VERTEX
  5
151
  8
TEAM-NET
 10
86.18
 20
-419.855716
 30
777.686394
 70
    64
  0
VERTEX
  5
152
  8
TEAM-NET
 10
98.861634
 20
-409.30921
 30
767.045239
 70
    64
  0
VERTEX
  5
153
  8
TEAM-NET
 10
110.790872
 20
-397.36
 30
757.03542
 70
    64
  0
VERTEX
  5
154
  8
TEAM-NET
 10
121.876925
 20
-384.099026
 30
747.733118
 70
    64
  0
VERTEX
  5
155
  8
TEAM-NET
 10
132.03542
 20
-369.627212
 30
739.209128
 70
    64
  0
VERTEX
  5
156
  8
TEAM-NET
 10
141.189046
 20
-354.054698
 30
731.528323
 70
    64
  0
VERTEX
  5
157
  8
TEAM-NET
 10
149.268138
 20
-337.5
 30
724.74916
 70
    64
  0
VERTEX
  5
158
  8
TEAM-NET
 10
156.21121
 20
-320.089109
 30
718.923231
 70
    64
  0
VERTEX
  5
159
  8
TEAM-NET
 10
161.96542
 20
-301.954532
 30
714.094876
 70
    64
  0
VERTEX
  5
15A
  8
TEAM-NET
 10
166.486975
 20
-283.234285
 30
710.300841
 70
    64
  0
VERTEX
  5
15B
  8
TEAM-NET
 10
169.741464
 20
-264.07084
 30
707.57
 70
    64
  0
VERTEX
  5
15C
  8
TEAM-NET
 10
171.704118
 20
-244.610042
 30
705.923138
 70
    64
  0
VERTEX
  5
15D
  8
TEAM-NET
 10
172.36
 20
-225.0
 30
705.372788
 70
    64
  0
VERTEX
  5
15E
  8
TEAM-NET
 10
171.704118
 20
-205.389958
 30
705.923138
 70
    64
  0
VERTEX
  5
15F
  8
TEAM-NET
 10
169.741464
 20
-185.92916
 30
707.57
 70
    64
  0
VERTEX
  5
160
  8
TEAM-NET
 10
166.486975
 20
-166.765715
 30
710.300841
 70
    64
  0
VERTEX
  5
161
  8
TEAM-NET
 10
161.96542
 20
-148.045468
 30
714.094876
 70
    64
  0
VERTEX
  5
162
  8
TEAM-NET
 10
156.21121
 20
-129.910891
 30
718.923231
 70
    64
  0
VERTEX
  5
163
  8
TEAM-NET
 10
149.268138
 20
-112.5
 30
724.74916
 70
    64
  0
VERTEX
  5
164
  8
TEAM-NET
 10
141.189046
 20
-95.945302
 30
731.528323
 70
    64
  0
VERTEX
  5
165
  8
TEAM-NET
 10
132.03542
 20
-80.372788
 30
739.209128
 70
    64
  0
VERTEX
  5
166
  8
TEAM-NET
 10
121.876925
 20
-65.900974
 30
747.733118
 70
    64
  0
VERTEX
  5
167
  8
TEAM-NET
 10
110.790872
 20
-52.64
 30
757.03542
 70
    64
  0
VERTEX
  5
168
  8
TEAM-NET
 10
98.861634
 20
-40.69079
 30
767.045239
 70
    64
  0
VERTEX
  5
169
  8
TEAM-NET
 10
86.18
 20
-30.144284
 30
777.686394
 70
    64
  0
VERTEX
  5
16A
  8
TEAM-NET
 10
72.842483
 20
-21.080748
 30
788.877899
 70
    64
  0
VERTEX
  5
16B
  8
TEAM-NET
 10
58.950592
 20
-13.56916
 30
800.53458
 70
    64
  0
VERTEX
  5
16C
  8
TEAM-NET
 10
44.610051
 20
-7.666689
 30
812.567723
 70
    64
  0
VERTEX
  5
16D
  8
TEAM-NET
 10
29.93
 20
-3.418256
 30
824.885748
 70
    64
  0
VERTEX
  5
16E
  8
TEAM-NET
 10
15.022164
 20
-0.856193
 30
837.394908
 70
    64
  0
VERTEX
  5
16F
  8
TEAM-NET
 10
0.0
 20
0.0
 30
850.0
 70
    64
  0
VERTEX
  5
170
  8
TEAM-NET
 10
0.0
 20
-450.0
 30
850.0
 70
    64
  0
VERTEX
  5
171
  8
TEAM-NET
 10
13.866394
 20
-449.143807
 30
836.133606
 70
    64
  0
VERTEX
  5
172
  8
TEAM-NET
 10
27.627256
 20
-446.581744
 30
822.372744
 70
    64
  0
VERTEX
  5
173
  8
TEAM-NET
 10
41.177858
 20
-442.333311
 30
808.822142
 70
    64
  0
VERTEX
  5
174
  8
TEAM-NET
 10
54.415072
 20
-436.43084
 30
795.584928
 70
    64
  0
VERTEX
  5
175
  8
TEAM-NET
 10
67.238154
 20
-428.919252
 30
782.761846
 70
    64
  0
VERTEX
  5
176
  8
TEAM-NET
 10
79.549513
 20
-419.855716
 30
770.450487
 70
    64
  0
VERTEX
  5
177
  8
TEAM-NET
 10
91.255452
 20
-409.30921
 30
758.744548
 70
    64
  0
VERTEX
  5
178
  8
TEAM-NET
 10
102.266882
 20
-397.36
 30
747.733118
 70
    64
  0
VERTEX
  5
179
  8
TEAM-NET
 10
112.5
 20
-384.099026
 30
737.5
 70
    64
  0
VERTEX
  5
17A
  8
TEAM-NET
 10
121.876925
 20
-369.627212
 30
728.123075
 70
    64
  0
VERTEX
  5
17B
  8
TEAM-NET
 10
130.326292
 20
-354.054698
 30
719.673708
 70
    64
  0
VERTEX
  5
17C
  8
TEAM-NET
 10
137.783798
 20
-337.5
 30
712.216202
 70
    64
  0
VERTEX
  5
17D
  8
TEAM-NET
 10
144.192686
 20
-320.089109
 30
705.807314
 70
    64
  0
VERTEX
  5
17E
  8
TEAM-NET
 10
149.50418
 20
-301.954532
 30
700.49582
 70
    64
  0
VERTEX
  5
17F
  8
TEAM-NET
 10
153.677858
 20
-283.234285
 30
696.322142
 70
    64
  0
VERTEX
  5
180
  8
TEAM-NET
 10
156.681954
 20
-264.07084
 30
693.318046
 70
    64
  0
VERTEX
  5
181
  8
TEAM-NET
 10
158.493606
 20
-244.610042
 30
691.506394
 70
    64
  0
VERTEX
  5
182
  8
TEAM-NET
 10
159.099026
 20
-225.0
 30
690.900974
 70
    64
  0
VERTEX
  5
183
  8
TEAM-NET
 10
158.493606
 20
-205.389958
 30
691.506394
 70
    64
  0
VERTEX
  5
184
  8
TEAM-NET
 10
156.681954
 20
-185.92916
 30
693.318046
 70
    64
  0
VERTEX
  5
185
  8
TEAM-NET
 10
153.677858
 20
-166.765715
 30
696.322142
 70
    64
  0
VERTEX
  5
186
  8
TEAM-NET
 10
149.50418
 20
-148.045468
 30
700.49582
 70
    64
  0
VERTEX
  5
187
  8
TEAM-NET
 10
144.192686
 20
-129.910891
 30
705.807314
 70
    64
  0
VERTEX
  5
188
  8
TEAM-NET
 10
137.783798
 20
-112.5
 30
712.216202
 70
    64
  0
VERTEX
  5
189
  8
TEAM-NET
 10
130.326292
 20
-95.945302
 30
719.673708
 70
    64
  0
VERTEX
  5
18A
  8
TEAM-NET
 10
121.876925
 20
-80.372788
 30
728.123075
 70
    64
  0
VERTEX
  5
18B
  8
TEAM-NET
 10
112.5
 20
-65.900974
 30
737.5
 70
    64
  0
VERTEX
  5
18C
  8
TEAM-NET
 10
102.266882
 20
-52.64
 30
747.733118
 70
    64
  0
VERTEX
  5
18D
  8
TEAM-NET
 10
91.255452
 20
-40.69079
 30
758.744548
 70
    64
  0
VERTEX
  5
18E
  8
TEAM-NET
 10
79.549513
 20
-30.144284
 30
770.450487
 70
    64
  0
VERTEX
  5
18F
  8
TEAM-NET
 10
67.238154
 20
-21.080748
 30
782.761846
 70
    64
  0
VERTEX
  5
190
  8
TEAM-NET
 10
54.415072
 20
-13.56916
 30
795.584928
 70
    64
  0
VERTEX
  5
191
  8
TEAM-NET
 10
41.177858
 20
-7.666689
 30
808.822142
 70
    64
  0
VERTEX
  5
192
  8
TEAM-NET
 10
27.627256
 20
-3.418256
 30
822.372744
 70
    64
  0
VERTEX
  5
193
  8
TEAM-NET
 10
13.866394
 20
-0.856193
 30
836.133606
 70
    64
  0
VERTEX
  5
194
  8
TEAM-NET
 10
0.0
 20
0.0
 30
850.0
 70
    64
  0
VERTEX
  5
195
  8
TEAM-NET
 10
0.0
 20
-450.0
 30
850.0
 70
    64
  0
VERTEX
  5
196
  8
TEAM-NET
 10
12.605092
 20
-449.143807
 30
834.977836
 70
    64
  0
VERTEX
  5
197
  8
TEAM-NET
 10
25.114252
 20
-446.581744
 30
820.07
 70
    64
  0
VERTEX
  5
198
  8
TEAM-NET
 10
37.432277
 20
-442.333311
 30
805.389949
 70
    64
  0
VERTEX
  5
199
  8
TEAM-NET
 10
49.46542
 20
-436.43084
 30
791.049408
 70
    64
  0
VERTEX
  5
19A
  8
TEAM-NET
 10
61.122101
 20
-428.919252
 30
777.157517
 70
    64
  0
VERTEX
  5
19B
  8
TEAM-NET
 10
72.313606
 20
-419.855716
 30
763.82
 70
    64
  0
VERTEX
  5
19C
  8
TEAM-NET
 10
82.954761
 20
-409.30921
 30
751.138366
 70
    64
  0
VERTEX
  5
19D
  8
TEAM-NET
 10
92.96458
 20
-397.36
 30
739.209128
 70
    64
  0
VERTEX
  5
19E
  8
TEAM-NET
 10
102.266882
 20
-384.099026
 30
728.123075
 70
    64
  0
VERTEX
  5
19F
  8
TEAM-NET
 10
110.790872
 20
-369.627212
 30
717.96458
 70
    64
  0
VERTEX
  5
1A0
  8
TEAM-NET
 10
118.471677
 20
-354.054698
 30
708.810954
 70
    64
  0
VERTEX
  5
1A1
  8
TEAM-NET
 10
125.25084
 20
-337.5
 30
700.731862
 70
    64
  0
VERTEX
  5
1A2
  8
TEAM-NET
 10
131.076769
 20
-320.089109
 30
693.78879
 70
    64
  0
VERTEX
  5
1A3
  8
TEAM-NET
 10
135.905124
 20
-301.954532
 30
688.03458
 70
    64
  0
VERTEX
  5
1A4
  8
TEAM-NET
 10
139.699159
 20
-283.234285
 30
683.513025
 70
    64
  0
VERTEX
  5
1A5
  8
TEAM-NET
 10
142.43
 20
-264.07084
 30
680.258536
 70
    64
  0
VERTEX
  5
1A6
  8
TEAM-NET
 10
144.076862
 20
-244.610042
 30
678.295882
 70
    64
  0
VERTEX
  5
1A7
  8
TEAM-NET
 10
144.627212
 20
-225.0
 30
677.64
 70
    64
  0
VERTEX
  5
1A8
  8
TEAM-NET
 10
144.076862
 20
-205.389958
 30
678.295882
 70
    64
  0
VERTEX
  5
1A9
  8
TEAM-NET
 10
142.43
 20
-185.92916
 30
680.258536
 70
    64
  0
VERTEX
  5
1AA
  8
TEAM-NET
 10
139.699159
 20
-166.765715
 30
683.513025
 70
    64
  0
VERTEX
  5
1AB
  8
TEAM-NET
 10
135.905124
 20
-148.045468
 30
688.03458
 70
    64
  0
VERTEX
  5
1AC
  8
TEAM-NET
 10
131.076769
 20
-129.910891
 30
693.78879
 70
    64
  0
VERTEX
  5
1AD
  8
TEAM-NET
 10
125.25084
 20
-112.5
 30
700.731862
 70
    64
  0
VERTEX
  5
1AE
  8
TEAM-NET
 10
118.471677
 20
-95.945302
 30
708.810954
 70
    64
  0
VERTEX
  5
1AF
  8
TEAM-NET
 10
110.790872
 20
-80.372788
 30
717.96458
 70
    64
  0
VERTEX
  5
1B0
  8
TEAM-NET
 10
102.266882
 20
-65.900974
 30
728.123075
 70
    64
  0
VERTEX
  5
1B1
  8
TEAM-NET
 10
92.96458
 20
-52.64
 30
739.209128
 70
    64
  0
VERTEX
  5
1B2
  8
TEAM-NET
 10
82.954761
 20
-40.69079
 30
751.138366
 70
    64
  0
VERTEX
  5
1B3
  8
TEAM-NET
 10
72.313606
 20
-30.144284
 30
763.82
 70
    64
  0
VERTEX
  5
1B4
  8
TEAM-NET
 10
61.122101
 20
-21.080748
 30
777.157517
 70
    64
  0
VERTEX
  5
1B5
  8
TEAM-NET
 10
49.46542
 20
-13.56916
 30
791.049408
 70
    64
  0
VERTEX
  5
1B6
  8
TEAM-NET
 10
37.432277
 20
-7.666689
 30
805.389949
 70
    64
  0
VERTEX
  5
1B7
  8
TEAM-NET
 10
25.114252
 20
-3.418256
 30
820.07
 70
    64
  0
VERTEX
  5
1B8
  8
TEAM-NET
 10
12.605092
 20
-0.856193
 30
834.977836
 70
    64
  0
VERTEX
  5
1B9
  8
TEAM-NET
 10
0.0
 20
0.0
 30
850.0
 70
    64
  0
VERTEX
  5
1BA
  8
TEAM-NET
 10
0.0
 20
-450.0
 30
850.0
 70
    64
  0
VERTEX
  5
1BB
  8
TEAM-NET
 10
11.247858
 20
-449.143807
 30
833.936394
 70
    64
  0
VERTEX
  5
1BC
  8
TEAM-NET
 10
22.410113
 20
-446.581744
 30
817.995042
 70
    64
  0
VERTEX
  5
1BD
  8
TEAM-NET
 10
33.401814
 20
-442.333311
 30
802.297266
 70
    64
  0
VERTEX
  5
1BE
  8
TEAM-NET
 10
44.139306
 20
-436.43084
 30
786.962538
 70
    64
  0
VERTEX
  5
1BF
  8
TEAM-NET
 10
54.540872
 20
-428.919252
 30
772.107562
 70
    64
  0
VERTEX
  5
1C0
  8
TEAM-NET
 10
64.527349
 20
-419.855716
 30
757.845395
 70
    64
  0
VERTEX
  5
1C1
  8
TEAM-NET
 10
74.022734
 20
-409.30921
 30
744.28458
 70
    64
  0
VERTEX
  5
1C2
  8
TEAM-NET
 10
82.954761
 20
-397.36
 30
731.528323
 70
    64
  0
VERTEX
  5
1C3
  8
TEAM-NET
 10
91.255452
 20
-384.099026
 30
719.673708
 70
    64
  0
VERTEX
  5
1C4
  8
TEAM-NET
 10
98.861634
 20
-369.627212
 30
708.810954
 70
    64
  0
VERTEX
  5
1C5
  8
TEAM-NET
 10
105.71542
 20
-354.054698
 30
699.022734
 70
    64
  0
VERTEX
  5
1C6
  8
TEAM-NET
 10
111.764647
 20
-337.5
 30
690.383542
 70
    64
  0
VERTEX
  5
1C7
  8
TEAM-NET
 10
116.963278
 20
-320.089109
 30
682.959128
 70
    64
  0
VERTEX
  5
1C8
  8
TEAM-NET
 10
121.271748
 20
-301.954532
 30
676.805995
 70
    64
  0
VERTEX
  5
1C9
  8
TEAM-NET
 10
124.657266
 20
-283.234285
 30
671.970974
 70
    64
  0
VERTEX
  5
1CA
  8
TEAM-NET
 10
127.094067
 20
-264.07084
 30
668.490861
 70
    64
  0
VERTEX
  5
1CB
  8
TEAM-NET
 10
128.563606
 20
-244.610042
 30
666.392142
 70
    64
  0
VERTEX
  5
1CC
  8
TEAM-NET
 10
129.054698
 20
-225.0
 30
665.69079
 70
    64
  0
VERTEX
  5
1CD
  8
TEAM-NET
 10
128.563606
 20
-205.389958
 30
666.392142
 70
    64
  0
VERTEX
  5
1CE
  8
TEAM-NET
 10
127.094067
 20
-185.92916
 30
668.490861
 70
    64
  0
VERTEX
  5
1CF
  8
TEAM-NET
 10
124.657266
 20
-166.765715
 30
671.970974
 70
    64
  0
VERTEX
  5
1D0
  8
TEAM-NET
 10
121.271748
 20
-148.045468
 30
676.805995
 70
    64
  0
VERTEX
  5
1D1
  8
TEAM-NET
 10
116.963278
 20
-129.910891
 30
682.959128
 70
    64
  0
VERTEX
  5
1D2
  8
TEAM-NET
 10
111.764647
 20
-112.5
 30
690.383542
 70
    64
  0
VERTEX
  5
1D3
  8
TEAM-NET
 10
105.71542
 20
-95.945302
 30
699.022734
 70
    64
  0
VERTEX
  5
1D4
  8
TEAM-NET
 10
98.861634
 20
-80.372788
 30
708.810954
 70
    64
  0
VERTEX
  5
1D5
  8
TEAM-NET
 10
91.255452
 20
-65.900974
 30
719.673708
 70
    64
  0
VERTEX
  5
1D6
  8
TEAM-NET
 10
82.954761
 20
-52.64
 30
731.528323
 70
    64
  0
VERTEX
  5
1D7
  8
TEAM-NET
 10
74.022734
 20
-40.69079
 30
744.28458
 70
    64
  0
VERTEX
  5
1D8
  8
TEAM-NET
 10
64.527349
 20
-30.144284
 30
757.845395
 70
    64
  0
VERTEX
  5
1D9
  8
TEAM-NET
 10
54.540872
 20
-21.080748
 30
772.107562
 70
    64
  0
VERTEX
  5
1DA
  8
TEAM-NET
 10
44.139306
 20
-13.56916
 30
786.962538
 70
    64
  0
VERTEX
  5
1DB
  8
TEAM-NET
 10
33.401814
 20
-7.666689
 30
802.297266
 70
    64
  0
VERTEX
  5
1DC
  8
TEAM-NET
 10
22.410113
 20
-3.418256
 30
817.995042
 70
    64
  0
VERTEX
  5
1DD
  8
TEAM-NET
 10
11.247858
 20
-0.856193
 30
833.936394
 70
    64
  0
VERTEX
  5
1DE
  8
TEAM-NET
 10
0.0
 20
0.0
 30
850.0
 70
    64
  0
VERTEX
  5
1DF
  8
TEAM-NET
 10
0.0
 20
-450.0
 30
850.0
 70
    64
  0
VERTEX
  5
1E0
  8
TEAM-NET
 10
9.805021
 20
-449.143807
 30
833.017205
 70
    64
  0
VERTEX
  5
1E1
  8
TEAM-NET
 10
19.53542
 20
-446.581744
 30
816.16366
 70
    64
  0
VERTEX
  5
1E2
  8
TEAM-NET
 10
29.117143
 20
-442.333311
 30
799.56763
 70
    64
  0
VERTEX
  5
1E3
  8
TEAM-NET
 10
38.477266
 20
-436.43084
 30
783.35542
 70
    64
  0
VERTEX
  5
1E4
  8
TEAM-NET
 10
47.544554
 20
-428.919252
 30
767.650416
 70
    64
  0
VERTEX
  5
1E5
  8
TEAM-NET
 10
56.25
 20
-419.855716
 30
752.572142
 70
    64
  0
VERTEX
  5
1E6
  8
TEAM-NET
 10
64.527349
 20
-409.30921
 30
738.235353
 70
    64
  0
VERTEX
  5
1E7
  8
TEAM-NET
 10
72.313606
 20
-397.36
 30
724.74916
 70
    64
  0
VERTEX
  5
1E8
  8
TEAM-NET
 10
79.549513
 20
-384.099026
 30
712.216202
 70
    64
  0
VERTEX
  5
1E9
  8
TEAM-NET
 10
86.18
 20
-369.627212
 30
700.731862
 70
    64
  0
VERTEX
  5
1EA
  8
TEAM-NET
 10
92.154605
 20
-354.054698
 30
690.383542
 70
    64
  0
VERTEX
  5
1EB
  8
TEAM-NET
 10
97.427858
 20
-337.5
 30
681.25
 70
    64
  0
VERTEX
  5
1EC
  8
TEAM-NET
 10
101.959626
 20
-320.089109
 30
673.400747
 70
    64
  0
VERTEX
  5
1ED
  8
TEAM-NET
 10
105.71542
 20
-301.954532
 30
666.895522
 70
    64
  0
VERTEX
  5
1EE
  8
TEAM-NET
 10
108.666655
 20
-283.234285
 30
661.783832
 70
    64
  0
VERTEX
  5
1EF
  8
TEAM-NET
 10
110.790872
 20
-264.07084
 30
658.10458
 70
    64
  0
VERTEX
  5
1F0
  8
TEAM-NET
 10
112.071904
 20
-244.610042
 30
655.885769
 70
    64
  0
VERTEX
  5
1F1
  8
TEAM-NET
 10
112.5
 20
-225.0
 30
655.144284
 70
    64
  0
VERTEX
  5
1F2
  8
TEAM-NET
 10
112.071904
 20
-205.389958
 30
655.885769
 70
    64
  0
VERTEX
  5
1F3
  8
TEAM-NET
 10
110.790872
 20
-185.92916
 30
658.10458
 70
    64
  0
VERTEX
  5
1F4
  8
TEAM-NET
 10
108.666655
 20
-166.765715
 30
661.783832
 70
    64
  0
VERTEX
  5
1F5
  8
TEAM-NET
 10
105.71542
 20
-148.045468
 30
666.895522
 70
    64
  0
VERTEX
  5
1F6
  8
TEAM-NET
 10
101.959626
 20
-129.910891
 30
673.400747
 70
    64
  0
VERTEX
  5
1F7
  8
TEAM-NET
 10
97.427858
 20
-112.5
 30
681.25
 70
    64
  0
VERTEX
  5
1F8
  8
TEAM-NET
 10
92.154605
 20
-95.945302
 30
690.383542
 70
    64
  0
VERTEX
  5
1F9
  8
TEAM-NET
 10
86.18
 20
-80.372788
 30
700.731862
 70
    64
  0
VERTEX
  5
1FA
  8
TEAM-NET
 10
79.549513
 20
-65.900974
 30
712.216202
 70
    64
  0
VERTEX
  5
1FB
  8
TEAM-NET
 10
72.313606
 20
-52.64
 30
724.74916
 70
    64
  0
VERTEX
  5
1FC
  8
TEAM-NET
 10
64.527349
 20
-40.69079
 30
738.235353
 70
    64
  0
VERTEX
  5
1FD
  8
TEAM-NET
 10
56.25
 20
-30.144284
 30
752.572142
 70
    64
  0
VERTEX
  5
1FE
  8
TEAM-NET
 10
47.544554
 20
-21.080748
 30
767.650416
 70
    64
  0
VERTEX
  5
1FF
  8
TEAM-NET
 10
38.477266
 20
-13.56916
 30
783.35542
 70
    64
  0
VERTEX
  5
200
  8
TEAM-NET
 10
29.117143
 20
-7.666689
 30
799.56763
 70
    64
  0
VERTEX
  5
201
  8
TEAM-NET
 10
19.53542
 20
-3.418256
 30
816.16366
 70
    64
  0
VERTEX
  5
202
  8
TEAM-NET
 10
9.805021
 20
-0.856193
 30
833.017205
 70
    64
  0
VERTEX
  5
203
  8
TEAM-NET
 10
0.0
 20
0.0
 30
850.0
 70
    64
  0
VERTEX
  5
204
  8
TEAM-NET
 10
0.0
 20
-450.0
 30
850.0
 70
    64
  0
VERTEX
  5
205
  8
TEAM-NET
 10
8.287562
 20
-449.143807
 30
832.227266
 70
    64
  0
VERTEX
  5
206
  8
TEAM-NET
 10
16.51205
 20
-446.581744
 30
814.589793
 70
    64
  0
VERTEX
  5
207
  8
TEAM-NET
 10
24.610872
 20
-442.333311
 30
797.221814
 70
    64
  0
VERTEX
  5
208
  8
TEAM-NET
 10
32.522391
 20
-436.43084
 30
780.255508
 70
    64
  0
VERTEX
  5
209
  8
TEAM-NET
 10
40.186394
 20
-428.919252
 30
763.82
 70
    64
  0
VERTEX
  5
20A
  8
TEAM-NET
 10
47.544554
 20
-419.855716
 30
748.040374
 70
    64
  0
VERTEX
  5
20B
  8
TEAM-NET
 10
54.540872
 20
-409.30921
 30
733.036722
 70
    64
  0
VERTEX
  5
20C
  8
TEAM-NET
 10
61.122101
 20
-397.36
 30
718.923231
 70
    64
  0
VERTEX
  5
20D
  8
TEAM-NET
 10
67.238154
 20
-384.099026
 30
705.807314
 70
    64
  0
VERTEX
  5
20E
  8
TEAM-NET
 10
72.842483
 20
-369.627212
 30
693.78879
 70
    64
  0
VERTEX
  5
20F
  8
TEAM-NET
 10
77.892438
 20
-354.054698
 30
682.959128
 70
    64
  0
VERTEX
  5
210
  8
TEAM-NET
 10
82.349584
 20
-337.5
 30
673.400747
 70
    64
  0
VERTEX
  5
211
  8
TEAM-NET
 10
86.18
 20
-320.089109
 30
665.186394
 70
    64
  0
VERTEX
  5
212
  8
TEAM-NET
 10
89.354534
 20
-301.954532
 30
658.378584
 70
    64
  0
VERTEX
  5
213
  8
TEAM-NET
 10
91.849026
 20
-283.234285
 30
653.029128
 70
    64
  0
VERTEX
  5
214
  8
TEAM-NET
 10
93.644492
 20
-264.07084
 30
649.17874
 70
    64
  0
VERTEX
  5
215
  8
TEAM-NET
 10
94.727266
 20
-244.610042
 30
646.856722
 70
    64
  0
VERTEX
  5
216
  8
TEAM-NET
 10
95.089109
 20
-225.0
 30
646.080748
 70
    64
  0
VERTEX
  5
217
  8
TEAM-NET
 10
94.727266
 20
-205.389958
 30
646.856722
 70
    64
  0
VERTEX
  5
218
  8
TEAM-NET
 10
93.644492
 20
-185.92916
 30
649.17874
 70
    64
  0
VERTEX
  5
219
  8
TEAM-NET
 10
91.849026
 20
-166.765715
 30
653.029128
 70
    64
  0
VERTEX
  5
21A
  8
TEAM-NET
 10
89.354534
 20
-148.045468
 30
658.378584
 70
    64
  0
VERTEX
  5
21B
  8
TEAM-NET
 10
86.18
 20
-129.910891
 30
665.186394
 70
    64
  0
VERTEX
  5
21C
  8
TEAM-NET
 10
82.349584
 20
-112.5
 30
673.400747
 70
    64
  0
VERTEX
  5
21D
  8
TEAM-NET
 10
77.892438
 20
-95.945302
 30
682.959128
 70
    64
  0
VERTEX
  5
21E
  8
TEAM-NET
 10
72.842483
 20
-80.372788
 30
693.78879
 70
    64
  0
VERTEX
  5
21F
  8
TEAM-NET
 10
67.238154
 20
-65.900974
 30
705.807314
 70
    64
  0
VERTEX
  5
220
  8
TEAM-NET
 10
61.122101
 20
-52.64
 30
718.923231
 70
    64
  0
VERTEX
  5
221
  8
TEAM-NET
 10
54.540872
 20
-40.69079
 30
733.036722
 70
    64
  0
VERTEX
  5
222
  8
TEAM-NET
 10
47.544554
 20
-30.144284
 30
748.040374
 70
    64
  0
VERTEX
  5
223
  8
TEAM-NET
 10
40.186394
 20
-21.080748
 30
763.82
 70
    64
  0
VERTEX
  5
224
  8
TEAM-NET
 10
32.522391
 20
-13.56916
 30
780.255508
 70
    64
  0
VERTEX
  5
225
  8
TEAM-NET
 10
24.610872
 20
-7.666689
 30
797.221814
 70
    64
  0
VERTEX
  5
226
  8
TEAM-NET
 10
16.51205
 20
-3.418256
 30
814.589793
 70
    64
  0
VERTEX
  5
227
  8
TEAM-NET
 10
8.287562
 20
-0.856193
 30
832.227266
 70
    64
  0
VERTEX
  5
228
  8
TEAM-NET
 10
0.0
 20
0.0
 30
850.0
 70
    64
  0
VERTEX
  5
229
  8
TEAM-NET
 10
0.0
 20
-450.0
 30
850.0
 70
    64
  0
VERTEX
  5
22A
  8
TEAM-NET
 10
6.707029
 20
-449.143807
 30
831.572588
 70
    64
  0
VERTEX
  5
22B
  8
TEAM-NET
 10
13.363014
 20
-446.581744
 30
813.28542
 70
    64
  0
VERTEX
  5
22C
  8
TEAM-NET
 10
19.917299
 20
-442.333311
 30
795.277672
 70
    64
  0
VERTEX
  5
22D
  8
TEAM-NET
 10
26.32
 20
-436.43084
 30
777.686394
 70
    64
  0
VERTEX
  5
22E
  8
TEAM-NET
 10
32.522391
 20
-428.919252
 30
760.645466
 70
    64
  0
VERTEX
  5
22F
  8
TEAM-NET
 10
38.477266
 20
-419.855716
 30
744.28458
 70
    64
  0
VERTEX
  5
230
  8
TEAM-NET
 10
44.139306
 20
-409.30921
 30
728.728252
 70
    64
  0
VERTEX
  5
231
  8
TEAM-NET
 10
49.46542
 20
-397.36
 30
714.094876
 70
    64
  0
VERTEX
  5
232
  8
TEAM-NET
 10
54.415072
 20
-384.099026
 30
700.49582
 70
    64
  0
VERTEX
  5
233
  8
TEAM-NET
 10
58.950592
 20
-369.627212
 30
688.03458
 70
    64
  0
VERTEX
  5
234
  8
TEAM-NET
 10
63.037462
 20
-354.054698
 30
676.805995
 70
    64
  0
VERTEX
  5
235
  8
TEAM-NET
 10
66.64458
 20
-337.5
 30
666.895522
 70
    64
  0
VERTEX
  5
236
  8
TEAM-NET
 10
69.744492
 20
-320.089109
 30
658.378584
 70
    64
  0
VERTEX
  5
237
  8
TEAM-NET
 10
72.313606
 20
-301.954532
 30
651.32
 70
    64
  0
VERTEX
  5
238
  8
TEAM-NET
 10
74.33237
 20
-283.234285
 30
645.773491
 70
    64
  0
VERTEX
  5
239
  8
TEAM-NET
 10
75.78542
 20
-264.07084
 30
641.78127
 70
    64
  0
VERTEX
  5
23A
  8
TEAM-NET
 10
76.661697
 20
-244.610042
 30
639.373719
 70
    64
  0
VERTEX
  5
23B
  8
TEAM-NET
 10
76.954532
 20
-225.0
 30
638.56916
 70
    64
  0
VERTEX
  5
23C
  8
TEAM-NET
 10
76.661697
 20
-205.389958
 30
639.373719
 70
    64
  0
VERTEX
  5
23D
  8
TEAM-NET
 10
75.78542
 20
-185.92916
 30
641.78127
 70
    64
  0
VERTEX
  5
23E
  8
TEAM-NET
 10
74.33237
 20
-166.765715
 30
645.773491
 70
    64
  0
VERTEX
  5
23F
  8
TEAM-NET
 10
72.313606
 20
-148.045468
 30
651.32
 70
    64
  0
VERTEX
  5
240
  8
TEAM-NET
 10
69.744492
 20
-129.910891
 30
658.378584
 70
    64
  0
VERTEX
  5
241
  8
TEAM-NET
 10
66.64458
 20
-112.5
 30
666.895522
 70
    64
  0
VERTEX
  5
242
  8
TEAM-NET
 10
63.037462
 20
-95.945302
 30
676.805995
 70
    64
  0
VERTEX
  5
243
  8
TEAM-NET
 10
58.950592
 20
-80.372788
 30
688.03458
 70
    64
  0
VERTEX
  5
244
  8
TEAM-NET
 10
54.415072
 20
-65.900974
 30
700.49582
 70
    64
  0
VERTEX
  5
245
  8
TEAM-NET
 10
49.46542
 20
-52.64
 30
714.094876
 70
    64
  0
VERTEX
  5
246
  8
TEAM-NET
 10
44.139306
 20
-40.69079
 30
728.728252
 70
    64
  0
VERTEX
  5
247
  8
TEAM-NET
 10
38.477266
 20
-30.144284
 30
744.28458
 70
    64
  0
VERTEX
  5
248
  8
TEAM-NET
 10
32.522391
 20
-21.080748
 30
760.645466
 70
    64
  0
VERTEX
  5
249
  8
TEAM-NET
 10
26.32
 20
-13.56916
 30
777.686394
 70
    64
  0
VERTEX
  5
24A
  8
TEAM-NET
 10
19.917299
 20
-7.666689
 30
795.277672
 70
    64
  0
VERTEX
  5
24B
  8
TEAM-NET
 10
13.363014
 20
-3.418256
 30
813.28542
 70
    64
  0
VERTEX
  5
24C
  8
TEAM-NET
 10
6.707029
 20
-0.856193
 30
831.572588
 70
    64
  0
VERTEX
  5
24D
  8
TEAM-NET
 10
0.0
 20
0.0
 30
850.0
 70
    64
  0
VERTEX
  5
24E
  8
TEAM-NET
 10
0.0
 20
-450.0
 30
850.0
 70
    64
  0
VERTEX
  5
24F
  8
TEAM-NET
 10
5.075452
 20
-449.143807
 30
831.058154
 70
    64
  0
VERTEX
  5
250
  8
TEAM-NET
 10
10.112277
 20
-446.581744
 30
812.260467
 70
    64
  0
VERTEX
  5
251
  8
TEAM-NET
 10
15.072142
 20
-442.333311
 30
793.75
 70
    64
  0
VERTEX
  5
252
  8
TEAM-NET
 10
19.917299
 20
-436.43084
 30
775.66763
 70
    64
  0
VERTEX
  5
253
  8
TEAM-NET
 10
24.610872
 20
-428.919252
 30
758.150974
 70
    64
  0
VERTEX
  5
254
  8
TEAM-NET
 10
29.117143
 20
-419.855716
 30
741.333345
 70
    64
  0
VERTEX
  5
255
  8
TEAM-NET
 10
33.401814
 20
-409.30921
 30
725.342734
 70
    64
  0
VERTEX
  5
256
  8
TEAM-NET
 10
37.432277
 20
-397.36
 30
710.300841
 70
    64
  0
VERTEX
  5
257
  8
TEAM-NET
 10
41.177858
 20
-384.099026
 30
696.322142
 70
    64
  0
VERTEX
  5
258
  8
TEAM-NET
 10
44.610051
 20
-369.627212
 30
683.513025
 70
    64
  0
VERTEX
  5
259
  8
TEAM-NET
 10
47.702734
 20
-354.054698
 30
671.970974
 70
    64
  0
VERTEX
  5
25A
  8
TEAM-NET
 10
50.43237
 20
-337.5
 30
661.783832
 70
    64
  0
VERTEX
  5
25B
  8
TEAM-NET
 10
52.778186
 20
-320.089109
 30
653.029128
 70
    64
  0
VERTEX
  5
25C
  8
TEAM-NET
 10
54.722328
 20
-301.954532
 30
645.773491
 70
    64
  0
VERTEX
  5
25D
  8
TEAM-NET
 10
56.25
 20
-283.234285
 30
640.072142
 70
    64
  0
VERTEX
  5
25E
  8
TEAM-NET
 10
57.349576
 20
-264.07084
 30
635.96847
 70
    64
  0
VERTEX
  5
25F
  8
TEAM-NET
 10
58.012686
 20
-244.610042
 30
633.493708
 70
    64
  0
VERTEX
  5
260
  8
TEAM-NET
 10
58.234285
 20
-225.0
 30
632.666689
 70
    64
  0
VERTEX
  5
261
  8
TEAM-NET
 10
58.012686
 20
-205.389958
 30
633.493708
 70
    64
  0
VERTEX
  5
262
  8
TEAM-NET
 10
57.349576
 20
-185.92916
 30
635.96847
 70
    64
  0
VERTEX
  5
263
  8
TEAM-NET
 10
56.25
 20
-166.765715
 30
640.072142
 70
    64
  0
VERTEX
  5
264
  8
TEAM-NET
 10
54.722328
 20
-148.045468
 30
645.773491
 70
    64
  0
VERTEX
  5
265
  8
TEAM-NET
 10
52.778186
 20
-129.910891
 30
653.029128
 70
    64
  0
VERTEX
  5
266
  8
TEAM-NET
 10
50.43237
 20
-112.5
 30
661.783832
 70
    64
  0
VERTEX
  5
267
  8
TEAM-NET
 10
47.702734
 20
-95.945302
 30
671.970974
 70
    64
  0
VERTEX
  5
268
  8
TEAM-NET
 10
44.610051
 20
-80.372788
 30
683.513025
 70
    64
  0
VERTEX
  5
269
  8
TEAM-NET
 10
41.177858
 20
-65.900974
 30
696.322142
 70
    64
  0
VERTEX
  5
26A
  8
TEAM-NET
 10
37.432277
 20
-52.64
 30
710.300841
 70
    64
  0
VERTEX
  5
26B
  8
TEAM-NET
 10
33.401814
 20
-40.69079
 30
725.342734
 70
    64
  0
VERTEX
  5
26C
  8
TEAM-NET
 10
29.117143
 20
-30.144284
 30
741.333345
 70
    64
  0
VERTEX
  5
26D
  8
TEAM-NET
 10
24.610872
 20
-21.080748
 30
758.150974
 70
    64
  0
VERTEX
  5
26E
  8
TEAM-NET
 10
19.917299
 20
-13.56916
 30
775.66763
 70
    64
  0
VERTEX
  5
26F
  8
TEAM-NET
 10
15.072142
 20
-7.666689
 30
793.75
 70
    64
  0
VERTEX
  5
270
  8
TEAM-NET
 10
10.112277
 20
-3.418256
 30
812.260467
 70
    64
  0
VERTEX
  5
271
  8
TEAM-NET
 10
5.075452
 20
-0.856193
 30
831.058154
 70
    64
  0
VERTEX
  5
272
  8
TEAM-NET
 10
0.0
 20
0.0
 30
850.0
 70
    64
  0
VERTEX
  5
273
  8
TEAM-NET
 10
0.0
 20
-450.0
 30
850.0
 70
    64
  0
VERTEX
  5
274
  8
TEAM-NET
 10
3.405248
 20
-449.143807
 30
830.687878
 70
    64
  0
VERTEX
  5
275
  8
TEAM-NET
 10
6.78458
 20
-446.581744
 30
811.522734
 70
    64
  0
VERTEX
  5
276
  8
TEAM-NET
 10
10.112277
 20
-442.333311
 30
792.650424
 70
    64
  0
VERTEX
  5
277
  8
TEAM-NET
 10
13.363014
 20
-436.43084
 30
774.21458
 70
    64
  0
VERTEX
  5
278
  8
TEAM-NET
 10
16.51205
 20
-428.919252
 30
756.355508
 70
    64
  0
VERTEX
  5
279
  8
TEAM-NET
 10
19.53542
 20
-419.855716
 30
739.209128
 70
    64
  0
VERTEX
  5
27A
  8
TEAM-NET
 10
22.410113
 20
-409.30921
 30
722.905933
 70
    64
  0
VERTEX
  5
27B
  8
TEAM-NET
 10
25.114252
 20
-397.36
 30
707.57
 70
    64
  0
VERTEX
  5
27C
  8
TEAM-NET
 10
27.627256
 20
-384.099026
 30
693.318046
 70
    64
  0
VERTEX
  5
27D
  8
TEAM-NET
 10
29.93
 20
-369.627212
 30
680.258536
 70
    64
  0
VERTEX
  5
27E
  8
TEAM-NET
 10
32.004958
 20
-354.054698
 30
668.490861
 70
    64
  0
VERTEX
  5
27F
  8
TEAM-NET
 10
33.83634
 20
-337.5
 30
658.10458
 70
    64
  0
VERTEX
  5
280
  8
TEAM-NET
 10
35.410207
 20
-320.089109
 30
649.17874
 70
    64
  0
VERTEX
  5
281
  8
TEAM-NET
 10
36.71458
 20
-301.954532
 30
641.78127
 70
    64
  0
VERTEX
  5
282
  8
TEAM-NET
 10
37.739533
 20
-283.234285
 30
635.96847
 70
    64
  0
VERTEX
  5
283
  8
TEAM-NET
 10
38.477266
 20
-264.07084
 30
631.78458
 70
    64
  0
VERTEX
  5
284
  8
TEAM-NET
 10
38.922164
 20
-244.610042
 30
629.261441
 70
    64
  0
VERTEX
  5
285
  8
TEAM-NET
 10
39.07084
 20
-225.0
 30
628.418256
 70
    64
  0
VERTEX
  5
286
  8
TEAM-NET
 10
38.922164
 20
-205.389958
 30
629.261441
 70
    64
  0
VERTEX
  5
287
  8
TEAM-NET
 10
38.477266
 20
-185.92916
 30
631.78458
 70
    64
  0
VERTEX
  5
288
  8
TEAM-NET
 10
37.739533
 20
-166.765715
 30
635.96847
 70
    64
  0
VERTEX
  5
289
  8
TEAM-NET
 10
36.71458
 20
-148.045468
 30
641.78127
 70
    64
  0
VERTEX
  5
28A
  8
TEAM-NET
 10
35.410207
 20
-129.910891
 30
649.17874
 70
    64
  0
VERTEX
  5
28B
  8
TEAM-NET
 10
33.83634
 20
-112.5
 30
658.10458
 70
    64
  0
VERTEX
  5
28C
  8
TEAM-NET
 10
32.004958
 20
-95.945302
 30
668.490861
 70
    64
  0
VERTEX
  5
28D
  8
TEAM-NET
 10
29.93
 20
-80.372788
 30
680.258536
 70
    64
  0
VERTEX
  5
28E
  8
TEAM-NET
 10
27.627256
 20
-65.900974
 30
693.318046
 70
    64
  0
VERTEX
  5
28F
  8
TEAM-NET
 10
25.114252
 20
-52.64
 30
707.57
 70
    64
  0
VERTEX
  5
290
  8
TEAM-NET
 10
22.410113
 20
-40.69079
 30
722.905933
 70
    64
  0
VERTEX
  5
291
  8
TEAM-NET
 10
19.53542
 20
-30.144284
 30
739.209128
 70
    64
  0
VERTEX
  5
292
  8
TEAM-NET
 10
16.51205
 20
-21.080748
 30
756.355508
 70
    64
  0
VERTEX
  5
293
  8
TEAM-NET
 10
13.363014
 20
-13.56916
 30
774.21458
 70
    64
  0
VERTEX
  5
294
  8
TEAM-NET
 10
10.112277
 20
-7.666689
 30
792.650424
 70
    64
  0
VERTEX
  5
295
  8
TEAM-NET
 10
6.78458
 20
-3.418256
 30
811.522734
 70
    64
  0
VERTEX
  5
296
  8
TEAM-NET
 10
3.405248
 20
-0.856193
 30
830.687878
 70
    64
  0
VERTEX
  5
297
  8
TEAM-NET
 10
0.0
 20
0.0
 30
850.0
 70
    64
  0
VERTEX
  5
298
  8
TEAM-NET
 10
0.0
 20
-450.0
 30
850.0
 70
    64
  0
VERTEX
  5
299
  8
TEAM-NET
 10
1.709128
 20
-449.143807
 30
830.46458
 70
    64
  0
VERTEX
  5
29A
  8
TEAM-NET
 10
3.405248
 20
-446.581744
 30
811.077836
 70
    64
  0
VERTEX
  5
29B
  8
TEAM-NET
 10
5.075452
 20
-442.333311
 30
791.987314
 70
    64
  0
VERTEX
  5
29C
  8
TEAM-NET
 10
6.707029
 20
-436.43084
 30
773.338303
 70
    64
  0
VERTEX
  5
29D
  8
TEAM-NET
 10
8.287562
 20
-428.919252
 30
755.272734
 70
    64
  0
VERTEX
  5
29E
  8
TEAM-NET
 10
9.805021
 20
-419.855716
 30
737.928096
 70
    64
  0
VERTEX
  5
29F
  8
TEAM-NET
 10
11.247858
 20
-409.30921
 30
721.436394
 70
    64
  0
VERTEX
  5
2A0
  8
TEAM-NET
 10
12.605092
 20
-397.36
 30
705.923138
 70
    64
  0
VERTEX
  5
2A1
  8
TEAM-NET
 10
13.866394
 20
-384.099026
 30
691.506394
 70
    64
  0
VERTEX
  5
2A2
  8
TEAM-NET
 10
15.022164
 20
-369.627212
 30
678.295882
 70
    64
  0
VERTEX
  5
2A3
  8
TEAM-NET
 10
16.063606
 20
-354.054698
 30
666.392142
 70
    64
  0
VERTEX
  5
2A4
  8
TEAM-NET
 10
16.982795
 20
-337.5
 30
655.885769
 70
    64
  0
VERTEX
  5
2A5
  8
TEAM-NET
 10
17.772734
 20
-320.089109
 30
646.856722
 70
    64
  0
VERTEX
  5
2A6
  8
TEAM-NET
 10
18.427412
 20
-301.954532
 30
639.373719
 70
    64
  0
VERTEX
  5
2A7
  8
TEAM-NET
 10
18.941846
 20
-283.234285
 30
633.493708
 70
    64
  0
VERTEX
  5
2A8
  8
TEAM-NET
 10
19.312122
 20
-264.07084
 30
629.261441
 70
    64
  0
VERTEX
  5
2A9
  8
TEAM-NET
 10
19.53542
 20
-244.610042
 30
626.709128
 70
    64
  0
VERTEX
  5
2AA
  8
TEAM-NET
 10
19.610042
 20
-225.0
 30
625.856193
 70
    64
  0
VERTEX
  5
2AB
  8
TEAM-NET
 10
19.53542
 20
-205.389958
 30
626.709128
 70
    64
  0
VERTEX
  5
2AC
  8
TEAM-NET
 10
19.312122
 20
-185.92916
 30
629.261441
 70
    64
  0
VERTEX
  5
2AD
  8
TEAM-NET
 10
18.941846
 20
-166.765715
 30
633.493708
 70
    64
  0
VERTEX
  5
2AE
  8
TEAM-NET
 10
18.427412
 20
-148.045468
 30
639.373719
 70
    64
  0
VERTEX
  5
2AF
  8
TEAM-NET
 10
17.772734
 20
-129.910891
 30
646.856722
 70
    64
  0
VERTEX
  5
2B0
  8
TEAM-NET
 10
16.982795
 20
-112.5
 30
655.885769
 70
    64
  0
VERTEX
  5
2B1
  8
TEAM-NET
 10
16.063606
 20
-95.945302
 30
666.392142
 70
    64
  0
VERTEX
  5
2B2
  8
TEAM-NET
 10
15.022164
 20
-80.372788
 30
678.295882
 70
    64
  0
VERTEX
  5
2B3
  8
TEAM-NET
 10
13.866394
 20
-65.900974
 30
691.506394
 70
    64
  0
VERTEX
  5
2B4
  8
TEAM-NET
 10
12.605092
 20
-52.64
 30
705.923138
 70
    64
  0
VERTEX
  5
2B5
  8
TEAM-NET
 10
11.247858
 20
-40.69079
 30
721.436394
 70
    64
  0
VERTEX
  5
2B6
  8
TEAM-NET
 10
9.805021
 20
-30.144284
 30
737.928096
 70
    64
  0
VERTEX
  5
2B7
  8
TEAM-NET
 10
8.287562
 20
-21.080748
 30
755.272734
 70
    64
  0
VERTEX
  5
2B8
  8
TEAM-NET
 10
6.707029
 20
-13.56916
 30
773.338303
 70
    64
  0
VERTEX
  5
2B9
  8
TEAM-NET
 10
5.075452
 20
-7.666689
 30
791.987314
 70
    64
  0
VERTEX
  5
2BA
  8
TEAM-NET
 10
3.405248
 20
-3.418256
 30
811.077836
 70
    64
  0
VERTEX
  5
2BB
  8
TEAM-NET
 10
1.709128
 20
-0.856193
 30
830.46458
 70
    64
  0
VERTEX
  5
2BC
  8
TEAM-NET
 10
0.0
 20
0.0
 30
850.0
 70
    64
  0
VERTEX
  5
2BD
  8
TEAM-NET
 10
0.0
 20
-450.0
 30
850.0
 70
    64
  0
VERTEX
  5
2BE
  8
TEAM-NET
 10
0.0
 20
-449.143807
 30
830.389958
 70
    64
  0
VERTEX
  5
2BF
  8
TEAM-NET
 10
0.0
 20
-446.581744
 30
810.92916
 70
    64
  0
VERTEX
  5
2C0
  8
TEAM-NET
 10
0.0
 20
-442.333311
 30
791.765715
 70
    64
  0
VERTEX
  5
2C1
  8
TEAM-NET
 10
0.0
 20
-436.43084
 30
773.045468
 70
    64
  0
VERTEX
  5
2C2
  8
TEAM-NET
 10
0.0
 20
-428.919252
 30
754.910891
 70
    64
  0
VERTEX
  5
2C3
  8
TEAM-NET
 10
0.0
 20
-419.855716
 30
737.5
 70
    64
  0
VERTEX
  5
2C4
  8
TEAM-NET
 10
0.0
 20
-409.30921
 30
720.945302
 70
    64
  0
VERTEX
  5
2C5
  8
TEAM-NET
 10
0.0
 20
-397.36
 30
705.372788
 70
    64
  0
VERTEX
  5
2C6
  8
TEAM-NET
 10
0.0
 20
-384.099026
 30
690.900974
 70
    64
  0
VERTEX
  5
2C7
  8
TEAM-NET
 10
0.0
 20
-369.627212
 30
677.64
 70
    64
  0
VERTEX
  5
2C8
  8
TEAM-NET
 10
0.0
 20
-354.054698
 30
665.69079
 70
    64
  0
VERTEX
  5
2C9
  8
TEAM-NET
 10
0.0
 20
-337.5
 30
655.144284
 70
    64
  0
VERTEX
  5
2CA
  8
TEAM-NET
 10
0.0
 20
-320.089109
 30
646.080748
 70
    64
  0
VERTEX
  5
2CB
  8
TEAM-NET
 10
0.0
 20
-301.954532
 30
638.56916
 70
    64
  0
VERTEX
  5
2CC
  8
TEAM-NET
 10
0.0
 20
-283.234285
 30
632.666689
 70
    64
  0
VERTEX
  5
2CD
  8
TEAM-NET
 10
0.0
 20
-264.07084
 30
628.418256
 70
    64
  0
VERTEX
  5
2CE
  8
TEAM-NET
 10
0.0
 20
-244.610042
 30
625.856193
 70
    64
  0
VERTEX
  5
2CF
  8
TEAM-NET
 10
0.0
 20
-225.0
 30
625.0
 70
    64
  0
VERTEX
  5
2D0
  8
TEAM-NET
 10
0.0
 20
-205.389958
 30
625.856193
 70
    64
  0
VERTEX
  5
2D1
  8
TEAM-NET
 10
0.0
 20
-185.92916
 30
628.418256
 70
    64
  0
VERTEX
  5
2D2
  8
TEAM-NET
 10
0.0
 20
-166.765715
 30
632.666689
 70
    64
  0
VERTEX
  5
2D3
  8
TEAM-NET
 10
0.0
 20
-148.045468
 30
638.56916
 70
    64
  0
VERTEX
  5
2D4
  8
TEAM-NET
 10
0.0
 20
-129.910891
 30
646.080748
 70
    64
  0
VERTEX
  5
2D5
  8
TEAM-NET
 10
0.0
 20
-112.5
 30
655.144284
 70
    64
  0
VERTEX
  5
2D6
  8
TEAM-NET
 10
0.0
 20
-95.945302
 30
665.69079
 70
    64
  0
VERTEX
  5
2D7
  8
TEAM-NET
 10
0.0
 20
-80.372788
 30
677.64
 70
    64
  0
VERTEX
  5
2D8
  8
TEAM-NET
 10
0.0
 20
-65.900974
 30
690.900974
 70
    64
  0
VERTEX
  5
2D9
  8
TEAM-NET
 10
0.0
 20
-52.64
 30
705.372788
 70
    64
  0
VERTEX
  5
2DA
  8
TEAM-NET
 10
0.0
 20
-40.69079
 30
720.945302
 70
    64
  0
VERTEX
  5
2DB
  8
TEAM-NET
 10
0.0
 20
-30.144284
 30
737.5
 70
    64
  0
VERTEX
  5
2DC
  8
TEAM-NET
 10
0.0
 20
-21.080748
 30
754.910891
 70
    64
  0
VERTEX
  5
2DD
  8
TEAM-NET
 10
0.0
 20
-13.56916
 30
773.045468
 70
    64
  0
VERTEX
  5
2DE
  8
TEAM-NET
 10
0.0
 20
-7.666689
 30
791.765715
 70
    64
  0
VERTEX
  5
2DF
  8
TEAM-NET
 10
0.0
 20
-3.418256
 30
810.92916
 70
    64
  0
VERTEX
  5
2E0
  8
TEAM-NET
 10
0.0
 20
-0.856193
 30
830.389958
 70
    64
  0
VERTEX
  5
2E1
  8
TEAM-NET
 10
0.0
 20
0.0
 30
850.0
 70
    64
  0
VERTEX
  5
2E2
  8
TEAM-NET
 10
0.0
 20
-450.0
 30
850.0
 70
    64
  0
VERTEX
  5
2E3
  8
TEAM-NET
 10
-1.709128
 20
-449.143807
 30
830.46458
 70
    64
  0
VERTEX
  5
2E4
  8
TEAM-NET
 10
-3.405248
 20
-446.581744
 30
811.077836
 70
    64
  0
VERTEX
  5
2E5
  8
TEAM-NET
 10
-5.075452
 20
-442.333311
 30
791.987314
 70
    64
  0
VERTEX
  5
2E6
  8
TEAM-NET
 10
-6.707029
 20
-436.43084
 30
773.338303
 70
    64
  0
VERTEX
  5
2E7
  8
TEAM-NET
 10
-8.287562
 20
-428.919252
 30
755.272734
 70
    64
  0
VERTEX
  5
2E8
  8
TEAM-NET
 10
-9.805021
 20
-419.855716
 30
737.928096
 70
    64
  0
VERTEX
  5
2E9
  8
TEAM-NET
 10
-11.247858
 20
-409.30921
 30
721.436394
 70
    64
  0
VERTEX
  5
2EA
  8
TEAM-NET
 10
-12.605092
 20
-397.36
 30
705.923138
 70
    64
  0
VERTEX
  5
2EB
  8
TEAM-NET
 10
-13.866394
 20
-384.099026
 30
691.506394
 70
    64
  0
VERTEX
  5
2EC
  8
TEAM-NET
 10
-15.022164
 20
-369.627212
 30
678.295882
 70
    64
  0
VERTEX
  5
2ED
  8
TEAM-NET
 10
-16.063606
 20
-354.054698
 30
666.392142
 70
    64
  0
VERTEX
  5
2EE
  8
TEAM-NET
 10
-16.982795
 20
-337.5
 30
655.885769
 70
    64
  0
VERTEX
  5
2EF
  8
TEAM-NET
 10
-17.772734
 20
-320.089109
 30
646.856722
 70
    64
  0
VERTEX
  5
2F0
  8
TEAM-NET
 10
-18.427412
 20
-301.954532
 30
639.373719
 70
    64
  0
VERTEX
  5
2F1
  8
TEAM-NET
 10
-18.941846
 20
-283.234285
 30
633.493708
 70
    64
  0
VERTEX
  5
2F2
  8
TEAM-NET
 10
-19.312122
 20
-264.07084
 30
629.261441
 70
    64
  0
VERTEX
  5
2F3
  8
TEAM-NET
 10
-19.53542
 20
-244.610042
 30
626.709128
 70
    64
  0
VERTEX
  5
2F4
  8
TEAM-NET
 10
-19.610042
 20
-225.0
 30
625.856193
 70
    64
  0
VERTEX
  5
2F5
  8
TEAM-NET
 10
-19.53542
 20
-205.389958
 30
626.709128
 70
    64
  0
VERTEX
  5
2F6
  8
TEAM-NET
 10
-19.312122
 20
-185.92916
 30
629.261441
 70
    64
  0
VERTEX
  5
2F7
  8
TEAM-NET
 10
-18.941846
 20
-166.765715
 30
633.493708
 70
    64
  0
VERTEX
  5
2F8
  8
TEAM-NET
 10
-18.427412
 20
-148.045468
 30
639.373719
 70
    64
  0
VERTEX
  5
2F9
  8
TEAM-NET
 10
-17.772734
 20
-129.910891
 30
646.856722
 70
    64
  0
VERTEX
  5
2FA
  8
TEAM-NET
 10
-16.982795
 20
-112.5
 30
655.885769
 70
    64
  0
VERTEX
  5
2FB
  8
TEAM-NET
 10
-16.063606
 20
-95.945302
 30
666.392142
 70
    64
  0
VERTEX
  5
2FC
  8
TEAM-NET
 10
-15.022164
 20
-80.372788
 30
678.295882
 70
    64
  0
VERTEX
  5
2FD
  8
TEAM-NET
 10
-13.866394
 20
-65.900974
 30
691.506394
 70
    64
  0
VERTEX
  5
2FE
  8
TEAM-NET
 10
-12.605092
 20
-52.64
 30
705.923138
 70
    64
  0
VERTEX
  5
2FF
  8
TEAM-NET
 10
-11.247858
 20
-40.69079
 30
721.436394
 70
    64
  0
VERTEX
  5
300
  8
TEAM-NET
 10
-9.805021
 20
-30.144284
 30
737.928096
 70
    64
  0
VERTEX
  5
301
  8
TEAM-NET
 10
-8.287562
 20
-21.080748
 30
755.272734
 70
    64
  0
VERTEX
  5
302
  8
TEAM-NET
 10
-6.707029
 20
-13.56916
 30
773.338303
 70
    64
  0
VERTEX
  5
303
  8
TEAM-NET
 10
-5.075452
 20
-7.666689
 30
791.987314
 70
    64
  0
VERTEX
  5
304
  8
TEAM-NET
 10
-3.405248
 20
-3.418256
 30
811.077836
 70
    64
  0
VERTEX
  5
305
  8
TEAM-NET
 10
-1.709128
 20
-0.856193
 30
830.46458
 70
    64
  0
VERTEX
  5
306
  8
TEAM-NET
 10
0.0
 20
0.0
 30
850.0
 70
    64
  0
VERTEX
  5
307
  8
TEAM-NET
 10
0.0
 20
-450.0
 30
850.0
 70
    64
  0
VERTEX
  5
308
  8
TEAM-NET
 10
-3.405248
 20
-449.143807
 30
830.687878
 70
    64
  0
VERTEX
  5
309
  8
TEAM-NET
 10
-6.78458
 20
-446.581744
 30
811.522734
 70
    64
  0
VERTEX
  5
30A
  8
TEAM-NET
 10
-10.112277
 20
-442.333311
 30
792.650424
 70
    64
  0
VERTEX
  5
30B
  8
TEAM-NET
 10
-13.363014
 20
-436.43084
 30
774.21458
 70
    64
  0
VERTEX
  5
30C
  8
TEAM-NET
 10
-16.51205
 20
-428.919252
 30
756.355508
 70
    64
  0
VERTEX
  5
30D
  8
TEAM-NET
 10
-19.53542
 20
-419.855716
 30
739.209128
 70
    64
  0
VERTEX
  5
30E
  8
TEAM-NET
 10
-22.410113
 20
-409.30921
 30
722.905933
 70
    64
  0
VERTEX
  5
30F
  8
TEAM-NET
 10
-25.114252
 20
-397.36
 30
707.57
 70
    64
  0
VERTEX
  5
310
  8
TEAM-NET
 10
-27.627256
 20
-384.099026
 30
693.318046
 70
    64
  0
VERTEX
  5
311
  8
TEAM-NET
 10
-29.93
 20
-369.627212
 30
680.258536
 70
    64
  0
VERTEX
  5
312
  8
TEAM-NET
 10
-32.004958
 20
-354.054698
 30
668.490861
 70
    64
  0
VERTEX
  5
313
  8
TEAM-NET
 10
-33.83634
 20
-337.5
 30
658.10458
 70
    64
  0
VERTEX
  5
314
  8
TEAM-NET
 10
-35.410207
 20
-320.089109
 30
649.17874
 70
    64
  0
VERTEX
  5
315
  8
TEAM-NET
 10
-36.71458
 20
-301.954532
 30
641.78127
 70
    64
  0
VERTEX
  5
316
  8
TEAM-NET
 10
-37.739533
 20
-283.234285
 30
635.96847
 70
    64
  0
VERTEX
  5
317
  8
TEAM-NET
 10
-38.477266
 20
-264.07084
 30
631.78458
 70
    64
  0
VERTEX
  5
318
  8
TEAM-NET
 10
-38.922164
 20
-244.610042
 30
629.261441
 70
    64
  0
VERTEX
  5
319
  8
TEAM-NET
 10
-39.07084
 20
-225.0
 30
628.418256
 70
    64
  0
VERTEX
  5
31A
  8
TEAM-NET
 10
-38.922164
 20
-205.389958
 30
629.261441
 70
    64
  0
VERTEX
  5
31B
  8
TEAM-NET
 10
-38.477266
 20
-185.92916
 30
631.78458
 70
    64
  0
VERTEX
  5
31C
  8
TEAM-NET
 10
-37.739533
 20
-166.765715
 30
635.96847
 70
    64
  0
VERTEX
  5
31D
  8
TEAM-NET
 10
-36.71458
 20
-148.045468
 30
641.78127
 70
    64
  0
VERTEX
  5
31E
  8
TEAM-NET
 10
-35.410207
 20
-129.910891
 30
649.17874
 70
    64
  0
VERTEX
  5
31F
  8
TEAM-NET
 10
-33.83634
 20
-112.5
 30
658.10458
 70
    64
  0
VERTEX
  5
320
  8
TEAM-NET
 10
-32.004958
 20
-95.945302
 30
668.490861
 70
    64
  0
VERTEX
  5
321
  8
TEAM-NET
 10
-29.93
 20
-80.372788
 30
680.258536
 70
    64
  0
VERTEX
  5
322
  8
TEAM-NET
 10
-27.627256
 20
-65.900974
 30
693.318046
 70
    64
  0
VERTEX
  5
323
  8
TEAM-NET
 10
-25.114252
 20
-52.64
 30
707.57
 70
    64
  0
VERTEX
  5
324
  8
TEAM-NET
 10
-22.410113
 20
-40.69079
 30
722.905933
 70
    64
  0
VERTEX
  5
325
  8
TEAM-NET
 10
-19.53542
 20
-30.144284
 30
739.209128
 70
    64
  0
VERTEX
  5
326
  8
TEAM-NET
 10
-16.51205
 20
-21.080748
 30
756.355508
 70
    64
  0
VERTEX
  5
327
  8
TEAM-NET
 10
-13.363014
 20
-13.56916
 30
774.21458
 70
    64
  0
VERTEX
  5
328
  8
TEAM-NET
 10
-10.112277
 20
-7.666689
 30
792.650424
 70
    64
  0
VERTEX
  5
329
  8
TEAM-NET
 10
-6.78458
 20
-3.418256
 30
811.522734
 70
    64
  0
VERTEX
  5
32A
  8
TEAM-NET
 10
-3.405248
 20
-0.856193
 30
830.687878
 70
    64
  0
VERTEX
  5
32B
  8
TEAM-NET
 10
0.0
 20
0.0
 30
850.0
 70
    64
  0
VERTEX
  5
32C
  8
TEAM-NET
 10
0.0
 20
-450.0
 30
850.0
 70
    64
  0
VERTEX
  5
32D
  8
TEAM-NET
 10
-5.075452
 20
-449.143807
 30
831.058154
 70
    64
  0
VERTEX
  5
32E
  8
TEAM-NET
 10
-10.112277
 20
-446.581744
 30
812.260467
 70
    64
  0
VERTEX
  5
32F
  8
TEAM-NET
 10
-15.072142
 20
-442.333311
 30
793.75
 70
    64
  0
VERTEX
  5
330
  8
TEAM-NET
 10
-19.917299
 20
-436.43084
 30
775.66763
 70
    64
  0
VERTEX
  5
331
  8
TEAM-NET
 10
-24.610872
 20
-428.919252
 30
758.150974
 70
    64
  0
VERTEX
  5
332
  8
TEAM-NET
 10
-29.117143
 20
-419.855716
 30
741.333345
 70
    64
  0
VERTEX
  5
333
  8
TEAM-NET
 10
-33.401814
 20
-409.30921
 30
725.342734
 70
    64
  0
VERTEX
  5
334
  8
TEAM-NET
 10
-37.432277
 20
-397.36
 30
710.300841
 70
    64
  0
VERTEX
  5
335
  8
TEAM-NET
 10
-41.177858
 20
-384.099026
 30
696.322142
 70
    64
  0
VERTEX
  5
336
  8
TEAM-NET
 10
-44.610051
 20
-369.627212
 30
683.513025
 70
    64
  0
VERTEX
  5
337
  8
TEAM-NET
 10
-47.702734
 20
-354.054698
 30
671.970974
 70
    64
  0
VERTEX
  5
338
  8
TEAM-NET
 10
-50.43237
 20
-337.5
 30
661.783832
 70
    64
  0
VERTEX
  5
339
  8
TEAM-NET
 10
-52.778186
 20
-320.089109
 30
653.029128
 70
    64
  0
VERTEX
  5
33A
  8
TEAM-NET
 10
-54.722328
 20
-301.954532
 30
645.773491
 70
    64
  0
VERTEX
  5
33B
  8
TEAM-NET
 10
-56.25
 20
-283.234285
 30
640.072142
 70
    64
  0
VERTEX
  5
33C
  8
TEAM-NET
 10
-57.349576
 20
-264.07084
 30
635.96847
 70
    64
  0
VERTEX
  5
33D
  8
TEAM-NET
 10
-58.012686
 20
-244.610042
 30
633.493708
 70
    64
  0
VERTEX
  5
33E
  8
TEAM-NET
 10
-58.234285
 20
-225.0
 30
632.666689
 70
    64
  0
VERTEX
  5
33F
  8
TEAM-NET
 10
-58.012686
 20
-205.389958
 30
633.493708
 70
    64
  0
VERTEX
  5
340
  8
TEAM-NET
 10
-57.349576
 20
-185.92916
 30
635.96847
 70
    64
  0
VERTEX
  5
341
  8
TEAM-NET
 10
-56.25
 20
-166.765715
 30
640.072142
 70
    64
  0
VERTEX
  5
342
  8
TEAM-NET
 10
-54.722328
 20
-148.045468
 30
645.773491
 70
    64
  0
VERTEX
  5
343
  8
TEAM-NET
 10
-52.778186
 20
-129.910891
 30
653.029128
 70
    64
  0
VERTEX
  5
344
  8
TEAM-NET
 10
-50.43237
 20
-112.5
 30
661.783832
 70
    64
  0
VERTEX
  5
345
  8
TEAM-NET
 10
-47.702734
 20
-95.945302
 30
671.970974
 70
    64
  0
VERTEX
  5
346
  8
TEAM-NET
 10
-44.610051
 20
-80.372788
 30
683.513025
 70
    64
  0
VERTEX
  5
347
  8
TEAM-NET
 10
-41.177858
 20
-65.900974
 30
696.322142
 70
    64
  0
VERTEX
  5
348
  8
TEAM-NET
 10
-37.432277
 20
-52.64
 30
710.300841
 70
    64
  0
VERTEX
  5
349
  8
TEAM-NET
 10
-33.401814
 20
-40.69079
 30
725.342734
 70
    64
  0
VERTEX
  5
34A
  8
TEAM-NET
 10
-29.117143
 20
-30.144284
 30
741.333345
 70
    64
  0
VERTEX
  5
34B
  8
TEAM-NET
 10
-24.610872
 20
-21.080748
 30
758.150974
 70
    64
  0
VERTEX
  5
34C
  8
TEAM-NET
 10
-19.917299
 20
-13.56916
 30
775.66763
 70
    64
  0
VERTEX
  5
34D
  8
TEAM-NET
 10
-15.072142
 20
-7.666689
 30
793.75
 70
    64
  0
VERTEX
  5
34E
  8
TEAM-NET
 10
-10.112277
 20
-3.418256
 30
812.260467
 70
    64
  0
VERTEX
  5
34F
  8
TEAM-NET
 10
-5.075452
 20
-0.856193
 30
831.058154
 70
    64
  0
VERTEX
  5
350
  8
TEAM-NET
 10
0.0
 20
0.0
 30
850.0
 70
    64
  0
VERTEX
  5
351
  8
TEAM-NET
 10
0.0
 20
-450.0
 30
850.0
 70
    64
  0
VERTEX
  5
352
  8
TEAM-NET
 10
-6.707029
 20
-449.143807
 30
831.572588
 70
    64
  0
VERTEX
  5
353
  8
TEAM-NET
 10
-13.363014
 20
-446.581744
 30
813.28542
 70
    64
  0
VERTEX
  5
354
  8
TEAM-NET
 10
-19.917299
 20
-442.333311
 30
795.277672
 70
    64
  0
VERTEX
  5
355
  8
TEAM-NET
 10
-26.32
 20
-436.43084
 30
777.686394
 70
    64
  0
VERTEX
  5
356
  8
TEAM-NET
 10
-32.522391
 20
-428.919252
 30
760.645466
 70
    64
  0
VERTEX
  5
357
  8
TEAM-NET
 10
-38.477266
 20
-419.855716
 30
744.28458
 70
    64
  0
VERTEX
  5
358
  8
TEAM-NET
 10
-44.139306
 20
-409.30921
 30
728.728252
 70
    64
  0
VERTEX
  5
359
  8
TEAM-NET
 10
-49.46542
 20
-397.36
 30
714.094876
 70
    64
  0
VERTEX
  5
35A
  8
TEAM-NET
 10
-54.415072
 20
-384.099026
 30
700.49582
 70
    64
  0
VERTEX
  5
35B
  8
TEAM-NET
 10
-58.950592
 20
-369.627212
 30
688.03458
 70
    64
  0
VERTEX
  5
35C
  8
TEAM-NET
 10
-63.037462
 20
-354.054698
 30
676.805995
 70
    64
  0
VERTEX
  5
35D
  8
TEAM-NET
 10
-66.64458
 20
-337.5
 30
666.895522
 70
    64
  0
VERTEX
  5
35E
  8
TEAM-NET
 10
-69.744492
 20
-320.089109
 30
658.378584
 70
    64
  0
VERTEX
  5
35F
  8
TEAM-NET
 10
-72.313606
 20
-301.954532
 30
651.32
 70
    64
  0
VERTEX
  5
360
  8
TEAM-NET
 10
-74.33237
 20
-283.234285
 30
645.773491
 70
    64
  0
VERTEX
  5
361
  8
TEAM-NET
 10
-75.78542
 20
-264.07084
 30
641.78127
 70
    64
  0
VERTEX
  5
362
  8
TEAM-NET
 10
-76.661697
 20
-244.610042
 30
639.373719
 70
    64
  0
VERTEX
  5
363
  8
TEAM-NET
 10
-76.954532
 20
-225.0
 30
638.56916
 70
    64
  0
VERTEX
  5
364
  8
TEAM-NET
 10
-76.661697
 20
-205.389958
 30
639.373719
 70
    64
  0
VERTEX
  5
365
  8
TEAM-NET
 10
-75.78542
 20
-185.92916
 30
641.78127
 70
    64
  0
VERTEX
  5
366
  8
TEAM-NET
 10
-74.33237
 20
-166.765715
 30
645.773491
 70
    64
  0
VERTEX
  5
367
  8
TEAM-NET
 10
-72.313606
 20
-148.045468
 30
651.32
 70
    64
  0
VERTEX
  5
368
  8
TEAM-NET
 10
-69.744492
 20
-129.910891
 30
658.378584
 70
    64
  0
VERTEX
  5
369
  8
TEAM-NET
 10
-66.64458
 20
-112.5
 30
666.895522
 70
    64
  0
VERTEX
  5
36A
  8
TEAM-NET
 10
-63.037462
 20
-95.945302
 30
676.805995
 70
    64
  0
VERTEX
  5
36B
  8
TEAM-NET
 10
-58.950592
 20
-80.372788
 30
688.03458
 70
    64
  0
VERTEX
  5
36C
  8
TEAM-NET
 10
-54.415072
 20
-65.900974
 30
700.49582
 70
    64
  0
VERTEX
  5
36D
  8
TEAM-NET
 10
-49.46542
 20
-52.64
 30
714.094876
 70
    64
  0
VERTEX
  5
36E
  8
TEAM-NET
 10
-44.139306
 20
-40.69079
 30
728.728252
 70
    64
  0
VERTEX
  5
36F
  8
TEAM-NET
 10
-38.477266
 20
-30.144284
 30
744.28458
 70
    64
  0
VERTEX
  5
370
  8
TEAM-NET
 10
-32.522391
 20
-21.080748
 30
760.645466
 70
    64
  0
VERTEX
  5
371
  8
TEAM-NET
 10
-26.32
 20
-13.56916
 30
777.686394
 70
    64
  0
VERTEX
  5
372
  8
TEAM-NET
 10
-19.917299
 20
-7.666689
 30
795.277672
 70
    64
  0
VERTEX
  5
373
  8
TEAM-NET
 10
-13.363014
 20
-3.418256
 30
813.28542
 70
    64
  0
VERTEX
  5
374
  8
TEAM-NET
 10
-6.707029
 20
-0.856193
 30
831.572588
 70
    64
  0
VERTEX
  5
375
  8
TEAM-NET
 10
0.0
 20
0.0
 30
850.0
 70
    64
  0
VERTEX
  5
376
  8
TEAM-NET
 10
0.0
 20
-450.0
 30
850.0
 70
    64
  0
VERTEX
  5
377
  8
TEAM-NET
 10
-8.287562
 20
-449.143807
 30
832.227266
 70
    64
  0
VERTEX
  5
378
  8
TEAM-NET
 10
-16.51205
 20
-446.581744
 30
814.589793
 70
    64
  0
VERTEX
  5
379
  8
TEAM-NET
 10
-24.610872
 20
-442.333311
 30
797.221814
 70
    64
  0
VERTEX
  5
37A
  8
TEAM-NET
 10
-32.522391
 20
-436.43084
 30
780.255508
 70
    64
  0
VERTEX
  5
37B
  8
TEAM-NET
 10
-40.186394
 20
-428.919252
 30
763.82
 70
    64
  0
VERTEX
  5
37C
  8
TEAM-NET
 10
-47.544554
 20
-419.855716
 30
748.040374
 70
    64
  0
VERTEX
  5
37D
  8
TEAM-NET
 10
-54.540872
 20
-409.30921
 30
733.036722
 70
    64
  0
VERTEX
  5
37E
  8
TEAM-NET
 10
-61.122101
 20
-397.36
 30
718.923231
 70
    64
  0
VERTEX
  5
37F
  8
TEAM-NET
 10
-67.238154
 20
-384.099026
 30
705.807314
 70
    64
  0
VERTEX
  5
380
  8
TEAM-NET
 10
-72.842483
 20
-369.627212
 30
693.78879
 70
    64
  0
VERTEX
  5
381
  8
TEAM-NET
 10
-77.892438
 20
-354.054698
 30
682.959128
 70
    64
  0
VERTEX
  5
382
  8
TEAM-NET
 10
-82.349584
 20
-337.5
 30
673.400747
 70
    64
  0
VERTEX
  5
383
  8
TEAM-NET
 10
-86.18
 20
-320.089109
 30
665.186394
 70
    64
  0
VERTEX
  5
384
  8
TEAM-NET
 10
-89.354534
 20
-301.954532
 30
658.378584
 70
    64
  0
VERTEX
  5
385
  8
TEAM-NET
 10
-91.849026
 20
-283.234285
 30
653.029128
 70
    64
  0
VERTEX
  5
386
  8
TEAM-NET
 10
-93.644492
 20
-264.07084
 30
649.17874
 70
    64
  0
VERTEX
  5
387
  8
TEAM-NET
 10
-94.727266
 20
-244.610042
 30
646.856722
 70
    64
  0
VERTEX
  5
388
  8
TEAM-NET
 10
-95.089109
 20
-225.0
 30
646.080748
 70
    64
  0
VERTEX
  5
389
  8
TEAM-NET
 10
-94.727266
 20
-205.389958
 30
646.856722
 70
    64
  0
VERTEX
  5
38A
  8
TEAM-NET
 10
-93.644492
 20
-185.92916
 30
649.17874
 70
    64
  0
VERTEX
  5
38B
  8
TEAM-NET
 10
-91.849026
 20
-166.765715
 30
653.029128
 70
    64
  0
VERTEX
  5
38C
  8
TEAM-NET
 10
-89.354534
 20
-148.045468
 30
658.378584
 70
    64
  0
VERTEX
  5
38D
  8
TEAM-NET
 10
-86.18
 20
-129.910891
 30
665.186394
 70
    64
  0
VERTEX
  5
38E
  8
TEAM-NET
 10
-82.349584
 20
-112.5
 30
673.400747
 70
    64
  0
VERTEX
  5
38F
  8
TEAM-NET
 10
-77.892438
 20
-95.945302
 30
682.959128
 70
    64
  0
VERTEX
  5
390
  8
TEAM-NET
 10
-72.842483
 20
-80.372788
 30
693.78879
 70
    64
  0
VERTEX
  5
391
  8
TEAM-NET
 10
-67.238154
 20
-65.900974
 30
705.807314
 70
    64
  0
VERTEX
  5
392
  8
TEAM-NET
 10
-61.122101
 20
-52.64
 30
718.923231
 70
    64
  0
VERTEX
  5
393
  8
TEAM-NET
 10
-54.540872
 20
-40.69079
 30
733.036722
 70
    64
  0
VERTEX
  5
394
  8
TEAM-NET
 10
-47.544554
 20
-30.144284
 30
748.040374
 70
    64
  0
VERTEX
  5
395
  8
TEAM-NET
 10
-40.186394
 20
-21.080748
 30
763.82
 70
    64
  0
VERTEX
  5
396
  8
TEAM-NET
 10
-32.522391
 20
-13.56916
 30
780.255508
 70
    64
  0
VERTEX
  5
397
  8
TEAM-NET
 10
-24.610872
 20
-7.666689
 30
797.221814
 70
    64
  0
VERTEX
  5
398
  8
TEAM-NET
 10
-16.51205
 20
-3.418256
 30
814.589793
 70
    64
  0
VERTEX
  5
399
  8
TEAM-NET
 10
-8.287562
 20
-0.856193
 30
832.227266
 70
    64
  0
VERTEX
  5
39A
  8
TEAM-NET
 10
0.0
 20
0.0
 30
850.0
 70
    64
  0
VERTEX
  5
39B
  8
TEAM-NET
 10
0.0
 20
-450.0
 30
850.0
 70
    64
  0
VERTEX
  5
39C
  8
TEAM-NET
 10
-9.805021
 20
-449.143807
 30
833.017205
 70
    64
  0
VERTEX
  5
39D
  8
TEAM-NET
 10
-19.53542
 20
-446.581744
 30
816.16366
 70
    64
  0
VERTEX
  5
39E
  8
TEAM-NET
 10
-29.117143
 20
-442.333311
 30
799.56763
 70
    64
  0
VERTEX
  5
39F
  8
TEAM-NET
 10
-38.477266
 20
-436.43084
 30
783.35542
 70
    64
  0
VERTEX
  5
3A0
  8
TEAM-NET
 10
-47.544554
 20
-428.919252
 30
767.650416
 70
    64
  0
VERTEX
  5
3A1
  8
TEAM-NET
 10
-56.25
 20
-419.855716
 30
752.572142
 70
    64
  0
VERTEX
  5
3A2
  8
TEAM-NET
 10
-64.527349
 20
-409.30921
 30
738.235353
 70
    64
  0
VERTEX
  5
3A3
  8
TEAM-NET
 10
-72.313606
 20
-397.36
 30
724.74916
 70
    64
  0
VERTEX
  5
3A4
  8
TEAM-NET
 10
-79.549513
 20
-384.099026
 30
712.216202
 70
    64
  0
VERTEX
  5
3A5
  8
TEAM-NET
 10
-86.18
 20
-369.627212
 30
700.731862
 70
    64
  0
VERTEX
  5
3A6
  8
TEAM-NET
 10
-92.154605
 20
-354.054698
 30
690.383542
 70
    64
  0
VERTEX
  5
3A7
  8
TEAM-NET
 10
-97.427858
 20
-337.5
 30
681.25
 70
    64
  0
VERTEX
  5
3A8
  8
TEAM-NET
 10
-101.959626
 20
-320.089109
 30
673.400747
 70
    64
  0
VERTEX
  5
3A9
  8
TEAM-NET
 10
-105.71542
 20
-301.954532
 30
666.895522
 70
    64
  0
VERTEX
  5
3AA
  8
TEAM-NET
 10
-108.666655
 20
-283.234285
 30
661.783832
 70
    64
  0
VERTEX
  5
3AB
  8
TEAM-NET
 10
-110.790872
 20
-264.07084
 30
658.10458
 70
    64
  0
VERTEX
  5
3AC
  8
TEAM-NET
 10
-112.071904
 20
-244.610042
 30
655.885769
 70
    64
  0
VERTEX
  5
3AD
  8
TEAM-NET
 10
-112.5
 20
-225.0
 30
655.144284
 70
    64
  0
VERTEX
  5
3AE
  8
TEAM-NET
 10
-112.071904
 20
-205.389958
 30
655.885769
 70
    64
  0
VERTEX
  5
3AF
  8
TEAM-NET
 10
-110.790872
 20
-185.92916
 30
658.10458
 70
    64
  0
VERTEX
  5
3B0
  8
TEAM-NET
 10
-108.666655
 20
-166.765715
 30
661.783832
 70
    64
  0
VERTEX
  5
3B1
  8
TEAM-NET
 10
-105.71542
 20
-148.045468
 30
666.895522
 70
    64
  0
VERTEX
  5
3B2
  8
TEAM-NET
 10
-101.959626
 20
-129.910891
 30
673.400747
 70
    64
  0
VERTEX
  5
3B3
  8
TEAM-NET
 10
-97.427858
 20
-112.5
 30
681.25
 70
    64
  0
VERTEX
  5
3B4
  8
TEAM-NET
 10
-92.154605
 20
-95.945302
 30
690.383542
 70
    64
  0
VERTEX
  5
3B5
  8
TEAM-NET
 10
-86.18
 20
-80.372788
 30
700.731862
 70
    64
  0
VERTEX
  5
3B6
  8
TEAM-NET
 10
-79.549513
 20
-65.900974
 30
712.216202
 70
    64
  0
VERTEX
  5
3B7
  8
TEAM-NET
 10
-72.313606
 20
-52.64
 30
724.74916
 70
    64
  0
VERTEX
  5
3B8
  8
TEAM-NET
 10
-64.527349
 20
-40.69079
 30
738.235353
 70
    64
  0
VERTEX
  5
3B9
  8
TEAM-NET
 10
-56.25
 20
-30.144284
 30
752.572142
 70
    64
  0
VERTEX
  5
3BA
  8
TEAM-NET
 10
-47.544554
 20
-21.080748
 30
767.650416
 70
    64
  0
VERTEX
  5
3BB
  8
TEAM-NET
 10
-38.477266
 20
-13.56916
 30
783.35542
 70
    64
  0
VERTEX
  5
3BC
  8
TEAM-NET
 10
-29.117143
 20
-7.666689
 30
799.56763
 70
    64
  0
VERTEX
  5
3BD
  8
TEAM-NET
 10
-19.53542
 20
-3.418256
 30
816.16366
 70
    64
  0
VERTEX
  5
3BE
  8
TEAM-NET
 10
-9.805021
 20
-0.856193
 30
833.017205
 70
    64
  0
VERTEX
  5
3BF
  8
TEAM-NET
 10
0.0
 20
0.0
 30
850.0
 70
    64
  0
VERTEX
  5
3C0
  8
TEAM-NET
 10
0.0
 20
-450.0
 30
850.0
 70
    64
  0
VERTEX
  5
3C1
  8
TEAM-NET
 10
-11.247858
 20
-449.143807
 30
833.936394
 70
    64
  0
VERTEX
  5
3C2
  8
TEAM-NET
 10
-22.410113
 20
-446.581744
 30
817.995042
 70
    64
  0
VERTEX
  5
3C3
  8
TEAM-NET
 10
-33.401814
 20
-442.333311
 30
802.297266
 70
    64
  0
VERTEX
  5
3C4
  8
TEAM-NET
 10
-44.139306
 20
-436.43084
 30
786.962538
 70
    64
  0
VERTEX
  5
3C5
  8
TEAM-NET
 10
-54.540872
 20
-428.919252
 30
772.107562
 70
    64
  0
VERTEX
  5
3C6
  8
TEAM-NET
 10
-64.527349
 20
-419.855716
 30
757.845395
 70
    64
  0
VERTEX
  5
3C7
  8
TEAM-NET
 10
-74.022734
 20
-409.30921
 30
744.28458
 70
    64
  0
VERTEX
  5
3C8
  8
TEAM-NET
 10
-82.954761
 20
-397.36
 30
731.528323
 70
    64
  0
VERTEX
  5
3C9
  8
TEAM-NET
 10
-91.255452
 20
-384.099026
 30
719.673708
 70
    64
  0
VERTEX
  5
3CA
  8
TEAM-NET
 10
-98.861634
 20
-369.627212
 30
708.810954
 70
    64
  0
VERTEX
  5
3CB
  8
TEAM-NET
 10
-105.71542
 20
-354.054698
 30
699.022734
 70
    64
  0
VERTEX
  5
3CC
  8
TEAM-NET
 10
-111.764647
 20
-337.5
 30
690.383542
 70
    64
  0
VERTEX
  5
3CD
  8
TEAM-NET
 10
-116.963278
 20
-320.089109
 30
682.959128
 70
    64
  0
VERTEX
  5
3CE
  8
TEAM-NET
 10
-121.271748
 20
-301.954532
 30
676.805995
 70
    64
  0
VERTEX
  5
3CF
  8
TEAM-NET
 10
-124.657266
 20
-283.234285
 30
671.970974
 70
    64
  0
VERTEX
  5
3D0
  8
TEAM-NET
 10
-127.094067
 20
-264.07084
 30
668.490861
 70
    64
  0
VERTEX
  5
3D1
  8
TEAM-NET
 10
-128.563606
 20
-244.610042
 30
666.392142
 70
    64
  0
VERTEX
  5
3D2
  8
TEAM-NET
 10
-129.054698
 20
-225.0
 30
665.69079
 70
    64
  0
VERTEX
  5
3D3
  8
TEAM-NET
 10
-128.563606
 20
-205.389958
 30
666.392142
 70
    64
  0
VERTEX
  5
3D4
  8
TEAM-NET
 10
-127.094067
 20
-185.92916
 30
668.490861
 70
    64
  0
VERTEX
  5
3D5
  8
TEAM-NET
 10
-124.657266
 20
-166.765715
 30
671.970974
 70
    64
  0
VERTEX
  5
3D6
  8
TEAM-NET
 10
-121.271748
 20
-148.045468
 30
676.805995
 70
    64
  0
VERTEX
  5
3D7
  8
TEAM-NET
 10
-116.963278
 20
-129.910891
 30
682.959128
 70
    64
  0
VERTEX
  5
3D8
  8
TEAM-NET
 10
-111.764647
 20
-112.5
 30
690.383542
 70
    64
  0
VERTEX
  5
3D9
  8
TEAM-NET
 10
-105.71542
 20
-95.945302
 30
699.022734
 70
    64
  0
VERTEX
  5
3DA
  8
TEAM-NET
 10
-98.861634
 20
-80.372788
 30
708.810954
 70
    64
  0
VERTEX
  5
3DB
  8
TEAM-NET
 10
-91.255452
 20
-65.900974
 30
719.673708
 70
    64
  0
VERTEX
  5
3DC
  8
TEAM-NET
 10
-82.954761
 20
-52.64
 30
731.528323
 70
    64
  0
VERTEX
  5
3DD
  8
TEAM-NET
 10
-74.022734
 20
-40.69079
 30
744.28458
 70
    64
  0
VERTEX
  5
3DE
  8
TEAM-NET
 10
-64.527349
 20
-30.144284
 30
757.845395
 70
    64
  0
VERTEX
  5
3DF
  8
TEAM-NET
 10
-54.540872
 20
-21.080748
 30
772.107562
 70
    64
  0
VERTEX
  5
3E0
  8
TEAM-NET
 10
-44.139306
 20
-13.56916
 30
786.962538
 70
    64
  0
VERTEX
  5
3E1
  8
TEAM-NET
 10
-33.401814
 20
-7.666689
 30
802.297266
 70
    64
  0
VERTEX
  5
3E2
  8
TEAM-NET
 10
-22.410113
 20
-3.418256
 30
817.995042
 70
    64
  0
VERTEX
  5
3E3
  8
TEAM-NET
 10
-11.247858
 20
-0.856193
 30
833.936394
 70
    64
  0
VERTEX
  5
3E4
  8
TEAM-NET
 10
0.0
 20
0.0
 30
850.0
 70
    64
  0
VERTEX
  5
3E5
  8
TEAM-NET
 10
0.0
 20
-450.0
 30
850.0
 70
    64
  0
VERTEX
  5
3E6
  8
TEAM-NET
 10
-12.605092
 20
-449.143807
 30
834.977836
 70
    64
  0
VERTEX
  5
3E7
  8
TEAM-NET
 10
-25.114252
 20
-446.581744
 30
820.07
 70
    64
  0
VERTEX
  5
3E8
  8
TEAM-NET
 10
-37.432277
 20
-442.333311
 30
805.389949
 70
    64
  0
VERTEX
  5
3E9
  8
TEAM-NET
 10
-49.46542
 20
-436.43084
 30
791.049408
 70
    64
  0
VERTEX
  5
3EA
  8
TEAM-NET
 10
-61.122101
 20
-428.919252
 30
777.157517
 70
    64
  0
VERTEX
  5
3EB
  8
TEAM-NET
 10
-72.313606
 20
-419.855716
 30
763.82
 70
    64
  0
VERTEX
  5
3EC
  8
TEAM-NET
 10
-82.954761
 20
-409.30921
 30
751.138366
 70
    64
  0
VERTEX
  5
3ED
  8
TEAM-NET
 10
-92.96458
 20
-397.36
 30
739.209128
 70
    64
  0
VERTEX
  5
3EE
  8
TEAM-NET
 10
-102.266882
 20
-384.099026
 30
728.123075
 70
    64
  0
VERTEX
  5
3EF
  8
TEAM-NET
 10
-110.790872
 20
-369.627212
 30
717.96458
 70
    64
  0
VERTEX
  5
3F0
  8
TEAM-NET
 10
-118.471677
 20
-354.054698
 30
708.810954
 70
    64
  0
VERTEX
  5
3F1
  8
TEAM-NET
 10
-125.25084
 20
-337.5
 30
700.731862
 70
    64
  0
VERTEX
  5
3F2
  8
TEAM-NET
 10
-131.076769
 20
-320.089109
 30
693.78879
 70
    64
  0
VERTEX
  5
3F3
  8
TEAM-NET
 10
-135.905124
 20
-301.954532
 30
688.03458
 70
    64
  0
VERTEX
  5
3F4
  8
TEAM-NET
 10
-139.699159
 20
-283.234285
 30
683.513025
 70
    64
  0
VERTEX
  5
3F5
  8
TEAM-NET
 10
-142.43
 20
-264.07084
 30
680.258536
 70
    64
  0
VERTEX
  5
3F6
  8
TEAM-NET
 10
-144.076862
 20
-244.610042
 30
678.295882
 70
    64
  0
VERTEX
  5
3F7
  8
TEAM-NET
 10
-144.627212
 20
-225.0
 30
677.64
 70
    64
  0
VERTEX
  5
3F8
  8
TEAM-NET
 10
-144.076862
 20
-205.389958
 30
678.295882
 70
    64
  0
VERTEX
  5
3F9
  8
TEAM-NET
 10
-142.43
 20
-185.92916
 30
680.258536
 70
    64
  0
VERTEX
  5
3FA
  8
TEAM-NET
 10
-139.699159
 20
-166.765715
 30
683.513025
 70
    64
  0
VERTEX
  5
3FB
  8
TEAM-NET
 10
-135.905124
 20
-148.045468
 30
688.03458
 70
    64
  0
VERTEX
  5
3FC
  8
TEAM-NET
 10
-131.076769
 20
-129.910891
 30
693.78879
 70
    64
  0
VERTEX
  5
3FD
  8
TEAM-NET
 10
-125.25084
 20
-112.5
 30
700.731862
 70
    64
  0
VERTEX
  5
3FE
  8
TEAM-NET
 10
-118.471677
 20
-95.945302
 30
708.810954
 70
    64
  0
VERTEX
  5
3FF
  8
TEAM-NET
 10
-110.790872
 20
-80.372788
 30
717.96458
 70
    64
  0
VERTEX
  5
400
  8
TEAM-NET
 10
-102.266882
 20
-65.900974
 30
728.123075
 70
    64
  0
VERTEX
  5
401
  8
TEAM-NET
 10
-92.96458
 20
-52.64
 30
739.209128
 70
    64
  0
VERTEX
  5
402
  8
TEAM-NET
 10
-82.954761
 20
-40.69079
 30
751.138366
 70
    64
  0
VERTEX
  5
403
  8
TEAM-NET
 10
-72.313606
 20
-30.144284
 30
763.82
 70
    64
  0
VERTEX
  5
404
  8
TEAM-NET
 10
-61.122101
 20
-21.080748
 30
777.157517
 70
    64
  0
VERTEX
  5
405
  8
TEAM-NET
 10
-49.46542
 20
-13.56916
 30
791.049408
 70
    64
  0
VERTEX
  5
406
  8
TEAM-NET
 10
-37.432277
 20
-7.666689
 30
805.389949
 70
    64
  0
VERTEX
  5
407
  8
TEAM-NET
 10
-25.114252
 20
-3.418256
 30
820.07
 70
    64
  0
VERTEX
  5
408
  8
TEAM-NET
 10
-12.605092
 20
-0.856193
 30
834.977836
 70
    64
  0
VERTEX
  5
409
  8
TEAM-NET
 10
0.0
 20
0.0
 30
850.0
 70
    64
  0
VERTEX
  5
40A
  8
TEAM-NET
 10
0.0
 20
-450.0
 30
850.0
 70
    64
  0
VERTEX
  5
40B
  8
TEAM-NET
 10
-13.866394
 20
-449.143807
 30
836.133606
 70
    64
  0
VERTEX
  5
40C
  8
TEAM-NET
 10
-27.627256
 20
-446.581744
 30
822.372744
 70
    64
  0
VERTEX
  5
40D
  8
TEAM-NET
 10
-41.177858
 20
-442.333311
 30
808.822142
 70
    64
  0
VERTEX
  5
40E
  8
TEAM-NET
 10
-54.415072
 20
-436.43084
 30
795.584928
 70
    64
  0
VERTEX
  5
40F
  8
TEAM-NET
 10
-67.238154
 20
-428.919252
 30
782.761846
 70
    64
  0
VERTEX
  5
410
  8
TEAM-NET
 10
-79.549513
 20
-419.855716
 30
770.450487
 70
    64
  0
VERTEX
  5
411
  8
TEAM-NET
 10
-91.255452
 20
-409.30921
 30
758.744548
 70
    64
  0
VERTEX
  5
412
  8
TEAM-NET
 10
-102.266882
 20
-397.36
 30
747.733118
 70
    64
  0
VERTEX
  5
413
  8
TEAM-NET
 10
-112.5
 20
-384.099026
 30
737.5
 70
    64
  0
VERTEX
  5
414
  8
TEAM-NET
 10
-121.876925
 20
-369.627212
 30
728.123075
 70
    64
  0
VERTEX
  5
415
  8
TEAM-NET
 10
-130.326292
 20
-354.054698
 30
719.673708
 70
    64
  0
VERTEX
  5
416
  8
TEAM-NET
 10
-137.783798
 20
-337.5
 30
712.216202
 70
    64
  0
VERTEX
  5
417
  8
TEAM-NET
 10
-144.192686
 20
-320.089109
 30
705.807314
 70
    64
  0
VERTEX
  5
418
  8
TEAM-NET
 10
-149.50418
 20
-301.954532
 30
700.49582
 70
    64
  0
VERTEX
  5
419
  8
TEAM-NET
 10
-153.677858
 20
-283.234285
 30
696.322142
 70
    64
  0
VERTEX
  5
41A
  8
TEAM-NET
 10
-156.681954
 20
-264.07084
 30
693.318046
 70
    64
  0
VERTEX
  5
41B
  8
TEAM-NET
 10
-158.493606
 20
-244.610042
 30
691.506394
 70
    64
  0
VERTEX
  5
41C
  8
TEAM-NET
 10
-159.099026
 20
-225.0
 30
690.900974
 70
    64
  0
VERTEX
  5
41D
  8
TEAM-NET
 10
-158.493606
 20
-205.389958
 30
691.506394
 70
    64
  0
VERTEX
  5
41E
  8
TEAM-NET
 10
-156.681954
 20
-185.92916
 30
693.318046
 70
    64
  0
VERTEX
  5
41F
  8
TEAM-NET
 10
-153.677858
 20
-166.765715
 30
696.322142
 70
    64
  0
VERTEX
  5
420
  8
TEAM-NET
 10
-149.50418
 20
-148.045468
 30
700.49582
 70
    64
  0
VERTEX
  5
421
  8
TEAM-NET
 10
-144.192686
 20
-129.910891
 30
705.807314
 70
    64
  0
VERTEX
  5
422
  8
TEAM-NET
 10
-137.783798
 20
-112.5
 30
712.216202
 70
    64
  0
VERTEX
  5
423
  8
TEAM-NET
 10
-130.326292
 20
-95.945302
 30
719.673708
 70
    64
  0
VERTEX
  5
424
  8
TEAM-NET
 10
-121.876925
 20
-80.372788
 30
728.123075
 70
    64
  0
VERTEX
  5
425
  8
TEAM-NET
 10
-112.5
 20
-65.900974
 30
737.5
 70
    64
  0
VERTEX
  5
426
  8
TEAM-NET
 10
-102.266882
 20
-52.64
 30
747.733118
 70
    64
  0
VERTEX
  5
427
  8
TEAM-NET
 10
-91.255452
 20
-40.69079
 30
758.744548
 70
    64
  0
VERTEX
  5
428
  8
TEAM-NET
 10
-79.549513
 20
-30.144284
 30
770.450487
 70
    64
  0
VERTEX
  5
429
  8
TEAM-NET
 10
-67.238154
 20
-21.080748
 30
782.761846
 70
    64
  0
VERTEX
  5
42A
  8
TEAM-NET
 10
-54.415072
 20
-13.56916
 30
795.584928
 70
    64
  0
VERTEX
  5
42B
  8
TEAM-NET
 10
-41.177858
 20
-7.666689
 30
808.822142
 70
    64
  0
VERTEX
  5
42C
  8
TEAM-NET
 10
-27.627256
 20
-3.418256
 30
822.372744
 70
    64
  0
VERTEX
  5
42D
  8
TEAM-NET
 10
-13.866394
 20
-0.856193
 30
836.133606
 70
    64
  0
VERTEX
  5
42E
  8
TEAM-NET
 10
0.0
 20
0.0
 30
850.0
 70
    64
  0
VERTEX
  5
42F
  8
TEAM-NET
 10
0.0
 20
-450.0
 30
850.0
 70
    64
  0
VERTEX
  5
430
  8
TEAM-NET
 10
-15.022164
 20
-449.143807
 30
837.394908
 70
    64
  0
VERTEX
  5
431
  8
TEAM-NET
 10
-29.93
 20
-446.581744
 30
824.885748
 70
    64
  0
VERTEX
  5
432
  8
TEAM-NET
 10
-44.610051
 20
-442.333311
 30
812.567723
 70
    64
  0
VERTEX
  5
433
  8
TEAM-NET
 10
-58.950592
 20
-436.43084
 30
800.53458
 70
    64
  0
VERTEX
  5
434
  8
TEAM-NET
 10
-72.842483
 20
-428.919252
 30
788.877899
 70
    64
  0
VERTEX
  5
435
  8
TEAM-NET
 10
-86.18
 20
-419.855716
 30
777.686394
 70
    64
  0
VERTEX
  5
436
  8
TEAM-NET
 10
-98.861634
 20
-409.30921
 30
767.045239
 70
    64
  0
VERTEX
  5
437
  8
TEAM-NET
 10
-110.790872
 20
-397.36
 30
757.03542
 70
    64
  0
VERTEX
  5
438
  8
TEAM-NET
 10
-121.876925
 20
-384.099026
 30
747.733118
 70
    64
  0
VERTEX
  5
439
  8
TEAM-NET
 10
-132.03542
 20
-369.627212
 30
739.209128
 70
    64
  0
VERTEX
  5
43A
  8
TEAM-NET
 10
-141.189046
 20
-354.054698
 30
731.528323
 70
    64
  0
VERTEX
  5
43B
  8
TEAM-NET
 10
-149.268138
 20
-337.5
 30
724.74916
 70
    64
  0
VERTEX
  5
43C
  8
TEAM-NET
 10
-156.21121
 20
-320.089109
 30
718.923231
 70
    64
  0
VERTEX
  5
43D
  8
TEAM-NET
 10
-161.96542
 20
-301.954532
 30
714.094876
 70
    64
  0
VERTEX
  5
43E
  8
TEAM-NET
 10
-166.486975
 20
-283.234285
 30
710.300841
 70
    64
  0
VERTEX
  5
43F
  8
TEAM-NET
 10
-169.741464
 20
-264.07084
 30
707.57
 70
    64
  0
VERTEX
  5
440
  8
TEAM-NET
 10
-171.704118
 20
-244.610042
 30
705.923138
 70
    64
  0
VERTEX
  5
441
  8
TEAM-NET
 10
-172.36
 20
-225.0
 30
705.372788
 70
    64
  0
VERTEX
  5
442
  8
TEAM-NET
 10
-171.704118
 20
-205.389958
 30
705.923138
 70
    64
  0
VERTEX
  5
443
  8
TEAM-NET
 10
-169.741464
 20
-185.92916
 30
707.57
 70
    64
  0
VERTEX
  5
444
  8
TEAM-NET
 10
-166.486975
 20
-166.765715
 30
710.300841
 70
    64
  0
VERTEX
  5
445
  8
TEAM-NET
 10
-161.96542
 20
-148.045468
 30
714.094876
 70
    64
  0
VERTEX
  5
446
  8
TEAM-NET
 10
-156.21121
 20
-129.910891
 30
718.923231
 70
    64
  0
VERTEX
  5
447
  8
TEAM-NET
 10
-149.268138
 20
-112.5
 30
724.74916
 70
    64
  0
VERTEX
  5
448
  8
TEAM-NET
 10
-141.189046
 20
-95.945302
 30
731.528323
 70
    64
  0
VERTEX
  5
449
  8
TEAM-NET
 10
-132.03542
 20
-80.372788
 30
739.209128
 70
    64
  0
VERTEX
  5
44A
  8
TEAM-NET
 10
-121.876925
 20
-65.900974
 30
747.733118
 70
    64
  0
VERTEX
  5
44B
  8
TEAM-NET
 10
-110.790872
 20
-52.64
 30
757.03542
 70
    64
  0
VERTEX
  5
44C
  8
TEAM-NET
 10
-98.861634
 20
-40.69079
 30
767.045239
 70
    64
  0
VERTEX
  5
44D
  8
TEAM-NET
 10
-86.18
 20
-30.144284
 30
777.686394
 70
    64
  0
VERTEX
  5
44E
  8
TEAM-NET
 10
-72.842483
 20
-21.080748
 30
788.877899
 70
    64
  0
VERTEX
  5
44F
  8
TEAM-NET
 10
-58.950592
 20
-13.56916
 30
800.53458
 70
    64
  0
VERTEX
  5
450
  8
TEAM-NET
 10
-44.610051
 20
-7.666689
 30
812.567723
 70
    64
  0
VERTEX
  5
451
  8
TEAM-NET
 10
-29.93
 20
-3.418256
 30
824.885748
 70
    64
  0
VERTEX
  5
452
  8
TEAM-NET
 10
-15.022164
 20
-0.856193
 30
837.394908
 70
    64
  0
VERTEX
  5
453
  8
TEAM-NET
 10
0.0
 20
0.0
 30
850.0
 70
    64
  0
VERTEX
  5
454
  8
TEAM-NET
 10
0.0
 20
-450.0
 30
850.0
 70
    64
  0
VERTEX
  5
455
  8
TEAM-NET
 10
-16.063606
 20
-449.143807
 30
838.752142
 70
    64
  0
VERTEX
  5
456
  8
TEAM-NET
 10
-32.004958
 20
-446.581744
 30
827.589887
 70
    64
  0
VERTEX
  5
457
  8
TEAM-NET
 10
-47.702734
 20
-442.333311
 30
816.598186
 70
    64
  0
VERTEX
  5
458
  8
TEAM-NET
 10
-63.037462
 20
-436.43084
 30
805.860694
 70
    64
  0
VERTEX
  5
459
  8
TEAM-NET
 10
-77.892438
 20
-428.919252
 30
795.459128
 70
    64
  0
VERTEX
  5
45A
  8
TEAM-NET
 10
-92.154605
 20
-419.855716
 30
785.472651
 70
    64
  0
VERTEX
  5
45B
  8
TEAM-NET
 10
-105.71542
 20
-409.30921
 30
775.977266
 70
    64
  0
VERTEX
  5
45C
  8
TEAM-NET
 10
-118.471677
 20
-397.36
 30
767.045239
 70
    64
  0
VERTEX
  5
45D
  8
TEAM-NET
 10
-130.326292
 20
-384.099026
 30
758.744548
 70
    64
  0
VERTEX
  5
45E
  8
TEAM-NET
 10
-141.189046
 20
-369.627212
 30
751.138366
 70
    64
  0
VERTEX
  5
45F
  8
TEAM-NET
 10
-150.977266
 20
-354.054698
 30
744.28458
 70
    64
  0
VERTEX
  5
460
  8
TEAM-NET
 10
-159.616458
 20
-337.5
 30
738.235353
 70
    64
  0
VERTEX
  5
461
  8
TEAM-NET
 10
-167.040872
 20
-320.089109
 30
733.036722
 70
    64
  0
VERTEX
  5
462
  8
TEAM-NET
 10
-173.194005
 20
-301.954532
 30
728.728252
 70
    64
  0
VERTEX
  5
463
  8
TEAM-NET
 10
-178.029026
 20
-283.234285
 30
725.342734
 70
    64
  0
VERTEX
  5
464
  8
TEAM-NET
 10
-181.509139
 20
-264.07084
 30
722.905933
 70
    64
  0
VERTEX
  5
465
  8
TEAM-NET
 10
-183.607858
 20
-244.610042
 30
721.436394
 70
    64
  0
VERTEX
  5
466
  8
TEAM-NET
 10
-184.30921
 20
-225.0
 30
720.945302
 70
    64
  0
VERTEX
  5
467
  8
TEAM-NET
 10
-183.607858
 20
-205.389958
 30
721.436394
 70
    64
  0
VERTEX
  5
468
  8
TEAM-NET
 10
-181.509139
 20
-185.92916
 30
722.905933
 70
    64
  0
VERTEX
  5
469
  8
TEAM-NET
 10
-178.029026
 20
-166.765715
 30
725.342734
 70
    64
  0
VERTEX
  5
46A
  8
TEAM-NET
 10
-173.194005
 20
-148.045468
 30
728.728252
 70
    64
  0
VERTEX
  5
46B
  8
TEAM-NET
 10
-167.040872
 20
-129.910891
 30
733.036722
 70
    64
  0
VERTEX
  5
46C
  8
TEAM-NET
 10
-159.616458
 20
-112.5
 30
738.235353
 70
    64
  0
VERTEX
  5
46D
  8
TEAM-NET
 10
-150.977266
 20
-95.945302
 30
744.28458
 70
    64
  0
VERTEX
  5
46E
  8
TEAM-NET
 10
-141.189046
 20
-80.372788
 30
751.138366
 70
    64
  0
VERTEX
  5
46F
  8
TEAM-NET
 10
-130.326292
 20
-65.900974
 30
758.744548
 70
    64
  0
VERTEX
  5
470
  8
TEAM-NET
 10
-118.471677
 20
-52.64
 30
767.045239
 70
    64
  0
VERTEX
  5
471
  8
TEAM-NET
 10
-105.71542
 20
-40.69079
 30
775.977266
 70
    64
  0
VERTEX
  5
472
  8
TEAM-NET
 10
-92.154605
 20
-30.144284
 30
785.472651
 70
    64
  0
VERTEX
  5
473
  8
TEAM-NET
 10
-77.892438
 20
-21.080748
 30
795.459128
 70
    64
  0
VERTEX
  5
474
  8
TEAM-NET
 10
-63.037462
 20
-13.56916
 30
805.860694
 70
    64
  0
VERTEX
  5
475
  8
TEAM-NET
 10
-47.702734
 20
-7.666689
 30
816.598186
 70
    64
  0
VERTEX
  5
476
  8
TEAM-NET
 10
-32.004958
 20
-3.418256
 30
827.589887
 70
    64
  0
VERTEX
  5
477
  8
TEAM-NET
 10
-16.063606
 20
-0.856193
 30
838.752142
 70
    64
  0
VERTEX
  5
478
  8
TEAM-NET
 10
0.0
 20
0.0
 30
850.0
 70
    64
  0
VERTEX
  5
479
  8
TEAM-NET
 10
0.0
 20
-450.0
 30
850.0
 70
    64
  0
VERTEX
  5
47A
  8
TEAM-NET
 10
-16.982795
 20
-449.143807
 30
840.194979
 70
    64
  0
VERTEX
  5
47B
  8
TEAM-NET
 10
-33.83634
 20
-446.581744
 30
830.46458
 70
    64
  0
VERTEX
  5
47C
  8
TEAM-NET
 10
-50.43237
 20
-442.333311
 30
820.882857
 70
    64
  0
VERTEX
  5
47D
  8
TEAM-NET
 10
-66.64458
 20
-436.43084
 30
811.522734
 70
    64
  0
VERTEX
  5
47E
  8
TEAM-NET
 10
-82.349584
 20
-428.919252
 30
802.455446
 70
    64
  0
VERTEX
  5
47F
  8
TEAM-NET
 10
-97.427858
 20
-419.855716
 30
793.75
 70
    64
  0
VERTEX
  5
480
  8
TEAM-NET
 10
-111.764647
 20
-409.30921
 30
785.472651
 70
    64
  0
VERTEX
  5
481
  8
TEAM-NET
 10
-125.25084
 20
-397.36
 30
777.686394
 70
    64
  0
VERTEX
  5
482
  8
TEAM-NET
 10
-137.783798
 20
-384.099026
 30
770.450487
 70
    64
  0
VERTEX
  5
483
  8
TEAM-NET
 10
-149.268138
 20
-369.627212
 30
763.82
 70
    64
  0
VERTEX
  5
484
  8
TEAM-NET
 10
-159.616458
 20
-354.054698
 30
757.845395
 70
    64
  0
VERTEX
  5
485
  8
TEAM-NET
 10
-168.75
 20
-337.5
 30
752.572142
 70
    64
  0
VERTEX
  5
486
  8
TEAM-NET
 10
-176.599253
 20
-320.089109
 30
748.040374
 70
    64
  0
VERTEX
  5
487
  8
TEAM-NET
 10
-183.104478
 20
-301.954532
 30
744.28458
 70
    64
  0
VERTEX
  5
488
  8
TEAM-NET
 10
-188.216168
 20
-283.234285
 30
741.333345
 70
    64
  0
VERTEX
  5
489
  8
TEAM-NET
 10
-191.89542
 20
-264.07084
 30
739.209128
 70
    64
  0
VERTEX
  5
48A
  8
TEAM-NET
 10
-194.114231
 20
-244.610042
 30
737.928096
 70
    64
  0
VERTEX
  5
48B
  8
TEAM-NET
 10
-194.855716
 20
-225.0
 30
737.5
 70
    64
  0
VERTEX
  5
48C
  8
TEAM-NET
 10
-194.114231
 20
-205.389958
 30
737.928096
 70
    64
  0
VERTEX
  5
48D
  8
TEAM-NET
 10
-191.89542
 20
-185.92916
 30
739.209128
 70
    64
  0
VERTEX
  5
48E
  8
TEAM-NET
 10
-188.216168
 20
-166.765715
 30
741.333345
 70
    64
  0
VERTEX
  5
48F
  8
TEAM-NET
 10
-183.104478
 20
-148.045468
 30
744.28458
 70
    64
  0
VERTEX
  5
490
  8
TEAM-NET
 10
-176.599253
 20
-129.910891
 30
748.040374
 70
    64
  0
VERTEX
  5
491
  8
TEAM-NET
 10
-168.75
 20
-112.5
 30
752.572142
 70
    64
  0
VERTEX
  5
492
  8
TEAM-NET
 10
-159.616458
 20
-95.945302
 30
757.845395
 70
    64
  0
VERTEX
  5
493
  8
TEAM-NET
 10
-149.268138
 20
-80.372788
 30
763.82
 70
    64
  0
VERTEX
  5
494
  8
TEAM-NET
 10
-137.783798
 20
-65.900974
 30
770.450487
 70
    64
  0
VERTEX
  5
495
  8
TEAM-NET
 10
-125.25084
 20
-52.64
 30
777.686394
 70
    64
  0
VERTEX
  5
496
  8
TEAM-NET
 10
-111.764647
 20
-40.69079
 30
785.472651
 70
    64
  0
VERTEX
  5
497
  8
TEAM-NET
 10
-97.427858
 20
-30.144284
 30
793.75
 70
    64
  0
VERTEX
  5
498
  8
TEAM-NET
 10
-82.349584
 20
-21.080748
 30
802.455446
 70
    64
  0
VERTEX
  5
499
  8
TEAM-NET
 10
-66.64458
 20
-13.56916
 30
811.522734
 70
    64
  0
VERTEX
  5
49A
  8
TEAM-NET
 10
-50.43237
 20
-7.666689
 30
820.882857
 70
    64
  0
VERTEX
  5
49B
  8
TEAM-NET
 10
-33.83634
 20
-3.418256
 30
830.46458
 70
    64
  0
VERTEX
  5
49C
  8
TEAM-NET
 10
-16.982795
 20
-0.856193
 30
840.194979
 70
    64
  0
VERTEX
  5
49D
  8
TEAM-NET
 10
0.0
 20
0.0
 30
850.0
 70
    64
  0
VERTEX
  5
49E
  8
TEAM-NET
 10
0.0
 20
-450.0
 30
850.0
 70
    64
  0
VERTEX
  5
49F
  8
TEAM-NET
 10
-17.772734
 20
-449.143807
 30
841.712438
 70
    64
  0
VERTEX
  5
4A0
  8
TEAM-NET
 10
-35.410207
 20
-446.581744
 30
833.48795
 70
    64
  0
VERTEX
  5
4A1
  8
TEAM-NET
 10
-52.778186
 20
-442.333311
 30
825.389128
 70
    64
  0
VERTEX
  5
4A2
  8
TEAM-NET
 10
-69.744492
 20
-436.43084
 30
817.477609
 70
    64
  0
VERTEX
  5
4A3
  8
TEAM-NET
 10
-86.18
 20
-428.919252
 30
809.813606
 70
    64
  0
VERTEX
  5
4A4
  8
TEAM-NET
 10
-101.959626
 20
-419.855716
 30
802.455446
 70
    64
  0
VERTEX
  5
4A5
  8
TEAM-NET
 10
-116.963278
 20
-409.30921
 30
795.459128
 70
    64
  0
VERTEX
  5
4A6
  8
TEAM-NET
 10
-131.076769
 20
-397.36
 30
788.877899
 70
    64
  0
VERTEX
  5
4A7
  8
TEAM-NET
 10
-144.192686
 20
-384.099026
 30
782.761846
 70
    64
  0
VERTEX
  5
4A8
  8
TEAM-NET
 10
-156.21121
 20
-369.627212
 30
777.157517
 70
    64
  0
VERTEX
  5
4A9
  8
TEAM-NET
 10
-167.040872
 20
-354.054698
 30
772.107562
 70
    64
  0
VERTEX
  5
4AA
  8
TEAM-NET
 10
-176.599253
 20
-337.5
 30
767.650416
 70
    64
  0
VERTEX
  5
4AB
  8
TEAM-NET
 10
-184.813606
 20
-320.089109
 30
763.82
 70
    64
  0
VERTEX
  5
4AC
  8
TEAM-NET
 10
-191.621416
 20
-301.954532
 30
760.645466
 70
    64
  0
VERTEX
  5
4AD
  8
TEAM-NET
 10
-196.970872
 20
-283.234285
 30
758.150974
 70
    64
  0
VERTEX
  5
4AE
  8
TEAM-NET
 10
-200.82126
 20
-264.07084
 30
756.355508
 70
    64
  0
VERTEX
  5
4AF
  8
TEAM-NET
 10
-203.143278
 20
-244.610042
 30
755.272734
 70
    64
  0
VERTEX
  5
4B0
  8
TEAM-NET
 10
-203.919252
 20
-225.0
 30
754.910891
 70
    64
  0
VERTEX
  5
4B1
  8
TEAM-NET
 10
-203.143278
 20
-205.389958
 30
755.272734
 70
    64
  0
VERTEX
  5
4B2
  8
TEAM-NET
 10
-200.82126
 20
-185.92916
 30
756.355508
 70
    64
  0
VERTEX
  5
4B3
  8
TEAM-NET
 10
-196.970872
 20
-166.765715
 30
758.150974
 70
    64
  0
VERTEX
  5
4B4
  8
TEAM-NET
 10
-191.621416
 20
-148.045468
 30
760.645466
 70
    64
  0
VERTEX
  5
4B5
  8
TEAM-NET
 10
-184.813606
 20
-129.910891
 30
763.82
 70
    64
  0
VERTEX
  5
4B6
  8
TEAM-NET
 10
-176.599253
 20
-112.5
 30
767.650416
 70
    64
  0
VERTEX
  5
4B7
  8
TEAM-NET
 10
-167.040872
 20
-95.945302
 30
772.107562
 70
    64
  0
VERTEX
  5
4B8
  8
TEAM-NET
 10
-156.21121
 20
-80.372788
 30
777.157517
 70
    64
  0
VERTEX
  5
4B9
  8
TEAM-NET
 10
-144.192686
 20
-65.900974
 30
782.761846
 70
    64
  0
VERTEX
  5
4BA
  8
TEAM-NET
 10
-131.076769
 20
-52.64
 30
788.877899
 70
    64
  0
VERTEX
  5
4BB
  8
TEAM-NET
 10
-116.963278
 20
-40.69079
 30
795.459128
 70
    64
  0
VERTEX
  5
4BC
  8
TEAM-NET
 10
-101.959626
 20
-30.144284
 30
802.455446
 70
    64
  0
VERTEX
  5
4BD
  8
TEAM-NET
 10
-86.18
 20
-21.080748
 30
809.813606
 70
    64
  0
VERTEX
  5
4BE
  8
TEAM-NET
 10
-69.744492
 20
-13.56916
 30
817.477609
 70
    64
  0
VERTEX
  5
4BF
  8
TEAM-NET
 10
-52.778186
 20
-7.666689
 30
825.389128
 70
    64
  0
VERTEX
  5
4C0
  8
TEAM-NET
 10
-35.410207
 20
-3.418256
 30
833.48795
 70
    64
  0
VERTEX
  5
4C1
  8
TEAM-NET
 10
-17.772734
 20
-0.856193
 30
841.712438
 70
    64
  0
VERTEX
  5
4C2
  8
TEAM-NET
 10
0.0
 20
0.0
 30
850.0
 70
    64
  0
VERTEX
  5
4C3
  8
TEAM-NET
 10
0.0
 20
-450.0
 30
850.0
 70
    64
  0
VERTEX
  5
4C4
  8
TEAM-NET
 10
-18.427412
 20
-449.143807
 30
843.292971
 70
    64
  0
VERTEX
  5
4C5
  8
TEAM-NET
 10
-36.71458
 20
-446.581744
 30
836.636986
 70
    64
  0
VERTEX
  5
4C6
  8
TEAM-NET
 10
-54.722328
 20
-442.333311
 30
830.082701
 70
    64
  0
VERTEX
  5
4C7
  8
TEAM-NET
 10
-72.313606
 20
-436.43084
 30
823.68
 70
    64
  0
VERTEX
  5
4C8
  8
TEAM-NET
 10
-89.354534
 20
-428.919252
 30
817.477609
 70
    64
  0
VERTEX
  5
4C9
  8
TEAM-NET
 10
-105.71542
 20
-419.855716
 30
811.522734
 70
    64
  0
VERTEX
  5
4CA
  8
TEAM-NET
 10
-121.271748
 20
-409.30921
 30
805.860694
 70
    64
  0
VERTEX
  5
4CB
  8
TEAM-NET
 10
-135.905124
 20
-397.36
 30
800.53458
 70
    64
  0
VERTEX
  5
4CC
  8
TEAM-NET
 10
-149.50418
 20
-384.099026
 30
795.584928
 70
    64
  0
VERTEX
  5
4CD
  8
TEAM-NET
 10
-161.96542
 20
-369.627212
 30
791.049408
 70
    64
  0
VERTEX
  5
4CE
  8
TEAM-NET
 10
-173.194005
 20
-354.054698
 30
786.962538
 70
    64
  0
VERTEX
  5
4CF
  8
TEAM-NET
 10
-183.104478
 20
-337.5
 30
783.35542
 70
    64
  0
VERTEX
  5
4D0
  8
TEAM-NET
 10
-191.621416
 20
-320.089109
 30
780.255508
 70
    64
  0
VERTEX
  5
4D1
  8
TEAM-NET
 10
-198.68
 20
-301.954532
 30
777.686394
 70
    64
  0
VERTEX
  5
4D2
  8
TEAM-NET
 10
-204.226509
 20
-283.234285
 30
775.66763
 70
    64
  0
VERTEX
  5
4D3
  8
TEAM-NET
 10
-208.21873
 20
-264.07084
 30
774.21458
 70
    64
  0
VERTEX
  5
4D4
  8
TEAM-NET
 10
-210.626281
 20
-244.610042
 30
773.338303
 70
    64
  0
VERTEX
  5
4D5
  8
TEAM-NET
 10
-211.43084
 20
-225.0
 30
773.045468
 70
    64
  0
VERTEX
  5
4D6
  8
TEAM-NET
 10
-210.626281
 20
-205.389958
 30
773.338303
 70
    64
  0
VERTEX
  5
4D7
  8
TEAM-NET
 10
-208.21873
 20
-185.92916
 30
774.21458
 70
    64
  0
VERTEX
  5
4D8
  8
TEAM-NET
 10
-204.226509
 20
-166.765715
 30
775.66763
 70
    64
  0
VERTEX
  5
4D9
  8
TEAM-NET
 10
-198.68
 20
-148.045468
 30
777.686394
 70
    64
  0
VERTEX
  5
4DA
  8
TEAM-NET
 10
-191.621416
 20
-129.910891
 30
780.255508
 70
    64
  0
VERTEX
  5
4DB
  8
TEAM-NET
 10
-183.104478
 20
-112.5
 30
783.35542
 70
    64
  0
VERTEX
  5
4DC
  8
TEAM-NET
 10
-173.194005
 20
-95.945302
 30
786.962538
 70
    64
  0
VERTEX
  5
4DD
  8
TEAM-NET
 10
-161.96542
 20
-80.372788
 30
791.049408
 70
    64
  0
VERTEX
  5
4DE
  8
TEAM-NET
 10
-149.50418
 20
-65.900974
 30
795.584928
 70
    64
  0
VERTEX
  5
4DF
  8
TEAM-NET
 10
-135.905124
 20
-52.64
 30
800.53458
 70
    64
  0
VERTEX
  5
4E0
  8
TEAM-NET
 10
-121.271748
 20
-40.69079
 30
805.860694
 70
    64
  0
VERTEX
  5
4E1
  8
TEAM-NET
 10
-105.71542
 20
-30.144284
 30
811.522734
 70
    64
  0
VERTEX
  5
4E2
  8
TEAM-NET
 10
-89.354534
 20
-21.080748
 30
817.477609
 70
    64
  0
VERTEX
  5
4E3
  8
TEAM-NET
 10
-72.313606
 20
-13.56916
 30
823.68
 70
    64
  0
VERTEX
  5
4E4
  8
TEAM-NET
 10
-54.722328
 20
-7.666689
 30
830.082701
 70
    64
  0
VERTEX
  5
4E5
  8
TEAM-NET
 10
-36.71458
 20
-3.418256
 30
836.636986
 70
    64
  0
VERTEX
  5
4E6
  8
TEAM-NET
 10
-18.427412
 20
-0.856193
 30
843.292971
 70
    64
  0
VERTEX
  5
4E7
  8
TEAM-NET
 10
0.0
 20
0.0
 30
850.0
 70
    64
  0
VERTEX
  5
4E8
  8
TEAM-NET
 10
0.0
 20
-450.0
 30
850.0
 70
    64
  0
VERTEX
  5
4E9
  8
TEAM-NET
 10
-18.941846
 20
-449.143807
 30
844.924548
 70
    64
  0
VERTEX
  5
4EA
  8
TEAM-NET
 10
-37.739533
 20
-446.581744
 30
839.887723
 70
    64
  0
VERTEX
  5
4EB
  8
TEAM-NET
 10
-56.25
 20
-442.333311
 30
834.927858
 70
    64
  0
VERTEX
  5
4EC
  8
TEAM-NET
 10
-74.33237
 20
-436.43084
 30
830.082701
 70
    64
  0
VERTEX
  5
4ED
  8
TEAM-NET
 10
-91.849026
 20
-428.919252
 30
825.389128
 70
    64
  0
VERTEX
  5
4EE
  8
TEAM-NET
 10
-108.666655
 20
-419.855716
 30
820.882857
 70
    64
  0
VERTEX
  5
4EF
  8
TEAM-NET
 10
-124.657266
 20
-409.30921
 30
816.598186
 70
    64
  0
VERTEX
  5
4F0
  8
TEAM-NET
 10
-139.699159
 20
-397.36
 30
812.567723
 70
    64
  0
VERTEX
  5
4F1
  8
TEAM-NET
 10
-153.677858
 20
-384.099026
 30
808.822142
 70
    64
  0
VERTEX
  5
4F2
  8
TEAM-NET
 10
-166.486975
 20
-369.627212
 30
805.389949
 70
    64
  0
VERTEX
  5
4F3
  8
TEAM-NET
 10
-178.029026
 20
-354.054698
 30
802.297266
 70
    64
  0
VERTEX
  5
4F4
  8
TEAM-NET
 10
-188.216168
 20
-337.5
 30
799.56763
 70
    64
  0
VERTEX
  5
4F5
  8
TEAM-NET
 10
-196.970872
 20
-320.089109
 30
797.221814
 70
    64
  0
VERTEX
  5
4F6
  8
TEAM-NET
 10
-204.226509
 20
-301.954532
 30
795.277672
 70
    64
  0
VERTEX
  5
4F7
  8
TEAM-NET
 10
-209.927858
 20
-283.234285
 30
793.75
 70
    64
  0
VERTEX
  5
4F8
  8
TEAM-NET
 10
-214.03153
 20
-264.07084
 30
792.650424
 70
    64
  0
VERTEX
  5
4F9
  8
TEAM-NET
 10
-216.506292
 20
-244.610042
 30
791.987314
 70
    64
  0
VERTEX
  5
4FA
  8
TEAM-NET
 10
-217.333311
 20
-225.0
 30
791.765715
 70
    64
  0
VERTEX
  5
4FB
  8
TEAM-NET
 10
-216.506292
 20
-205.389958
 30
791.987314
 70
    64
  0
VERTEX
  5
4FC
  8
TEAM-NET
 10
-214.03153
 20
-185.92916
 30
792.650424
 70
    64
  0
VERTEX
  5
4FD
  8
TEAM-NET
 10
-209.927858
 20
-166.765715
 30
793.75
 70
    64
  0
VERTEX
  5
4FE
  8
TEAM-NET
 10
-204.226509
 20
-148.045468
 30
795.277672
 70
    64
  0
VERTEX
  5
4FF
  8
TEAM-NET
 10
-196.970872
 20
-129.910891
 30
797.221814
 70
    64
  0
VERTEX
  5
500
  8
TEAM-NET
 10
-188.216168
 20
-112.5
 30
799.56763
 70
    64
  0
VERTEX
  5
501
  8
TEAM-NET
 10
-178.029026
 20
-95.945302
 30
802.297266
 70
    64
  0
VERTEX
  5
502
  8
TEAM-NET
 10
-166.486975
 20
-80.372788
 30
805.389949
 70
    64
  0
VERTEX
  5
503
  8
TEAM-NET
 10
-153.677858
 20
-65.900974
 30
808.822142
 70
    64
  0
VERTEX
  5
504
  8
TEAM-NET
 10
-139.699159
 20
-52.64
 30
812.567723
 70
    64
  0
VERTEX
  5
505
  8
TEAM-NET
 10
-124.657266
 20
-40.69079
 30
816.598186
 70
    64
  0
VERTEX
  5
506
  8
TEAM-NET
 10
-108.666655
 20
-30.144284
 30
820.882857
 70
    64
  0
VERTEX
  5
507
  8
TEAM-NET
 10
-91.849026
 20
-21.080748
 30
825.389128
 70
    64
  0
VERTEX
  5
508
  8
TEAM-NET
 10
-74.33237
 20
-13.56916
 30
830.082701
 70
    64
  0
VERTEX
  5
509
  8
TEAM-NET
 10
-56.25
 20
-7.666689
 30
834.927858
 70
    64
  0
VERTEX
  5
50A
  8
TEAM-NET
 10
-37.739533
 20
-3.418256
 30
839.887723
 70
    64
  0
VERTEX
  5
50B
  8
TEAM-NET
 10
-18.941846
 20
-0.856193
 30
844.924548
 70
    64
  0
VERTEX
  5
50C
  8
TEAM-NET
 10
0.0
 20
0.0
 30
850.0
 70
    64
  0
VERTEX
  5
50D
  8
TEAM-NET
 10
0.0
 20
-450.0
 30
850.0
 70
    64
  0
VERTEX
  5
50E
  8
TEAM-NET
 10
-19.312122
 20
-449.143807
 30
846.594752
 70
    64
  0
VERTEX
  5
50F
  8
TEAM-NET
 10
-38.477266
 20
-446.581744
 30
843.21542
 70
    64
  0
VERTEX
  5
510
  8
TEAM-NET
 10
-57.349576
 20
-442.333311
 30
839.887723
 70
    64
  0
VERTEX
  5
511
  8
TEAM-NET
 10
-75.78542
 20
-436.43084
 30
836.636986
 70
    64
  0
VERTEX
  5
512
  8
TEAM-NET
 10
-93.644492
 20
-428.919252
 30
833.48795
 70
    64
  0
VERTEX
  5
513
  8
TEAM-NET
 10
-110.790872
 20
-419.855716
 30
830.46458
 70
    64
  0
VERTEX
  5
514
  8
TEAM-NET
 10
-127.094067
 20
-409.30921
 30
827.589887
 70
    64
  0
VERTEX
  5
515
  8
TEAM-NET
 10
-142.43
 20
-397.36
 30
824.885748
 70
    64
  0
VERTEX
  5
516
  8
TEAM-NET
 10
-156.681954
 20
-384.099026
 30
822.372744
 70
    64
  0
VERTEX
  5
517
  8
TEAM-NET
 10
-169.741464
 20
-369.627212
 30
820.07
 70
    64
  0
VERTEX
  5
518
  8
TEAM-NET
 10
-181.509139
 20
-354.054698
 30
817.995042
 70
    64
  0
VERTEX
  5
519
  8
TEAM-NET
 10
-191.89542
 20
-337.5
 30
816.16366
 70
    64
  0
VERTEX
  5
51A
  8
TEAM-NET
 10
-200.82126
 20
-320.089109
 30
814.589793
 70
    64
  0
VERTEX
  5
51B
  8
TEAM-NET
 10
-208.21873
 20
-301.954532
 30
813.28542
 70
    64
  0
VERTEX
  5
51C
  8
TEAM-NET
 10
-214.03153
 20
-283.234285
 30
812.260467
 70
    64
  0
VERTEX
  5
51D
  8
TEAM-NET
 10
-218.21542
 20
-264.07084
 30
811.522734
 70
    64
  0
VERTEX
  5
51E
  8
TEAM-NET
 10
-220.738559
 20
-244.610042
 30
811.077836
 70
    64
  0
VERTEX
  5
51F
  8
TEAM-NET
 10
-221.581744
 20
-225.0
 30
810.92916
 70
    64
  0
VERTEX
  5
520
  8
TEAM-NET
 10
-220.738559
 20
-205.389958
 30
811.077836
 70
    64
  0
VERTEX
  5
521
  8
TEAM-NET
 10
-218.21542
 20
-185.92916
 30
811.522734
 70
    64
  0
VERTEX
  5
522
  8
TEAM-NET
 10
-214.03153
 20
-166.765715
 30
812.260467
 70
    64
  0
VERTEX
  5
523
  8
TEAM-NET
 10
-208.21873
 20
-148.045468
 30
813.28542
 70
    64
  0
VERTEX
  5
524
  8
TEAM-NET
 10
-200.82126
 20
-129.910891
 30
814.589793
 70
    64
  0
VERTEX
  5
525
  8
TEAM-NET
 10
-191.89542
 20
-112.5
 30
816.16366
 70
    64
  0
VERTEX
  5
526
  8
TEAM-NET
 10
-181.509139
 20
-95.945302
 30
817.995042
 70
    64
  0
VERTEX
  5
527
  8
TEAM-NET
 10
-169.741464
 20
-80.372788
 30
820.07
 70
    64
  0
VERTEX
  5
528
  8
TEAM-NET
 10
-156.681954
 20
-65.900974
 30
822.372744
 70
    64
  0
VERTEX
  5
529
  8
TEAM-NET
 10
-142.43
 20
-52.64
 30
824.885748
 70
    64
  0
VERTEX
  5
52A
  8
TEAM-NET
 10
-127.094067
 20
-40.69079
 30
827.589887
 70
    64
  0
VERTEX
  5
52B
  8
TEAM-NET
 10
-110.790872
 20
-30.144284
 30
830.46458
 70
    64
  0
VERTEX
  5
52C
  8
TEAM-NET
 10
-93.644492
 20
-21.080748
 30
833.48795
 70
    64
  0
VERTEX
  5
52D
  8
TEAM-NET
 10
-75.78542
 20
-13.56916
 30
836.636986
 70
    64
  0
VERTEX
  5
52E
  8
TEAM-NET
 10
-57.349576
 20
-7.666689
 30
839.887723
 70
    64
  0
VERTEX
  5
52F
  8
TEAM-NET
 10
-38.477266
 20
-3.418256
 30
843.21542
 70
    64
  0
VERTEX
  5
530
  8
TEAM-NET
 10
-19.312122
 20
-0.856193
 30
846.594752
 70
    64
  0
VERTEX
  5
531
  8
TEAM-NET
 10
0.0
 20
0.0
 30
850.0
 70
    64
  0
VERTEX
  5
532
  8
TEAM-NET
 10
0.0
 20
-450.0
 30
850.0
 70
    64
  0
VERTEX
  5
533
  8
TEAM-NET
 10
-19.53542
 20
-449.143807
 30
848.290872
 70
    64
  0
VERTEX
  5
534
  8
TEAM-NET
 10
-38.922164
 20
-446.581744
 30
846.594752
 70
    64
  0
VERTEX
  5
535
  8
TEAM-NET
 10
-58.012686
 20
-442.333311
 30
844.924548
 70
    64
  0
VERTEX
  5
536
  8
TEAM-NET
 10
-76.661697
 20
-436.43084
 30
843.292971
 70
    64
  0
VERTEX
  5
537
  8
TEAM-NET
 10
-94.727266
 20
-428.919252
 30
841.712438
 70
    64
  0
VERTEX
  5
538
  8
TEAM-NET
 10
-112.071904
 20
-419.855716
 30
840.194979
 70
    64
  0
VERTEX
  5
539
  8
TEAM-NET
 10
-128.563606
 20
-409.30921
 30
838.752142
 70
    64
  0
VERTEX
  5
53A
  8
TEAM-NET
 10
-144.076862
 20
-397.36
 30
837.394908
 70
    64
  0
VERTEX
  5
53B
  8
TEAM-NET
 10
-158.493606
 20
-384.099026
 30
836.133606
 70
    64
  0
VERTEX
  5
53C
  8
TEAM-NET
 10
-171.704118
 20
-369.627212
 30
834.977836
 70
    64
  0
VERTEX
  5
53D
  8
TEAM-NET
 10
-183.607858
 20
-354.054698
 30
833.936394
 70
    64
  0
VERTEX
  5
53E
  8
TEAM-NET
 10
-194.114231
 20
-337.5
 30
833.017205
 70
    64
  0
VERTEX
  5
53F
  8
TEAM-NET
 10
-203.143278
 20
-320.089109
 30
832.227266
 70
    64
  0
VERTEX
  5
540
  8
TEAM-NET
 10
-210.626281
 20
-301.954532
 30
831.572588
 70
    64
  0
VERTEX
  5
541
  8
TEAM-NET
 10
-216.506292
 20
-283.234285
 30
831.058154
 70
    64
  0
VERTEX
  5
542
  8
TEAM-NET
 10
-220.738559
 20
-264.07084
 30
830.687878
 70
    64
  0
VERTEX
  5
543
  8
TEAM-NET
 10
-223.290872
 20
-244.610042
 30
830.46458
 70
    64
  0
VERTEX
  5
544
  8
TEAM-NET
 10
-224.143807
 20
-225.0
 30
830.389958
 70
    64
  0
VERTEX
  5
545
  8
TEAM-NET
 10
-223.290872
 20
-205.389958
 30
830.46458
 70
    64
  0
VERTEX
  5
546
  8
TEAM-NET
 10
-220.738559
 20
-185.92916
 30
830.687878
 70
    64
  0
VERTEX
  5
547
  8
TEAM-NET
 10
-216.506292
 20
-166.765715
 30
831.058154
 70
    64
  0
VERTEX
  5
548
  8
TEAM-NET
 10
-210.626281
 20
-148.045468
 30
831.572588
 70
    64
  0
VERTEX
  5
549
  8
TEAM-NET
 10
-203.143278
 20
-129.910891
 30
832.227266
 70
    64
  0
VERTEX
  5
54A
  8
TEAM-NET
 10
-194.114231
 20
-112.5
 30
833.017205
 70
    64
  0
VERTEX
  5
54B
  8
TEAM-NET
 10
-183.607858
 20
-95.945302
 30
833.936394
 70
    64
  0
VERTEX
  5
54C
  8
TEAM-NET
 10
-171.704118
 20
-80.372788
 30
834.977836
 70
    64
  0
VERTEX
  5
54D
  8
TEAM-NET
 10
-158.493606
 20
-65.900974
 30
836.133606
 70
    64
  0
VERTEX
  5
54E
  8
TEAM-NET
 10
-144.076862
 20
-52.64
 30
837.394908
 70
    64
  0
VERTEX
  5
54F
  8
TEAM-NET
 10
-128.563606
 20
-40.69079
 30
838.752142
 70
    64
  0
VERTEX
  5
550
  8
TEAM-NET
 10
-112.071904
 20
-30.144284
 30
840.194979
 70
    64
  0
VERTEX
  5
551
  8
TEAM-NET
 10
-94.727266
 20
-21.080748
 30
841.712438
 70
    64
  0
VERTEX
  5
552
  8
TEAM-NET
 10
-76.661697
 20
-13.56916
 30
843.292971
 70
    64
  0
VERTEX
  5
553
  8
TEAM-NET
 10
-58.012686
 20
-7.666689
 30
844.924548
 70
    64
  0
VERTEX
  5
554
  8
TEAM-NET
 10
-38.922164
 20
-3.418256
 30
846.594752
 70
    64
  0
VERTEX
  5
555
  8
TEAM-NET
 10
-19.53542
 20
-0.856193
 30
848.290872
 70
    64
  0
VERTEX
  5
556
  8
TEAM-NET
 10
0.0
 20
0.0
 30
850.0
 70
    64
  0
VERTEX
  5
557
  8
TEAM-NET
 10
0.0
 20
-450.0
 30
850.0
 70
    64
  0
VERTEX
  5
558
  8
TEAM-NET
 10
-19.610042
 20
-449.143807
 30
850.0
 70
    64
  0
VERTEX
  5
559
  8
TEAM-NET
 10
-39.07084
 20
-446.581744
 30
850.0
 70
    64
  0
VERTEX
  5
55A
  8
TEAM-NET
 10
-58.234285
 20
-442.333311
 30
850.0
 70
    64
  0
VERTEX
  5
55B
  8
TEAM-NET
 10
-76.954532
 20
-436.43084
 30
850.0
 70
    64
  0
VERTEX
  5
55C
  8
TEAM-NET
 10
-95.089109
 20
-428.919252
 30
850.0
 70
    64
  0
VERTEX
  5
55D
  8
TEAM-NET
 10
-112.5
 20
-419.855716
 30
850.0
 70
    64
  0
VERTEX
  5
55E
  8
TEAM-NET
 10
-129.054698
 20
-409.30921
 30
850.0
 70
    64
  0
VERTEX
  5
55F
  8
TEAM-NET
 10
-144.627212
 20
-397.36
 30
850.0
 70
    64
  0
VERTEX
  5
560
  8
TEAM-NET
 10
-159.099026
 20
-384.099026
 30
850.0
 70
    64
  0
VERTEX
  5
561
  8
TEAM-NET
 10
-172.36
 20
-369.627212
 30
850.0
 70
    64
  0
VERTEX
  5
562
  8
TEAM-NET
 10
-184.30921
 20
-354.054698
 30
850.0
 70
    64
  0
VERTEX
  5
563
  8
TEAM-NET
 10
-194.855716
 20
-337.5
 30
850.0
 70
    64
  0
VERTEX
  5
564
  8
TEAM-NET
 10
-203.919252
 20
-320.089109
 30
850.0
 70
    64
  0
VERTEX
  5
565
  8
TEAM-NET
 10
-211.43084
 20
-301.954532
 30
850.0
 70
    64
  0
VERTEX
  5
566
  8
TEAM-NET
 10
-217.333311
 20
-283.234285
 30
850.0
 70
    64
  0
VERTEX
  5
567
  8
TEAM-NET
 10
-221.581744
 20
-264.07084
 30
850.0
 70
    64
  0
VERTEX
  5
568
  8
TEAM-NET
 10
-224.143807
 20
-244.610042
 30
850.0
 70
    64
  0
VERTEX
  5
569
  8
TEAM-NET
 10
-225.0
 20
-225.0
 30
850.0
 70
    64
  0
VERTEX
  5
56A
  8
TEAM-NET
 10
-224.143807
 20
-205.389958
 30
850.0
 70
    64
  0
VERTEX
  5
56B
  8
TEAM-NET
 10
-221.581744
 20
-185.92916
 30
850.0
 70
    64
  0
VERTEX
  5
56C
  8
TEAM-NET
 10
-217.333311
 20
-166.765715
 30
850.0
 70
    64
  0
VERTEX
  5
56D
  8
TEAM-NET
 10
-211.43084
 20
-148.045468
 30
850.0
 70
    64
  0
VERTEX
  5
56E
  8
TEAM-NET
 10
-203.919252
 20
-129.910891
 30
850.0
 70
    64
  0
VERTEX
  5
56F
  8
TEAM-NET
 10
-194.855716
 20
-112.5
 30
850.0
 70
    64
  0
VERTEX
  5
570
  8
TEAM-NET
 10
-184.30921
 20
-95.945302
 30
850.0
 70
    64
  0
VERTEX
  5
571
  8
TEAM-NET
 10
-172.36
 20
-80.372788
 30
850.0
 70
    64
  0
VERTEX
  5
572
  8
TEAM-NET
 10
-159.099026
 20
-65.900974
 30
850.0
 70
    64
  0
VERTEX
  5
573
  8
TEAM-NET
 10
-144.627212
 20
-52.64
 30
850.0
 70
    64
  0
VERTEX
  5
574
  8
TEAM-NET
 10
-129.054698
 20
-40.69079
 30
850.0
 70
    64
  0
VERTEX
  5
575
  8
TEAM-NET
 10
-112.5
 20
-30.144284
 30
850.0
 70
    64
  0
VERTEX
  5
576
  8
TEAM-NET
 10
-95.089109
 20
-21.080748
 30
850.0
 70
    64
  0
VERTEX
  5
577
  8
TEAM-NET
 10
-76.954532
 20
-13.56916
 30
850.0
 70
    64
  0
VERTEX
  5
578
  8
TEAM-NET
 10
-58.234285
 20
-7.666689
 30
850.0
 70
    64
  0
VERTEX
  5
579
  8
TEAM-NET
 10
-39.07084
 20
-3.418256
 30
850.0
 70
    64
  0
VERTEX
  5
57A
  8
TEAM-NET
 10
-19.610042
 20
-0.856193
 30
850.0
 70
    64
  0
VERTEX
  5
57B
  8
TEAM-NET
 10
0.0
 20
0.0
 30
850.0
 70
    64
  0
SEQEND
  5
57D
  8
TEAM-NET
  0
POLYLINE
  5
57E
  8
TEAM-NET
 66
     1
 10
0.0
 20
0.0
 30
0.0
 70
    16
 71
    37
 72
    37
  0
VERTEX
  5
57F
  8
TEAM-NET
 10
0.0
 20
-445.0
 30
850.0
 70
    64
  0
VERTEX
  5
580
  8
TEAM-NET
 10
19.174263
 20
-444.162834
 30
850.0
 70
    64
  0
VERTEX
  5
581
  8
TEAM-NET
 10
38.202599
 20
-441.657706
 30
850.0
 70
    64
  0
VERTEX
  5
582
  8
TEAM-NET
 10
56.94019
 20
-437.503682
 30
850.0
 70
    64
  0
VERTEX
  5
583
  8
TEAM-NET
 10
75.244432
 20
-431.732377
 30
850.0
 70
    64
  0
VERTEX
  5
584
  8
TEAM-NET
 10
92.976018
 20
-424.387713
 30
850.0
 70
    64
  0
VERTEX
  5
585
  8
TEAM-NET
 10
110.0
 20
-415.525589
 30
850.0
 70
    64
  0
VERTEX
  5
586
  8
TEAM-NET
 10
126.186816
 20
-405.21345
 30
850.0
 70
    64
  0
VERTEX
  5
587
  8
TEAM-NET
 10
141.413274
 20
-393.529777
 30
850.0
 70
    64
  0
VERTEX
  5
588
  8
TEAM-NET
 10
155.563492
 20
-380.563492
 30
850.0
 70
    64
  0
VERTEX
  5
589
  8
TEAM-NET
 10
168.529777
 20
-366.413274
 30
850.0
 70
    64
  0
VERTEX
  5
58A
  8
TEAM-NET
 10
180.21345
 20
-351.186816
 30
850.0
 70
    64
  0
VERTEX
  5
58B
  8
TEAM-NET
 10
190.525589
 20
-335.0
 30
850.0
 70
    64
  0
VERTEX
  5
58C
  8
TEAM-NET
 10
199.387713
 20
-317.976018
 30
850.0
 70
    64
  0
VERTEX
  5
58D
  8
TEAM-NET
 10
206.732377
 20
-300.244432
 30
850.0
 70
    64
  0
VERTEX
  5
58E
  8
TEAM-NET
 10
212.503682
 20
-281.94019
 30
850.0
 70
    64
  0
VERTEX
  5
58F
  8
TEAM-NET
 10
216.657706
 20
-263.202599
 30
850.0
 70
    64
  0
VERTEX
  5
590
  8
TEAM-NET
 10
219.162834
 20
-244.174263
 30
850.0
 70
    64
  0
VERTEX
  5
591
  8
TEAM-NET
 10
220.0
 20
-225.0
 30
850.0
 70
    64
  0
VERTEX
  5
592
  8
TEAM-NET
 10
219.162834
 20
-205.825737
 30
850.0
 70
    64
  0
VERTEX
  5
593
  8
TEAM-NET
 10
216.657706
 20
-186.797401
 30
850.0
 70
    64
  0
VERTEX
  5
594
  8
TEAM-NET
 10
212.503682
 20
-168.05981
 30
850.0
 70
    64
  0
VERTEX
  5
595
  8
TEAM-NET
 10
206.732377
 20
-149.755568
 30
850.0
 70
    64
  0
VERTEX
  5
596
  8
TEAM-NET
 10
199.387713
 20
-132.023982
 30
850.0
 70
    64
  0
VERTEX
  5
597
  8
TEAM-NET
 10
190.525589
 20
-115.0
 30
850.0
 70
    64
  0
VERTEX
  5
598
  8
TEAM-NET
 10
180.21345
 20
-98.813184
 30
850.0
 70
    64
  0
VERTEX
  5
599
  8
TEAM-NET
 10
168.529777
 20
-83.586726
 30
850.0
 70
    64
  0
VERTEX
  5
59A
  8
TEAM-NET
 10
155.563492
 20
-69.436508
 30
850.0
 70
    64
  0
VERTEX
  5
59B
  8
TEAM-NET
 10
141.413274
 20
-56.470223
 30
850.0
 70
    64
  0
VERTEX
  5
59C
  8
TEAM-NET
 10
126.186816
 20
-44.78655
 30
850.0
 70
    64
  0
VERTEX
  5
59D
  8
TEAM-NET
 10
110.0
 20
-34.474411
 30
850.0
 70
    64
  0
VERTEX
  5
59E
  8
TEAM-NET
 10
92.976018
 20
-25.612287
 30
850.0
 70
    64
  0
VERTEX
  5
59F
  8
TEAM-NET
 10
75.244432
 20
-18.267623
 30
850.0
 70
    64
  0
VERTEX
  5
5A0
  8
TEAM-NET
 10
56.94019
 20
-12.496318
 30
850.0
 70
    64
  0
VERTEX
  5
5A1
  8
TEAM-NET
 10
38.202599
 20
-8.342294
 30
850.0
 70
    64
  0
VERTEX
  5
5A2
  8
TEAM-NET
 10
19.174263
 20
-5.837166
 30
850.0
 70
    64
  0
VERTEX
  5
5A3
  8
TEAM-NET
 10
0.0
 20
-5.0
 30
850.0
 70
    64
  0
VERTEX
  5
5A4
  8
TEAM-NET
 10
0.0
 20
-445.0
 30
850.0
 70
    64
  0
VERTEX
  5
5A5
  8
TEAM-NET
 10
19.1013
 20
-444.162834
 30
848.328853
 70
    64
  0
VERTEX
  5
5A6
  8
TEAM-NET
 10
38.057227
 20
-441.657706
 30
846.670424
 70
    64
  0
VERTEX
  5
5A7
  8
TEAM-NET
 10
56.723515
 20
-437.503682
 30
845.037335
 70
    64
  0
VERTEX
  5
5A8
  8
TEAM-NET
 10
74.958104
 20
-431.732377
 30
843.442016
 70
    64
  0
VERTEX
  5
5A9
  8
TEAM-NET
 10
92.622216
 20
-424.387713
 30
841.896606
 70
    64
  0
VERTEX
  5
5AA
  8
TEAM-NET
 10
109.581417
 20
-415.525589
 30
840.412868
 70
    64
  0
VERTEX
  5
5AB
  8
TEAM-NET
 10
125.706637
 20
-405.21345
 30
839.002094
 70
    64
  0
VERTEX
  5
5AC
  8
TEAM-NET
 10
140.875154
 20
-393.529777
 30
837.675021
 70
    64
  0
VERTEX
  5
5AD
  8
TEAM-NET
 10
154.971526
 20
-380.563492
 30
836.441748
 70
    64
  0
VERTEX
  5
5AE
  8
TEAM-NET
 10
167.888471
 20
-366.413274
 30
835.311662
 70
    64
  0
VERTEX
  5
5AF
  8
TEAM-NET
 10
179.527683
 20
-351.186816
 30
834.293363
 70
    64
  0
VERTEX
  5
5B0
  8
TEAM-NET
 10
189.800581
 20
-335.0
 30
833.394601
 70
    64
  0
VERTEX
  5
5B1
  8
TEAM-NET
 10
198.628983
 20
-317.976018
 30
832.622216
 70
    64
  0
VERTEX
  5
5B2
  8
TEAM-NET
 10
205.945697
 20
-300.244432
 30
831.982086
 70
    64
  0
VERTEX
  5
5B3
  8
TEAM-NET
 10
211.695041
 20
-281.94019
 30
831.479084
 70
    64
  0
VERTEX
  5
5B4
  8
TEAM-NET
 10
215.833258
 20
-263.202599
 30
831.117037
 70
    64
  0
VERTEX
  5
5B5
  8
TEAM-NET
 10
218.328853
 20
-244.174263
 30
830.8987
 70
    64
  0
VERTEX
  5
5B6
  8
TEAM-NET
 10
219.162834
 20
-225.0
 30
830.825737
 70
    64
  0
VERTEX
  5
5B7
  8
TEAM-NET
 10
218.328853
 20
-205.825737
 30
830.8987
 70
    64
  0
VERTEX
  5
5B8
  8
TEAM-NET
 10
215.833258
 20
-186.797401
 30
831.117037
 70
    64
  0
VERTEX
  5
5B9
  8
TEAM-NET
 10
211.695041
 20
-168.05981
 30
831.479084
 70
    64
  0
VERTEX
  5
5BA
  8
TEAM-NET
 10
205.945697
 20
-149.755568
 30
831.982086
 70
    64
  0
VERTEX
  5
5BB
  8
TEAM-NET
 10
198.628983
 20
-132.023982
 30
832.622216
 70
    64
  0
VERTEX
  5
5BC
  8
TEAM-NET
 10
189.800581
 20
-115.0
 30
833.394601
 70
    64
  0
VERTEX
  5
5BD
  8
TEAM-NET
 10
179.527683
 20
-98.813184
 30
834.293363
 70
    64
  0
VERTEX
  5
5BE
  8
TEAM-NET
 10
167.888471
 20
-83.586726
 30
835.311662
 70
    64
  0
VERTEX
  5
5BF
  8
TEAM-NET
 10
154.971526
 20
-69.436508
 30
836.441748
 70
    64
  0
VERTEX
  5
5C0
  8
TEAM-NET
 10
140.875154
 20
-56.470223
 30
837.675021
 70
    64
  0
VERTEX
  5
5C1
  8
TEAM-NET
 10
125.706637
 20
-44.78655
 30
839.002094
 70
    64
  0
VERTEX
  5
5C2
  8
TEAM-NET
 10
109.581417
 20
-34.474411
 30
840.412868
 70
    64
  0
VERTEX
  5
5C3
  8
TEAM-NET
 10
92.622216
 20
-25.612287
 30
841.896606
 70
    64
  0
VERTEX
  5
5C4
  8
TEAM-NET
 10
74.958104
 20
-18.267623
 30
843.442016
 70
    64
  0
VERTEX
  5
5C5
  8
TEAM-NET
 10
56.723515
 20
-12.496318
 30
845.037335
 70
    64
  0
VERTEX
  5
5C6
  8
TEAM-NET
 10
38.057227
 20
-8.342294
 30
846.670424
 70
    64
  0
VERTEX
  5
5C7
  8
TEAM-NET
 10
19.1013
 20
-5.837166
 30
848.328853
 70
    64
  0
VERTEX
  5
5C8
  8
TEAM-NET
 10
0.0
 20
-5.0
 30
850.0
 70
    64
  0
VERTEX
  5
5C9
  8
TEAM-NET
 10
0.0
 20
-445.0
 30
850.0
 70
    64
  0
VERTEX
  5
5CA
  8
TEAM-NET
 10
18.882963
 20
-444.162834
 30
846.670424
 70
    64
  0
VERTEX
  5
5CB
  8
TEAM-NET
 10
37.622216
 20
-441.657706
 30
843.366188
 70
    64
  0
VERTEX
  5
5CC
  8
TEAM-NET
 10
56.07514
 20
-437.503682
 30
840.11244
 70
    64
  0
VERTEX
  5
5CD
  8
TEAM-NET
 10
74.1013
 20
-431.732377
 30
836.933942
 70
    64
  0
VERTEX
  5
5CE
  8
TEAM-NET
 10
91.563503
 20
-424.387713
 30
833.854884
 70
    64
  0
VERTEX
  5
5CF
  8
TEAM-NET
 10
108.328853
 20
-415.525589
 30
830.8987
 70
    64
  0
VERTEX
  5
5D0
  8
TEAM-NET
 10
124.269755
 20
-405.21345
 30
828.087889
 70
    64
  0
VERTEX
  5
5D1
  8
TEAM-NET
 10
139.264889
 20
-393.529777
 30
825.443843
 70
    64
  0
VERTEX
  5
5D2
  8
TEAM-NET
 10
153.200133
 20
-380.563492
 30
822.986683
 70
    64
  0
VERTEX
  5
5D3
  8
TEAM-NET
 10
165.969431
 20
-366.413274
 30
820.735111
 70
    64
  0
VERTEX
  5
5D4
  8
TEAM-NET
 10
177.475603
 20
-351.186816
 30
818.706263
 70
    64
  0
VERTEX
  5
5D5
  8
TEAM-NET
 10
187.631077
 20
-335.0
 30
816.915579
 70
    64
  0
VERTEX
  5
5D6
  8
TEAM-NET
 10
196.358566
 20
-317.976018
 30
815.376687
 70
    64
  0
VERTEX
  5
5D7
  8
TEAM-NET
 10
203.591647
 20
-300.244432
 30
814.1013
 70
    64
  0
VERTEX
  5
5D8
  8
TEAM-NET
 10
209.275273
 20
-281.94019
 30
813.099123
 70
    64
  0
VERTEX
  5
5D9
  8
TEAM-NET
 10
213.366188
 20
-263.202599
 30
812.377784
 70
    64
  0
VERTEX
  5
5DA
  8
TEAM-NET
 10
215.833258
 20
-244.174263
 30
811.942773
 70
    64
  0
VERTEX
  5
5DB
  8
TEAM-NET
 10
216.657706
 20
-225.0
 30
811.797401
 70
    64
  0
VERTEX
  5
5DC
  8
TEAM-NET
 10
215.833258
 20
-205.825737
 30
811.942773
 70
    64
  0
VERTEX
  5
5DD
  8
TEAM-NET
 10
213.366188
 20
-186.797401
 30
812.377784
 70
    64
  0
VERTEX
  5
5DE
  8
TEAM-NET
 10
209.275273
 20
-168.05981
 30
813.099123
 70
    64
  0
VERTEX
  5
5DF
  8
TEAM-NET
 10
203.591647
 20
-149.755568
 30
814.1013
 70
    64
  0
VERTEX
  5
5E0
  8
TEAM-NET
 10
196.358566
 20
-132.023982
 30
815.376687
 70
    64
  0
VERTEX
  5
5E1
  8
TEAM-NET
 10
187.631077
 20
-115.0
 30
816.915579
 70
    64
  0
VERTEX
  5
5E2
  8
TEAM-NET
 10
177.475603
 20
-98.813184
 30
818.706263
 70
    64
  0
VERTEX
  5
5E3
  8
TEAM-NET
 10
165.969431
 20
-83.586726
 30
820.735111
 70
    64
  0
VERTEX
  5
5E4
  8
TEAM-NET
 10
153.200133
 20
-69.436508
 30
822.986683
 70
    64
  0
VERTEX
  5
5E5
  8
TEAM-NET
 10
139.264889
 20
-56.470223
 30
825.443843
 70
    64
  0
VERTEX
  5
5E6
  8
TEAM-NET
 10
124.269755
 20
-44.78655
 30
828.087889
 70
    64
  0
VERTEX
  5
5E7
  8
TEAM-NET
 10
108.328853
 20
-34.474411
 30
830.8987
 70
    64
  0
VERTEX
  5
5E8
  8
TEAM-NET
 10
91.563503
 20
-25.612287
 30
833.854884
 70
    64
  0
VERTEX
  5
5E9
  8
TEAM-NET
 10
74.1013
 20
-18.267623
 30
836.933942
 70
    64
  0
VERTEX
  5
5EA
  8
TEAM-NET
 10
56.07514
 20
-12.496318
 30
840.11244
 70
    64
  0
VERTEX
  5
5EB
  8
TEAM-NET
 10
37.622216
 20
-8.342294
 30
843.366188
 70
    64
  0
VERTEX
  5
5EC
  8
TEAM-NET
 10
18.882963
 20
-5.837166
 30
846.670424
 70
    64
  0
VERTEX
  5
5ED
  8
TEAM-NET
 10
0.0
 20
-5.0
 30
850.0
 70
    64
  0
VERTEX
  5
5EE
  8
TEAM-NET
 10
0.0
 20
-445.0
 30
850.0
 70
    64
  0
VERTEX
  5
5EF
  8
TEAM-NET
 10
18.520916
 20
-444.162834
 30
845.037335
 70
    64
  0
VERTEX
  5
5F0
  8
TEAM-NET
 10
36.900877
 20
-441.657706
 30
840.11244
 70
    64
  0
VERTEX
  5
5F1
  8
TEAM-NET
 10
55.0
 20
-437.503682
 30
835.262794
 70
    64
  0
VERTEX
  5
5F2
  8
TEAM-NET
 10
72.68054
 20
-431.732377
 30
830.525308
 70
    64
  0
VERTEX
  5
5F3
  8
TEAM-NET
 10
89.807937
 20
-424.387713
 30
825.936036
 70
    64
  0
VERTEX
  5
5F4
  8
TEAM-NET
 10
106.251841
 20
-415.525589
 30
821.529905
 70
    64
  0
VERTEX
  5
5F5
  8
TEAM-NET
 10
121.887105
 20
-405.21345
 30
817.340449
 70
    64
  0
VERTEX
  5
5F6
  8
TEAM-NET
 10
136.594734
 20
-393.529777
 30
813.399551
 70
    64
  0
VERTEX
  5
5F7
  8
TEAM-NET
 10
150.262794
 20
-380.563492
 30
809.737206
 70
    64
  0
VERTEX
  5
5F8
  8
TEAM-NET
 10
162.787265
 20
-366.413274
 30
806.381284
 70
    64
  0
VERTEX
  5
5F9
  8
TEAM-NET
 10
174.072825
 20
-351.186816
 30
803.357327
 70
    64
  0
VERTEX
  5
5FA
  8
TEAM-NET
 10
184.033587
 20
-335.0
 30
800.688349
 70
    64
  0
VERTEX
  5
5FB
  8
TEAM-NET
 10
192.593742
 20
-317.976018
 30
798.394662
 70
    64
  0
VERTEX
  5
5FC
  8
TEAM-NET
 10
199.688142
 20
-300.244432
 30
796.493724
 70
    64
  0
VERTEX
  5
5FD
  8
TEAM-NET
 10
205.262794
 20
-281.94019
 30
795.0
 70
    64
  0
VERTEX
  5
5FE
  8
TEAM-NET
 10
209.275273
 20
-263.202599
 30
793.92486
 70
    64
  0
VERTEX
  5
5FF
  8
TEAM-NET
 10
211.695041
 20
-244.174263
 30
793.276485
 70
    64
  0
VERTEX
  5
600
  8
TEAM-NET
 10
212.503682
 20
-225.0
 30
793.05981
 70
    64
  0
VERTEX
  5
601
  8
TEAM-NET
 10
211.695041
 20
-205.825737
 30
793.276485
 70
    64
  0
VERTEX
  5
602
  8
TEAM-NET
 10
209.275273
 20
-186.797401
 30
793.92486
 70
    64
  0
VERTEX
  5
603
  8
TEAM-NET
 10
205.262794
 20
-168.05981
 30
795.0
 70
    64
  0
VERTEX
  5
604
  8
TEAM-NET
 10
199.688142
 20
-149.755568
 30
796.493724
 70
    64
  0
VERTEX
  5
605
  8
TEAM-NET
 10
192.593742
 20
-132.023982
 30
798.394662
 70
    64
  0
VERTEX
  5
606
  8
TEAM-NET
 10
184.033587
 20
-115.0
 30
800.688349
 70
    64
  0
VERTEX
  5
607
  8
TEAM-NET
 10
174.072825
 20
-98.813184
 30
803.357327
 70
    64
  0
VERTEX
  5
608
  8
TEAM-NET
 10
162.787265
 20
-83.586726
 30
806.381284
 70
    64
  0
VERTEX
  5
609
  8
TEAM-NET
 10
150.262794
 20
-69.436508
 30
809.737206
 70
    64
  0
VERTEX
  5
60A
  8
TEAM-NET
 10
136.594734
 20
-56.470223
 30
813.399551
 70
    64
  0
VERTEX
  5
60B
  8
TEAM-NET
 10
121.887105
 20
-44.78655
 30
817.340449
 70
    64
  0
VERTEX
  5
60C
  8
TEAM-NET
 10
106.251841
 20
-34.474411
 30
821.529905
 70
    64
  0
VERTEX
  5
60D
  8
TEAM-NET
 10
89.807937
 20
-25.612287
 30
825.936036
 70
    64
  0
VERTEX
  5
60E
  8
TEAM-NET
 10
72.68054
 20
-18.267623
 30
830.525308
 70
    64
  0
VERTEX
  5
60F
  8
TEAM-NET
 10
55.0
 20
-12.496318
 30
835.262794
 70
    64
  0
VERTEX
  5
610
  8
TEAM-NET
 10
36.900877
 20
-8.342294
 30
840.11244
 70
    64
  0
VERTEX
  5
611
  8
TEAM-NET
 10
18.520916
 20
-5.837166
 30
845.037335
 70
    64
  0
VERTEX
  5
612
  8
TEAM-NET
 10
0.0
 20
-5.0
 30
850.0
 70
    64
  0
VERTEX
  5
613
  8
TEAM-NET
 10
0.0
 20
-445.0
 30
850.0
 70
    64
  0
VERTEX
  5
614
  8
TEAM-NET
 10
18.017914
 20
-444.162834
 30
843.442016
 70
    64
  0
VERTEX
  5
615
  8
TEAM-NET
 10
35.8987
 20
-441.657706
 30
836.933942
 70
    64
  0
VERTEX
  5
616
  8
TEAM-NET
 10
53.506276
 20
-437.503682
 30
830.525308
 70
    64
  0
VERTEX
  5
617
  8
TEAM-NET
 10
70.706637
 20
-431.732377
 30
824.264889
 70
    64
  0
VERTEX
  5
618
  8
TEAM-NET
 10
87.368878
 20
-424.387713
 30
818.200329
 70
    64
  0
VERTEX
  5
619
  8
TEAM-NET
 10
103.366188
 20
-415.525589
 30
812.377784
 70
    64
  0
VERTEX
  5
61A
  8
TEAM-NET
 10
118.57682
 20
-405.21345
 30
806.841567
 70
    64
  0
VERTEX
  5
61B
  8
TEAM-NET
 10
132.88501
 20
-393.529777
 30
801.633812
 70
    64
  0
VERTEX
  5
61C
  8
TEAM-NET
 10
146.181865
 20
-380.563492
 30
796.794152
 70
    64
  0
VERTEX
  5
61D
  8
TEAM-NET
 10
158.366188
 20
-366.413274
 30
792.359421
 70
    64
  0
VERTEX
  5
61E
  8
TEAM-NET
 10
169.345249
 20
-351.186816
 30
788.36337
 70
    64
  0
VERTEX
  5
61F
  8
TEAM-NET
 10
179.03549
 20
-335.0
 30
784.836411
 70
    64
  0
VERTEX
  5
620
  8
TEAM-NET
 10
187.363163
 20
-317.976018
 30
781.805386
 70
    64
  0
VERTEX
  5
621
  8
TEAM-NET
 10
194.264889
 20
-300.244432
 30
779.293363
 70
    64
  0
VERTEX
  5
622
  8
TEAM-NET
 10
199.688142
 20
-281.94019
 30
777.31946
 70
    64
  0
VERTEX
  5
623
  8
TEAM-NET
 10
203.591647
 20
-263.202599
 30
775.8987
 70
    64
  0
VERTEX
  5
624
  8
TEAM-NET
 10
205.945697
 20
-244.174263
 30
775.041896
 70
    64
  0
VERTEX
  5
625
  8
TEAM-NET
 10
206.732377
 20
-225.0
 30
774.755568
 70
    64
  0
VERTEX
  5
626
  8
TEAM-NET
 10
205.945697
 20
-205.825737
 30
775.041896
 70
    64
  0
VERTEX
  5
627
  8
TEAM-NET
 10
203.591647
 20
-186.797401
 30
775.8987
 70
    64
  0
VERTEX
  5
628
  8
TEAM-NET
 10
199.688142
 20
-168.05981
 30
777.31946
 70
    64
  0
VERTEX
  5
629
  8
TEAM-NET
 10
194.264889
 20
-149.755568
 30
779.293363
 70
    64
  0
VERTEX
  5
62A
  8
TEAM-NET
 10
187.363163
 20
-132.023982
 30
781.805386
 70
    64
  0
VERTEX
  5
62B
  8
TEAM-NET
 10
179.03549
 20
-115.0
 30
784.836411
 70
    64
  0
VERTEX
  5
62C
  8
TEAM-NET
 10
169.345249
 20
-98.813184
 30
788.36337
 70
    64
  0
VERTEX
  5
62D
  8
TEAM-NET
 10
158.366188
 20
-83.586726
 30
792.359421
 70
    64
  0
VERTEX
  5
62E
  8
TEAM-NET
 10
146.181865
 20
-69.436508
 30
796.794152
 70
    64
  0
VERTEX
  5
62F
  8
TEAM-NET
 10
132.88501
 20
-56.470223
 30
801.633812
 70
    64
  0
VERTEX
  5
630
  8
TEAM-NET
 10
118.57682
 20
-44.78655
 30
806.841567
 70
    64
  0
VERTEX
  5
631
  8
TEAM-NET
 10
103.366188
 20
-34.474411
 30
812.377784
 70
    64
  0
VERTEX
  5
632
  8
TEAM-NET
 10
87.368878
 20
-25.612287
 30
818.200329
 70
    64
  0
VERTEX
  5
633
  8
TEAM-NET
 10
70.706637
 20
-18.267623
 30
824.264889
 70
    64
  0
VERTEX
  5
634
  8
TEAM-NET
 10
53.506276
 20
-12.496318
 30
830.525308
 70
    64
  0
VERTEX
  5
635
  8
TEAM-NET
 10
35.8987
 20
-8.342294
 30
836.933942
 70
    64
  0
VERTEX
  5
636
  8
TEAM-NET
 10
18.017914
 20
-5.837166
 30
843.442016
 70
    64
  0
VERTEX
  5
637
  8
TEAM-NET
 10
0.0
 20
-5.0
 30
850.0
 70
    64
  0
VERTEX
  5
638
  8
TEAM-NET
 10
0.0
 20
-445.0
 30
850.0
 70
    64
  0
VERTEX
  5
639
  8
TEAM-NET
 10
17.377784
 20
-444.162834
 30
841.896606
 70
    64
  0
VERTEX
  5
63A
  8
TEAM-NET
 10
34.623313
 20
-441.657706
 30
833.854884
 70
    64
  0
VERTEX
  5
63B
  8
TEAM-NET
 10
51.605338
 20
-437.503682
 30
825.936036
 70
    64
  0
VERTEX
  5
63C
  8
TEAM-NET
 10
68.194614
 20
-431.732377
 30
818.200329
 70
    64
  0
VERTEX
  5
63D
  8
TEAM-NET
 10
84.264889
 20
-424.387713
 30
810.706637
 70
    64
  0
VERTEX
  5
63E
  8
TEAM-NET
 10
99.693857
 20
-415.525589
 30
803.511991
 70
    64
  0
VERTEX
  5
63F
  8
TEAM-NET
 10
114.364094
 20
-405.21345
 30
796.671147
 70
    64
  0
VERTEX
  5
640
  8
TEAM-NET
 10
128.163952
 20
-393.529777
 30
790.236168
 70
    64
  0
VERTEX
  5
641
  8
TEAM-NET
 10
140.988404
 20
-380.563492
 30
784.256027
 70
    64
  0
VERTEX
  5
642
  8
TEAM-NET
 10
152.73985
 20
-366.413274
 30
778.776238
 70
    64
  0
VERTEX
  5
643
  8
TEAM-NET
 10
163.328853
 20
-351.186816
 30
773.838505
 70
    64
  0
VERTEX
  5
644
  8
TEAM-NET
 10
172.674825
 20
-335.0
 30
769.480407
 70
    64
  0
VERTEX
  5
645
  8
TEAM-NET
 10
180.706637
 20
-317.976018
 30
765.735111
 70
    64
  0
VERTEX
  5
646
  8
TEAM-NET
 10
187.363163
 20
-300.244432
 30
762.631122
 70
    64
  0
VERTEX
  5
647
  8
TEAM-NET
 10
192.593742
 20
-281.94019
 30
760.192063
 70
    64
  0
VERTEX
  5
648
  8
TEAM-NET
 10
196.358566
 20
-263.202599
 30
758.436497
 70
    64
  0
VERTEX
  5
649
  8
TEAM-NET
 10
198.628983
 20
-244.174263
 30
757.377784
 70
    64
  0
VERTEX
  5
64A
  8
TEAM-NET
 10
199.387713
 20
-225.0
 30
757.023982
 70
    64
  0
VERTEX
  5
64B
  8
TEAM-NET
 10
198.628983
 20
-205.825737
 30
757.377784
 70
    64
  0
VERTEX
  5
64C
  8
TEAM-NET
 10
196.358566
 20
-186.797401
 30
758.436497
 70
    64
  0
VERTEX
  5
64D
  8
TEAM-NET
 10
192.593742
 20
-168.05981
 30
760.192063
 70
    64
  0
VERTEX
  5
64E
  8
TEAM-NET
 10
187.363163
 20
-149.755568
 30
762.631122
 70
    64
  0
VERTEX
  5
64F
  8
TEAM-NET
 10
180.706637
 20
-132.023982
 30
765.735111
 70
    64
  0
VERTEX
  5
650
  8
TEAM-NET
 10
172.674825
 20
-115.0
 30
769.480407
 70
    64
  0
VERTEX
  5
651
  8
TEAM-NET
 10
163.328853
 20
-98.813184
 30
773.838505
 70
    64
  0
VERTEX
  5
652
  8
TEAM-NET
 10
152.73985
 20
-83.586726
 30
778.776238
 70
    64
  0
VERTEX
  5
653
  8
TEAM-NET
 10
140.988404
 20
-69.436508
 30
784.256027
 70
    64
  0
VERTEX
  5
654
  8
TEAM-NET
 10
128.163952
 20
-56.470223
 30
790.236168
 70
    64
  0
VERTEX
  5
655
  8
TEAM-NET
 10
114.364094
 20
-44.78655
 30
796.671147
 70
    64
  0
VERTEX
  5
656
  8
TEAM-NET
 10
99.693857
 20
-34.474411
 30
803.511991
 70
    64
  0
VERTEX
  5
657
  8
TEAM-NET
 10
84.264889
 20
-25.612287
 30
810.706637
 70
    64
  0
VERTEX
  5
658
  8
TEAM-NET
 10
68.194614
 20
-18.267623
 30
818.200329
 70
    64
  0
VERTEX
  5
659
  8
TEAM-NET
 10
51.605338
 20
-12.496318
 30
825.936036
 70
    64
  0
VERTEX
  5
65A
  8
TEAM-NET
 10
34.623313
 20
-8.342294
 30
833.854884
 70
    64
  0
VERTEX
  5
65B
  8
TEAM-NET
 10
17.377784
 20
-5.837166
 30
841.896606
 70
    64
  0
VERTEX
  5
65C
  8
TEAM-NET
 10
0.0
 20
-5.0
 30
850.0
 70
    64
  0
VERTEX
  5
65D
  8
TEAM-NET
 10
0.0
 20
-445.0
 30
850.0
 70
    64
  0
VERTEX
  5
65E
  8
TEAM-NET
 10
16.605399
 20
-444.162834
 30
840.412868
 70
    64
  0
VERTEX
  5
65F
  8
TEAM-NET
 10
33.084421
 20
-441.657706
 30
830.8987
 70
    64
  0
VERTEX
  5
660
  8
TEAM-NET
 10
49.311651
 20
-437.503682
 30
821.529905
 70
    64
  0
VERTEX
  5
661
  8
TEAM-NET
 10
65.163589
 20
-431.732377
 30
812.377784
 70
    64
  0
VERTEX
  5
662
  8
TEAM-NET
 10
80.519593
 20
-424.387713
 30
803.511991
 70
    64
  0
VERTEX
  5
663
  8
TEAM-NET
 10
95.262794
 20
-415.525589
 30
795.0
 70
    64
  0
VERTEX
  5
664
  8
TEAM-NET
 10
109.280988
 20
-405.21345
 30
786.906592
 70
    64
  0
VERTEX
  5
665
  8
TEAM-NET
 10
122.467488
 20
-393.529777
 30
779.293363
 70
    64
  0
VERTEX
  5
666
  8
TEAM-NET
 10
134.721936
 20
-380.563492
 30
772.218254
 70
    64
  0
VERTEX
  5
667
  8
TEAM-NET
 10
145.951069
 20
-366.413274
 30
765.735111
 70
    64
  0
VERTEX
  5
668
  8
TEAM-NET
 10
156.069426
 20
-351.186816
 30
759.893275
 70
    64
  0
VERTEX
  5
669
  8
TEAM-NET
 10
165.0
 20
-335.0
 30
754.737206
 70
    64
  0
VERTEX
  5
66A
  8
TEAM-NET
 10
172.674825
 20
-317.976018
 30
750.306143
 70
    64
  0
VERTEX
  5
66B
  8
TEAM-NET
 10
179.03549
 20
-300.244432
 30
746.633812
 70
    64
  0
VERTEX
  5
66C
  8
TEAM-NET
 10
184.033587
 20
-281.94019
 30
743.748159
 70
    64
  0
VERTEX
  5
66D
  8
TEAM-NET
 10
187.631077
 20
-263.202599
 30
741.671147
 70
    64
  0
VERTEX
  5
66E
  8
TEAM-NET
 10
189.800581
 20
-244.174263
 30
740.418583
 70
    64
  0
VERTEX
  5
66F
  8
TEAM-NET
 10
190.525589
 20
-225.0
 30
740.0
 70
    64
  0
VERTEX
  5
670
  8
TEAM-NET
 10
189.800581
 20
-205.825737
 30
740.418583
 70
    64
  0
VERTEX
  5
671
  8
TEAM-NET
 10
187.631077
 20
-186.797401
 30
741.671147
 70
    64
  0
VERTEX
  5
672
  8
TEAM-NET
 10
184.033587
 20
-168.05981
 30
743.748159
 70
    64
  0
VERTEX
  5
673
  8
TEAM-NET
 10
179.03549
 20
-149.755568
 30
746.633812
 70
    64
  0
VERTEX
  5
674
  8
TEAM-NET
 10
172.674825
 20
-132.023982
 30
750.306143
 70
    64
  0
VERTEX
  5
675
  8
TEAM-NET
 10
165.0
 20
-115.0
 30
754.737206
 70
    64
  0
VERTEX
  5
676
  8
TEAM-NET
 10
156.069426
 20
-98.813184
 30
759.893275
 70
    64
  0
VERTEX
  5
677
  8
TEAM-NET
 10
145.951069
 20
-83.586726
 30
765.735111
 70
    64
  0
VERTEX
  5
678
  8
TEAM-NET
 10
134.721936
 20
-69.436508
 30
772.218254
 70
    64
  0
VERTEX
  5
679
  8
TEAM-NET
 10
122.467488
 20
-56.470223
 30
779.293363
 70
    64
  0
VERTEX
  5
67A
  8
TEAM-NET
 10
109.280988
 20
-44.78655
 30
786.906592
 70
    64
  0
VERTEX
  5
67B
  8
TEAM-NET
 10
95.262794
 20
-34.474411
 30
795.0
 70
    64
  0
VERTEX
  5
67C
  8
TEAM-NET
 10
80.519593
 20
-25.612287
 30
803.511991
 70
    64
  0
VERTEX
  5
67D
  8
TEAM-NET
 10
65.163589
 20
-18.267623
 30
812.377784
 70
    64
  0
VERTEX
  5
67E
  8
TEAM-NET
 10
49.311651
 20
-12.496318
 30
821.529905
 70
    64
  0
VERTEX
  5
67F
  8
TEAM-NET
 10
33.084421
 20
-8.342294
 30
830.8987
 70
    64
  0
VERTEX
  5
680
  8
TEAM-NET
 10
16.605399
 20
-5.837166
 30
840.412868
 70
    64
  0
VERTEX
  5
681
  8
TEAM-NET
 10
0.0
 20
-5.0
 30
850.0
 70
    64
  0
VERTEX
  5
682
  8
TEAM-NET
 10
0.0
 20
-445.0
 30
850.0
 70
    64
  0
VERTEX
  5
683
  8
TEAM-NET
 10
15.706637
 20
-444.162834
 30
839.002094
 70
    64
  0
VERTEX
  5
684
  8
TEAM-NET
 10
31.293737
 20
-441.657706
 30
828.087889
 70
    64
  0
VERTEX
  5
685
  8
TEAM-NET
 10
46.642673
 20
-437.503682
 30
817.340449
 70
    64
  0
VERTEX
  5
686
  8
TEAM-NET
 10
61.63663
 20
-431.732377
 30
806.841567
 70
    64
  0
VERTEX
  5
687
  8
TEAM-NET
 10
76.161495
 20
-424.387713
 30
796.671147
 70
    64
  0
VERTEX
  5
688
  8
TEAM-NET
 10
90.106725
 20
-415.525589
 30
786.906592
 70
    64
  0
VERTEX
  5
689
  8
TEAM-NET
 10
103.366188
 20
-405.21345
 30
777.622216
 70
    64
  0
VERTEX
  5
68A
  8
TEAM-NET
 10
115.838973
 20
-393.529777
 30
768.888678
 70
    64
  0
VERTEX
  5
68B
  8
TEAM-NET
 10
127.430152
 20
-380.563492
 30
760.772447
 70
    64
  0
VERTEX
  5
68C
  8
TEAM-NET
 10
138.051512
 20
-366.413274
 30
753.335291
 70
    64
  0
VERTEX
  5
68D
  8
TEAM-NET
 10
147.622216
 20
-351.186816
 30
746.633812
 70
    64
  0
VERTEX
  5
68E
  8
TEAM-NET
 10
156.069426
 20
-335.0
 30
740.719012
 70
    64
  0
VERTEX
  5
68F
  8
TEAM-NET
 10
163.328853
 20
-317.976018
 30
735.635906
 70
    64
  0
VERTEX
  5
690
  8
TEAM-NET
 10
169.345249
 20
-300.244432
 30
731.42318
 70
    64
  0
VERTEX
  5
691
  8
TEAM-NET
 10
174.072825
 20
-281.94019
 30
728.112895
 70
    64
  0
VERTEX
  5
692
  8
TEAM-NET
 10
177.475603
 20
-263.202599
 30
725.730245
 70
    64
  0
VERTEX
  5
693
  8
TEAM-NET
 10
179.527683
 20
-244.174263
 30
724.293363
 70
    64
  0
VERTEX
  5
694
  8
TEAM-NET
 10
180.21345
 20
-225.0
 30
723.813184
 70
    64
  0
VERTEX
  5
695
  8
TEAM-NET
 10
179.527683
 20
-205.825737
 30
724.293363
 70
    64
  0
VERTEX
  5
696
  8
TEAM-NET
 10
177.475603
 20
-186.797401
 30
725.730245
 70
    64
  0
VERTEX
  5
697
  8
TEAM-NET
 10
174.072825
 20
-168.05981
 30
728.112895
 70
    64
  0
VERTEX
  5
698
  8
TEAM-NET
 10
169.345249
 20
-149.755568
 30
731.42318
 70
    64
  0
VERTEX
  5
699
  8
TEAM-NET
 10
163.328853
 20
-132.023982
 30
735.635906
 70
    64
  0
VERTEX
  5
69A
  8
TEAM-NET
 10
156.069426
 20
-115.0
 30
740.719012
 70
    64
  0
VERTEX
  5
69B
  8
TEAM-NET
 10
147.622216
 20
-98.813184
 30
746.633812
 70
    64
  0
VERTEX
  5
69C
  8
TEAM-NET
 10
138.051512
 20
-83.586726
 30
753.335291
 70
    64
  0
VERTEX
  5
69D
  8
TEAM-NET
 10
127.430152
 20
-69.436508
 30
760.772447
 70
    64
  0
VERTEX
  5
69E
  8
TEAM-NET
 10
115.838973
 20
-56.470223
 30
768.888678
 70
    64
  0
VERTEX
  5
69F
  8
TEAM-NET
 10
103.366188
 20
-44.78655
 30
777.622216
 70
    64
  0
VERTEX
  5
6A0
  8
TEAM-NET
 10
90.106725
 20
-34.474411
 30
786.906592
 70
    64
  0
VERTEX
  5
6A1
  8
TEAM-NET
 10
76.161495
 20
-25.612287
 30
796.671147
 70
    64
  0
VERTEX
  5
6A2
  8
TEAM-NET
 10
61.63663
 20
-18.267623
 30
806.841567
 70
    64
  0
VERTEX
  5
6A3
  8
TEAM-NET
 10
46.642673
 20
-12.496318
 30
817.340449
 70
    64
  0
VERTEX
  5
6A4
  8
TEAM-NET
 10
31.293737
 20
-8.342294
 30
828.087889
 70
    64
  0
VERTEX
  5
6A5
  8
TEAM-NET
 10
15.706637
 20
-5.837166
 30
839.002094
 70
    64
  0
VERTEX
  5
6A6
  8
TEAM-NET
 10
0.0
 20
-5.0
 30
850.0
 70
    64
  0
VERTEX
  5
6A7
  8
TEAM-NET
 10
0.0
 20
-445.0
 30
850.0
 70
    64
  0
VERTEX
  5
6A8
  8
TEAM-NET
 10
14.688338
 20
-444.162834
 30
837.675021
 70
    64
  0
VERTEX
  5
6A9
  8
TEAM-NET
 10
29.264889
 20
-441.657706
 30
825.443843
 70
    64
  0
VERTEX
  5
6AA
  8
TEAM-NET
 10
43.618716
 20
-437.503682
 30
813.399551
 70
    64
  0
VERTEX
  5
6AB
  8
TEAM-NET
 10
57.640579
 20
-431.732377
 30
801.633812
 70
    64
  0
VERTEX
  5
6AC
  8
TEAM-NET
 10
71.223762
 20
-424.387713
 30
790.236168
 70
    64
  0
VERTEX
  5
6AD
  8
TEAM-NET
 10
84.264889
 20
-415.525589
 30
779.293363
 70
    64
  0
VERTEX
  5
6AE
  8
TEAM-NET
 10
96.664709
 20
-405.21345
 30
768.888678
 70
    64
  0
VERTEX
  5
6AF
  8
TEAM-NET
 10
108.328853
 20
-393.529777
 30
759.1013
 70
    64
  0
VERTEX
  5
6B0
  8
TEAM-NET
 10
119.168548
 20
-380.563492
 30
750.005715
 70
    64
  0
VERTEX
  5
6B1
  8
TEAM-NET
 10
129.1013
 20
-366.413274
 30
741.671147
 70
    64
  0
VERTEX
  5
6B2
  8
TEAM-NET
 10
138.051512
 20
-351.186816
 30
734.161027
 70
    64
  0
VERTEX
  5
6B3
  8
TEAM-NET
 10
145.951069
 20
-335.0
 30
727.532512
 70
    64
  0
VERTEX
  5
6B4
  8
TEAM-NET
 10
152.73985
 20
-317.976018
 30
721.836048
 70
    64
  0
VERTEX
  5
6B5
  8
TEAM-NET
 10
158.366188
 20
-300.244432
 30
717.11499
 70
    64
  0
VERTEX
  5
6B6
  8
TEAM-NET
 10
162.787265
 20
-281.94019
 30
713.405266
 70
    64
  0
VERTEX
  5
6B7
  8
TEAM-NET
 10
165.969431
 20
-263.202599
 30
710.735111
 70
    64
  0
VERTEX
  5
6B8
  8
TEAM-NET
 10
167.888471
 20
-244.174263
 30
709.124846
 70
    64
  0
VERTEX
  5
6B9
  8
TEAM-NET
 10
168.529777
 20
-225.0
 30
708.586726
 70
    64
  0
VERTEX
  5
6BA
  8
TEAM-NET
 10
167.888471
 20
-205.825737
 30
709.124846
 70
    64
  0
VERTEX
  5
6BB
  8
TEAM-NET
 10
165.969431
 20
-186.797401
 30
710.735111
 70
    64
  0
VERTEX
  5
6BC
  8
TEAM-NET
 10
162.787265
 20
-168.05981
 30
713.405266
 70
    64
  0
VERTEX
  5
6BD
  8
TEAM-NET
 10
158.366188
 20
-149.755568
 30
717.11499
 70
    64
  0
VERTEX
  5
6BE
  8
TEAM-NET
 10
152.73985
 20
-132.023982
 30
721.836048
 70
    64
  0
VERTEX
  5
6BF
  8
TEAM-NET
 10
145.951069
 20
-115.0
 30
727.532512
 70
    64
  0
VERTEX
  5
6C0
  8
TEAM-NET
 10
138.051512
 20
-98.813184
 30
734.161027
 70
    64
  0
VERTEX
  5
6C1
  8
TEAM-NET
 10
129.1013
 20
-83.586726
 30
741.671147
 70
    64
  0
VERTEX
  5
6C2
  8
TEAM-NET
 10
119.168548
 20
-69.436508
 30
750.005715
 70
    64
  0
VERTEX
  5
6C3
  8
TEAM-NET
 10
108.328853
 20
-56.470223
 30
759.1013
 70
    64
  0
VERTEX
  5
6C4
  8
TEAM-NET
 10
96.664709
 20
-44.78655
 30
768.888678
 70
    64
  0
VERTEX
  5
6C5
  8
TEAM-NET
 10
84.264889
 20
-34.474411
 30
779.293363
 70
    64
  0
VERTEX
  5
6C6
  8
TEAM-NET
 10
71.223762
 20
-25.612287
 30
790.236168
 70
    64
  0
VERTEX
  5
6C7
  8
TEAM-NET
 10
57.640579
 20
-18.267623
 30
801.633812
 70
    64
  0
VERTEX
  5
6C8
  8
TEAM-NET
 10
43.618716
 20
-12.496318
 30
813.399551
 70
    64
  0
VERTEX
  5
6C9
  8
TEAM-NET
 10
29.264889
 20
-8.342294
 30
825.443843
 70
    64
  0
VERTEX
  5
6CA
  8
TEAM-NET
 10
14.688338
 20
-5.837166
 30
837.675021
 70
    64
  0
VERTEX
  5
6CB
  8
TEAM-NET
 10
0.0
 20
-5.0
 30
850.0
 70
    64
  0
VERTEX
  5
6CC
  8
TEAM-NET
 10
0.0
 20
-445.0
 30
850.0
 70
    64
  0
VERTEX
  5
6CD
  8
TEAM-NET
 10
13.558252
 20
-444.162834
 30
836.441748
 70
    64
  0
VERTEX
  5
6CE
  8
TEAM-NET
 10
27.013317
 20
-441.657706
 30
822.986683
 70
    64
  0
VERTEX
  5
6CF
  8
TEAM-NET
 10
40.262794
 20
-437.503682
 30
809.737206
 70
    64
  0
VERTEX
  5
6D0
  8
TEAM-NET
 10
53.205848
 20
-431.732377
 30
796.794152
 70
    64
  0
VERTEX
  5
6D1
  8
TEAM-NET
 10
65.743973
 20
-424.387713
 30
784.256027
 70
    64
  0
VERTEX
  5
6D2
  8
TEAM-NET
 10
77.781746
 20
-415.525589
 30
772.218254
 70
    64
  0
VERTEX
  5
6D3
  8
TEAM-NET
 10
89.227553
 20
-405.21345
 30
760.772447
 70
    64
  0
VERTEX
  5
6D4
  8
TEAM-NET
 10
99.994285
 20
-393.529777
 30
750.005715
 70
    64
  0
VERTEX
  5
6D5
  8
TEAM-NET
 10
110.0
 20
-380.563492
 30
740.0
 70
    64
  0
VERTEX
  5
6D6
  8
TEAM-NET
 10
119.168548
 20
-366.413274
 30
730.831452
 70
    64
  0
VERTEX
  5
6D7
  8
TEAM-NET
 10
127.430152
 20
-351.186816
 30
722.569848
 70
    64
  0
VERTEX
  5
6D8
  8
TEAM-NET
 10
134.721936
 20
-335.0
 30
715.278064
 70
    64
  0
VERTEX
  5
6D9
  8
TEAM-NET
 10
140.988404
 20
-317.976018
 30
709.011596
 70
    64
  0
VERTEX
  5
6DA
  8
TEAM-NET
 10
146.181865
 20
-300.244432
 30
703.818135
 70
    64
  0
VERTEX
  5
6DB
  8
TEAM-NET
 10
150.262794
 20
-281.94019
 30
699.737206
 70
    64
  0
VERTEX
  5
6DC
  8
TEAM-NET
 10
153.200133
 20
-263.202599
 30
696.799867
 70
    64
  0
VERTEX
  5
6DD
  8
TEAM-NET
 10
154.971526
 20
-244.174263
 30
695.028474
 70
    64
  0
VERTEX
  5
6DE
  8
TEAM-NET
 10
155.563492
 20
-225.0
 30
694.436508
 70
    64
  0
VERTEX
  5
6DF
  8
TEAM-NET
 10
154.971526
 20
-205.825737
 30
695.028474
 70
    64
  0
VERTEX
  5
6E0
  8
TEAM-NET
 10
153.200133
 20
-186.797401
 30
696.799867
 70
    64
  0
VERTEX
  5
6E1
  8
TEAM-NET
 10
150.262794
 20
-168.05981
 30
699.737206
 70
    64
  0
VERTEX
  5
6E2
  8
TEAM-NET
 10
146.181865
 20
-149.755568
 30
703.818135
 70
    64
  0
VERTEX
  5
6E3
  8
TEAM-NET
 10
140.988404
 20
-132.023982
 30
709.011596
 70
    64
  0
VERTEX
  5
6E4
  8
TEAM-NET
 10
134.721936
 20
-115.0
 30
715.278064
 70
    64
  0
VERTEX
  5
6E5
  8
TEAM-NET
 10
127.430152
 20
-98.813184
 30
722.569848
 70
    64
  0
VERTEX
  5
6E6
  8
TEAM-NET
 10
119.168548
 20
-83.586726
 30
730.831452
 70
    64
  0
VERTEX
  5
6E7
  8
TEAM-NET
 10
110.0
 20
-69.436508
 30
740.0
 70
    64
  0
VERTEX
  5
6E8
  8
TEAM-NET
 10
99.994285
 20
-56.470223
 30
750.005715
 70
    64
  0
VERTEX
  5
6E9
  8
TEAM-NET
 10
89.227553
 20
-44.78655
 30
760.772447
 70
    64
  0
VERTEX
  5
6EA
  8
TEAM-NET
 10
77.781746
 20
-34.474411
 30
772.218254
 70
    64
  0
VERTEX
  5
6EB
  8
TEAM-NET
 10
65.743973
 20
-25.612287
 30
784.256027
 70
    64
  0
VERTEX
  5
6EC
  8
TEAM-NET
 10
53.205848
 20
-18.267623
 30
796.794152
 70
    64
  0
VERTEX
  5
6ED
  8
TEAM-NET
 10
40.262794
 20
-12.496318
 30
809.737206
 70
    64
  0
VERTEX
  5
6EE
  8
TEAM-NET
 10
27.013317
 20
-8.342294
 30
822.986683
 70
    64
  0
VERTEX
  5
6EF
  8
TEAM-NET
 10
13.558252
 20
-5.837166
 30
836.441748
 70
    64
  0
VERTEX
  5
6F0
  8
TEAM-NET
 10
0.0
 20
-5.0
 30
850.0
 70
    64
  0
VERTEX
  5
6F1
  8
TEAM-NET
 10
0.0
 20
-445.0
 30
850.0
 70
    64
  0
VERTEX
  5
6F2
  8
TEAM-NET
 10
12.324979
 20
-444.162834
 30
835.311662
 70
    64
  0
VERTEX
  5
6F3
  8
TEAM-NET
 10
24.556157
 20
-441.657706
 30
820.735111
 70
    64
  0
VERTEX
  5
6F4
  8
TEAM-NET
 10
36.600449
 20
-437.503682
 30
806.381284
 70
    64
  0
VERTEX
  5
6F5
  8
TEAM-NET
 10
48.366188
 20
-431.732377
 30
792.359421
 70
    64
  0
VERTEX
  5
6F6
  8
TEAM-NET
 10
59.763832
 20
-424.387713
 30
778.776238
 70
    64
  0
VERTEX
  5
6F7
  8
TEAM-NET
 10
70.706637
 20
-415.525589
 30
765.735111
 70
    64
  0
VERTEX
  5
6F8
  8
TEAM-NET
 10
81.111322
 20
-405.21345
 30
753.335291
 70
    64
  0
VERTEX
  5
6F9
  8
TEAM-NET
 10
90.8987
 20
-393.529777
 30
741.671147
 70
    64
  0
VERTEX
  5
6FA
  8
TEAM-NET
 10
99.994285
 20
-380.563492
 30
730.831452
 70
    64
  0
VERTEX
  5
6FB
  8
TEAM-NET
 10
108.328853
 20
-366.413274
 30
720.8987
 70
    64
  0
VERTEX
  5
6FC
  8
TEAM-NET
 10
115.838973
 20
-351.186816
 30
711.948488
 70
    64
  0
VERTEX
  5
6FD
  8
TEAM-NET
 10
122.467488
 20
-335.0
 30
704.048931
 70
    64
  0
VERTEX
  5
6FE
  8
TEAM-NET
 10
128.163952
 20
-317.976018
 30
697.26015
 70
    64
  0
VERTEX
  5
6FF
  8
TEAM-NET
 10
132.88501
 20
-300.244432
 30
691.633812
 70
    64
  0
VERTEX
  5
700
  8
TEAM-NET
 10
136.594734
 20
-281.94019
 30
687.212735
 70
    64
  0
VERTEX
  5
701
  8
TEAM-NET
 10
139.264889
 20
-263.202599
 30
684.030569
 70
    64
  0
VERTEX
  5
702
  8
TEAM-NET
 10
140.875154
 20
-244.174263
 30
682.111529
 70
    64
  0
VERTEX
  5
703
  8
TEAM-NET
 10
141.413274
 20
-225.0
 30
681.470223
 70
    64
  0
VERTEX
  5
704
  8
TEAM-NET
 10
140.875154
 20
-205.825737
 30
682.111529
 70
    64
  0
VERTEX
  5
705
  8
TEAM-NET
 10
139.264889
 20
-186.797401
 30
684.030569
 70
    64
  0
VERTEX
  5
706
  8
TEAM-NET
 10
136.594734
 20
-168.05981
 30
687.212735
 70
    64
  0
VERTEX
  5
707
  8
TEAM-NET
 10
132.88501
 20
-149.755568
 30
691.633812
 70
    64
  0
VERTEX
  5
708
  8
TEAM-NET
 10
128.163952
 20
-132.023982
 30
697.26015
 70
    64
  0
VERTEX
  5
709
  8
TEAM-NET
 10
122.467488
 20
-115.0
 30
704.048931
 70
    64
  0
VERTEX
  5
70A
  8
TEAM-NET
 10
115.838973
 20
-98.813184
 30
711.948488
 70
    64
  0
VERTEX
  5
70B
  8
TEAM-NET
 10
108.328853
 20
-83.586726
 30
720.8987
 70
    64
  0
VERTEX
  5
70C
  8
TEAM-NET
 10
99.994285
 20
-69.436508
 30
730.831452
 70
    64
  0
VERTEX
  5
70D
  8
TEAM-NET
 10
90.8987
 20
-56.470223
 30
741.671147
 70
    64
  0
VERTEX
  5
70E
  8
TEAM-NET
 10
81.111322
 20
-44.78655
 30
753.335291
 70
    64
  0
VERTEX
  5
70F
  8
TEAM-NET
 10
70.706637
 20
-34.474411
 30
765.735111
 70
    64
  0
VERTEX
  5
710
  8
TEAM-NET
 10
59.763832
 20
-25.612287
 30
778.776238
 70
    64
  0
VERTEX
  5
711
  8
TEAM-NET
 10
48.366188
 20
-18.267623
 30
792.359421
 70
    64
  0
VERTEX
  5
712
  8
TEAM-NET
 10
36.600449
 20
-12.496318
 30
806.381284
 70
    64
  0
VERTEX
  5
713
  8
TEAM-NET
 10
24.556157
 20
-8.342294
 30
820.735111
 70
    64
  0
VERTEX
  5
714
  8
TEAM-NET
 10
12.324979
 20
-5.837166
 30
835.311662
 70
    64
  0
VERTEX
  5
715
  8
TEAM-NET
 10
0.0
 20
-5.0
 30
850.0
 70
    64
  0
VERTEX
  5
716
  8
TEAM-NET
 10
0.0
 20
-445.0
 30
850.0
 70
    64
  0
VERTEX
  5
717
  8
TEAM-NET
 10
10.997906
 20
-444.162834
 30
834.293363
 70
    64
  0
VERTEX
  5
718
  8
TEAM-NET
 10
21.912111
 20
-441.657706
 30
818.706263
 70
    64
  0
VERTEX
  5
719
  8
TEAM-NET
 10
32.659551
 20
-437.503682
 30
803.357327
 70
    64
  0
VERTEX
  5
71A
  8
TEAM-NET
 10
43.158433
 20
-431.732377
 30
788.36337
 70
    64
  0
VERTEX
  5
71B
  8
TEAM-NET
 10
53.328853
 20
-424.387713
 30
773.838505
 70
    64
  0
VERTEX
  5
71C
  8
TEAM-NET
 10
63.093408
 20
-415.525589
 30
759.893275
 70
    64
  0
VERTEX
  5
71D
  8
TEAM-NET
 10
72.377784
 20
-405.21345
 30
746.633812
 70
    64
  0
VERTEX
  5
71E
  8
TEAM-NET
 10
81.111322
 20
-393.529777
 30
734.161027
 70
    64
  0
VERTEX
  5
71F
  8
TEAM-NET
 10
89.227553
 20
-380.563492
 30
722.569848
 70
    64
  0
VERTEX
  5
720
  8
TEAM-NET
 10
96.664709
 20
-366.413274
 30
711.948488
 70
    64
  0
VERTEX
  5
721
  8
TEAM-NET
 10
103.366188
 20
-351.186816
 30
702.377784
 70
    64
  0
VERTEX
  5
722
  8
TEAM-NET
 10
109.280988
 20
-335.0
 30
693.930574
 70
    64
  0
VERTEX
  5
723
  8
TEAM-NET
 10
114.364094
 20
-317.976018
 30
686.671147
 70
    64
  0
VERTEX
  5
724
  8
TEAM-NET
 10
118.57682
 20
-300.244432
 30
680.654751
 70
    64
  0
VERTEX
  5
725
  8
TEAM-NET
 10
121.887105
 20
-281.94019
 30
675.927175
 70
    64
  0
VERTEX
  5
726
  8
TEAM-NET
 10
124.269755
 20
-263.202599
 30
672.524397
 70
    64
  0
VERTEX
  5
727
  8
TEAM-NET
 10
125.706637
 20
-244.174263
 30
670.472317
 70
    64
  0
VERTEX
  5
728
  8
TEAM-NET
 10
126.186816
 20
-225.0
 30
669.78655
 70
    64
  0
VERTEX
  5
729
  8
TEAM-NET
 10
125.706637
 20
-205.825737
 30
670.472317
 70
    64
  0
VERTEX
  5
72A
  8
TEAM-NET
 10
124.269755
 20
-186.797401
 30
672.524397
 70
    64
  0
VERTEX
  5
72B
  8
TEAM-NET
 10
121.887105
 20
-168.05981
 30
675.927175
 70
    64
  0
VERTEX
  5
72C
  8
TEAM-NET
 10
118.57682
 20
-149.755568
 30
680.654751
 70
    64
  0
VERTEX
  5
72D
  8
TEAM-NET
 10
114.364094
 20
-132.023982
 30
686.671147
 70
    64
  0
VERTEX
  5
72E
  8
TEAM-NET
 10
109.280988
 20
-115.0
 30
693.930574
 70
    64
  0
VERTEX
  5
72F
  8
TEAM-NET
 10
103.366188
 20
-98.813184
 30
702.377784
 70
    64
  0
VERTEX
  5
730
  8
TEAM-NET
 10
96.664709
 20
-83.586726
 30
711.948488
 70
    64
  0
VERTEX
  5
731
  8
TEAM-NET
 10
89.227553
 20
-69.436508
 30
722.569848
 70
    64
  0
VERTEX
  5
732
  8
TEAM-NET
 10
81.111322
 20
-56.470223
 30
734.161027
 70
    64
  0
VERTEX
  5
733
  8
TEAM-NET
 10
72.377784
 20
-44.78655
 30
746.633812
 70
    64
  0
VERTEX
  5
734
  8
TEAM-NET
 10
63.093408
 20
-34.474411
 30
759.893275
 70
    64
  0
VERTEX
  5
735
  8
TEAM-NET
 10
53.328853
 20
-25.612287
 30
773.838505
 70
    64
  0
VERTEX
  5
736
  8
TEAM-NET
 10
43.158433
 20
-18.267623
 30
788.36337
 70
    64
  0
VERTEX
  5
737
  8
TEAM-NET
 10
32.659551
 20
-12.496318
 30
803.357327
 70
    64
  0
VERTEX
  5
738
  8
TEAM-NET
 10
21.912111
 20
-8.342294
 30
818.706263
 70
    64
  0
VERTEX
  5
739
  8
TEAM-NET
 10
10.997906
 20
-5.837166
 30
834.293363
 70
    64
  0
VERTEX
  5
73A
  8
TEAM-NET
 10
0.0
 20
-5.0
 30
850.0
 70
    64
  0
VERTEX
  5
73B
  8
TEAM-NET
 10
0.0
 20
-445.0
 30
850.0
 70
    64
  0
VERTEX
  5
73C
  8
TEAM-NET
 10
9.587132
 20
-444.162834
 30
833.394601
 70
    64
  0
VERTEX
  5
73D
  8
TEAM-NET
 10
19.1013
 20
-441.657706
 30
816.915579
 70
    64
  0
VERTEX
  5
73E
  8
TEAM-NET
 10
28.470095
 20
-437.503682
 30
800.688349
 70
    64
  0
VERTEX
  5
73F
  8
TEAM-NET
 10
37.622216
 20
-431.732377
 30
784.836411
 70
    64
  0
VERTEX
  5
740
  8
TEAM-NET
 10
46.488009
 20
-424.387713
 30
769.480407
 70
    64
  0
VERTEX
  5
741
  8
TEAM-NET
 10
55.0
 20
-415.525589
 30
754.737206
 70
    64
  0
VERTEX
  5
742
  8
TEAM-NET
 10
63.093408
 20
-405.21345
 30
740.719012
 70
    64
  0
VERTEX
  5
743
  8
TEAM-NET
 10
70.706637
 20
-393.529777
 30
727.532512
 70
    64
  0
VERTEX
  5
744
  8
TEAM-NET
 10
77.781746
 20
-380.563492
 30
715.278064
 70
    64
  0
VERTEX
  5
745
  8
TEAM-NET
 10
84.264889
 20
-366.413274
 30
704.048931
 70
    64
  0
VERTEX
  5
746
  8
TEAM-NET
 10
90.106725
 20
-351.186816
 30
693.930574
 70
    64
  0
VERTEX
  5
747
  8
TEAM-NET
 10
95.262794
 20
-335.0
 30
685.0
 70
    64
  0
VERTEX
  5
748
  8
TEAM-NET
 10
99.693857
 20
-317.976018
 30
677.325175
 70
    64
  0
VERTEX
  5
749
  8
TEAM-NET
 10
103.366188
 20
-300.244432
 30
670.96451
 70
    64
  0
VERTEX
  5
74A
  8
TEAM-NET
 10
106.251841
 20
-281.94019
 30
665.966413
 70
    64
  0
VERTEX
  5
74B
  8
TEAM-NET
 10
108.328853
 20
-263.202599
 30
662.368923
 70
    64
  0
VERTEX
  5
74C
  8
TEAM-NET
 10
109.581417
 20
-244.174263
 30
660.199419
 70
    64
  0
VERTEX
  5
74D
  8
TEAM-NET
 10
110.0
 20
-225.0
 30
659.474411
 70
    64
  0
VERTEX
  5
74E
  8
TEAM-NET
 10
109.581417
 20
-205.825737
 30
660.199419
 70
    64
  0
VERTEX
  5
74F
  8
TEAM-NET
 10
108.328853
 20
-186.797401
 30
662.368923
 70
    64
  0
VERTEX
  5
750
  8
TEAM-NET
 10
106.251841
 20
-168.05981
 30
665.966413
 70
    64
  0
VERTEX
  5
751
  8
TEAM-NET
 10
103.366188
 20
-149.755568
 30
670.96451
 70
    64
  0
VERTEX
  5
752
  8
TEAM-NET
 10
99.693857
 20
-132.023982
 30
677.325175
 70
    64
  0
VERTEX
  5
753
  8
TEAM-NET
 10
95.262794
 20
-115.0
 30
685.0
 70
    64
  0
VERTEX
  5
754
  8
TEAM-NET
 10
90.106725
 20
-98.813184
 30
693.930574
 70
    64
  0
VERTEX
  5
755
  8
TEAM-NET
 10
84.264889
 20
-83.586726
 30
704.048931
 70
    64
  0
VERTEX
  5
756
  8
TEAM-NET
 10
77.781746
 20
-69.436508
 30
715.278064
 70
    64
  0
VERTEX
  5
757
  8
TEAM-NET
 10
70.706637
 20
-56.470223
 30
727.532512
 70
    64
  0
VERTEX
  5
758
  8
TEAM-NET
 10
63.093408
 20
-44.78655
 30
740.719012
 70
    64
  0
VERTEX
  5
759
  8
TEAM-NET
 10
55.0
 20
-34.474411
 30
754.737206
 70
    64
  0
VERTEX
  5
75A
  8
TEAM-NET
 10
46.488009
 20
-25.612287
 30
769.480407
 70
    64
  0
VERTEX
  5
75B
  8
TEAM-NET
 10
37.622216
 20
-18.267623
 30
784.836411
 70
    64
  0
VERTEX
  5
75C
  8
TEAM-NET
 10
28.470095
 20
-12.496318
 30
800.688349
 70
    64
  0
VERTEX
  5
75D
  8
TEAM-NET
 10
19.1013
 20
-8.342294
 30
816.915579
 70
    64
  0
VERTEX
  5
75E
  8
TEAM-NET
 10
9.587132
 20
-5.837166
 30
833.394601
 70
    64
  0
VERTEX
  5
75F
  8
TEAM-NET
 10
0.0
 20
-5.0
 30
850.0
 70
    64
  0
VERTEX
  5
760
  8
TEAM-NET
 10
0.0
 20
-445.0
 30
850.0
 70
    64
  0
VERTEX
  5
761
  8
TEAM-NET
 10
8.103394
 20
-444.162834
 30
832.622216
 70
    64
  0
VERTEX
  5
762
  8
TEAM-NET
 10
16.145116
 20
-441.657706
 30
815.376687
 70
    64
  0
VERTEX
  5
763
  8
TEAM-NET
 10
24.063964
 20
-437.503682
 30
798.394662
 70
    64
  0
VERTEX
  5
764
  8
TEAM-NET
 10
31.799671
 20
-431.732377
 30
781.805386
 70
    64
  0
VERTEX
  5
765
  8
TEAM-NET
 10
39.293363
 20
-424.387713
 30
765.735111
 70
    64
  0
VERTEX
  5
766
  8
TEAM-NET
 10
46.488009
 20
-415.525589
 30
750.306143
 70
    64
  0
VERTEX
  5
767
  8
TEAM-NET
 10
53.328853
 20
-405.21345
 30
735.635906
 70
    64
  0
VERTEX
  5
768
  8
TEAM-NET
 10
59.763832
 20
-393.529777
 30
721.836048
 70
    64
  0
VERTEX
  5
769
  8
TEAM-NET
 10
65.743973
 20
-380.563492
 30
709.011596
 70
    64
  0
VERTEX
  5
76A
  8
TEAM-NET
 10
71.223762
 20
-366.413274
 30
697.26015
 70
    64
  0
VERTEX
  5
76B
  8
TEAM-NET
 10
76.161495
 20
-351.186816
 30
686.671147
 70
    64
  0
VERTEX
  5
76C
  8
TEAM-NET
 10
80.519593
 20
-335.0
 30
677.325175
 70
    64
  0
VERTEX
  5
76D
  8
TEAM-NET
 10
84.264889
 20
-317.976018
 30
669.293363
 70
    64
  0
VERTEX
  5
76E
  8
TEAM-NET
 10
87.368878
 20
-300.244432
 30
662.636837
 70
    64
  0
VERTEX
  5
76F
  8
TEAM-NET
 10
89.807937
 20
-281.94019
 30
657.406258
 70
    64
  0
VERTEX
  5
770
  8
TEAM-NET
 10
91.563503
 20
-263.202599
 30
653.641434
 70
    64
  0
VERTEX
  5
771
  8
TEAM-NET
 10
92.622216
 20
-244.174263
 30
651.371017
 70
    64
  0
VERTEX
  5
772
  8
TEAM-NET
 10
92.976018
 20
-225.0
 30
650.612287
 70
    64
  0
VERTEX
  5
773
  8
TEAM-NET
 10
92.622216
 20
-205.825737
 30
651.371017
 70
    64
  0
VERTEX
  5
774
  8
TEAM-NET
 10
91.563503
 20
-186.797401
 30
653.641434
 70
    64
  0
VERTEX
  5
775
  8
TEAM-NET
 10
89.807937
 20
-168.05981
 30
657.406258
 70
    64
  0
VERTEX
  5
776
  8
TEAM-NET
 10
87.368878
 20
-149.755568
 30
662.636837
 70
    64
  0
VERTEX
  5
777
  8
TEAM-NET
 10
84.264889
 20
-132.023982
 30
669.293363
 70
    64
  0
VERTEX
  5
778
  8
TEAM-NET
 10
80.519593
 20
-115.0
 30
677.325175
 70
    64
  0
VERTEX
  5
779
  8
TEAM-NET
 10
76.161495
 20
-98.813184
 30
686.671147
 70
    64
  0
VERTEX
  5
77A
  8
TEAM-NET
 10
71.223762
 20
-83.586726
 30
697.26015
 70
    64
  0
VERTEX
  5
77B
  8
TEAM-NET
 10
65.743973
 20
-69.436508
 30
709.011596
 70
    64
  0
VERTEX
  5
77C
  8
TEAM-NET
 10
59.763832
 20
-56.470223
 30
721.836048
 70
    64
  0
VERTEX
  5
77D
  8
TEAM-NET
 10
53.328853
 20
-44.78655
 30
735.635906
 70
    64
  0
VERTEX
  5
77E
  8
TEAM-NET
 10
46.488009
 20
-34.474411
 30
750.306143
 70
    64
  0
VERTEX
  5
77F
  8
TEAM-NET
 10
39.293363
 20
-25.612287
 30
765.735111
 70
    64
  0
VERTEX
  5
780
  8
TEAM-NET
 10
31.799671
 20
-18.267623
 30
781.805386
 70
    64
  0
VERTEX
  5
781
  8
TEAM-NET
 10
24.063964
 20
-12.496318
 30
798.394662
 70
    64
  0
VERTEX
  5
782
  8
TEAM-NET
 10
16.145116
 20
-8.342294
 30
815.376687
 70
    64
  0
VERTEX
  5
783
  8
TEAM-NET
 10
8.103394
 20
-5.837166
 30
832.622216
 70
    64
  0
VERTEX
  5
784
  8
TEAM-NET
 10
0.0
 20
-5.0
 30
850.0
 70
    64
  0
VERTEX
  5
785
  8
TEAM-NET
 10
0.0
 20
-445.0
 30
850.0
 70
    64
  0
VERTEX
  5
786
  8
TEAM-NET
 10
6.557984
 20
-444.162834
 30
831.982086
 70
    64
  0
VERTEX
  5
787
  8
TEAM-NET
 10
13.066058
 20
-441.657706
 30
814.1013
 70
    64
  0
VERTEX
  5
788
  8
TEAM-NET
 10
19.474692
 20
-437.503682
 30
796.493724
 70
    64
  0
VERTEX
  5
789
  8
TEAM-NET
 10
25.735111
 20
-431.732377
 30
779.293363
 70
    64
  0
VERTEX
  5
78A
  8
TEAM-NET
 10
31.799671
 20
-424.387713
 30
762.631122
 70
    64
  0
VERTEX
  5
78B
  8
TEAM-NET
 10
37.622216
 20
-415.525589
 30
746.633812
 70
    64
  0
VERTEX
  5
78C
  8
TEAM-NET
 10
43.158433
 20
-405.21345
 30
731.42318
 70
    64
  0
VERTEX
  5
78D
  8
TEAM-NET
 10
48.366188
 20
-393.529777
 30
717.11499
 70
    64
  0
VERTEX
  5
78E
  8
TEAM-NET
 10
53.205848
 20
-380.563492
 30
703.818135
 70
    64
  0
VERTEX
  5
78F
  8
TEAM-NET
 10
57.640579
 20
-366.413274
 30
691.633812
 70
    64
  0
VERTEX
  5
790
  8
TEAM-NET
 10
61.63663
 20
-351.186816
 30
680.654751
 70
    64
  0
VERTEX
  5
791
  8
TEAM-NET
 10
65.163589
 20
-335.0
 30
670.96451
 70
    64
  0
VERTEX
  5
792
  8
TEAM-NET
 10
68.194614
 20
-317.976018
 30
662.636837
 70
    64
  0
VERTEX
  5
793
  8
TEAM-NET
 10
70.706637
 20
-300.244432
 30
655.735111
 70
    64
  0
VERTEX
  5
794
  8
TEAM-NET
 10
72.68054
 20
-281.94019
 30
650.311858
 70
    64
  0
VERTEX
  5
795
  8
TEAM-NET
 10
74.1013
 20
-263.202599
 30
646.408353
 70
    64
  0
VERTEX
  5
796
  8
TEAM-NET
 10
74.958104
 20
-244.174263
 30
644.054303
 70
    64
  0
VERTEX
  5
797
  8
TEAM-NET
 10
75.244432
 20
-225.0
 30
643.267623
 70
    64
  0
VERTEX
  5
798
  8
TEAM-NET
 10
74.958104
 20
-205.825737
 30
644.054303
 70
    64
  0
VERTEX
  5
799
  8
TEAM-NET
 10
74.1013
 20
-186.797401
 30
646.408353
 70
    64
  0
VERTEX
  5
79A
  8
TEAM-NET
 10
72.68054
 20
-168.05981
 30
650.311858
 70
    64
  0
VERTEX
  5
79B
  8
TEAM-NET
 10
70.706637
 20
-149.755568
 30
655.735111
 70
    64
  0
VERTEX
  5
79C
  8
TEAM-NET
 10
68.194614
 20
-132.023982
 30
662.636837
 70
    64
  0
VERTEX
  5
79D
  8
TEAM-NET
 10
65.163589
 20
-115.0
 30
670.96451
 70
    64
  0
VERTEX
  5
79E
  8
TEAM-NET
 10
61.63663
 20
-98.813184
 30
680.654751
 70
    64
  0
VERTEX
  5
79F
  8
TEAM-NET
 10
57.640579
 20
-83.586726
 30
691.633812
 70
    64
  0
VERTEX
  5
7A0
  8
TEAM-NET
 10
53.205848
 20
-69.436508
 30
703.818135
 70
    64
  0
VERTEX
  5
7A1
  8
TEAM-NET
 10
48.366188
 20
-56.470223
 30
717.11499
 70
    64
  0
VERTEX
  5
7A2
  8
TEAM-NET
 10
43.158433
 20
-44.78655
 30
731.42318
 70
    64
  0
VERTEX
  5
7A3
  8
TEAM-NET
 10
37.622216
 20
-34.474411
 30
746.633812
 70
    64
  0
VERTEX
  5
7A4
  8
TEAM-NET
 10
31.799671
 20
-25.612287
 30
762.631122
 70
    64
  0
VERTEX
  5
7A5
  8
TEAM-NET
 10
25.735111
 20
-18.267623
 30
779.293363
 70
    64
  0
VERTEX
  5
7A6
  8
TEAM-NET
 10
19.474692
 20
-12.496318
 30
796.493724
 70
    64
  0
VERTEX
  5
7A7
  8
TEAM-NET
 10
13.066058
 20
-8.342294
 30
814.1013
 70
    64
  0
VERTEX
  5
7A8
  8
TEAM-NET
 10
6.557984
 20
-5.837166
 30
831.982086
 70
    64
  0
VERTEX
  5
7A9
  8
TEAM-NET
 10
0.0
 20
-5.0
 30
850.0
 70
    64
  0
VERTEX
  5
7AA
  8
TEAM-NET
 10
0.0
 20
-445.0
 30
850.0
 70
    64
  0
VERTEX
  5
7AB
  8
TEAM-NET
 10
4.962665
 20
-444.162834
 30
831.479084
 70
    64
  0
VERTEX
  5
7AC
  8
TEAM-NET
 10
9.88756
 20
-441.657706
 30
813.099123
 70
    64
  0
VERTEX
  5
7AD
  8
TEAM-NET
 10
14.737206
 20
-437.503682
 30
795.0
 70
    64
  0
VERTEX
  5
7AE
  8
TEAM-NET
 10
19.474692
 20
-431.732377
 30
777.31946
 70
    64
  0
VERTEX
  5
7AF
  8
TEAM-NET
 10
24.063964
 20
-424.387713
 30
760.192063
 70
    64
  0
VERTEX
  5
7B0
  8
TEAM-NET
 10
28.470095
 20
-415.525589
 30
743.748159
 70
    64
  0
VERTEX
  5
7B1
  8
TEAM-NET
 10
32.659551
 20
-405.21345
 30
728.112895
 70
    64
  0
VERTEX
  5
7B2
  8
TEAM-NET
 10
36.600449
 20
-393.529777
 30
713.405266
 70
    64
  0
VERTEX
  5
7B3
  8
TEAM-NET
 10
40.262794
 20
-380.563492
 30
699.737206
 70
    64
  0
VERTEX
  5
7B4
  8
TEAM-NET
 10
43.618716
 20
-366.413274
 30
687.212735
 70
    64
  0
VERTEX
  5
7B5
  8
TEAM-NET
 10
46.642673
 20
-351.186816
 30
675.927175
 70
    64
  0
VERTEX
  5
7B6
  8
TEAM-NET
 10
49.311651
 20
-335.0
 30
665.966413
 70
    64
  0
VERTEX
  5
7B7
  8
TEAM-NET
 10
51.605338
 20
-317.976018
 30
657.406258
 70
    64
  0
VERTEX
  5
7B8
  8
TEAM-NET
 10
53.506276
 20
-300.244432
 30
650.311858
 70
    64
  0
VERTEX
  5
7B9
  8
TEAM-NET
 10
55.0
 20
-281.94019
 30
644.737206
 70
    64
  0
VERTEX
  5
7BA
  8
TEAM-NET
 10
56.07514
 20
-263.202599
 30
640.724727
 70
    64
  0
VERTEX
  5
7BB
  8
TEAM-NET
 10
56.723515
 20
-244.174263
 30
638.304959
 70
    64
  0
VERTEX
  5
7BC
  8
TEAM-NET
 10
56.94019
 20
-225.0
 30
637.496318
 70
    64
  0
VERTEX
  5
7BD
  8
TEAM-NET
 10
56.723515
 20
-205.825737
 30
638.304959
 70
    64
  0
VERTEX
  5
7BE
  8
TEAM-NET
 10
56.07514
 20
-186.797401
 30
640.724727
 70
    64
  0
VERTEX
  5
7BF
  8
TEAM-NET
 10
55.0
 20
-168.05981
 30
644.737206
 70
    64
  0
VERTEX
  5
7C0
  8
TEAM-NET
 10
53.506276
 20
-149.755568
 30
650.311858
 70
    64
  0
VERTEX
  5
7C1
  8
TEAM-NET
 10
51.605338
 20
-132.023982
 30
657.406258
 70
    64
  0
VERTEX
  5
7C2
  8
TEAM-NET
 10
49.311651
 20
-115.0
 30
665.966413
 70
    64
  0
VERTEX
  5
7C3
  8
TEAM-NET
 10
46.642673
 20
-98.813184
 30
675.927175
 70
    64
  0
VERTEX
  5
7C4
  8
TEAM-NET
 10
43.618716
 20
-83.586726
 30
687.212735
 70
    64
  0
VERTEX
  5
7C5
  8
TEAM-NET
 10
40.262794
 20
-69.436508
 30
699.737206
 70
    64
  0
VERTEX
  5
7C6
  8
TEAM-NET
 10
36.600449
 20
-56.470223
 30
713.405266
 70
    64
  0
VERTEX
  5
7C7
  8
TEAM-NET
 10
32.659551
 20
-44.78655
 30
728.112895
 70
    64
  0
VERTEX
  5
7C8
  8
TEAM-NET
 10
28.470095
 20
-34.474411
 30
743.748159
 70
    64
  0
VERTEX
  5
7C9
  8
TEAM-NET
 10
24.063964
 20
-25.612287
 30
760.192063
 70
    64
  0
VERTEX
  5
7CA
  8
TEAM-NET
 10
19.474692
 20
-18.267623
 30
777.31946
 70
    64
  0
VERTEX
  5
7CB
  8
TEAM-NET
 10
14.737206
 20
-12.496318
 30
795.0
 70
    64
  0
VERTEX
  5
7CC
  8
TEAM-NET
 10
9.88756
 20
-8.342294
 30
813.099123
 70
    64
  0
VERTEX
  5
7CD
  8
TEAM-NET
 10
4.962665
 20
-5.837166
 30
831.479084
 70
    64
  0
VERTEX
  5
7CE
  8
TEAM-NET
 10
0.0
 20
-5.0
 30
850.0
 70
    64
  0
VERTEX
  5
7CF
  8
TEAM-NET
 10
0.0
 20
-445.0
 30
850.0
 70
    64
  0
VERTEX
  5
7D0
  8
TEAM-NET
 10
3.329576
 20
-444.162834
 30
831.117037
 70
    64
  0
VERTEX
  5
7D1
  8
TEAM-NET
 10
6.633812
 20
-441.657706
 30
812.377784
 70
    64
  0
VERTEX
  5
7D2
  8
TEAM-NET
 10
9.88756
 20
-437.503682
 30
793.92486
 70
    64
  0
VERTEX
  5
7D3
  8
TEAM-NET
 10
13.066058
 20
-431.732377
 30
775.8987
 70
    64
  0
VERTEX
  5
7D4
  8
TEAM-NET
 10
16.145116
 20
-424.387713
 30
758.436497
 70
    64
  0
VERTEX
  5
7D5
  8
TEAM-NET
 10
19.1013
 20
-415.525589
 30
741.671147
 70
    64
  0
VERTEX
  5
7D6
  8
TEAM-NET
 10
21.912111
 20
-405.21345
 30
725.730245
 70
    64
  0
VERTEX
  5
7D7
  8
TEAM-NET
 10
24.556157
 20
-393.529777
 30
710.735111
 70
    64
  0
VERTEX
  5
7D8
  8
TEAM-NET
 10
27.013317
 20
-380.563492
 30
696.799867
 70
    64
  0
VERTEX
  5
7D9
  8
TEAM-NET
 10
29.264889
 20
-366.413274
 30
684.030569
 70
    64
  0
VERTEX
  5
7DA
  8
TEAM-NET
 10
31.293737
 20
-351.186816
 30
672.524397
 70
    64
  0
VERTEX
  5
7DB
  8
TEAM-NET
 10
33.084421
 20
-335.0
 30
662.368923
 70
    64
  0
VERTEX
  5
7DC
  8
TEAM-NET
 10
34.623313
 20
-317.976018
 30
653.641434
 70
    64
  0
VERTEX
  5
7DD
  8
TEAM-NET
 10
35.8987
 20
-300.244432
 30
646.408353
 70
    64
  0
VERTEX
  5
7DE
  8
TEAM-NET
 10
36.900877
 20
-281.94019
 30
640.724727
 70
    64
  0
VERTEX
  5
7DF
  8
TEAM-NET
 10
37.622216
 20
-263.202599
 30
636.633812
 70
    64
  0
VERTEX
  5
7E0
  8
TEAM-NET
 10
38.057227
 20
-244.174263
 30
634.166742
 70
    64
  0
VERTEX
  5
7E1
  8
TEAM-NET
 10
38.202599
 20
-225.0
 30
633.342294
 70
    64
  0
VERTEX
  5
7E2
  8
TEAM-NET
 10
38.057227
 20
-205.825737
 30
634.166742
 70
    64
  0
VERTEX
  5
7E3
  8
TEAM-NET
 10
37.622216
 20
-186.797401
 30
636.633812
 70
    64
  0
VERTEX
  5
7E4
  8
TEAM-NET
 10
36.900877
 20
-168.05981
 30
640.724727
 70
    64
  0
VERTEX
  5
7E5
  8
TEAM-NET
 10
35.8987
 20
-149.755568
 30
646.408353
 70
    64
  0
VERTEX
  5
7E6
  8
TEAM-NET
 10
34.623313
 20
-132.023982
 30
653.641434
 70
    64
  0
VERTEX
  5
7E7
  8
TEAM-NET
 10
33.084421
 20
-115.0
 30
662.368923
 70
    64
  0
VERTEX
  5
7E8
  8
TEAM-NET
 10
31.293737
 20
-98.813184
 30
672.524397
 70
    64
  0
VERTEX
  5
7E9
  8
TEAM-NET
 10
29.264889
 20
-83.586726
 30
684.030569
 70
    64
  0
VERTEX
  5
7EA
  8
TEAM-NET
 10
27.013317
 20
-69.436508
 30
696.799867
 70
    64
  0
VERTEX
  5
7EB
  8
TEAM-NET
 10
24.556157
 20
-56.470223
 30
710.735111
 70
    64
  0
VERTEX
  5
7EC
  8
TEAM-NET
 10
21.912111
 20
-44.78655
 30
725.730245
 70
    64
  0
VERTEX
  5
7ED
  8
TEAM-NET
 10
19.1013
 20
-34.474411
 30
741.671147
 70
    64
  0
VERTEX
  5
7EE
  8
TEAM-NET
 10
16.145116
 20
-25.612287
 30
758.436497
 70
    64
  0
VERTEX
  5
7EF
  8
TEAM-NET
 10
13.066058
 20
-18.267623
 30
775.8987
 70
    64
  0
VERTEX
  5
7F0
  8
TEAM-NET
 10
9.88756
 20
-12.496318
 30
793.92486
 70
    64
  0
VERTEX
  5
7F1
  8
TEAM-NET
 10
6.633812
 20
-8.342294
 30
812.377784
 70
    64
  0
VERTEX
  5
7F2
  8
TEAM-NET
 10
3.329576
 20
-5.837166
 30
831.117037
 70
    64
  0
VERTEX
  5
7F3
  8
TEAM-NET
 10
0.0
 20
-5.0
 30
850.0
 70
    64
  0
VERTEX
  5
7F4
  8
TEAM-NET
 10
0.0
 20
-445.0
 30
850.0
 70
    64
  0
VERTEX
  5
7F5
  8
TEAM-NET
 10
1.671147
 20
-444.162834
 30
830.8987
 70
    64
  0
VERTEX
  5
7F6
  8
TEAM-NET
 10
3.329576
 20
-441.657706
 30
811.942773
 70
    64
  0
VERTEX
  5
7F7
  8
TEAM-NET
 10
4.962665
 20
-437.503682
 30
793.276485
 70
    64
  0
VERTEX
  5
7F8
  8
TEAM-NET
 10
6.557984
 20
-431.732377
 30
775.041896
 70
    64
  0
VERTEX
  5
7F9
  8
TEAM-NET
 10
8.103394
 20
-424.387713
 30
757.377784
 70
    64
  0
VERTEX
  5
7FA
  8
TEAM-NET
 10
9.587132
 20
-415.525589
 30
740.418583
 70
    64
  0
VERTEX
  5
7FB
  8
TEAM-NET
 10
10.997906
 20
-405.21345
 30
724.293363
 70
    64
  0
VERTEX
  5
7FC
  8
TEAM-NET
 10
12.324979
 20
-393.529777
 30
709.124846
 70
    64
  0
VERTEX
  5
7FD
  8
TEAM-NET
 10
13.558252
 20
-380.563492
 30
695.028474
 70
    64
  0
VERTEX
  5
7FE
  8
TEAM-NET
 10
14.688338
 20
-366.413274
 30
682.111529
 70
    64
  0
VERTEX
  5
7FF
  8
TEAM-NET
 10
15.706637
 20
-351.186816
 30
670.472317
 70
    64
  0
VERTEX
  5
800
  8
TEAM-NET
 10
16.605399
 20
-335.0
 30
660.199419
 70
    64
  0
VERTEX
  5
801
  8
TEAM-NET
 10
17.377784
 20
-317.976018
 30
651.371017
 70
    64
  0
VERTEX
  5
802
  8
TEAM-NET
 10
18.017914
 20
-300.244432
 30
644.054303
 70
    64
  0
VERTEX
  5
803
  8
TEAM-NET
 10
18.520916
 20
-281.94019
 30
638.304959
 70
    64
  0
VERTEX
  5
804
  8
TEAM-NET
 10
18.882963
 20
-263.202599
 30
634.166742
 70
    64
  0
VERTEX
  5
805
  8
TEAM-NET
 10
19.1013
 20
-244.174263
 30
631.671147
 70
    64
  0
VERTEX
  5
806
  8
TEAM-NET
 10
19.174263
 20
-225.0
 30
630.837166
 70
    64
  0
VERTEX
  5
807
  8
TEAM-NET
 10
19.1013
 20
-205.825737
 30
631.671147
 70
    64
  0
VERTEX
  5
808
  8
TEAM-NET
 10
18.882963
 20
-186.797401
 30
634.166742
 70
    64
  0
VERTEX
  5
809
  8
TEAM-NET
 10
18.520916
 20
-168.05981
 30
638.304959
 70
    64
  0
VERTEX
  5
80A
  8
TEAM-NET
 10
18.017914
 20
-149.755568
 30
644.054303
 70
    64
  0
VERTEX
  5
80B
  8
TEAM-NET
 10
17.377784
 20
-132.023982
 30
651.371017
 70
    64
  0
VERTEX
  5
80C
  8
TEAM-NET
 10
16.605399
 20
-115.0
 30
660.199419
 70
    64
  0
VERTEX
  5
80D
  8
TEAM-NET
 10
15.706637
 20
-98.813184
 30
670.472317
 70
    64
  0
VERTEX
  5
80E
  8
TEAM-NET
 10
14.688338
 20
-83.586726
 30
682.111529
 70
    64
  0
VERTEX
  5
80F
  8
TEAM-NET
 10
13.558252
 20
-69.436508
 30
695.028474
 70
    64
  0
VERTEX
  5
810
  8
TEAM-NET
 10
12.324979
 20
-56.470223
 30
709.124846
 70
    64
  0
VERTEX
  5
811
  8
TEAM-NET
 10
10.997906
 20
-44.78655
 30
724.293363
 70
    64
  0
VERTEX
  5
812
  8
TEAM-NET
 10
9.587132
 20
-34.474411
 30
740.418583
 70
    64
  0
VERTEX
  5
813
  8
TEAM-NET
 10
8.103394
 20
-25.612287
 30
757.377784
 70
    64
  0
VERTEX
  5
814
  8
TEAM-NET
 10
6.557984
 20
-18.267623
 30
775.041896
 70
    64
  0
VERTEX
  5
815
  8
TEAM-NET
 10
4.962665
 20
-12.496318
 30
793.276485
 70
    64
  0
VERTEX
  5
816
  8
TEAM-NET
 10
3.329576
 20
-8.342294
 30
811.942773
 70
    64
  0
VERTEX
  5
817
  8
TEAM-NET
 10
1.671147
 20
-5.837166
 30
830.8987
 70
    64
  0
VERTEX
  5
818
  8
TEAM-NET
 10
0.0
 20
-5.0
 30
850.0
 70
    64
  0
VERTEX
  5
819
  8
TEAM-NET
 10
0.0
 20
-445.0
 30
850.0
 70
    64
  0
VERTEX
  5
81A
  8
TEAM-NET
 10
0.0
 20
-444.162834
 30
830.825737
 70
    64
  0
VERTEX
  5
81B
  8
TEAM-NET
 10
0.0
 20
-441.657706
 30
811.797401
 70
    64
  0
VERTEX
  5
81C
  8
TEAM-NET
 10
0.0
 20
-437.503682
 30
793.05981
 70
    64
  0
VERTEX
  5
81D
  8
TEAM-NET
 10
0.0
 20
-431.732377
 30
774.755568
 70
    64
  0
VERTEX
  5
81E
  8
TEAM-NET
 10
0.0
 20
-424.387713
 30
757.023982
 70
    64
  0
VERTEX
  5
81F
  8
TEAM-NET
 10
0.0
 20
-415.525589
 30
740.0
 70
    64
  0
VERTEX
  5
820
  8
TEAM-NET
 10
0.0
 20
-405.21345
 30
723.813184
 70
    64
  0
VERTEX
  5
821
  8
TEAM-NET
 10
0.0
 20
-393.529777
 30
708.586726
 70
    64
  0
VERTEX
  5
822
  8
TEAM-NET
 10
0.0
 20
-380.563492
 30
694.436508
 70
    64
  0
VERTEX
  5
823
  8
TEAM-NET
 10
0.0
 20
-366.413274
 30
681.470223
 70
    64
  0
VERTEX
  5
824
  8
TEAM-NET
 10
0.0
 20
-351.186816
 30
669.78655
 70
    64
  0
VERTEX
  5
825
  8
TEAM-NET
 10
0.0
 20
-335.0
 30
659.474411
 70
    64
  0
VERTEX
  5
826
  8
TEAM-NET
 10
0.0
 20
-317.976018
 30
650.612287
 70
    64
  0
VERTEX
  5
827
  8
TEAM-NET
 10
0.0
 20
-300.244432
 30
643.267623
 70
    64
  0
VERTEX
  5
828
  8
TEAM-NET
 10
0.0
 20
-281.94019
 30
637.496318
 70
    64
  0
VERTEX
  5
829
  8
TEAM-NET
 10
0.0
 20
-263.202599
 30
633.342294
 70
    64
  0
VERTEX
  5
82A
  8
TEAM-NET
 10
0.0
 20
-244.174263
 30
630.837166
 70
    64
  0
VERTEX
  5
82B
  8
TEAM-NET
 10
0.0
 20
-225.0
 30
630.0
 70
    64
  0
VERTEX
  5
82C
  8
TEAM-NET
 10
0.0
 20
-205.825737
 30
630.837166
 70
    64
  0
VERTEX
  5
82D
  8
TEAM-NET
 10
0.0
 20
-186.797401
 30
633.342294
 70
    64
  0
VERTEX
  5
82E
  8
TEAM-NET
 10
0.0
 20
-168.05981
 30
637.496318
 70
    64
  0
VERTEX
  5
82F
  8
TEAM-NET
 10
0.0
 20
-149.755568
 30
643.267623
 70
    64
  0
VERTEX
  5
830
  8
TEAM-NET
 10
0.0
 20
-132.023982
 30
650.612287
 70
    64
  0
VERTEX
  5
831
  8
TEAM-NET
 10
0.0
 20
-115.0
 30
659.474411
 70
    64
  0
VERTEX
  5
832
  8
TEAM-NET
 10
0.0
 20
-98.813184
 30
669.78655
 70
    64
  0
VERTEX
  5
833
  8
TEAM-NET
 10
0.0
 20
-83.586726
 30
681.470223
 70
    64
  0
VERTEX
  5
834
  8
TEAM-NET
 10
0.0
 20
-69.436508
 30
694.436508
 70
    64
  0
VERTEX
  5
835
  8
TEAM-NET
 10
0.0
 20
-56.470223
 30
708.586726
 70
    64
  0
VERTEX
  5
836
  8
TEAM-NET
 10
0.0
 20
-44.78655
 30
723.813184
 70
    64
  0
VERTEX
  5
837
  8
TEAM-NET
 10
0.0
 20
-34.474411
 30
740.0
 70
    64
  0
VERTEX
  5
838
  8
TEAM-NET
 10
0.0
 20
-25.612287
 30
757.023982
 70
    64
  0
VERTEX
  5
839
  8
TEAM-NET
 10
0.0
 20
-18.267623
 30
774.755568
 70
    64
  0
VERTEX
  5
83A
  8
TEAM-NET
 10
0.0
 20
-12.496318
 30
793.05981
 70
    64
  0
VERTEX
  5
83B
  8
TEAM-NET
 10
0.0
 20
-8.342294
 30
811.797401
 70
    64
  0
VERTEX
  5
83C
  8
TEAM-NET
 10
0.0
 20
-5.837166
 30
830.825737
 70
    64
  0
VERTEX
  5
83D
  8
TEAM-NET
 10
0.0
 20
-5.0
 30
850.0
 70
    64
  0
VERTEX
  5
83E
  8
TEAM-NET
 10
0.0
 20
-445.0
 30
850.0
 70
    64
  0
VERTEX
  5
83F
  8
TEAM-NET
 10
-1.671147
 20
-444.162834
 30
830.8987
 70
    64
  0
VERTEX
  5
840
  8
TEAM-NET
 10
-3.329576
 20
-441.657706
 30
811.942773
 70
    64
  0
VERTEX
  5
841
  8
TEAM-NET
 10
-4.962665
 20
-437.503682
 30
793.276485
 70
    64
  0
VERTEX
  5
842
  8
TEAM-NET
 10
-6.557984
 20
-431.732377
 30
775.041896
 70
    64
  0
VERTEX
  5
843
  8
TEAM-NET
 10
-8.103394
 20
-424.387713
 30
757.377784
 70
    64
  0
VERTEX
  5
844
  8
TEAM-NET
 10
-9.587132
 20
-415.525589
 30
740.418583
 70
    64
  0
VERTEX
  5
845
  8
TEAM-NET
 10
-10.997906
 20
-405.21345
 30
724.293363
 70
    64
  0
VERTEX
  5
846
  8
TEAM-NET
 10
-12.324979
 20
-393.529777
 30
709.124846
 70
    64
  0
VERTEX
  5
847
  8
TEAM-NET
 10
-13.558252
 20
-380.563492
 30
695.028474
 70
    64
  0
VERTEX
  5
848
  8
TEAM-NET
 10
-14.688338
 20
-366.413274
 30
682.111529
 70
    64
  0
VERTEX
  5
849
  8
TEAM-NET
 10
-15.706637
 20
-351.186816
 30
670.472317
 70
    64
  0
VERTEX
  5
84A
  8
TEAM-NET
 10
-16.605399
 20
-335.0
 30
660.199419
 70
    64
  0
VERTEX
  5
84B
  8
TEAM-NET
 10
-17.377784
 20
-317.976018
 30
651.371017
 70
    64
  0
VERTEX
  5
84C
  8
TEAM-NET
 10
-18.017914
 20
-300.244432
 30
644.054303
 70
    64
  0
VERTEX
  5
84D
  8
TEAM-NET
 10
-18.520916
 20
-281.94019
 30
638.304959
 70
    64
  0
VERTEX
  5
84E
  8
TEAM-NET
 10
-18.882963
 20
-263.202599
 30
634.166742
 70
    64
  0
VERTEX
  5
84F
  8
TEAM-NET
 10
-19.1013
 20
-244.174263
 30
631.671147
 70
    64
  0
VERTEX
  5
850
  8
TEAM-NET
 10
-19.174263
 20
-225.0
 30
630.837166
 70
    64
  0
VERTEX
  5
851
  8
TEAM-NET
 10
-19.1013
 20
-205.825737
 30
631.671147
 70
    64
  0
VERTEX
  5
852
  8
TEAM-NET
 10
-18.882963
 20
-186.797401
 30
634.166742
 70
    64
  0
VERTEX
  5
853
  8
TEAM-NET
 10
-18.520916
 20
-168.05981
 30
638.304959
 70
    64
  0
VERTEX
  5
854
  8
TEAM-NET
 10
-18.017914
 20
-149.755568
 30
644.054303
 70
    64
  0
VERTEX
  5
855
  8
TEAM-NET
 10
-17.377784
 20
-132.023982
 30
651.371017
 70
    64
  0
VERTEX
  5
856
  8
TEAM-NET
 10
-16.605399
 20
-115.0
 30
660.199419
 70
    64
  0
VERTEX
  5
857
  8
TEAM-NET
 10
-15.706637
 20
-98.813184
 30
670.472317
 70
    64
  0
VERTEX
  5
858
  8
TEAM-NET
 10
-14.688338
 20
-83.586726
 30
682.111529
 70
    64
  0
VERTEX
  5
859
  8
TEAM-NET
 10
-13.558252
 20
-69.436508
 30
695.028474
 70
    64
  0
VERTEX
  5
85A
  8
TEAM-NET
 10
-12.324979
 20
-56.470223
 30
709.124846
 70
    64
  0
VERTEX
  5
85B
  8
TEAM-NET
 10
-10.997906
 20
-44.78655
 30
724.293363
 70
    64
  0
VERTEX
  5
85C
  8
TEAM-NET
 10
-9.587132
 20
-34.474411
 30
740.418583
 70
    64
  0
VERTEX
  5
85D
  8
TEAM-NET
 10
-8.103394
 20
-25.612287
 30
757.377784
 70
    64
  0
VERTEX
  5
85E
  8
TEAM-NET
 10
-6.557984
 20
-18.267623
 30
775.041896
 70
    64
  0
VERTEX
  5
85F
  8
TEAM-NET
 10
-4.962665
 20
-12.496318
 30
793.276485
 70
    64
  0
VERTEX
  5
860
  8
TEAM-NET
 10
-3.329576
 20
-8.342294
 30
811.942773
 70
    64
  0
VERTEX
  5
861
  8
TEAM-NET
 10
-1.671147
 20
-5.837166
 30
830.8987
 70
    64
  0
VERTEX
  5
862
  8
TEAM-NET
 10
0.0
 20
-5.0
 30
850.0
 70
    64
  0
VERTEX
  5
863
  8
TEAM-NET
 10
0.0
 20
-445.0
 30
850.0
 70
    64
  0
VERTEX
  5
864
  8
TEAM-NET
 10
-3.329576
 20
-444.162834
 30
831.117037
 70
    64
  0
VERTEX
  5
865
  8
TEAM-NET
 10
-6.633812
 20
-441.657706
 30
812.377784
 70
    64
  0
VERTEX
  5
866
  8
TEAM-NET
 10
-9.88756
 20
-437.503682
 30
793.92486
 70
    64
  0
VERTEX
  5
867
  8
TEAM-NET
 10
-13.066058
 20
-431.732377
 30
775.8987
 70
    64
  0
VERTEX
  5
868
  8
TEAM-NET
 10
-16.145116
 20
-424.387713
 30
758.436497
 70
    64
  0
VERTEX
  5
869
  8
TEAM-NET
 10
-19.1013
 20
-415.525589
 30
741.671147
 70
    64
  0
VERTEX
  5
86A
  8
TEAM-NET
 10
-21.912111
 20
-405.21345
 30
725.730245
 70
    64
  0
VERTEX
  5
86B
  8
TEAM-NET
 10
-24.556157
 20
-393.529777
 30
710.735111
 70
    64
  0
VERTEX
  5
86C
  8
TEAM-NET
 10
-27.013317
 20
-380.563492
 30
696.799867
 70
    64
  0
VERTEX
  5
86D
  8
TEAM-NET
 10
-29.264889
 20
-366.413274
 30
684.030569
 70
    64
  0
VERTEX
  5
86E
  8
TEAM-NET
 10
-31.293737
 20
-351.186816
 30
672.524397
 70
    64
  0
VERTEX
  5
86F
  8
TEAM-NET
 10
-33.084421
 20
-335.0
 30
662.368923
 70
    64
  0
VERTEX
  5
870
  8
TEAM-NET
 10
-34.623313
 20
-317.976018
 30
653.641434
 70
    64
  0
VERTEX
  5
871
  8
TEAM-NET
 10
-35.8987
 20
-300.244432
 30
646.408353
 70
    64
  0
VERTEX
  5
872
  8
TEAM-NET
 10
-36.900877
 20
-281.94019
 30
640.724727
 70
    64
  0
VERTEX
  5
873
  8
TEAM-NET
 10
-37.622216
 20
-263.202599
 30
636.633812
 70
    64
  0
VERTEX
  5
874
  8
TEAM-NET
 10
-38.057227
 20
-244.174263
 30
634.166742
 70
    64
  0
VERTEX
  5
875
  8
TEAM-NET
 10
-38.202599
 20
-225.0
 30
633.342294
 70
    64
  0
VERTEX
  5
876
  8
TEAM-NET
 10
-38.057227
 20
-205.825737
 30
634.166742
 70
    64
  0
VERTEX
  5
877
  8
TEAM-NET
 10
-37.622216
 20
-186.797401
 30
636.633812
 70
    64
  0
VERTEX
  5
878
  8
TEAM-NET
 10
-36.900877
 20
-168.05981
 30
640.724727
 70
    64
  0
VERTEX
  5
879
  8
TEAM-NET
 10
-35.8987
 20
-149.755568
 30
646.408353
 70
    64
  0
VERTEX
  5
87A
  8
TEAM-NET
 10
-34.623313
 20
-132.023982
 30
653.641434
 70
    64
  0
VERTEX
  5
87B
  8
TEAM-NET
 10
-33.084421
 20
-115.0
 30
662.368923
 70
    64
  0
VERTEX
  5
87C
  8
TEAM-NET
 10
-31.293737
 20
-98.813184
 30
672.524397
 70
    64
  0
VERTEX
  5
87D
  8
TEAM-NET
 10
-29.264889
 20
-83.586726
 30
684.030569
 70
    64
  0
VERTEX
  5
87E
  8
TEAM-NET
 10
-27.013317
 20
-69.436508
 30
696.799867
 70
    64
  0
VERTEX
  5
87F
  8
TEAM-NET
 10
-24.556157
 20
-56.470223
 30
710.735111
 70
    64
  0
VERTEX
  5
880
  8
TEAM-NET
 10
-21.912111
 20
-44.78655
 30
725.730245
 70
    64
  0
VERTEX
  5
881
  8
TEAM-NET
 10
-19.1013
 20
-34.474411
 30
741.671147
 70
    64
  0
VERTEX
  5
882
  8
TEAM-NET
 10
-16.145116
 20
-25.612287
 30
758.436497
 70
    64
  0
VERTEX
  5
883
  8
TEAM-NET
 10
-13.066058
 20
-18.267623
 30
775.8987
 70
    64
  0
VERTEX
  5
884
  8
TEAM-NET
 10
-9.88756
 20
-12.496318
 30
793.92486
 70
    64
  0
VERTEX
  5
885
  8
TEAM-NET
 10
-6.633812
 20
-8.342294
 30
812.377784
 70
    64
  0
VERTEX
  5
886
  8
TEAM-NET
 10
-3.329576
 20
-5.837166
 30
831.117037
 70
    64
  0
VERTEX
  5
887
  8
TEAM-NET
 10
0.0
 20
-5.0
 30
850.0
 70
    64
  0
VERTEX
  5
888
  8
TEAM-NET
 10
0.0
 20
-445.0
 30
850.0
 70
    64
  0
VERTEX
  5
889
  8
TEAM-NET
 10
-4.962665
 20
-444.162834
 30
831.479084
 70
    64
  0
VERTEX
  5
88A
  8
TEAM-NET
 10
-9.88756
 20
-441.657706
 30
813.099123
 70
    64
  0
VERTEX
  5
88B
  8
TEAM-NET
 10
-14.737206
 20
-437.503682
 30
795.0
 70
    64
  0
VERTEX
  5
88C
  8
TEAM-NET
 10
-19.474692
 20
-431.732377
 30
777.31946
 70
    64
  0
VERTEX
  5
88D
  8
TEAM-NET
 10
-24.063964
 20
-424.387713
 30
760.192063
 70
    64
  0
VERTEX
  5
88E
  8
TEAM-NET
 10
-28.470095
 20
-415.525589
 30
743.748159
 70
    64
  0
VERTEX
  5
88F
  8
TEAM-NET
 10
-32.659551
 20
-405.21345
 30
728.112895
 70
    64
  0
VERTEX
  5
890
  8
TEAM-NET
 10
-36.600449
 20
-393.529777
 30
713.405266
 70
    64
  0
VERTEX
  5
891
  8
TEAM-NET
 10
-40.262794
 20
-380.563492
 30
699.737206
 70
    64
  0
VERTEX
  5
892
  8
TEAM-NET
 10
-43.618716
 20
-366.413274
 30
687.212735
 70
    64
  0
VERTEX
  5
893
  8
TEAM-NET
 10
-46.642673
 20
-351.186816
 30
675.927175
 70
    64
  0
VERTEX
  5
894
  8
TEAM-NET
 10
-49.311651
 20
-335.0
 30
665.966413
 70
    64
  0
VERTEX
  5
895
  8
TEAM-NET
 10
-51.605338
 20
-317.976018
 30
657.406258
 70
    64
  0
VERTEX
  5
896
  8
TEAM-NET
 10
-53.506276
 20
-300.244432
 30
650.311858
 70
    64
  0
VERTEX
  5
897
  8
TEAM-NET
 10
-55.0
 20
-281.94019
 30
644.737206
 70
    64
  0
VERTEX
  5
898
  8
TEAM-NET
 10
-56.07514
 20
-263.202599
 30
640.724727
 70
    64
  0
VERTEX
  5
899
  8
TEAM-NET
 10
-56.723515
 20
-244.174263
 30
638.304959
 70
    64
  0
VERTEX
  5
89A
  8
TEAM-NET
 10
-56.94019
 20
-225.0
 30
637.496318
 70
    64
  0
VERTEX
  5
89B
  8
TEAM-NET
 10
-56.723515
 20
-205.825737
 30
638.304959
 70
    64
  0
VERTEX
  5
89C
  8
TEAM-NET
 10
-56.07514
 20
-186.797401
 30
640.724727
 70
    64
  0
VERTEX
  5
89D
  8
TEAM-NET
 10
-55.0
 20
-168.05981
 30
644.737206
 70
    64
  0
VERTEX
  5
89E
  8
TEAM-NET
 10
-53.506276
 20
-149.755568
 30
650.311858
 70
    64
  0
VERTEX
  5
89F
  8
TEAM-NET
 10
-51.605338
 20
-132.023982
 30
657.406258
 70
    64
  0
VERTEX
  5
8A0
  8
TEAM-NET
 10
-49.311651
 20
-115.0
 30
665.966413
 70
    64
  0
VERTEX
  5
8A1
  8
TEAM-NET
 10
-46.642673
 20
-98.813184
 30
675.927175
 70
    64
  0
VERTEX
  5
8A2
  8
TEAM-NET
 10
-43.618716
 20
-83.586726
 30
687.212735
 70
    64
  0
VERTEX
  5
8A3
  8
TEAM-NET
 10
-40.262794
 20
-69.436508
 30
699.737206
 70
    64
  0
VERTEX
  5
8A4
  8
TEAM-NET
 10
-36.600449
 20
-56.470223
 30
713.405266
 70
    64
  0
VERTEX
  5
8A5
  8
TEAM-NET
 10
-32.659551
 20
-44.78655
 30
728.112895
 70
    64
  0
VERTEX
  5
8A6
  8
TEAM-NET
 10
-28.470095
 20
-34.474411
 30
743.748159
 70
    64
  0
VERTEX
  5
8A7
  8
TEAM-NET
 10
-24.063964
 20
-25.612287
 30
760.192063
 70
    64
  0
VERTEX
  5
8A8
  8
TEAM-NET
 10
-19.474692
 20
-18.267623
 30
777.31946
 70
    64
  0
VERTEX
  5
8A9
  8
TEAM-NET
 10
-14.737206
 20
-12.496318
 30
795.0
 70
    64
  0
VERTEX
  5
8AA
  8
TEAM-NET
 10
-9.88756
 20
-8.342294
 30
813.099123
 70
    64
  0
VERTEX
  5
8AB
  8
TEAM-NET
 10
-4.962665
 20
-5.837166
 30
831.479084
 70
    64
  0
VERTEX
  5
8AC
  8
TEAM-NET
 10
0.0
 20
-5.0
 30
850.0
 70
    64
  0
VERTEX
  5
8AD
  8
TEAM-NET
 10
0.0
 20
-445.0
 30
850.0
 70
    64
  0
VERTEX
  5
8AE
  8
TEAM-NET
 10
-6.557984
 20
-444.162834
 30
831.982086
 70
    64
  0
VERTEX
  5
8AF
  8
TEAM-NET
 10
-13.066058
 20
-441.657706
 30
814.1013
 70
    64
  0
VERTEX
  5
8B0
  8
TEAM-NET
 10
-19.474692
 20
-437.503682
 30
796.493724
 70
    64
  0
VERTEX
  5
8B1
  8
TEAM-NET
 10
-25.735111
 20
-431.732377
 30
779.293363
 70
    64
  0
VERTEX
  5
8B2
  8
TEAM-NET
 10
-31.799671
 20
-424.387713
 30
762.631122
 70
    64
  0
VERTEX
  5
8B3
  8
TEAM-NET
 10
-37.622216
 20
-415.525589
 30
746.633812
 70
    64
  0
VERTEX
  5
8B4
  8
TEAM-NET
 10
-43.158433
 20
-405.21345
 30
731.42318
 70
    64
  0
VERTEX
  5
8B5
  8
TEAM-NET
 10
-48.366188
 20
-393.529777
 30
717.11499
 70
    64
  0
VERTEX
  5
8B6
  8
TEAM-NET
 10
-53.205848
 20
-380.563492
 30
703.818135
 70
    64
  0
VERTEX
  5
8B7
  8
TEAM-NET
 10
-57.640579
 20
-366.413274
 30
691.633812
 70
    64
  0
VERTEX
  5
8B8
  8
TEAM-NET
 10
-61.63663
 20
-351.186816
 30
680.654751
 70
    64
  0
VERTEX
  5
8B9
  8
TEAM-NET
 10
-65.163589
 20
-335.0
 30
670.96451
 70
    64
  0
VERTEX
  5
8BA
  8
TEAM-NET
 10
-68.194614
 20
-317.976018
 30
662.636837
 70
    64
  0
VERTEX
  5
8BB
  8
TEAM-NET
 10
-70.706637
 20
-300.244432
 30
655.735111
 70
    64
  0
VERTEX
  5
8BC
  8
TEAM-NET
 10
-72.68054
 20
-281.94019
 30
650.311858
 70
    64
  0
VERTEX
  5
8BD
  8
TEAM-NET
 10
-74.1013
 20
-263.202599
 30
646.408353
 70
    64
  0
VERTEX
  5
8BE
  8
TEAM-NET
 10
-74.958104
 20
-244.174263
 30
644.054303
 70
    64
  0
VERTEX
  5
8BF
  8
TEAM-NET
 10
-75.244432
 20
-225.0
 30
643.267623
 70
    64
  0
VERTEX
  5
8C0
  8
TEAM-NET
 10
-74.958104
 20
-205.825737
 30
644.054303
 70
    64
  0
VERTEX
  5
8C1
  8
TEAM-NET
 10
-74.1013
 20
-186.797401
 30
646.408353
 70
    64
  0
VERTEX
  5
8C2
  8
TEAM-NET
 10
-72.68054
 20
-168.05981
 30
650.311858
 70
    64
  0
VERTEX
  5
8C3
  8
TEAM-NET
 10
-70.706637
 20
-149.755568
 30
655.735111
 70
    64
  0
VERTEX
  5
8C4
  8
TEAM-NET
 10
-68.194614
 20
-132.023982
 30
662.636837
 70
    64
  0
VERTEX
  5
8C5
  8
TEAM-NET
 10
-65.163589
 20
-115.0
 30
670.96451
 70
    64
  0
VERTEX
  5
8C6
  8
TEAM-NET
 10
-61.63663
 20
-98.813184
 30
680.654751
 70
    64
  0
VERTEX
  5
8C7
  8
TEAM-NET
 10
-57.640579
 20
-83.586726
 30
691.633812
 70
    64
  0
VERTEX
  5
8C8
  8
TEAM-NET
 10
-53.205848
 20
-69.436508
 30
703.818135
 70
    64
  0
VERTEX
  5
8C9
  8
TEAM-NET
 10
-48.366188
 20
-56.470223
 30
717.11499
 70
    64
  0
VERTEX
  5
8CA
  8
TEAM-NET
 10
-43.158433
 20
-44.78655
 30
731.42318
 70
    64
  0
VERTEX
  5
8CB
  8
TEAM-NET
 10
-37.622216
 20
-34.474411
 30
746.633812
 70
    64
  0
VERTEX
  5
8CC
  8
TEAM-NET
 10
-31.799671
 20
-25.612287
 30
762.631122
 70
    64
  0
VERTEX
  5
8CD
  8
TEAM-NET
 10
-25.735111
 20
-18.267623
 30
779.293363
 70
    64
  0
VERTEX
  5
8CE
  8
TEAM-NET
 10
-19.474692
 20
-12.496318
 30
796.493724
 70
    64
  0
VERTEX
  5
8CF
  8
TEAM-NET
 10
-13.066058
 20
-8.342294
 30
814.1013
 70
    64
  0
VERTEX
  5
8D0
  8
TEAM-NET
 10
-6.557984
 20
-5.837166
 30
831.982086
 70
    64
  0
VERTEX
  5
8D1
  8
TEAM-NET
 10
0.0
 20
-5.0
 30
850.0
 70
    64
  0
VERTEX
  5
8D2
  8
TEAM-NET
 10
0.0
 20
-445.0
 30
850.0
 70
    64
  0
VERTEX
  5
8D3
  8
TEAM-NET
 10
-8.103394
 20
-444.162834
 30
832.622216
 70
    64
  0
VERTEX
  5
8D4
  8
TEAM-NET
 10
-16.145116
 20
-441.657706
 30
815.376687
 70
    64
  0
VERTEX
  5
8D5
  8
TEAM-NET
 10
-24.063964
 20
-437.503682
 30
798.394662
 70
    64
  0
VERTEX
  5
8D6
  8
TEAM-NET
 10
-31.799671
 20
-431.732377
 30
781.805386
 70
    64
  0
VERTEX
  5
8D7
  8
TEAM-NET
 10
-39.293363
 20
-424.387713
 30
765.735111
 70
    64
  0
VERTEX
  5
8D8
  8
TEAM-NET
 10
-46.488009
 20
-415.525589
 30
750.306143
 70
    64
  0
VERTEX
  5
8D9
  8
TEAM-NET
 10
-53.328853
 20
-405.21345
 30
735.635906
 70
    64
  0
VERTEX
  5
8DA
  8
TEAM-NET
 10
-59.763832
 20
-393.529777
 30
721.836048
 70
    64
  0
VERTEX
  5
8DB
  8
TEAM-NET
 10
-65.743973
 20
-380.563492
 30
709.011596
 70
    64
  0
VERTEX
  5
8DC
  8
TEAM-NET
 10
-71.223762
 20
-366.413274
 30
697.26015
 70
    64
  0
VERTEX
  5
8DD
  8
TEAM-NET
 10
-76.161495
 20
-351.186816
 30
686.671147
 70
    64
  0
VERTEX
  5
8DE
  8
TEAM-NET
 10
-80.519593
 20
-335.0
 30
677.325175
 70
    64
  0
VERTEX
  5
8DF
  8
TEAM-NET
 10
-84.264889
 20
-317.976018
 30
669.293363
 70
    64
  0
VERTEX
  5
8E0
  8
TEAM-NET
 10
-87.368878
 20
-300.244432
 30
662.636837
 70
    64
  0
VERTEX
  5
8E1
  8
TEAM-NET
 10
-89.807937
 20
-281.94019
 30
657.406258
 70
    64
  0
VERTEX
  5
8E2
  8
TEAM-NET
 10
-91.563503
 20
-263.202599
 30
653.641434
 70
    64
  0
VERTEX
  5
8E3
  8
TEAM-NET
 10
-92.622216
 20
-244.174263
 30
651.371017
 70
    64
  0
VERTEX
  5
8E4
  8
TEAM-NET
 10
-92.976018
 20
-225.0
 30
650.612287
 70
    64
  0
VERTEX
  5
8E5
  8
TEAM-NET
 10
-92.622216
 20
-205.825737
 30
651.371017
 70
    64
  0
VERTEX
  5
8E6
  8
TEAM-NET
 10
-91.563503
 20
-186.797401
 30
653.641434
 70
    64
  0
VERTEX
  5
8E7
  8
TEAM-NET
 10
-89.807937
 20
-168.05981
 30
657.406258
 70
    64
  0
VERTEX
  5
8E8
  8
TEAM-NET
 10
-87.368878
 20
-149.755568
 30
662.636837
 70
    64
  0
VERTEX
  5
8E9
  8
TEAM-NET
 10
-84.264889
 20
-132.023982
 30
669.293363
 70
    64
  0
VERTEX
  5
8EA
  8
TEAM-NET
 10
-80.519593
 20
-115.0
 30
677.325175
 70
    64
  0
VERTEX
  5
8EB
  8
TEAM-NET
 10
-76.161495
 20
-98.813184
 30
686.671147
 70
    64
  0
VERTEX
  5
8EC
  8
TEAM-NET
 10
-71.223762
 20
-83.586726
 30
697.26015
 70
    64
  0
VERTEX
  5
8ED
  8
TEAM-NET
 10
-65.743973
 20
-69.436508
 30
709.011596
 70
    64
  0
VERTEX
  5
8EE
  8
TEAM-NET
 10
-59.763832
 20
-56.470223
 30
721.836048
 70
    64
  0
VERTEX
  5
8EF
  8
TEAM-NET
 10
-53.328853
 20
-44.78655
 30
735.635906
 70
    64
  0
VERTEX
  5
8F0
  8
TEAM-NET
 10
-46.488009
 20
-34.474411
 30
750.306143
 70
    64
  0
VERTEX
  5
8F1
  8
TEAM-NET
 10
-39.293363
 20
-25.612287
 30
765.735111
 70
    64
  0
VERTEX
  5
8F2
  8
TEAM-NET
 10
-31.799671
 20
-18.267623
 30
781.805386
 70
    64
  0
VERTEX
  5
8F3
  8
TEAM-NET
 10
-24.063964
 20
-12.496318
 30
798.394662
 70
    64
  0
VERTEX
  5
8F4
  8
TEAM-NET
 10
-16.145116
 20
-8.342294
 30
815.376687
 70
    64
  0
VERTEX
  5
8F5
  8
TEAM-NET
 10
-8.103394
 20
-5.837166
 30
832.622216
 70
    64
  0
VERTEX
  5
8F6
  8
TEAM-NET
 10
0.0
 20
-5.0
 30
850.0
 70
    64
  0
VERTEX
  5
8F7
  8
TEAM-NET
 10
0.0
 20
-445.0
 30
850.0
 70
    64
  0
VERTEX
  5
8F8
  8
TEAM-NET
 10
-9.587132
 20
-444.162834
 30
833.394601
 70
    64
  0
VERTEX
  5
8F9
  8
TEAM-NET
 10
-19.1013
 20
-441.657706
 30
816.915579
 70
    64
  0
VERTEX
  5
8FA
  8
TEAM-NET
 10
-28.470095
 20
-437.503682
 30
800.688349
 70
    64
  0
VERTEX
  5
8FB
  8
TEAM-NET
 10
-37.622216
 20
-431.732377
 30
784.836411
 70
    64
  0
VERTEX
  5
8FC
  8
TEAM-NET
 10
-46.488009
 20
-424.387713
 30
769.480407
 70
    64
  0
VERTEX
  5
8FD
  8
TEAM-NET
 10
-55.0
 20
-415.525589
 30
754.737206
 70
    64
  0
VERTEX
  5
8FE
  8
TEAM-NET
 10
-63.093408
 20
-405.21345
 30
740.719012
 70
    64
  0
VERTEX
  5
8FF
  8
TEAM-NET
 10
-70.706637
 20
-393.529777
 30
727.532512
 70
    64
  0
VERTEX
  5
900
  8
TEAM-NET
 10
-77.781746
 20
-380.563492
 30
715.278064
 70
    64
  0
VERTEX
  5
901
  8
TEAM-NET
 10
-84.264889
 20
-366.413274
 30
704.048931
 70
    64
  0
VERTEX
  5
902
  8
TEAM-NET
 10
-90.106725
 20
-351.186816
 30
693.930574
 70
    64
  0
VERTEX
  5
903
  8
TEAM-NET
 10
-95.262794
 20
-335.0
 30
685.0
 70
    64
  0
VERTEX
  5
904
  8
TEAM-NET
 10
-99.693857
 20
-317.976018
 30
677.325175
 70
    64
  0
VERTEX
  5
905
  8
TEAM-NET
 10
-103.366188
 20
-300.244432
 30
670.96451
 70
    64
  0
VERTEX
  5
906
  8
TEAM-NET
 10
-106.251841
 20
-281.94019
 30
665.966413
 70
    64
  0
VERTEX
  5
907
  8
TEAM-NET
 10
-108.328853
 20
-263.202599
 30
662.368923
 70
    64
  0
VERTEX
  5
908
  8
TEAM-NET
 10
-109.581417
 20
-244.174263
 30
660.199419
 70
    64
  0
VERTEX
  5
909
  8
TEAM-NET
 10
-110.0
 20
-225.0
 30
659.474411
 70
    64
  0
VERTEX
  5
90A
  8
TEAM-NET
 10
-109.581417
 20
-205.825737
 30
660.199419
 70
    64
  0
VERTEX
  5
90B
  8
TEAM-NET
 10
-108.328853
 20
-186.797401
 30
662.368923
 70
    64
  0
VERTEX
  5
90C
  8
TEAM-NET
 10
-106.251841
 20
-168.05981
 30
665.966413
 70
    64
  0
VERTEX
  5
90D
  8
TEAM-NET
 10
-103.366188
 20
-149.755568
 30
670.96451
 70
    64
  0
VERTEX
  5
90E
  8
TEAM-NET
 10
-99.693857
 20
-132.023982
 30
677.325175
 70
    64
  0
VERTEX
  5
90F
  8
TEAM-NET
 10
-95.262794
 20
-115.0
 30
685.0
 70
    64
  0
VERTEX
  5
910
  8
TEAM-NET
 10
-90.106725
 20
-98.813184
 30
693.930574
 70
    64
  0
VERTEX
  5
911
  8
TEAM-NET
 10
-84.264889
 20
-83.586726
 30
704.048931
 70
    64
  0
VERTEX
  5
912
  8
TEAM-NET
 10
-77.781746
 20
-69.436508
 30
715.278064
 70
    64
  0
VERTEX
  5
913
  8
TEAM-NET
 10
-70.706637
 20
-56.470223
 30
727.532512
 70
    64
  0
VERTEX
  5
914
  8
TEAM-NET
 10
-63.093408
 20
-44.78655
 30
740.719012
 70
    64
  0
VERTEX
  5
915
  8
TEAM-NET
 10
-55.0
 20
-34.474411
 30
754.737206
 70
    64
  0
VERTEX
  5
916
  8
TEAM-NET
 10
-46.488009
 20
-25.612287
 30
769.480407
 70
    64
  0
VERTEX
  5
917
  8
TEAM-NET
 10
-37.622216
 20
-18.267623
 30
784.836411
 70
    64
  0
VERTEX
  5
918
  8
TEAM-NET
 10
-28.470095
 20
-12.496318
 30
800.688349
 70
    64
  0
VERTEX
  5
919
  8
TEAM-NET
 10
-19.1013
 20
-8.342294
 30
816.915579
 70
    64
  0
VERTEX
  5
91A
  8
TEAM-NET
 10
-9.587132
 20
-5.837166
 30
833.394601
 70
    64
  0
VERTEX
  5
91B
  8
TEAM-NET
 10
0.0
 20
-5.0
 30
850.0
 70
    64
  0
VERTEX
  5
91C
  8
TEAM-NET
 10
0.0
 20
-445.0
 30
850.0
 70
    64
  0
VERTEX
  5
91D
  8
TEAM-NET
 10
-10.997906
 20
-444.162834
 30
834.293363
 70
    64
  0
VERTEX
  5
91E
  8
TEAM-NET
 10
-21.912111
 20
-441.657706
 30
818.706263
 70
    64
  0
VERTEX
  5
91F
  8
TEAM-NET
 10
-32.659551
 20
-437.503682
 30
803.357327
 70
    64
  0
VERTEX
  5
920
  8
TEAM-NET
 10
-43.158433
 20
-431.732377
 30
788.36337
 70
    64
  0
VERTEX
  5
921
  8
TEAM-NET
 10
-53.328853
 20
-424.387713
 30
773.838505
 70
    64
  0
VERTEX
  5
922
  8
TEAM-NET
 10
-63.093408
 20
-415.525589
 30
759.893275
 70
    64
  0
VERTEX
  5
923
  8
TEAM-NET
 10
-72.377784
 20
-405.21345
 30
746.633812
 70
    64
  0
VERTEX
  5
924
  8
TEAM-NET
 10
-81.111322
 20
-393.529777
 30
734.161027
 70
    64
  0
VERTEX
  5
925
  8
TEAM-NET
 10
-89.227553
 20
-380.563492
 30
722.569848
 70
    64
  0
VERTEX
  5
926
  8
TEAM-NET
 10
-96.664709
 20
-366.413274
 30
711.948488
 70
    64
  0
VERTEX
  5
927
  8
TEAM-NET
 10
-103.366188
 20
-351.186816
 30
702.377784
 70
    64
  0
VERTEX
  5
928
  8
TEAM-NET
 10
-109.280988
 20
-335.0
 30
693.930574
 70
    64
  0
VERTEX
  5
929
  8
TEAM-NET
 10
-114.364094
 20
-317.976018
 30
686.671147
 70
    64
  0
VERTEX
  5
92A
  8
TEAM-NET
 10
-118.57682
 20
-300.244432
 30
680.654751
 70
    64
  0
VERTEX
  5
92B
  8
TEAM-NET
 10
-121.887105
 20
-281.94019
 30
675.927175
 70
    64
  0
VERTEX
  5
92C
  8
TEAM-NET
 10
-124.269755
 20
-263.202599
 30
672.524397
 70
    64
  0
VERTEX
  5
92D
  8
TEAM-NET
 10
-125.706637
 20
-244.174263
 30
670.472317
 70
    64
  0
VERTEX
  5
92E
  8
TEAM-NET
 10
-126.186816
 20
-225.0
 30
669.78655
 70
    64
  0
VERTEX
  5
92F
  8
TEAM-NET
 10
-125.706637
 20
-205.825737
 30
670.472317
 70
    64
  0
VERTEX
  5
930
  8
TEAM-NET
 10
-124.269755
 20
-186.797401
 30
672.524397
 70
    64
  0
VERTEX
  5
931
  8
TEAM-NET
 10
-121.887105
 20
-168.05981
 30
675.927175
 70
    64
  0
VERTEX
  5
932
  8
TEAM-NET
 10
-118.57682
 20
-149.755568
 30
680.654751
 70
    64
  0
VERTEX
  5
933
  8
TEAM-NET
 10
-114.364094
 20
-132.023982
 30
686.671147
 70
    64
  0
VERTEX
  5
934
  8
TEAM-NET
 10
-109.280988
 20
-115.0
 30
693.930574
 70
    64
  0
VERTEX
  5
935
  8
TEAM-NET
 10
-103.366188
 20
-98.813184
 30
702.377784
 70
    64
  0
VERTEX
  5
936
  8
TEAM-NET
 10
-96.664709
 20
-83.586726
 30
711.948488
 70
    64
  0
VERTEX
  5
937
  8
TEAM-NET
 10
-89.227553
 20
-69.436508
 30
722.569848
 70
    64
  0
VERTEX
  5
938
  8
TEAM-NET
 10
-81.111322
 20
-56.470223
 30
734.161027
 70
    64
  0
VERTEX
  5
939
  8
TEAM-NET
 10
-72.377784
 20
-44.78655
 30
746.633812
 70
    64
  0
VERTEX
  5
93A
  8
TEAM-NET
 10
-63.093408
 20
-34.474411
 30
759.893275
 70
    64
  0
VERTEX
  5
93B
  8
TEAM-NET
 10
-53.328853
 20
-25.612287
 30
773.838505
 70
    64
  0
VERTEX
  5
93C
  8
TEAM-NET
 10
-43.158433
 20
-18.267623
 30
788.36337
 70
    64
  0
VERTEX
  5
93D
  8
TEAM-NET
 10
-32.659551
 20
-12.496318
 30
803.357327
 70
    64
  0
VERTEX
  5
93E
  8
TEAM-NET
 10
-21.912111
 20
-8.342294
 30
818.706263
 70
    64
  0
VERTEX
  5
93F
  8
TEAM-NET
 10
-10.997906
 20
-5.837166
 30
834.293363
 70
    64
  0
VERTEX
  5
940
  8
TEAM-NET
 10
0.0
 20
-5.0
 30
850.0
 70
    64
  0
VERTEX
  5
941
  8
TEAM-NET
 10
0.0
 20
-445.0
 30
850.0
 70
    64
  0
VERTEX
  5
942
  8
TEAM-NET
 10
-12.324979
 20
-444.162834
 30
835.311662
 70
    64
  0
VERTEX
  5
943
  8
TEAM-NET
 10
-24.556157
 20
-441.657706
 30
820.735111
 70
    64
  0
VERTEX
  5
944
  8
TEAM-NET
 10
-36.600449
 20
-437.503682
 30
806.381284
 70
    64
  0
VERTEX
  5
945
  8
TEAM-NET
 10
-48.366188
 20
-431.732377
 30
792.359421
 70
    64
  0
VERTEX
  5
946
  8
TEAM-NET
 10
-59.763832
 20
-424.387713
 30
778.776238
 70
    64
  0
VERTEX
  5
947
  8
TEAM-NET
 10
-70.706637
 20
-415.525589
 30
765.735111
 70
    64
  0
VERTEX
  5
948
  8
TEAM-NET
 10
-81.111322
 20
-405.21345
 30
753.335291
 70
    64
  0
VERTEX
  5
949
  8
TEAM-NET
 10
-90.8987
 20
-393.529777
 30
741.671147
 70
    64
  0
VERTEX
  5
94A
  8
TEAM-NET
 10
-99.994285
 20
-380.563492
 30
730.831452
 70
    64
  0
VERTEX
  5
94B
  8
TEAM-NET
 10
-108.328853
 20
-366.413274
 30
720.8987
 70
    64
  0
VERTEX
  5
94C
  8
TEAM-NET
 10
-115.838973
 20
-351.186816
 30
711.948488
 70
    64
  0
VERTEX
  5
94D
  8
TEAM-NET
 10
-122.467488
 20
-335.0
 30
704.048931
 70
    64
  0
VERTEX
  5
94E
  8
TEAM-NET
 10
-128.163952
 20
-317.976018
 30
697.26015
 70
    64
  0
VERTEX
  5
94F
  8
TEAM-NET
 10
-132.88501
 20
-300.244432
 30
691.633812
 70
    64
  0
VERTEX
  5
950
  8
TEAM-NET
 10
-136.594734
 20
-281.94019
 30
687.212735
 70
    64
  0
VERTEX
  5
951
  8
TEAM-NET
 10
-139.264889
 20
-263.202599
 30
684.030569
 70
    64
  0
VERTEX
  5
952
  8
TEAM-NET
 10
-140.875154
 20
-244.174263
 30
682.111529
 70
    64
  0
VERTEX
  5
953
  8
TEAM-NET
 10
-141.413274
 20
-225.0
 30
681.470223
 70
    64
  0
VERTEX
  5
954
  8
TEAM-NET
 10
-140.875154
 20
-205.825737
 30
682.111529
 70
    64
  0
VERTEX
  5
955
  8
TEAM-NET
 10
-139.264889
 20
-186.797401
 30
684.030569
 70
    64
  0
VERTEX
  5
956
  8
TEAM-NET
 10
-136.594734
 20
-168.05981
 30
687.212735
 70
    64
  0
VERTEX
  5
957
  8
TEAM-NET
 10
-132.88501
 20
-149.755568
 30
691.633812
 70
    64
  0
VERTEX
  5
958
  8
TEAM-NET
 10
-128.163952
 20
-132.023982
 30
697.26015
 70
    64
  0
VERTEX
  5
959
  8
TEAM-NET
 10
-122.467488
 20
-115.0
 30
704.048931
 70
    64
  0
VERTEX
  5
95A
  8
TEAM-NET
 10
-115.838973
 20
-98.813184
 30
711.948488
 70
    64
  0
VERTEX
  5
95B
  8
TEAM-NET
 10
-108.328853
 20
-83.586726
 30
720.8987
 70
    64
  0
VERTEX
  5
95C
  8
TEAM-NET
 10
-99.994285
 20
-69.436508
 30
730.831452
 70
    64
  0
VERTEX
  5
95D
  8
TEAM-NET
 10
-90.8987
 20
-56.470223
 30
741.671147
 70
    64
  0
VERTEX
  5
95E
  8
TEAM-NET
 10
-81.111322
 20
-44.78655
 30
753.335291
 70
    64
  0
VERTEX
  5
95F
  8
TEAM-NET
 10
-70.706637
 20
-34.474411
 30
765.735111
 70
    64
  0
VERTEX
  5
960
  8
TEAM-NET
 10
-59.763832
 20
-25.612287
 30
778.776238
 70
    64
  0
VERTEX
  5
961
  8
TEAM-NET
 10
-48.366188
 20
-18.267623
 30
792.359421
 70
    64
  0
VERTEX
  5
962
  8
TEAM-NET
 10
-36.600449
 20
-12.496318
 30
806.381284
 70
    64
  0
VERTEX
  5
963
  8
TEAM-NET
 10
-24.556157
 20
-8.342294
 30
820.735111
 70
    64
  0
VERTEX
  5
964
  8
TEAM-NET
 10
-12.324979
 20
-5.837166
 30
835.311662
 70
    64
  0
VERTEX
  5
965
  8
TEAM-NET
 10
0.0
 20
-5.0
 30
850.0
 70
    64
  0
VERTEX
  5
966
  8
TEAM-NET
 10
0.0
 20
-445.0
 30
850.0
 70
    64
  0
VERTEX
  5
967
  8
TEAM-NET
 10
-13.558252
 20
-444.162834
 30
836.441748
 70
    64
  0
VERTEX
  5
968
  8
TEAM-NET
 10
-27.013317
 20
-441.657706
 30
822.986683
 70
    64
  0
VERTEX
  5
969
  8
TEAM-NET
 10
-40.262794
 20
-437.503682
 30
809.737206
 70
    64
  0
VERTEX
  5
96A
  8
TEAM-NET
 10
-53.205848
 20
-431.732377
 30
796.794152
 70
    64
  0
VERTEX
  5
96B
  8
TEAM-NET
 10
-65.743973
 20
-424.387713
 30
784.256027
 70
    64
  0
VERTEX
  5
96C
  8
TEAM-NET
 10
-77.781746
 20
-415.525589
 30
772.218254
 70
    64
  0
VERTEX
  5
96D
  8
TEAM-NET
 10
-89.227553
 20
-405.21345
 30
760.772447
 70
    64
  0
VERTEX
  5
96E
  8
TEAM-NET
 10
-99.994285
 20
-393.529777
 30
750.005715
 70
    64
  0
VERTEX
  5
96F
  8
TEAM-NET
 10
-110.0
 20
-380.563492
 30
740.0
 70
    64
  0
VERTEX
  5
970
  8
TEAM-NET
 10
-119.168548
 20
-366.413274
 30
730.831452
 70
    64
  0
VERTEX
  5
971
  8
TEAM-NET
 10
-127.430152
 20
-351.186816
 30
722.569848
 70
    64
  0
VERTEX
  5
972
  8
TEAM-NET
 10
-134.721936
 20
-335.0
 30
715.278064
 70
    64
  0
VERTEX
  5
973
  8
TEAM-NET
 10
-140.988404
 20
-317.976018
 30
709.011596
 70
    64
  0
VERTEX
  5
974
  8
TEAM-NET
 10
-146.181865
 20
-300.244432
 30
703.818135
 70
    64
  0
VERTEX
  5
975
  8
TEAM-NET
 10
-150.262794
 20
-281.94019
 30
699.737206
 70
    64
  0
VERTEX
  5
976
  8
TEAM-NET
 10
-153.200133
 20
-263.202599
 30
696.799867
 70
    64
  0
VERTEX
  5
977
  8
TEAM-NET
 10
-154.971526
 20
-244.174263
 30
695.028474
 70
    64
  0
VERTEX
  5
978
  8
TEAM-NET
 10
-155.563492
 20
-225.0
 30
694.436508
 70
    64
  0
VERTEX
  5
979
  8
TEAM-NET
 10
-154.971526
 20
-205.825737
 30
695.028474
 70
    64
  0
VERTEX
  5
97A
  8
TEAM-NET
 10
-153.200133
 20
-186.797401
 30
696.799867
 70
    64
  0
VERTEX
  5
97B
  8
TEAM-NET
 10
-150.262794
 20
-168.05981
 30
699.737206
 70
    64
  0
VERTEX
  5
97C
  8
TEAM-NET
 10
-146.181865
 20
-149.755568
 30
703.818135
 70
    64
  0
VERTEX
  5
97D
  8
TEAM-NET
 10
-140.988404
 20
-132.023982
 30
709.011596
 70
    64
  0
VERTEX
  5
97E
  8
TEAM-NET
 10
-134.721936
 20
-115.0
 30
715.278064
 70
    64
  0
VERTEX
  5
97F
  8
TEAM-NET
 10
-127.430152
 20
-98.813184
 30
722.569848
 70
    64
  0
VERTEX
  5
980
  8
TEAM-NET
 10
-119.168548
 20
-83.586726
 30
730.831452
 70
    64
  0
VERTEX
  5
981
  8
TEAM-NET
 10
-110.0
 20
-69.436508
 30
740.0
 70
    64
  0
VERTEX
  5
982
  8
TEAM-NET
 10
-99.994285
 20
-56.470223
 30
750.005715
 70
    64
  0
VERTEX
  5
983
  8
TEAM-NET
 10
-89.227553
 20
-44.78655
 30
760.772447
 70
    64
  0
VERTEX
  5
984
  8
TEAM-NET
 10
-77.781746
 20
-34.474411
 30
772.218254
 70
    64
  0
VERTEX
  5
985
  8
TEAM-NET
 10
-65.743973
 20
-25.612287
 30
784.256027
 70
    64
  0
VERTEX
  5
986
  8
TEAM-NET
 10
-53.205848
 20
-18.267623
 30
796.794152
 70
    64
  0
VERTEX
  5
987
  8
TEAM-NET
 10
-40.262794
 20
-12.496318
 30
809.737206
 70
    64
  0
VERTEX
  5
988
  8
TEAM-NET
 10
-27.013317
 20
-8.342294
 30
822.986683
 70
    64
  0
VERTEX
  5
989
  8
TEAM-NET
 10
-13.558252
 20
-5.837166
 30
836.441748
 70
    64
  0
VERTEX
  5
98A
  8
TEAM-NET
 10
0.0
 20
-5.0
 30
850.0
 70
    64
  0
VERTEX
  5
98B
  8
TEAM-NET
 10
0.0
 20
-445.0
 30
850.0
 70
    64
  0
VERTEX
  5
98C
  8
TEAM-NET
 10
-14.688338
 20
-444.162834
 30
837.675021
 70
    64
  0
VERTEX
  5
98D
  8
TEAM-NET
 10
-29.264889
 20
-441.657706
 30
825.443843
 70
    64
  0
VERTEX
  5
98E
  8
TEAM-NET
 10
-43.618716
 20
-437.503682
 30
813.399551
 70
    64
  0
VERTEX
  5
98F
  8
TEAM-NET
 10
-57.640579
 20
-431.732377
 30
801.633812
 70
    64
  0
VERTEX
  5
990
  8
TEAM-NET
 10
-71.223762
 20
-424.387713
 30
790.236168
 70
    64
  0
VERTEX
  5
991
  8
TEAM-NET
 10
-84.264889
 20
-415.525589
 30
779.293363
 70
    64
  0
VERTEX
  5
992
  8
TEAM-NET
 10
-96.664709
 20
-405.21345
 30
768.888678
 70
    64
  0
VERTEX
  5
993
  8
TEAM-NET
 10
-108.328853
 20
-393.529777
 30
759.1013
 70
    64
  0
VERTEX
  5
994
  8
TEAM-NET
 10
-119.168548
 20
-380.563492
 30
750.005715
 70
    64
  0
VERTEX
  5
995
  8
TEAM-NET
 10
-129.1013
 20
-366.413274
 30
741.671147
 70
    64
  0
VERTEX
  5
996
  8
TEAM-NET
 10
-138.051512
 20
-351.186816
 30
734.161027
 70
    64
  0
VERTEX
  5
997
  8
TEAM-NET
 10
-145.951069
 20
-335.0
 30
727.532512
 70
    64
  0
VERTEX
  5
998
  8
TEAM-NET
 10
-152.73985
 20
-317.976018
 30
721.836048
 70
    64
  0
VERTEX
  5
999
  8
TEAM-NET
 10
-158.366188
 20
-300.244432
 30
717.11499
 70
    64
  0
VERTEX
  5
99A
  8
TEAM-NET
 10
-162.787265
 20
-281.94019
 30
713.405266
 70
    64
  0
VERTEX
  5
99B
  8
TEAM-NET
 10
-165.969431
 20
-263.202599
 30
710.735111
 70
    64
  0
VERTEX
  5
99C
  8
TEAM-NET
 10
-167.888471
 20
-244.174263
 30
709.124846
 70
    64
  0
VERTEX
  5
99D
  8
TEAM-NET
 10
-168.529777
 20
-225.0
 30
708.586726
 70
    64
  0
VERTEX
  5
99E
  8
TEAM-NET
 10
-167.888471
 20
-205.825737
 30
709.124846
 70
    64
  0
VERTEX
  5
99F
  8
TEAM-NET
 10
-165.969431
 20
-186.797401
 30
710.735111
 70
    64
  0
VERTEX
  5
9A0
  8
TEAM-NET
 10
-162.787265
 20
-168.05981
 30
713.405266
 70
    64
  0
VERTEX
  5
9A1
  8
TEAM-NET
 10
-158.366188
 20
-149.755568
 30
717.11499
 70
    64
  0
VERTEX
  5
9A2
  8
TEAM-NET
 10
-152.73985
 20
-132.023982
 30
721.836048
 70
    64
  0
VERTEX
  5
9A3
  8
TEAM-NET
 10
-145.951069
 20
-115.0
 30
727.532512
 70
    64
  0
VERTEX
  5
9A4
  8
TEAM-NET
 10
-138.051512
 20
-98.813184
 30
734.161027
 70
    64
  0
VERTEX
  5
9A5
  8
TEAM-NET
 10
-129.1013
 20
-83.586726
 30
741.671147
 70
    64
  0
VERTEX
  5
9A6
  8
TEAM-NET
 10
-119.168548
 20
-69.436508
 30
750.005715
 70
    64
  0
VERTEX
  5
9A7
  8
TEAM-NET
 10
-108.328853
 20
-56.470223
 30
759.1013
 70
    64
  0
VERTEX
  5
9A8
  8
TEAM-NET
 10
-96.664709
 20
-44.78655
 30
768.888678
 70
    64
  0
VERTEX
  5
9A9
  8
TEAM-NET
 10
-84.264889
 20
-34.474411
 30
779.293363
 70
    64
  0
VERTEX
  5
9AA
  8
TEAM-NET
 10
-71.223762
 20
-25.612287
 30
790.236168
 70
    64
  0
VERTEX
  5
9AB
  8
TEAM-NET
 10
-57.640579
 20
-18.267623
 30
801.633812
 70
    64
  0
VERTEX
  5
9AC
  8
TEAM-NET
 10
-43.618716
 20
-12.496318
 30
813.399551
 70
    64
  0
VERTEX
  5
9AD
  8
TEAM-NET
 10
-29.264889
 20
-8.342294
 30
825.443843
 70
    64
  0
VERTEX
  5
9AE
  8
TEAM-NET
 10
-14.688338
 20
-5.837166
 30
837.675021
 70
    64
  0
VERTEX
  5
9AF
  8
TEAM-NET
 10
0.0
 20
-5.0
 30
850.0
 70
    64
  0
VERTEX
  5
9B0
  8
TEAM-NET
 10
0.0
 20
-445.0
 30
850.0
 70
    64
  0
VERTEX
  5
9B1
  8
TEAM-NET
 10
-15.706637
 20
-444.162834
 30
839.002094
 70
    64
  0
VERTEX
  5
9B2
  8
TEAM-NET
 10
-31.293737
 20
-441.657706
 30
828.087889
 70
    64
  0
VERTEX
  5
9B3
  8
TEAM-NET
 10
-46.642673
 20
-437.503682
 30
817.340449
 70
    64
  0
VERTEX
  5
9B4
  8
TEAM-NET
 10
-61.63663
 20
-431.732377
 30
806.841567
 70
    64
  0
VERTEX
  5
9B5
  8
TEAM-NET
 10
-76.161495
 20
-424.387713
 30
796.671147
 70
    64
  0
VERTEX
  5
9B6
  8
TEAM-NET
 10
-90.106725
 20
-415.525589
 30
786.906592
 70
    64
  0
VERTEX
  5
9B7
  8
TEAM-NET
 10
-103.366188
 20
-405.21345
 30
777.622216
 70
    64
  0
VERTEX
  5
9B8
  8
TEAM-NET
 10
-115.838973
 20
-393.529777
 30
768.888678
 70
    64
  0
VERTEX
  5
9B9
  8
TEAM-NET
 10
-127.430152
 20
-380.563492
 30
760.772447
 70
    64
  0
VERTEX
  5
9BA
  8
TEAM-NET
 10
-138.051512
 20
-366.413274
 30
753.335291
 70
    64
  0
VERTEX
  5
9BB
  8
TEAM-NET
 10
-147.622216
 20
-351.186816
 30
746.633812
 70
    64
  0
VERTEX
  5
9BC
  8
TEAM-NET
 10
-156.069426
 20
-335.0
 30
740.719012
 70
    64
  0
VERTEX
  5
9BD
  8
TEAM-NET
 10
-163.328853
 20
-317.976018
 30
735.635906
 70
    64
  0
VERTEX
  5
9BE
  8
TEAM-NET
 10
-169.345249
 20
-300.244432
 30
731.42318
 70
    64
  0
VERTEX
  5
9BF
  8
TEAM-NET
 10
-174.072825
 20
-281.94019
 30
728.112895
 70
    64
  0
VERTEX
  5
9C0
  8
TEAM-NET
 10
-177.475603
 20
-263.202599
 30
725.730245
 70
    64
  0
VERTEX
  5
9C1
  8
TEAM-NET
 10
-179.527683
 20
-244.174263
 30
724.293363
 70
    64
  0
VERTEX
  5
9C2
  8
TEAM-NET
 10
-180.21345
 20
-225.0
 30
723.813184
 70
    64
  0
VERTEX
  5
9C3
  8
TEAM-NET
 10
-179.527683
 20
-205.825737
 30
724.293363
 70
    64
  0
VERTEX
  5
9C4
  8
TEAM-NET
 10
-177.475603
 20
-186.797401
 30
725.730245
 70
    64
  0
VERTEX
  5
9C5
  8
TEAM-NET
 10
-174.072825
 20
-168.05981
 30
728.112895
 70
    64
  0
VERTEX
  5
9C6
  8
TEAM-NET
 10
-169.345249
 20
-149.755568
 30
731.42318
 70
    64
  0
VERTEX
  5
9C7
  8
TEAM-NET
 10
-163.328853
 20
-132.023982
 30
735.635906
 70
    64
  0
VERTEX
  5
9C8
  8
TEAM-NET
 10
-156.069426
 20
-115.0
 30
740.719012
 70
    64
  0
VERTEX
  5
9C9
  8
TEAM-NET
 10
-147.622216
 20
-98.813184
 30
746.633812
 70
    64
  0
VERTEX
  5
9CA
  8
TEAM-NET
 10
-138.051512
 20
-83.586726
 30
753.335291
 70
    64
  0
VERTEX
  5
9CB
  8
TEAM-NET
 10
-127.430152
 20
-69.436508
 30
760.772447
 70
    64
  0
VERTEX
  5
9CC
  8
TEAM-NET
 10
-115.838973
 20
-56.470223
 30
768.888678
 70
    64
  0
VERTEX
  5
9CD
  8
TEAM-NET
 10
-103.366188
 20
-44.78655
 30
777.622216
 70
    64
  0
VERTEX
  5
9CE
  8
TEAM-NET
 10
-90.106725
 20
-34.474411
 30
786.906592
 70
    64
  0
VERTEX
  5
9CF
  8
TEAM-NET
 10
-76.161495
 20
-25.612287
 30
796.671147
 70
    64
  0
VERTEX
  5
9D0
  8
TEAM-NET
 10
-61.63663
 20
-18.267623
 30
806.841567
 70
    64
  0
VERTEX
  5
9D1
  8
TEAM-NET
 10
-46.642673
 20
-12.496318
 30
817.340449
 70
    64
  0
VERTEX
  5
9D2
  8
TEAM-NET
 10
-31.293737
 20
-8.342294
 30
828.087889
 70
    64
  0
VERTEX
  5
9D3
  8
TEAM-NET
 10
-15.706637
 20
-5.837166
 30
839.002094
 70
    64
  0
VERTEX
  5
9D4
  8
TEAM-NET
 10
0.0
 20
-5.0
 30
850.0
 70
    64
  0
VERTEX
  5
9D5
  8
TEAM-NET
 10
0.0
 20
-445.0
 30
850.0
 70
    64
  0
VERTEX
  5
9D6
  8
TEAM-NET
 10
-16.605399
 20
-444.162834
 30
840.412868
 70
    64
  0
VERTEX
  5
9D7
  8
TEAM-NET
 10
-33.084421
 20
-441.657706
 30
830.8987
 70
    64
  0
VERTEX
  5
9D8
  8
TEAM-NET
 10
-49.311651
 20
-437.503682
 30
821.529905
 70
    64
  0
VERTEX
  5
9D9
  8
TEAM-NET
 10
-65.163589
 20
-431.732377
 30
812.377784
 70
    64
  0
VERTEX
  5
9DA
  8
TEAM-NET
 10
-80.519593
 20
-424.387713
 30
803.511991
 70
    64
  0
VERTEX
  5
9DB
  8
TEAM-NET
 10
-95.262794
 20
-415.525589
 30
795.0
 70
    64
  0
VERTEX
  5
9DC
  8
TEAM-NET
 10
-109.280988
 20
-405.21345
 30
786.906592
 70
    64
  0
VERTEX
  5
9DD
  8
TEAM-NET
 10
-122.467488
 20
-393.529777
 30
779.293363
 70
    64
  0
VERTEX
  5
9DE
  8
TEAM-NET
 10
-134.721936
 20
-380.563492
 30
772.218254
 70
    64
  0
VERTEX
  5
9DF
  8
TEAM-NET
 10
-145.951069
 20
-366.413274
 30
765.735111
 70
    64
  0
VERTEX
  5
9E0
  8
TEAM-NET
 10
-156.069426
 20
-351.186816
 30
759.893275
 70
    64
  0
VERTEX
  5
9E1
  8
TEAM-NET
 10
-165.0
 20
-335.0
 30
754.737206
 70
    64
  0
VERTEX
  5
9E2
  8
TEAM-NET
 10
-172.674825
 20
-317.976018
 30
750.306143
 70
    64
  0
VERTEX
  5
9E3
  8
TEAM-NET
 10
-179.03549
 20
-300.244432
 30
746.633812
 70
    64
  0
VERTEX
  5
9E4
  8
TEAM-NET
 10
-184.033587
 20
-281.94019
 30
743.748159
 70
    64
  0
VERTEX
  5
9E5
  8
TEAM-NET
 10
-187.631077
 20
-263.202599
 30
741.671147
 70
    64
  0
VERTEX
  5
9E6
  8
TEAM-NET
 10
-189.800581
 20
-244.174263
 30
740.418583
 70
    64
  0
VERTEX
  5
9E7
  8
TEAM-NET
 10
-190.525589
 20
-225.0
 30
740.0
 70
    64
  0
VERTEX
  5
9E8
  8
TEAM-NET
 10
-189.800581
 20
-205.825737
 30
740.418583
 70
    64
  0
VERTEX
  5
9E9
  8
TEAM-NET
 10
-187.631077
 20
-186.797401
 30
741.671147
 70
    64
  0
VERTEX
  5
9EA
  8
TEAM-NET
 10
-184.033587
 20
-168.05981
 30
743.748159
 70
    64
  0
VERTEX
  5
9EB
  8
TEAM-NET
 10
-179.03549
 20
-149.755568
 30
746.633812
 70
    64
  0
VERTEX
  5
9EC
  8
TEAM-NET
 10
-172.674825
 20
-132.023982
 30
750.306143
 70
    64
  0
VERTEX
  5
9ED
  8
TEAM-NET
 10
-165.0
 20
-115.0
 30
754.737206
 70
    64
  0
VERTEX
  5
9EE
  8
TEAM-NET
 10
-156.069426
 20
-98.813184
 30
759.893275
 70
    64
  0
VERTEX
  5
9EF
  8
TEAM-NET
 10
-145.951069
 20
-83.586726
 30
765.735111
 70
    64
  0
VERTEX
  5
9F0
  8
TEAM-NET
 10
-134.721936
 20
-69.436508
 30
772.218254
 70
    64
  0
VERTEX
  5
9F1
  8
TEAM-NET
 10
-122.467488
 20
-56.470223
 30
779.293363
 70
    64
  0
VERTEX
  5
9F2
  8
TEAM-NET
 10
-109.280988
 20
-44.78655
 30
786.906592
 70
    64
  0
VERTEX
  5
9F3
  8
TEAM-NET
 10
-95.262794
 20
-34.474411
 30
795.0
 70
    64
  0
VERTEX
  5
9F4
  8
TEAM-NET
 10
-80.519593
 20
-25.612287
 30
803.511991
 70
    64
  0
VERTEX
  5
9F5
  8
TEAM-NET
 10
-65.163589
 20
-18.267623
 30
812.377784
 70
    64
  0
VERTEX
  5
9F6
  8
TEAM-NET
 10
-49.311651
 20
-12.496318
 30
821.529905
 70
    64
  0
VERTEX
  5
9F7
  8
TEAM-NET
 10
-33.084421
 20
-8.342294
 30
830.8987
 70
    64
  0
VERTEX
  5
9F8
  8
TEAM-NET
 10
-16.605399
 20
-5.837166
 30
840.412868
 70
    64
  0
VERTEX
  5
9F9
  8
TEAM-NET
 10
0.0
 20
-5.0
 30
850.0
 70
    64
  0
VERTEX
  5
9FA
  8
TEAM-NET
 10
0.0
 20
-445.0
 30
850.0
 70
    64
  0
VERTEX
  5
9FB
  8
TEAM-NET
 10
-17.377784
 20
-444.162834
 30
841.896606
 70
    64
  0
VERTEX
  5
9FC
  8
TEAM-NET
 10
-34.623313
 20
-441.657706
 30
833.854884
 70
    64
  0
VERTEX
  5
9FD
  8
TEAM-NET
 10
-51.605338
 20
-437.503682
 30
825.936036
 70
    64
  0
VERTEX
  5
9FE
  8
TEAM-NET
 10
-68.194614
 20
-431.732377
 30
818.200329
 70
    64
  0
VERTEX
  5
9FF
  8
TEAM-NET
 10
-84.264889
 20
-424.387713
 30
810.706637
 70
    64
  0
VERTEX
  5
A00
  8
TEAM-NET
 10
-99.693857
 20
-415.525589
 30
803.511991
 70
    64
  0
VERTEX
  5
A01
  8
TEAM-NET
 10
-114.364094
 20
-405.21345
 30
796.671147
 70
    64
  0
VERTEX
  5
A02
  8
TEAM-NET
 10
-128.163952
 20
-393.529777
 30
790.236168
 70
    64
  0
VERTEX
  5
A03
  8
TEAM-NET
 10
-140.988404
 20
-380.563492
 30
784.256027
 70
    64
  0
VERTEX
  5
A04
  8
TEAM-NET
 10
-152.73985
 20
-366.413274
 30
778.776238
 70
    64
  0
VERTEX
  5
A05
  8
TEAM-NET
 10
-163.328853
 20
-351.186816
 30
773.838505
 70
    64
  0
VERTEX
  5
A06
  8
TEAM-NET
 10
-172.674825
 20
-335.0
 30
769.480407
 70
    64
  0
VERTEX
  5
A07
  8
TEAM-NET
 10
-180.706637
 20
-317.976018
 30
765.735111
 70
    64
  0
VERTEX
  5
A08
  8
TEAM-NET
 10
-187.363163
 20
-300.244432
 30
762.631122
 70
    64
  0
VERTEX
  5
A09
  8
TEAM-NET
 10
-192.593742
 20
-281.94019
 30
760.192063
 70
    64
  0
VERTEX
  5
A0A
  8
TEAM-NET
 10
-196.358566
 20
-263.202599
 30
758.436497
 70
    64
  0
VERTEX
  5
A0B
  8
TEAM-NET
 10
-198.628983
 20
-244.174263
 30
757.377784
 70
    64
  0
VERTEX
  5
A0C
  8
TEAM-NET
 10
-199.387713
 20
-225.0
 30
757.023982
 70
    64
  0
VERTEX
  5
A0D
  8
TEAM-NET
 10
-198.628983
 20
-205.825737
 30
757.377784
 70
    64
  0
VERTEX
  5
A0E
  8
TEAM-NET
 10
-196.358566
 20
-186.797401
 30
758.436497
 70
    64
  0
VERTEX
  5
A0F
  8
TEAM-NET
 10
-192.593742
 20
-168.05981
 30
760.192063
 70
    64
  0
VERTEX
  5
A10
  8
TEAM-NET
 10
-187.363163
 20
-149.755568
 30
762.631122
 70
    64
  0
VERTEX
  5
A11
  8
TEAM-NET
 10
-180.706637
 20
-132.023982
 30
765.735111
 70
    64
  0
VERTEX
  5
A12
  8
TEAM-NET
 10
-172.674825
 20
-115.0
 30
769.480407
 70
    64
  0
VERTEX
  5
A13
  8
TEAM-NET
 10
-163.328853
 20
-98.813184
 30
773.838505
 70
    64
  0
VERTEX
  5
A14
  8
TEAM-NET
 10
-152.73985
 20
-83.586726
 30
778.776238
 70
    64
  0
VERTEX
  5
A15
  8
TEAM-NET
 10
-140.988404
 20
-69.436508
 30
784.256027
 70
    64
  0
VERTEX
  5
A16
  8
TEAM-NET
 10
-128.163952
 20
-56.470223
 30
790.236168
 70
    64
  0
VERTEX
  5
A17
  8
TEAM-NET
 10
-114.364094
 20
-44.78655
 30
796.671147
 70
    64
  0
VERTEX
  5
A18
  8
TEAM-NET
 10
-99.693857
 20
-34.474411
 30
803.511991
 70
    64
  0
VERTEX
  5
A19
  8
TEAM-NET
 10
-84.264889
 20
-25.612287
 30
810.706637
 70
    64
  0
VERTEX
  5
A1A
  8
TEAM-NET
 10
-68.194614
 20
-18.267623
 30
818.200329
 70
    64
  0
VERTEX
  5
A1B
  8
TEAM-NET
 10
-51.605338
 20
-12.496318
 30
825.936036
 70
    64
  0
VERTEX
  5
A1C
  8
TEAM-NET
 10
-34.623313
 20
-8.342294
 30
833.854884
 70
    64
  0
VERTEX
  5
A1D
  8
TEAM-NET
 10
-17.377784
 20
-5.837166
 30
841.896606
 70
    64
  0
VERTEX
  5
A1E
  8
TEAM-NET
 10
0.0
 20
-5.0
 30
850.0
 70
    64
  0
VERTEX
  5
A1F
  8
TEAM-NET
 10
0.0
 20
-445.0
 30
850.0
 70
    64
  0
VERTEX
  5
A20
  8
TEAM-NET
 10
-18.017914
 20
-444.162834
 30
843.442016
 70
    64
  0
VERTEX
  5
A21
  8
TEAM-NET
 10
-35.8987
 20
-441.657706
 30
836.933942
 70
    64
  0
VERTEX
  5
A22
  8
TEAM-NET
 10
-53.506276
 20
-437.503682
 30
830.525308
 70
    64
  0
VERTEX
  5
A23
  8
TEAM-NET
 10
-70.706637
 20
-431.732377
 30
824.264889
 70
    64
  0
VERTEX
  5
A24
  8
TEAM-NET
 10
-87.368878
 20
-424.387713
 30
818.200329
 70
    64
  0
VERTEX
  5
A25
  8
TEAM-NET
 10
-103.366188
 20
-415.525589
 30
812.377784
 70
    64
  0
VERTEX
  5
A26
  8
TEAM-NET
 10
-118.57682
 20
-405.21345
 30
806.841567
 70
    64
  0
VERTEX
  5
A27
  8
TEAM-NET
 10
-132.88501
 20
-393.529777
 30
801.633812
 70
    64
  0
VERTEX
  5
A28
  8
TEAM-NET
 10
-146.181865
 20
-380.563492
 30
796.794152
 70
    64
  0
VERTEX
  5
A29
  8
TEAM-NET
 10
-158.366188
 20
-366.413274
 30
792.359421
 70
    64
  0
VERTEX
  5
A2A
  8
TEAM-NET
 10
-169.345249
 20
-351.186816
 30
788.36337
 70
    64
  0
VERTEX
  5
A2B
  8
TEAM-NET
 10
-179.03549
 20
-335.0
 30
784.836411
 70
    64
  0
VERTEX
  5
A2C
  8
TEAM-NET
 10
-187.363163
 20
-317.976018
 30
781.805386
 70
    64
  0
VERTEX
  5
A2D
  8
TEAM-NET
 10
-194.264889
 20
-300.244432
 30
779.293363
 70
    64
  0
VERTEX
  5
A2E
  8
TEAM-NET
 10
-199.688142
 20
-281.94019
 30
777.31946
 70
    64
  0
VERTEX
  5
A2F
  8
TEAM-NET
 10
-203.591647
 20
-263.202599
 30
775.8987
 70
    64
  0
VERTEX
  5
A30
  8
TEAM-NET
 10
-205.945697
 20
-244.174263
 30
775.041896
 70
    64
  0
VERTEX
  5
A31
  8
TEAM-NET
 10
-206.732377
 20
-225.0
 30
774.755568
 70
    64
  0
VERTEX
  5
A32
  8
TEAM-NET
 10
-205.945697
 20
-205.825737
 30
775.041896
 70
    64
  0
VERTEX
  5
A33
  8
TEAM-NET
 10
-203.591647
 20
-186.797401
 30
775.8987
 70
    64
  0
VERTEX
  5
A34
  8
TEAM-NET
 10
-199.688142
 20
-168.05981
 30
777.31946
 70
    64
  0
VERTEX
  5
A35
  8
TEAM-NET
 10
-194.264889
 20
-149.755568
 30
779.293363
 70
    64
  0
VERTEX
  5
A36
  8
TEAM-NET
 10
-187.363163
 20
-132.023982
 30
781.805386
 70
    64
  0
VERTEX
  5
A37
  8
TEAM-NET
 10
-179.03549
 20
-115.0
 30
784.836411
 70
    64
  0
VERTEX
  5
A38
  8
TEAM-NET
 10
-169.345249
 20
-98.813184
 30
788.36337
 70
    64
  0
VERTEX
  5
A39
  8
TEAM-NET
 10
-158.366188
 20
-83.586726
 30
792.359421
 70
    64
  0
VERTEX
  5
A3A
  8
TEAM-NET
 10
-146.181865
 20
-69.436508
 30
796.794152
 70
    64
  0
VERTEX
  5
A3B
  8
TEAM-NET
 10
-132.88501
 20
-56.470223
 30
801.633812
 70
    64
  0
VERTEX
  5
A3C
  8
TEAM-NET
 10
-118.57682
 20
-44.78655
 30
806.841567
 70
    64
  0
VERTEX
  5
A3D
  8
TEAM-NET
 10
-103.366188
 20
-34.474411
 30
812.377784
 70
    64
  0
VERTEX
  5
A3E
  8
TEAM-NET
 10
-87.368878
 20
-25.612287
 30
818.200329
 70
    64
  0
VERTEX
  5
A3F
  8
TEAM-NET
 10
-70.706637
 20
-18.267623
 30
824.264889
 70
    64
  0
VERTEX
  5
A40
  8
TEAM-NET
 10
-53.506276
 20
-12.496318
 30
830.525308
 70
    64
  0
VERTEX
  5
A41
  8
TEAM-NET
 10
-35.8987
 20
-8.342294
 30
836.933942
 70
    64
  0
VERTEX
  5
A42
  8
TEAM-NET
 10
-18.017914
 20
-5.837166
 30
843.442016
 70
    64
  0
VERTEX
  5
A43
  8
TEAM-NET
 10
0.0
 20
-5.0
 30
850.0
 70
    64
  0
VERTEX
  5
A44
  8
TEAM-NET
 10
0.0
 20
-445.0
 30
850.0
 70
    64
  0
VERTEX
  5
A45
  8
TEAM-NET
 10
-18.520916
 20
-444.162834
 30
845.037335
 70
    64
  0
VERTEX
  5
A46
  8
TEAM-NET
 10
-36.900877
 20
-441.657706
 30
840.11244
 70
    64
  0
VERTEX
  5
A47
  8
TEAM-NET
 10
-55.0
 20
-437.503682
 30
835.262794
 70
    64
  0
VERTEX
  5
A48
  8
TEAM-NET
 10
-72.68054
 20
-431.732377
 30
830.525308
 70
    64
  0
VERTEX
  5
A49
  8
TEAM-NET
 10
-89.807937
 20
-424.387713
 30
825.936036
 70
    64
  0
VERTEX
  5
A4A
  8
TEAM-NET
 10
-106.251841
 20
-415.525589
 30
821.529905
 70
    64
  0
VERTEX
  5
A4B
  8
TEAM-NET
 10
-121.887105
 20
-405.21345
 30
817.340449
 70
    64
  0
VERTEX
  5
A4C
  8
TEAM-NET
 10
-136.594734
 20
-393.529777
 30
813.399551
 70
    64
  0
VERTEX
  5
A4D
  8
TEAM-NET
 10
-150.262794
 20
-380.563492
 30
809.737206
 70
    64
  0
VERTEX
  5
A4E
  8
TEAM-NET
 10
-162.787265
 20
-366.413274
 30
806.381284
 70
    64
  0
VERTEX
  5
A4F
  8
TEAM-NET
 10
-174.072825
 20
-351.186816
 30
803.357327
 70
    64
  0
VERTEX
  5
A50
  8
TEAM-NET
 10
-184.033587
 20
-335.0
 30
800.688349
 70
    64
  0
VERTEX
  5
A51
  8
TEAM-NET
 10
-192.593742
 20
-317.976018
 30
798.394662
 70
    64
  0
VERTEX
  5
A52
  8
TEAM-NET
 10
-199.688142
 20
-300.244432
 30
796.493724
 70
    64
  0
VERTEX
  5
A53
  8
TEAM-NET
 10
-205.262794
 20
-281.94019
 30
795.0
 70
    64
  0
VERTEX
  5
A54
  8
TEAM-NET
 10
-209.275273
 20
-263.202599
 30
793.92486
 70
    64
  0
VERTEX
  5
A55
  8
TEAM-NET
 10
-211.695041
 20
-244.174263
 30
793.276485
 70
    64
  0
VERTEX
  5
A56
  8
TEAM-NET
 10
-212.503682
 20
-225.0
 30
793.05981
 70
    64
  0
VERTEX
  5
A57
  8
TEAM-NET
 10
-211.695041
 20
-205.825737
 30
793.276485
 70
    64
  0
VERTEX
  5
A58
  8
TEAM-NET
 10
-209.275273
 20
-186.797401
 30
793.92486
 70
    64
  0
VERTEX
  5
A59
  8
TEAM-NET
 10
-205.262794
 20
-168.05981
 30
795.0
 70
    64
  0
VERTEX
  5
A5A
  8
TEAM-NET
 10
-199.688142
 20
-149.755568
 30
796.493724
 70
    64
  0
VERTEX
  5
A5B
  8
TEAM-NET
 10
-192.593742
 20
-132.023982
 30
798.394662
 70
    64
  0
VERTEX
  5
A5C
  8
TEAM-NET
 10
-184.033587
 20
-115.0
 30
800.688349
 70
    64
  0
VERTEX
  5
A5D
  8
TEAM-NET
 10
-174.072825
 20
-98.813184
 30
803.357327
 70
    64
  0
VERTEX
  5
A5E
  8
TEAM-NET
 10
-162.787265
 20
-83.586726
 30
806.381284
 70
    64
  0
VERTEX
  5
A5F
  8
TEAM-NET
 10
-150.262794
 20
-69.436508
 30
809.737206
 70
    64
  0
VERTEX
  5
A60
  8
TEAM-NET
 10
-136.594734
 20
-56.470223
 30
813.399551
 70
    64
  0
VERTEX
  5
A61
  8
TEAM-NET
 10
-121.887105
 20
-44.78655
 30
817.340449
 70
    64
  0
VERTEX
  5
A62
  8
TEAM-NET
 10
-106.251841
 20
-34.474411
 30
821.529905
 70
    64
  0
VERTEX
  5
A63
  8
TEAM-NET
 10
-89.807937
 20
-25.612287
 30
825.936036
 70
    64
  0
VERTEX
  5
A64
  8
TEAM-NET
 10
-72.68054
 20
-18.267623
 30
830.525308
 70
    64
  0
VERTEX
  5
A65
  8
TEAM-NET
 10
-55.0
 20
-12.496318
 30
835.262794
 70
    64
  0
VERTEX
  5
A66
  8
TEAM-NET
 10
-36.900877
 20
-8.342294
 30
840.11244
 70
    64
  0
VERTEX
  5
A67
  8
TEAM-NET
 10
-18.520916
 20
-5.837166
 30
845.037335
 70
    64
  0
VERTEX
  5
A68
  8
TEAM-NET
 10
0.0
 20
-5.0
 30
850.0
 70
    64
  0
VERTEX
  5
A69
  8
TEAM-NET
 10
0.0
 20
-445.0
 30
850.0
 70
    64
  0
VERTEX
  5
A6A
  8
TEAM-NET
 10
-18.882963
 20
-444.162834
 30
846.670424
 70
    64
  0
VERTEX
  5
A6B
  8
TEAM-NET
 10
-37.622216
 20
-441.657706
 30
843.366188
 70
    64
  0
VERTEX
  5
A6C
  8
TEAM-NET
 10
-56.07514
 20
-437.503682
 30
840.11244
 70
    64
  0
VERTEX
  5
A6D
  8
TEAM-NET
 10
-74.1013
 20
-431.732377
 30
836.933942
 70
    64
  0
VERTEX
  5
A6E
  8
TEAM-NET
 10
-91.563503
 20
-424.387713
 30
833.854884
 70
    64
  0
VERTEX
  5
A6F
  8
TEAM-NET
 10
-108.328853
 20
-415.525589
 30
830.8987
 70
    64
  0
VERTEX
  5
A70
  8
TEAM-NET
 10
-124.269755
 20
-405.21345
 30
828.087889
 70
    64
  0
VERTEX
  5
A71
  8
TEAM-NET
 10
-139.264889
 20
-393.529777
 30
825.443843
 70
    64
  0
VERTEX
  5
A72
  8
TEAM-NET
 10
-153.200133
 20
-380.563492
 30
822.986683
 70
    64
  0
VERTEX
  5
A73
  8
TEAM-NET
 10
-165.969431
 20
-366.413274
 30
820.735111
 70
    64
  0
VERTEX
  5
A74
  8
TEAM-NET
 10
-177.475603
 20
-351.186816
 30
818.706263
 70
    64
  0
VERTEX
  5
A75
  8
TEAM-NET
 10
-187.631077
 20
-335.0
 30
816.915579
 70
    64
  0
VERTEX
  5
A76
  8
TEAM-NET
 10
-196.358566
 20
-317.976018
 30
815.376687
 70
    64
  0
VERTEX
  5
A77
  8
TEAM-NET
 10
-203.591647
 20
-300.244432
 30
814.1013
 70
    64
  0
VERTEX
  5
A78
  8
TEAM-NET
 10
-209.275273
 20
-281.94019
 30
813.099123
 70
    64
  0
VERTEX
  5
A79
  8
TEAM-NET
 10
-213.366188
 20
-263.202599
 30
812.377784
 70
    64
  0
VERTEX
  5
A7A
  8
TEAM-NET
 10
-215.833258
 20
-244.174263
 30
811.942773
 70
    64
  0
VERTEX
  5
A7B
  8
TEAM-NET
 10
-216.657706
 20
-225.0
 30
811.797401
 70
    64
  0
VERTEX
  5
A7C
  8
TEAM-NET
 10
-215.833258
 20
-205.825737
 30
811.942773
 70
    64
  0
VERTEX
  5
A7D
  8
TEAM-NET
 10
-213.366188
 20
-186.797401
 30
812.377784
 70
    64
  0
VERTEX
  5
A7E
  8
TEAM-NET
 10
-209.275273
 20
-168.05981
 30
813.099123
 70
    64
  0
VERTEX
  5
A7F
  8
TEAM-NET
 10
-203.591647
 20
-149.755568
 30
814.1013
 70
    64
  0
VERTEX
  5
A80
  8
TEAM-NET
 10
-196.358566
 20
-132.023982
 30
815.376687
 70
    64
  0
VERTEX
  5
A81
  8
TEAM-NET
 10
-187.631077
 20
-115.0
 30
816.915579
 70
    64
  0
VERTEX
  5
A82
  8
TEAM-NET
 10
-177.475603
 20
-98.813184
 30
818.706263
 70
    64
  0
VERTEX
  5
A83
  8
TEAM-NET
 10
-165.969431
 20
-83.586726
 30
820.735111
 70
    64
  0
VERTEX
  5
A84
  8
TEAM-NET
 10
-153.200133
 20
-69.436508
 30
822.986683
 70
    64
  0
VERTEX
  5
A85
  8
TEAM-NET
 10
-139.264889
 20
-56.470223
 30
825.443843
 70
    64
  0
VERTEX
  5
A86
  8
TEAM-NET
 10
-124.269755
 20
-44.78655
 30
828.087889
 70
    64
  0
VERTEX
  5
A87
  8
TEAM-NET
 10
-108.328853
 20
-34.474411
 30
830.8987
 70
    64
  0
VERTEX
  5
A88
  8
TEAM-NET
 10
-91.563503
 20
-25.612287
 30
833.854884
 70
    64
  0
VERTEX
  5
A89
  8
TEAM-NET
 10
-74.1013
 20
-18.267623
 30
836.933942
 70
    64
  0
VERTEX
  5
A8A
  8
TEAM-NET
 10
-56.07514
 20
-12.496318
 30
840.11244
 70
    64
  0
VERTEX
  5
A8B
  8
TEAM-NET
 10
-37.622216
 20
-8.342294
 30
843.366188
 70
    64
  0
VERTEX
  5
A8C
  8
TEAM-NET
 10
-18.882963
 20
-5.837166
 30
846.670424
 70
    64
  0
VERTEX
  5
A8D
  8
TEAM-NET
 10
0.0
 20
-5.0
 30
850.0
 70
    64
  0
VERTEX
  5
A8E
  8
TEAM-NET
 10
0.0
 20
-445.0
 30
850.0
 70
    64
  0
VERTEX
  5
A8F
  8
TEAM-NET
 10
-19.1013
 20
-444.162834
 30
848.328853
 70
    64
  0
VERTEX
  5
A90
  8
TEAM-NET
 10
-38.057227
 20
-441.657706
 30
846.670424
 70
    64
  0
VERTEX
  5
A91
  8
TEAM-NET
 10
-56.723515
 20
-437.503682
 30
845.037335
 70
    64
  0
VERTEX
  5
A92
  8
TEAM-NET
 10
-74.958104
 20
-431.732377
 30
843.442016
 70
    64
  0
VERTEX
  5
A93
  8
TEAM-NET
 10
-92.622216
 20
-424.387713
 30
841.896606
 70
    64
  0
VERTEX
  5
A94
  8
TEAM-NET
 10
-109.581417
 20
-415.525589
 30
840.412868
 70
    64
  0
VERTEX
  5
A95
  8
TEAM-NET
 10
-125.706637
 20
-405.21345
 30
839.002094
 70
    64
  0
VERTEX
  5
A96
  8
TEAM-NET
 10
-140.875154
 20
-393.529777
 30
837.675021
 70
    64
  0
VERTEX
  5
A97
  8
TEAM-NET
 10
-154.971526
 20
-380.563492
 30
836.441748
 70
    64
  0
VERTEX
  5
A98
  8
TEAM-NET
 10
-167.888471
 20
-366.413274
 30
835.311662
 70
    64
  0
VERTEX
  5
A99
  8
TEAM-NET
 10
-179.527683
 20
-351.186816
 30
834.293363
 70
    64
  0
VERTEX
  5
A9A
  8
TEAM-NET
 10
-189.800581
 20
-335.0
 30
833.394601
 70
    64
  0
VERTEX
  5
A9B
  8
TEAM-NET
 10
-198.628983
 20
-317.976018
 30
832.622216
 70
    64
  0
VERTEX
  5
A9C
  8
TEAM-NET
 10
-205.945697
 20
-300.244432
 30
831.982086
 70
    64
  0
VERTEX
  5
A9D
  8
TEAM-NET
 10
-211.695041
 20
-281.94019
 30
831.479084
 70
    64
  0
VERTEX
  5
A9E
  8
TEAM-NET
 10
-215.833258
 20
-263.202599
 30
831.117037
 70
    64
  0
VERTEX
  5
A9F
  8
TEAM-NET
 10
-218.328853
 20
-244.174263
 30
830.8987
 70
    64
  0
VERTEX
  5
AA0
  8
TEAM-NET
 10
-219.162834
 20
-225.0
 30
830.825737
 70
    64
  0
VERTEX
  5
AA1
  8
TEAM-NET
 10
-218.328853
 20
-205.825737
 30
830.8987
 70
    64
  0
VERTEX
  5
AA2
  8
TEAM-NET
 10
-215.833258
 20
-186.797401
 30
831.117037
 70
    64
  0
VERTEX
  5
AA3
  8
TEAM-NET
 10
-211.695041
 20
-168.05981
 30
831.479084
 70
    64
  0
VERTEX
  5
AA4
  8
TEAM-NET
 10
-205.945697
 20
-149.755568
 30
831.982086
 70
    64
  0
VERTEX
  5
AA5
  8
TEAM-NET
 10
-198.628983
 20
-132.023982
 30
832.622216
 70
    64
  0
VERTEX
  5
AA6
  8
TEAM-NET
 10
-189.800581
 20
-115.0
 30
833.394601
 70
    64
  0
VERTEX
  5
AA7
  8
TEAM-NET
 10
-179.527683
 20
-98.813184
 30
834.293363
 70
    64
  0
VERTEX
  5
AA8
  8
TEAM-NET
 10
-167.888471
 20
-83.586726
 30
835.311662
 70
    64
  0
VERTEX
  5
AA9
  8
TEAM-NET
 10
-154.971526
 20
-69.436508
 30
836.441748
 70
    64
  0
VERTEX
  5
AAA
  8
TEAM-NET
 10
-140.875154
 20
-56.470223
 30
837.675021
 70
    64
  0
VERTEX
  5
AAB
  8
TEAM-NET
 10
-125.706637
 20
-44.78655
 30
839.002094
 70
    64
  0
VERTEX
  5
AAC
  8
TEAM-NET
 10
-109.581417
 20
-34.474411
 30
840.412868
 70
    64
  0
VERTEX
  5
AAD
  8
TEAM-NET
 10
-92.622216
 20
-25.612287
 30
841.896606
 70
    64
  0
VERTEX
  5
AAE
  8
TEAM-NET
 10
-74.958104
 20
-18.267623
 30
843.442016
 70
    64
  0
VERTEX
  5
AAF
  8
TEAM-NET
 10
-56.723515
 20
-12.496318
 30
845.037335
 70
    64
  0
VERTEX
  5
AB0
  8
TEAM-NET
 10
-38.057227
 20
-8.342294
 30
846.670424
 70
    64
  0
VERTEX
  5
AB1
  8
TEAM-NET
 10
-19.1013
 20
-5.837166
 30
848.328853
 70
    64
  0
VERTEX
  5
AB2
  8
TEAM-NET
 10
0.0
 20
-5.0
 30
850.0
 70
    64
  0
VERTEX
  5
AB3
  8
TEAM-NET
 10
0.0
 20
-445.0
 30
850.0
 70
    64
  0
VERTEX
  5
AB4
  8
TEAM-NET
 10
-19.174263
 20
-444.162834
 30
850.0
 70
    64
  0
VERTEX
  5
AB5
  8
TEAM-NET
 10
-38.202599
 20
-441.657706
 30
850.0
 70
    64
  0
VERTEX
  5
AB6
  8
TEAM-NET
 10
-56.94019
 20
-437.503682
 30
850.0
 70
    64
  0
VERTEX
  5
AB7
  8
TEAM-NET
 10
-75.244432
 20
-431.732377
 30
850.0
 70
    64
  0
VERTEX
  5
AB8
  8
TEAM-NET
 10
-92.976018
 20
-424.387713
 30
850.0
 70
    64
  0
VERTEX
  5
AB9
  8
TEAM-NET
 10
-110.0
 20
-415.525589
 30
850.0
 70
    64
  0
VERTEX
  5
ABA
  8
TEAM-NET
 10
-126.186816
 20
-405.21345
 30
850.0
 70
    64
  0
VERTEX
  5
ABB
  8
TEAM-NET
 10
-141.413274
 20
-393.529777
 30
850.0
 70
    64
  0
VERTEX
  5
ABC
  8
TEAM-NET
 10
-155.563492
 20
-380.563492
 30
850.0
 70
    64
  0
VERTEX
  5
ABD
  8
TEAM-NET
 10
-168.529777
 20
-366.413274
 30
850.0
 70
    64
  0
VERTEX
  5
ABE
  8
TEAM-NET
 10
-180.21345
 20
-351.186816
 30
850.0
 70
    64
  0
VERTEX
  5
ABF
  8
TEAM-NET
 10
-190.525589
 20
-335.0
 30
850.0
 70
    64
  0
VERTEX
  5
AC0
  8
TEAM-NET
 10
-199.387713
 20
-317.976018
 30
850.0
 70
    64
  0
VERTEX
  5
AC1
  8
TEAM-NET
 10
-206.732377
 20
-300.244432
 30
850.0
 70
    64
  0
VERTEX
  5
AC2
  8
TEAM-NET
 10
-212.503682
 20
-281.94019
 30
850.0
 70
    64
  0
VERTEX
  5
AC3
  8
TEAM-NET
 10
-216.657706
 20
-263.202599
 30
850.0
 70
    64
  0
VERTEX
  5
AC4
  8
TEAM-NET
 10
-219.162834
 20
-244.174263
 30
850.0
 70
    64
  0
VERTEX
  5
AC5
  8
TEAM-NET
 10
-220.0
 20
-225.0
 30
850.0
 70
    64
  0
VERTEX
  5
AC6
  8
TEAM-NET
 10
-219.162834
 20
-205.825737
 30
850.0
 70
    64
  0
VERTEX
  5
AC7
  8
TEAM-NET
 10
-216.657706
 20
-186.797401
 30
850.0
 70
    64
  0
VERTEX
  5
AC8
  8
TEAM-NET
 10
-212.503682
 20
-168.05981
 30
850.0
 70
    64
  0
VERTEX
  5
AC9
  8
TEAM-NET
 10
-206.732377
 20
-149.755568
 30
850.0
 70
    64
  0
VERTEX
  5
ACA
  8
TEAM-NET
 10
-199.387713
 20
-132.023982
 30
850.0
 70
    64
  0
VERTEX
  5
ACB
  8
TEAM-NET
 10
-190.525589
 20
-115.0
 30
850.0
 70
    64
  0
VERTEX
  5
ACC
  8
TEAM-NET
 10
-180.21345
 20
-98.813184
 30
850.0
 70
    64
  0
VERTEX
  5
ACD
  8
TEAM-NET
 10
-168.529777
 20
-83.586726
 30
850.0
 70
    64
  0
VERTEX
  5
ACE
  8
TEAM-NET
 10
-155.563492
 20
-69.436508
 30
850.0
 70
    64
  0
VERTEX
  5
ACF
  8
TEAM-NET
 10
-141.413274
 20
-56.470223
 30
850.0
 70
    64
  0
VERTEX
  5
AD0
  8
TEAM-NET
 10
-126.186816
 20
-44.78655
 30
850.0
 70
    64
  0
VERTEX
  5
AD1
  8
TEAM-NET
 10
-110.0
 20
-34.474411
 30
850.0
 70
    64
  0
VERTEX
  5
AD2
  8
TEAM-NET
 10
-92.976018
 20
-25.612287
 30
850.0
 70
    64
  0
VERTEX
  5
AD3
  8
TEAM-NET
 10
-75.244432
 20
-18.267623
 30
850.0
 70
    64
  0
VERTEX
  5
AD4
  8
TEAM-NET
 10
-56.94019
 20
-12.496318
 30
850.0
 70
    64
  0
VERTEX
  5
AD5
  8
TEAM-NET
 10
-38.202599
 20
-8.342294
 30
850.0
 70
    64
  0
VERTEX
  5
AD6
  8
TEAM-NET
 10
-19.174263
 20
-5.837166
 30
850.0
 70
    64
  0
VERTEX
  5
AD7
  8
TEAM-NET
 10
0.0
 20
-5.0
 30
850.0
 70
    64
  0
SEQEND
  5
AD8
  8
TEAM-NET
  0
CIRCLE
  5
AD9
  8
TEAM-KAN
 39
-15.0
 10
0.0
 20
-225.0
 30
725.0
 40
20.0
  0
CIRCLE
  5
ADB
  8
TEAM-DET1
 39
-15.0
 10
0.0
 20
-225.0
 30
725.0
 40
30.0
  0
LINE
  5
ADD
  8
TEAM-AXE
 10
35.0
 20
-225.0
 30
725.0
 11
-35.0
 21
-225.0
 31
725.0
  0
LINE
  5
AE0
  8
TEAM-AXE
 10
0.0
 20
-260.0
 30
725.0
 11
0.0
 21
-190.0
 31
725.0
  0
ARC
  5
AE1
  8
TEAM-BODY
 10
0.0
 20
-225.0
 30
850.0
 40
225.0
 50
270.0
 51
90.0
  0
ARC
  5
AE3
  8
TEAM-DET1
 10
0.0
 20
-225.0
 30
850.0
 40
220.0
 50
270.0
 51
90.0
  0
ARC
  5
AE4
  8
TEAM-DET1
 10
0.0
 20
-225.0
 30
850.0
 40
220.0
 50
90.0
 51
270.0
  0
ARC
  5
AE5
  8
TEAM-BODY
 10
0.0
 20
-225.0
 30
850.0
 40
225.0
 50
90.0
 51
270.0
  0
TEXT
  5
AE6
  8
TEAM-TXT
 10
-124.91523
 20
-313.1316
 30
850.0
 40
30.0
  1
team 217064
 41
0.8
 51
15.0
  7
TEAM
  0
POLYLINE
  5
AE9
  8
TEAM-NET
 66
     1
 10
0.0
 20
0.0
 30
0.0
 70
    16
 71
     2
 72
    37
  0
VERTEX
  5
AEA
  8
TEAM-NET
 10
0.0
 20
-445.0
 30
850.0
 70
    64
  0
VERTEX
  5
AEB
  8
TEAM-NET
 10
19.174263
 20
-444.162834
 30
850.0
 70
    64
  0
VERTEX
  5
AEC
  8
TEAM-NET
 10
38.202599
 20
-441.657706
 30
850.0
 70
    64
  0
VERTEX
  5
AED
  8
TEAM-NET
 10
56.94019
 20
-437.503682
 30
850.0
 70
    64
  0
VERTEX
  5
AEE
  8
TEAM-NET
 10
75.244432
 20
-431.732377
 30
850.0
 70
    64
  0
VERTEX
  5
AEF
  8
TEAM-NET
 10
92.976018
 20
-424.387713
 30
850.0
 70
    64
  0
VERTEX
  5
AF0
  8
TEAM-NET
 10
110.0
 20
-415.525589
 30
850.0
 70
    64
  0
VERTEX
  5
AF1
  8
TEAM-NET
 10
126.186816
 20
-405.21345
 30
850.0
 70
    64
  0
VERTEX
  5
AF2
  8
TEAM-NET
 10
141.413274
 20
-393.529777
 30
850.0
 70
    64
  0
VERTEX
  5
AF3
  8
TEAM-NET
 10
155.563492
 20
-380.563492
 30
850.0
 70
    64
  0
VERTEX
  5
AF4
  8
TEAM-NET
 10
168.529777
 20
-366.413274
 30
850.0
 70
    64
  0
VERTEX
  5
AF5
  8
TEAM-NET
 10
180.21345
 20
-351.186816
 30
850.0
 70
    64
  0
VERTEX
  5
AF6
  8
TEAM-NET
 10
190.525589
 20
-335.0
 30
850.0
 70
    64
  0
VERTEX
  5
AF7
  8
TEAM-NET
 10
199.387713
 20
-317.976018
 30
850.0
 70
    64
  0
VERTEX
  5
AF8
  8
TEAM-NET
 10
206.732377
 20
-300.244432
 30
850.0
 70
    64
  0
VERTEX
  5
AF9
  8
TEAM-NET
 10
212.503682
 20
-281.94019
 30
850.0
 70
    64
  0
VERTEX
  5
AFA
  8
TEAM-NET
 10
216.657706
 20
-263.202599
 30
850.0
 70
    64
  0
VERTEX
  5
AFB
  8
TEAM-NET
 10
219.162834
 20
-244.174263
 30
850.0
 70
    64
  0
VERTEX
  5
AFC
  8
TEAM-NET
 10
220.0
 20
-225.0
 30
850.0
 70
    64
  0
VERTEX
  5
AFD
  8
TEAM-NET
 10
219.162834
 20
-205.825737
 30
850.0
 70
    64
  0
VERTEX
  5
AFE
  8
TEAM-NET
 10
216.657706
 20
-186.797401
 30
850.0
 70
    64
  0
VERTEX
  5
AFF
  8
TEAM-NET
 10
212.503682
 20
-168.05981
 30
850.0
 70
    64
  0
VERTEX
  5
B00
  8
TEAM-NET
 10
206.732377
 20
-149.755568
 30
850.0
 70
    64
  0
VERTEX
  5
B01
  8
TEAM-NET
 10
199.387713
 20
-132.023982
 30
850.0
 70
    64
  0
VERTEX
  5
B02
  8
TEAM-NET
 10
190.525589
 20
-115.0
 30
850.0
 70
    64
  0
VERTEX
  5
B03
  8
TEAM-NET
 10
180.21345
 20
-98.813184
 30
850.0
 70
    64
  0
VERTEX
  5
B04
  8
TEAM-NET
 10
168.529777
 20
-83.586726
 30
850.0
 70
    64
  0
VERTEX
  5
B05
  8
TEAM-NET
 10
155.563492
 20
-69.436508
 30
850.0
 70
    64
  0
VERTEX
  5
B06
  8
TEAM-NET
 10
141.413274
 20
-56.470223
 30
850.0
 70
    64
  0
VERTEX
  5
B07
  8
TEAM-NET
 10
126.186816
 20
-44.78655
 30
850.0
 70
    64
  0
VERTEX
  5
B08
  8
TEAM-NET
 10
110.0
 20
-34.474411
 30
850.0
 70
    64
  0
VERTEX
  5
B09
  8
TEAM-NET
 10
92.976018
 20
-25.612287
 30
850.0
 70
    64
  0
VERTEX
  5
B0A
  8
TEAM-NET
 10
75.244432
 20
-18.267623
 30
850.0
 70
    64
  0
VERTEX
  5
B0B
  8
TEAM-NET
 10
56.94019
 20
-12.496318
 30
850.0
 70
    64
  0
VERTEX
  5
B0C
  8
TEAM-NET
 10
38.202599
 20
-8.342294
 30
850.0
 70
    64
  0
VERTEX
  5
B0D
  8
TEAM-NET
 10
19.174263
 20
-5.837166
 30
850.0
 70
    64
  0
VERTEX
  5
B0E
  8
TEAM-NET
 10
0.0
 20
-5.0
 30
850.0
 70
    64
  0
VERTEX
  5
B0F
  8
TEAM-NET
 10
0.0
 20
-450.0
 30
850.0
 70
    64
  0
VERTEX
  5
B10
  8
TEAM-NET
 10
19.610042
 20
-449.143807
 30
850.0
 70
    64
  0
VERTEX
  5
B11
  8
TEAM-NET
 10
39.07084
 20
-446.581744
 30
850.0
 70
    64
  0
VERTEX
  5
B12
  8
TEAM-NET
 10
58.234285
 20
-442.333311
 30
850.0
 70
    64
  0
VERTEX
  5
B13
  8
TEAM-NET
 10
76.954532
 20
-436.43084
 30
850.0
 70
    64
  0
VERTEX
  5
B14
  8
TEAM-NET
 10
95.089109
 20
-428.919252
 30
850.0
 70
    64
  0
VERTEX
  5
B15
  8
TEAM-NET
 10
112.5
 20
-419.855716
 30
850.0
 70
    64
  0
VERTEX
  5
B16
  8
TEAM-NET
 10
129.054698
 20
-409.30921
 30
850.0
 70
    64
  0
VERTEX
  5
B17
  8
TEAM-NET
 10
144.627212
 20
-397.36
 30
850.0
 70
    64
  0
VERTEX
  5
B18
  8
TEAM-NET
 10
159.099026
 20
-384.099026
 30
850.0
 70
    64
  0
VERTEX
  5
B19
  8
TEAM-NET
 10
172.36
 20
-369.627212
 30
850.0
 70
    64
  0
VERTEX
  5
B1A
  8
TEAM-NET
 10
184.30921
 20
-354.054698
 30
850.0
 70
    64
  0
VERTEX
  5
B1B
  8
TEAM-NET
 10
194.855716
 20
-337.5
 30
850.0
 70
    64
  0
VERTEX
  5
B1C
  8
TEAM-NET
 10
203.919252
 20
-320.089109
 30
850.0
 70
    64
  0
VERTEX
  5
B1D
  8
TEAM-NET
 10
211.43084
 20
-301.954532
 30
850.0
 70
    64
  0
VERTEX
  5
B1E
  8
TEAM-NET
 10
217.333311
 20
-283.234285
 30
850.0
 70
    64
  0
VERTEX
  5
B1F
  8
TEAM-NET
 10
221.581744
 20
-264.07084
 30
850.0
 70
    64
  0
VERTEX
  5
B20
  8
TEAM-NET
 10
224.143807
 20
-244.610042
 30
850.0
 70
    64
  0
VERTEX
  5
B21
  8
TEAM-NET
 10
225.0
 20
-225.0
 30
850.0
 70
    64
  0
VERTEX
  5
B22
  8
TEAM-NET
 10
224.143807
 20
-205.389958
 30
850.0
 70
    64
  0
VERTEX
  5
B23
  8
TEAM-NET
 10
221.581744
 20
-185.92916
 30
850.0
 70
    64
  0
VERTEX
  5
B24
  8
TEAM-NET
 10
217.333311
 20
-166.765715
 30
850.0
 70
    64
  0
VERTEX
  5
B25
  8
TEAM-NET
 10
211.43084
 20
-148.045468
 30
850.0
 70
    64
  0
VERTEX
  5
B26
  8
TEAM-NET
 10
203.919252
 20
-129.910891
 30
850.0
 70
    64
  0
VERTEX
  5
B27
  8
TEAM-NET
 10
194.855716
 20
-112.5
 30
850.0
 70
    64
  0
VERTEX
  5
B28
  8
TEAM-NET
 10
184.30921
 20
-95.945302
 30
850.0
 70
    64
  0
VERTEX
  5
B29
  8
TEAM-NET
 10
172.36
 20
-80.372788
 30
850.0
 70
    64
  0
VERTEX
  5
B2A
  8
TEAM-NET
 10
159.099026
 20
-65.900974
 30
850.0
 70
    64
  0
VERTEX
  5
B2B
  8
TEAM-NET
 10
144.627212
 20
-52.64
 30
850.0
 70
    64
  0
VERTEX
  5
B2C
  8
TEAM-NET
 10
129.054698
 20
-40.69079
 30
850.0
 70
    64
  0
VERTEX
  5
B2D
  8
TEAM-NET
 10
112.5
 20
-30.144284
 30
850.0
 70
    64
  0
VERTEX
  5
B2E
  8
TEAM-NET
 10
95.089109
 20
-21.080748
 30
850.0
 70
    64
  0
VERTEX
  5
B2F
  8
TEAM-NET
 10
76.954532
 20
-13.56916
 30
850.0
 70
    64
  0
VERTEX
  5
B30
  8
TEAM-NET
 10
58.234285
 20
-7.666689
 30
850.0
 70
    64
  0
VERTEX
  5
B31
  8
TEAM-NET
 10
39.07084
 20
-3.418256
 30
850.0
 70
    64
  0
VERTEX
  5
B32
  8
TEAM-NET
 10
19.610042
 20
-0.856193
 30
850.0
 70
    64
  0
VERTEX
  5
B33
  8
TEAM-NET
 10
0.0
 20
0.0
 30
850.0
 70
    64
  0
SEQEND
  5
B34
  8
TEAM-NET
  0
POLYLINE
  5
B35
  8
TEAM-NET
 66
     1
 10
0.0
 20
0.0
 30
0.0
 70
    16
 71
     2
 72
    37
  0
VERTEX
  5
B36
  8
TEAM-NET
 10
0.0
 20
-445.0
 30
850.0
 70
    64
  0
VERTEX
  5
B37
  8
TEAM-NET
 10
-19.174263
 20
-444.162834
 30
850.0
 70
    64
  0
VERTEX
  5
B38
  8
TEAM-NET
 10
-38.202599
 20
-441.657706
 30
850.0
 70
    64
  0
VERTEX
  5
B39
  8
TEAM-NET
 10
-56.94019
 20
-437.503682
 30
850.0
 70
    64
  0
VERTEX
  5
B3A
  8
TEAM-NET
 10
-75.244432
 20
-431.732377
 30
850.0
 70
    64
  0
VERTEX
  5
B3B
  8
TEAM-NET
 10
-92.976018
 20
-424.387713
 30
850.0
 70
    64
  0
VERTEX
  5
B3C
  8
TEAM-NET
 10
-110.0
 20
-415.525589
 30
850.0
 70
    64
  0
VERTEX
  5
B3D
  8
TEAM-NET
 10
-126.186816
 20
-405.21345
 30
850.0
 70
    64
  0
VERTEX
  5
B3E
  8
TEAM-NET
 10
-141.413274
 20
-393.529777
 30
850.0
 70
    64
  0
VERTEX
  5
B3F
  8
TEAM-NET
 10
-155.563492
 20
-380.563492
 30
850.0
 70
    64
  0
VERTEX
  5
B40
  8
TEAM-NET
 10
-168.529777
 20
-366.413274
 30
850.0
 70
    64
  0
VERTEX
  5
B41
  8
TEAM-NET
 10
-180.21345
 20
-351.186816
 30
850.0
 70
    64
  0
VERTEX
  5
B42
  8
TEAM-NET
 10
-190.525589
 20
-335.0
 30
850.0
 70
    64
  0
VERTEX
  5
B43
  8
TEAM-NET
 10
-199.387713
 20
-317.976018
 30
850.0
 70
    64
  0
VERTEX
  5
B44
  8
TEAM-NET
 10
-206.732377
 20
-300.244432
 30
850.0
 70
    64
  0
VERTEX
  5
B45
  8
TEAM-NET
 10
-212.503682
 20
-281.94019
 30
850.0
 70
    64
  0
VERTEX
  5
B46
  8
TEAM-NET
 10
-216.657706
 20
-263.202599
 30
850.0
 70
    64
  0
VERTEX
  5
B47
  8
TEAM-NET
 10
-219.162834
 20
-244.174263
 30
850.0
 70
    64
  0
VERTEX
  5
B48
  8
TEAM-NET
 10
-220.0
 20
-225.0
 30
850.0
 70
    64
  0
VERTEX
  5
B49
  8
TEAM-NET
 10
-219.162834
 20
-205.825737
 30
850.0
 70
    64
  0
VERTEX
  5
B4A
  8
TEAM-NET
 10
-216.657706
 20
-186.797401
 30
850.0
 70
    64
  0
VERTEX
  5
B4B
  8
TEAM-NET
 10
-212.503682
 20
-168.05981
 30
850.0
 70
    64
  0
VERTEX
  5
B4C
  8
TEAM-NET
 10
-206.732377
 20
-149.755568
 30
850.0
 70
    64
  0
VERTEX
  5
B4D
  8
TEAM-NET
 10
-199.387713
 20
-132.023982
 30
850.0
 70
    64
  0
VERTEX
  5
B4E
  8
TEAM-NET
 10
-190.525589
 20
-115.0
 30
850.0
 70
    64
  0
VERTEX
  5
B4F
  8
TEAM-NET
 10
-180.21345
 20
-98.813184
 30
850.0
 70
    64
  0
VERTEX
  5
B50
  8
TEAM-NET
 10
-168.529777
 20
-83.586726
 30
850.0
 70
    64
  0
VERTEX
  5
B51
  8
TEAM-NET
 10
-155.563492
 20
-69.436508
 30
850.0
 70
    64
  0
VERTEX
  5
B52
  8
TEAM-NET
 10
-141.413274
 20
-56.470223
 30
850.0
 70
    64
  0
VERTEX
  5
B53
  8
TEAM-NET
 10
-126.186816
 20
-44.78655
 30
850.0
 70
    64
  0
VERTEX
  5
B54
  8
TEAM-NET
 10
-110.0
 20
-34.474411
 30
850.0
 70
    64
  0
VERTEX
  5
B55
  8
TEAM-NET
 10
-92.976018
 20
-25.612287
 30
850.0
 70
    64
  0
VERTEX
  5
B56
  8
TEAM-NET
 10
-75.244432
 20
-18.267623
 30
850.0
 70
    64
  0
VERTEX
  5
B57
  8
TEAM-NET
 10
-56.94019
 20
-12.496318
 30
850.0
 70
    64
  0
VERTEX
  5
B58
  8
TEAM-NET
 10
-38.202599
 20
-8.342294
 30
850.0
 70
    64
  0
VERTEX
  5
B59
  8
TEAM-NET
 10
-19.174263
 20
-5.837166
 30
850.0
 70
    64
  0
VERTEX
  5
B5A
  8
TEAM-NET
 10
0.0
 20
-5.0
 30
850.0
 70
    64
  0
VERTEX
  5
B5B
  8
TEAM-NET
 10
0.0
 20
-450.0
 30
850.0
 70
    64
  0
VERTEX
  5
B5C
  8
TEAM-NET
 10
-19.610042
 20
-449.143807
 30
850.0
 70
    64
  0
VERTEX
  5
B5D
  8
TEAM-NET
 10
-39.07084
 20
-446.581744
 30
850.0
 70
    64
  0
VERTEX
  5
B5E
  8
TEAM-NET
 10
-58.234285
 20
-442.333311
 30
850.0
 70
    64
  0
VERTEX
  5
B5F
  8
TEAM-NET
 10
-76.954532
 20
-436.43084
 30
850.0
 70
    64
  0
VERTEX
  5
B60
  8
TEAM-NET
 10
-95.089109
 20
-428.919252
 30
850.0
 70
    64
  0
VERTEX
  5
B61
  8
TEAM-NET
 10
-112.5
 20
-419.855716
 30
850.0
 70
    64
  0
VERTEX
  5
B62
  8
TEAM-NET
 10
-129.054698
 20
-409.30921
 30
850.0
 70
    64
  0
VERTEX
  5
B63
  8
TEAM-NET
 10
-144.627212
 20
-397.36
 30
850.0
 70
    64
  0
VERTEX
  5
B64
  8
TEAM-NET
 10
-159.099026
 20
-384.099026
 30
850.0
 70
    64
  0
VERTEX
  5
B65
  8
TEAM-NET
 10
-172.36
 20
-369.627212
 30
850.0
 70
    64
  0
VERTEX
  5
B66
  8
TEAM-NET
 10
-184.30921
 20
-354.054698
 30
850.0
 70
    64
  0
VERTEX
  5
B67
  8
TEAM-NET
 10
-194.855716
 20
-337.5
 30
850.0
 70
    64
  0
VERTEX
  5
B68
  8
TEAM-NET
 10
-203.919252
 20
-320.089109
 30
850.0
 70
    64
  0
VERTEX
  5
B69
  8
TEAM-NET
 10
-211.43084
 20
-301.954532
 30
850.0
 70
    64
  0
VERTEX
  5
B6A
  8
TEAM-NET
 10
-217.333311
 20
-283.234285
 30
850.0
 70
    64
  0
VERTEX
  5
B6B
  8
TEAM-NET
 10
-221.581744
 20
-264.07084
 30
850.0
 70
    64
  0
VERTEX
  5
B6C
  8
TEAM-NET
 10
-224.143807
 20
-244.610042
 30
850.0
 70
    64
  0
VERTEX
  5
B6D
  8
TEAM-NET
 10
-225.0
 20
-225.0
 30
850.0
 70
    64
  0
VERTEX
  5
B6E
  8
TEAM-NET
 10
-224.143807
 20
-205.389958
 30
850.0
 70
    64
  0
VERTEX
  5
B6F
  8
TEAM-NET
 10
-221.581744
 20
-185.92916
 30
850.0
 70
    64
  0
VERTEX
  5
B70
  8
TEAM-NET
 10
-217.333311
 20
-166.765715
 30
850.0
 70
    64
  0
VERTEX
  5
B71
  8
TEAM-NET
 10
-211.43084
 20
-148.045468
 30
850.0
 70
    64
  0
VERTEX
  5
B72
  8
TEAM-NET
 10
-203.919252
 20
-129.910891
 30
850.0
 70
    64
  0
VERTEX
  5
B73
  8
TEAM-NET
 10
-194.855716
 20
-112.5
 30
850.0
 70
    64
  0
VERTEX
  5
B74
  8
TEAM-NET
 10
-184.30921
 20
-95.945302
 30
850.0
 70
    64
  0
VERTEX
  5
B75
  8
TEAM-NET
 10
-172.36
 20
-80.372788
 30
850.0
 70
    64
  0
VERTEX
  5
B76
  8
TEAM-NET
 10
-159.099026
 20
-65.900974
 30
850.0
 70
    64
  0
VERTEX
  5
B77
  8
TEAM-NET
 10
-144.627212
 20
-52.64
 30
850.0
 70
    64
  0
VERTEX
  5
B78
  8
TEAM-NET
 10
-129.054698
 20
-40.69079
 30
850.0
 70
    64
  0
VERTEX
  5
B79
  8
TEAM-NET
 10
-112.5
 20
-30.144284
 30
850.0
 70
    64
  0
VERTEX
  5
B7A
  8
TEAM-NET
 10
-95.089109
 20
-21.080748
 30
850.0
 70
    64
  0
VERTEX
  5
B7B
  8
TEAM-NET
 10
-76.954532
 20
-13.56916
 30
850.0
 70
    64
  0
VERTEX
  5
B7C
  8
TEAM-NET
 10
-58.234285
 20
-7.666689
 30
850.0
 70
    64
  0
VERTEX
  5
B7D
  8
TEAM-NET
 10
-39.07084
 20
-3.418256
 30
850.0
 70
    64
  0
VERTEX
  5
B7E
  8
TEAM-NET
 10
-19.610042
 20
-0.856193
 30
850.0
 70
    64
  0
VERTEX
  5
B7F
  8
TEAM-NET
 10
0.0
 20
0.0
 30
850.0
 70
    64
  0
SEQEND
  5
B80
  8
TEAM-NET
  0
ENDSEC
  0
EOF
