  0
SECTION
  2
HEADER
  9
$ACADVER
  1
AC1009
  9
$INSBASE
 10
0.0
 20
0.0
 30
0.0
  9
$EXTMIN
 10
-256.248852
 20
-266.216602
 30
-0.060389
  9
$EXTMAX
 10
256.248857
 20
10.016671
 30
989.59693
  9
$LIMMIN
 10
-256.248852
 20
-266.216602
  9
$LIMMAX
 10
256.248857
 20
10.016671
  9
$ORTHOMODE
 70
     1
  9
$REGENMODE
 70
     1
  9
$FILLMODE
 70
     1
  9
$QTEXTMODE
 70
     0
  9
$MIRRTEXT
 70
     0
  9
$DRAGMODE
 70
     2
  9
$LTSCALE
 40
25.0
  9
$OSMODE
 70
     0
  9
$ATTMODE
 70
     1
  9
$TEXTSIZE
 40
200.0
  9
$TRACEWID
 40
1.0
  9
$TEXTSTYLE
  7
STANDARD
  9
$CLAYER
  8
TEAM-MAS
  9
$CELTYPE
  6
BYLAYER
  9
$CECOLOR
 62
   256
  9
$DIMSCALE
 40
1.0
  9
$DIMASZ
 40
20.0
  9
$DIMEXO
 40
10.0
  9
$DIMDLI
 40
1.0
  9
$DIMRND
 40
0.0
  9
$DIMDLE
 40
0.0
  9
$DIMEXE
 40
1.0
  9
$DIMTP
 40
0.0
  9
$DIMTM
 40
0.0
  9
$DIMTXT
 40
35.0
  9
$DIMCEN
 40
1.0
  9
$DIMTSZ
 40
0.0
  9
$DIMTOL
 70
     0
  9
$DIMLIM
 70
     0
  9
$DIMTIH
 70
     0
  9
$DIMTOH
 70
     0
  9
$DIMSE1
 70
     0
  9
$DIMSE2
 70
     0
  9
$DIMTAD
 70
     0
  9
$DIMZIN
 70
     0
  9
$DIMBLK
  1

  9
$DIMASO
 70
     1
  9
$DIMSHO
 70
     0
  9
$DIMPOST
  1

  9
$DIMAPOST
  1

  9
$DIMALT
 70
     0
  9
$DIMALTD
 70
     2
  9
$DIMALTF
 40
25.4
  9
$DIMLFAC
 40
1.0
  9
$DIMTOFL
 70
     0
  9
$DIMTVP
 40
0.0
  9
$DIMTIX
 70
     0
  9
$DIMSOXD
 70
     0
  9
$DIMSAH
 70
     0
  9
$DIMBLK1
  1

  9
$DIMBLK2
  1

  9
$DIMSTYLE
  2
TEAM
  9
$DIMCLRD
 70
     9
  9
$DIMCLRE
 70
     9
  9
$DIMCLRT
 70
    11
  9
$DIMTFAC
 40
1.0
  9
$DIMGAP
 40
15.0
  9
$LUNITS
 70
     2
  9
$LUPREC
 70
     1
  9
$SKETCHINC
 40
1.0
  9
$FILLETRAD
 40
50.0
  9
$AUNITS
 70
     0
  9
$AUPREC
 70
     0
  9
$MENU
  1
ROPLANS
  9
$ELEVATION
 40
0.0
  9
$PELEVATION
 40
0.0
  9
$THICKNESS
 40
0.0
  9
$LIMCHECK
 70
     0
  9
$BLIPMODE
 70
     1
  9
$CHAMFERA
 40
0.0
  9
$CHAMFERB
 40
0.0
  9
$SKPOLY
 70
     0
  9
$TDCREATE
 40
2450392.957851
  9
$TDUPDATE
 40
2455523.423855
  9
$TDINDWG
 40
2.626044
  9
$TDUSRTIMER
 40
2.626044
  9
$USRTIMER
 70
     1
  9
$ANGBASE
 50
0.0
  9
$ANGDIR
 70
     0
  9
$PDMODE
 70
     0
  9
$PDSIZE
 40
0.0
  9
$PLINEWID
 40
0.0
  9
$COORDS
 70
     2
  9
$SPLFRAME
 70
     0
  9
$SPLINETYPE
 70
     6
  9
$SPLINESEGS
 70
     8
  9
$ATTDIA
 70
     0
  9
$ATTREQ
 70
     0
  9
$HANDLING
 70
     1
  9
$HANDSEED
  5
122C
  9
$SURFTAB1
 70
    36
  9
$SURFTAB2
 70
    36
  9
$SURFTYPE
 70
     6
  9
$SURFU
 70
     6
  9
$SURFV
 70
     6
  9
$UCSNAME
  2

  9
$UCSORG
 10
0.0
 20
0.0
 30
0.0
  9
$UCSXDIR
 10
1.0
 20
0.0
 30
0.0
  9
$UCSYDIR
 10
0.0
 20
1.0
 30
0.0
  9
$PUCSNAME
  2

  9
$PUCSORG
 10
0.0
 20
0.0
 30
0.0
  9
$PUCSXDIR
 10
1.0
 20
0.0
 30
0.0
  9
$PUCSYDIR
 10
0.0
 20
1.0
 30
0.0
  9
$USERI1
 70
     0
  9
$USERI2
 70
     0
  9
$USERI3
 70
     0
  9
$USERI4
 70
     0
  9
$USERI5
 70
     0
  9
$USERR1
 40
0.0
  9
$USERR2
 40
0.0
  9
$USERR3
 40
0.0
  9
$USERR4
 40
0.0
  9
$USERR5
 40
0.0
  9
$WORLDVIEW
 70
     1
  9
$SHADEDGE
 70
     0
  9
$SHADEDIF
 70
    70
  9
$TILEMODE
 70
     1
  9
$MAXACTVP
 70
    16
  9
$PLIMCHECK
 70
     0
  9
$PEXTMIN
 10
-0.805942
 20
0.005011
 30
0.0
  9
$PEXTMAX
 10
20.250094
 20
11.356329
 30
0.0
  9
$PLIMMIN
 10
0.0
 20
0.0
  9
$PLIMMAX
 10
12.0
 20
9.0
  9
$UNITMODE
 70
     0
  9
$VISRETAIN
 70
     0
  9
$PLINEGEN
 70
     0
  9
$PSLTSCALE
 70
     0
  0
ENDSEC
  0
SECTION
  2
TABLES
  0
TABLE
  2
VPORT
 70
     2
  0
VPORT
  2
*ACTIVE
 70
     0
 10
0.0
 20
0.0
 11
1.0
 21
1.0
 12
0.000002
 22
-128.099965
 13
0.0
 23
0.0
 14
1.0
 24
1.0
 15
50.0
 25
50.0
 16
0.0
 26
0.0
 36
1.0
 17
0.0
 27
0.0
 37
0.0
 40
277.92969
 41
1.865779
 42
50.0
 43
0.0
 44
0.0
 50
0.0
 51
0.0
 71
     0
 72
   100
 73
     1
 74
     1
 75
     0
 76
     0
 77
     0
 78
     0
  0
ENDTAB
  0
TABLE
  2
LTYPE
 70
     1
  0
LTYPE
  2
CONTINUOUS
 70
     0
  3
Solid Line
 72
    65
 73
     0
 40
0.0
  0
ENDTAB
  0
TABLE
  2
LAYER
 70
     5
  0
LAYER
  2
0
 70
     0
 62
     7
  6
CONTINUOUS
  0
LAYER
  2
TEAM-MAS
 70
     0
 62
     9
  6
CONTINUOUS
  0
LAYER
  2
TEAM-TXT
 70
     0
 62
    11
  6
CONTINUOUS
  0
LAYER
  2
TEAM-NET
 70
     0
 62
    15
  6
CONTINUOUS
  0
LAYER
  2
TEAM-INSP
 70
     0
 62
     5
  6
CONTINUOUS
  0
ENDTAB
  0
TABLE
  2
STYLE
 70
     2
  0
STYLE
  2
STANDARD
 70
     0
 40
0.0
 41
1.0
 50
0.0
 71
     0
 42
200.0
  3
txt
  4

  0
STYLE
  2
TEAM
 70
     0
 40
0.0
 41
0.8
 50
15.0
 71
     0
 42
7.0
  3
ROMANS.shx
  4

  0
ENDTAB
  0
TABLE
  2
VIEW
 70
     0
  0
ENDTAB
  0
TABLE
  2
UCS
 70
     0
  0
ENDTAB
  0
TABLE
  2
APPID
 70
     1
  0
APPID
  2
ACAD
 70
     0
  0
ENDTAB
  0
TABLE
  2
DIMSTYLE
 70
     1
  0
DIMSTYLE
  2
TEAM
 70
     0
  3

  4

  5

  6

  7

 40
1.0
 41
20.0
 42
10.0
 43
1.0
 44
1.0
 45
0.0
 46
0.0
 47
0.0
 48
0.0
140
35.0
141
1.0
142
0.0
143
25.4
144
1.0
145
0.0
146
1.0
147
15.0
 71
     0
 72
     0
 73
     0
 74
     0
 75
     0
 76
     0
 77
     0
 78
     0
170
     0
171
     2
172
     0
173
     0
174
     0
175
     0
176
     9
177
     9
178
    11
  0
ENDTAB
  0
ENDSEC
  0
SECTION
  2
BLOCKS
  0
BLOCK
  8
0
  2
$MODEL_SPACE
 70
     0
 10
0.0
 20
0.0
 30
0.0
  3
$MODEL_SPACE
  1

  0
ENDBLK
  5
101B
  8
0
  0
BLOCK
 67
     1
  8
0
  2
$PAPER_SPACE
 70
     0
 10
0.0
 20
0.0
 30
0.0
  3
$PAPER_SPACE
  1

  0
ENDBLK
  5
1019
 67
     1
  8
0
  0
ENDSEC
  0
SECTION
  2
ENTITIES
  0
CIRCLE
  5
20
  8
TEAM-INSP
 10
0.0
 20
0.0
 30
0.0
 40
10.0
  0
ARC
  5
22
  8
TEAM-NET
 10
190.0
 20
805.011697
 30
0.0
 40
7.5
210
0.0
220
-1.0
230
0.0
 50
179.685127
 51
359.685127
  0
ARC
  5
24
  8
TEAM-NET
 10
-190.0
 20
805.011697
 30
-50.0
 40
7.5
210
0.0
220
1.0
230
0.0
 50
180.314873
 51
0.314873
  0
ARC
  5
25
  8
TEAM-NET
 10
-190.0
 20
805.011697
 30
-50.0
 40
7.5
210
0.0
220
1.0
230
0.0
 50
180.314873
 51
0.314873
  0
ARC
  5
26
  8
TEAM-NET
 10
-190.0
 20
805.011697
 30
0.0
 40
7.5
210
0.0
220
-1.0
230
0.0
 50
179.685127
 51
359.685127
  0
ARC
  5
27
  8
TEAM-NET
 10
190.0
 20
805.011697
 30
-50.0
 40
7.5
210
0.0
220
1.0
230
0.0
 50
180.314873
 51
0.314873
  0
ARC
  5
28
  8
TEAM-NET
 10
190.0
 20
805.011697
 30
-50.0
 40
7.5
210
0.0
220
1.0
230
0.0
 50
180.314873
 51
0.314873
  0
POLYLINE
  5
29
  8
TEAM-NET
 66
     1
 10
0.0
 20
0.0
 30
0.0
 70
     8
  0
VERTEX
  5
33C
  8
TEAM-NET
 10
-158.267501
 20
-151.713013
 30
697.712153
 70
    32
  0
VERTEX
  5
33D
  8
TEAM-NET
 10
-163.317646
 20
-160.362153
 30
701.47143
 70
    32
  0
VERTEX
  5
33E
  8
TEAM-NET
 10
-168.431237
 20
-168.735039
 30
705.743835
 70
    32
  0
VERTEX
  5
33F
  8
TEAM-NET
 10
-173.528576
 20
-176.830129
 30
710.52563
 70
    32
  0
VERTEX
  5
340
  8
TEAM-NET
 10
-178.541195
 20
-184.63087
 30
715.809308
 70
    32
  0
VERTEX
  5
341
  8
TEAM-NET
 10
-183.418529
 20
-192.127654
 30
721.596104
 70
    32
  0
VERTEX
  5
342
  8
TEAM-NET
 10
-188.150174
 20
-199.357857
 30
727.937872
 70
    32
  0
VERTEX
  5
343
  8
TEAM-NET
 10
-192.681113
 20
-206.281844
 30
734.838241
 70
    32
  0
VERTEX
  5
344
  8
TEAM-NET
 10
-196.951097
 20
-212.848017
 30
742.288931
 70
    32
  0
VERTEX
  5
345
  8
TEAM-NET
 10
-200.902528
 20
-219.004677
 30
750.275832
 70
    32
  0
VERTEX
  5
346
  8
TEAM-NET
 10
-204.488277
 20
-224.715806
 30
758.807882
 70
    32
  0
VERTEX
  5
347
  8
TEAM-NET
 10
-207.670117
 20
-229.960924
 30
767.934292
 70
    32
  0
VERTEX
  5
348
  8
TEAM-NET
 10
-210.364706
 20
-234.648687
 30
777.594659
 70
    32
  0
VERTEX
  5
349
  8
TEAM-NET
 10
-212.495804
 20
-238.694713
 30
787.700335
 70
    32
  0
VERTEX
  5
34A
  8
TEAM-NET
 10
-214.001446
 20
-242.033555
 30
798.158724
 70
    32
  0
VERTEX
  5
34B
  8
TEAM-NET
 10
-214.839067
 20
-244.638584
 30
808.968511
 70
    32
  0
VERTEX
  5
34C
  8
TEAM-NET
 10
-214.956705
 20
-246.457513
 30
820.012587
 70
    32
  0
SEQEND
  5
34D
  8
TEAM-NET
  0
POLYLINE
  5
2A
  8
TEAM-NET
 66
     1
 10
0.0
 20
0.0
 30
0.0
 70
     8
  0
VERTEX
  5
34E
  8
TEAM-NET
 10
-239.999838
 20
-221.215934
 30
820.012607
 70
    32
  0
VERTEX
  5
34F
  8
TEAM-NET
 10
-239.571162
 20
-219.511318
 30
809.067281
 70
    32
  0
VERTEX
  5
350
  8
TEAM-NET
 10
-238.321173
 20
-217.192058
 30
798.406293
 70
    32
  0
VERTEX
  5
351
  8
TEAM-NET
 10
-236.306698
 20
-214.290517
 30
788.08204
 70
    32
  0
VERTEX
  5
352
  8
TEAM-NET
 10
-233.580485
 20
-210.834893
 30
778.123471
 70
    32
  0
VERTEX
  5
353
  8
TEAM-NET
 10
-230.217829
 20
-206.881066
 30
768.623004
 70
    32
  0
VERTEX
  5
354
  8
TEAM-NET
 10
-226.310225
 20
-202.498949
 30
759.660759
 70
    32
  0
VERTEX
  5
355
  8
TEAM-NET
 10
-221.946846
 20
-197.753339
 30
751.27757
 70
    32
  0
VERTEX
  5
356
  8
TEAM-NET
 10
-217.164019
 20
-192.652784
 30
743.416902
 70
    32
  0
VERTEX
  5
357
  8
TEAM-NET
 10
-212.020983
 20
-187.231375
 30
736.081512
 70
    32
  0
VERTEX
  5
358
  8
TEAM-NET
 10
-206.583792
 20
-181.529621
 30
729.284311
 70
    32
  0
VERTEX
  5
359
  8
TEAM-NET
 10
-200.921645
 20
-175.58794
 30
723.032453
 70
    32
  0
VERTEX
  5
35A
  8
TEAM-NET
 10
-195.093438
 20
-169.432779
 30
717.318261
 70
    32
  0
VERTEX
  5
35B
  8
TEAM-NET
 10
-189.109569
 20
-163.032422
 30
712.09187
 70
    32
  0
VERTEX
  5
35C
  8
TEAM-NET
 10
-183.031599
 20
-156.397441
 30
707.355336
 70
    32
  0
VERTEX
  5
35D
  8
TEAM-NET
 10
-176.938276
 20
-149.540407
 30
703.115664
 70
    32
  0
VERTEX
  5
35E
  8
TEAM-NET
 10
-170.921063
 20
-142.462086
 30
699.376331
 70
    32
  0
SEQEND
  5
35F
  8
TEAM-NET
  0
POLYLINE
  5
2B
  8
TEAM-NET
 66
     1
 10
0.0
 20
0.0
 30
0.0
 70
     8
  0
VERTEX
  5
360
  8
TEAM-NET
 10
215.0
 20
-245.929747
 30
816.2398
 70
    32
  0
VERTEX
  5
361
  8
TEAM-NET
 10
214.650285
 20
-243.899015
 30
805.524674
 70
    32
  0
VERTEX
  5
362
  8
TEAM-NET
 10
213.618304
 20
-241.108812
 30
794.988275
 70
    32
  0
VERTEX
  5
363
  8
TEAM-NET
 10
211.949545
 20
-237.610893
 30
784.780226
 70
    32
  0
VERTEX
  5
364
  8
TEAM-NET
 10
209.713867
 20
-233.485557
 30
775.029498
 70
    32
  0
VERTEX
  5
365
  8
TEAM-NET
 10
206.968627
 20
-228.784236
 30
765.755616
 70
    32
  0
VERTEX
  5
366
  8
TEAM-NET
 10
203.76039
 20
-223.543192
 30
756.952188
 70
    32
  0
VERTEX
  5
367
  8
TEAM-NET
 10
200.154111
 20
-217.829951
 30
748.66505
 70
    32
  0
VERTEX
  5
368
  8
TEAM-NET
 10
196.218743
 20
-211.716955
 30
740.933824
 70
    32
  0
VERTEX
  5
369
  8
TEAM-NET
 10
192.009723
 20
-205.254192
 30
733.757041
 70
    32
  0
VERTEX
  5
36A
  8
TEAM-NET
 10
187.55106
 20
-198.443414
 30
727.090188
 70
    32
  0
VERTEX
  5
36B
  8
TEAM-NET
 10
182.889791
 20
-191.317765
 30
720.934394
 70
    32
  0
VERTEX
  5
36C
  8
TEAM-NET
 10
178.07394
 20
-183.909168
 30
715.290407
 70
    32
  0
VERTEX
  5
36D
  8
TEAM-NET
 10
173.157166
 20
-176.247154
 30
710.158367
 70
    32
  0
VERTEX
  5
36E
  8
TEAM-NET
 10
168.196872
 20
-168.357478
 30
705.536975
 70
    32
  0
VERTEX
  5
36F
  8
TEAM-NET
 10
163.213232
 20
-160.187658
 30
701.389218
 70
    32
  0
VERTEX
  5
370
  8
TEAM-NET
 10
158.267501
 20
-151.713013
 30
697.712153
 70
    32
  0
SEQEND
  5
371
  8
TEAM-NET
  0
POLYLINE
  5
2C
  8
TEAM-NET
 66
     1
 10
0.0
 20
0.0
 30
0.0
 70
     8
  0
VERTEX
  5
372
  8
TEAM-NET
 10
170.921063
 20
-142.462086
 30
699.376331
 70
    32
  0
VERTEX
  5
373
  8
TEAM-NET
 10
176.943112
 20
-149.545881
 30
703.118811
 70
    32
  0
VERTEX
  5
374
  8
TEAM-NET
 10
183.011319
 20
-156.374879
 30
707.340357
 70
    32
  0
VERTEX
  5
375
  8
TEAM-NET
 10
189.051099
 20
-162.969709
 30
712.043964
 70
    32
  0
VERTEX
  5
376
  8
TEAM-NET
 10
195.037888
 20
-169.374241
 30
717.267303
 70
    32
  0
VERTEX
  5
377
  8
TEAM-NET
 10
200.901792
 20
-175.566946
 30
723.011696
 70
    32
  0
VERTEX
  5
378
  8
TEAM-NET
 10
206.577471
 20
-181.523141
 30
729.277002
 70
    32
  0
VERTEX
  5
379
  8
TEAM-NET
 10
212.006453
 20
-187.216141
 30
736.062458
 70
    32
  0
VERTEX
  5
37A
  8
TEAM-NET
 10
217.131463
 20
-192.618242
 30
743.366917
 70
    32
  0
VERTEX
  5
37B
  8
TEAM-NET
 10
221.923268
 20
-197.727979
 30
751.235681
 70
    32
  0
VERTEX
  5
37C
  8
TEAM-NET
 10
226.314364
 20
-202.503569
 30
759.670248
 70
    32
  0
VERTEX
  5
37D
  8
TEAM-NET
 10
230.220795
 20
-206.884458
 30
768.630288
 70
    32
  0
VERTEX
  5
37E
  8
TEAM-NET
 10
233.56347
 20
-210.814203
 30
778.069154
 70
    32
  0
VERTEX
  5
37F
  8
TEAM-NET
 10
236.285688
 20
-214.262493
 30
787.993347
 70
    32
  0
VERTEX
  5
380
  8
TEAM-NET
 10
238.317611
 20
-217.186337
 30
798.382997
 70
    32
  0
VERTEX
  5
381
  8
TEAM-NET
 10
239.574178
 20
-219.518615
 30
809.106839
 70
    32
  0
VERTEX
  5
382
  8
TEAM-NET
 10
240.0
 20
-221.216065
 30
820.012587
 70
    32
  0
SEQEND
  5
383
  8
TEAM-NET
  0
POLYLINE
  5
2D
  8
TEAM-NET
 66
     1
 10
0.0
 20
0.0
 30
0.0
 70
     8
  0
VERTEX
  5
384
  8
TEAM-NET
 10
215.0
 20
-245.929747
 30
816.2398
 70
    32
  0
VERTEX
  5
385
  8
TEAM-NET
 10
214.650285
 20
-243.899015
 30
805.524674
 70
    32
  0
VERTEX
  5
386
  8
TEAM-NET
 10
213.618304
 20
-241.108812
 30
794.988275
 70
    32
  0
VERTEX
  5
387
  8
TEAM-NET
 10
211.949545
 20
-237.610893
 30
784.780226
 70
    32
  0
VERTEX
  5
388
  8
TEAM-NET
 10
209.713867
 20
-233.485557
 30
775.029498
 70
    32
  0
VERTEX
  5
389
  8
TEAM-NET
 10
206.968627
 20
-228.784236
 30
765.755616
 70
    32
  0
VERTEX
  5
38A
  8
TEAM-NET
 10
203.76039
 20
-223.543192
 30
756.952188
 70
    32
  0
VERTEX
  5
38B
  8
TEAM-NET
 10
200.154111
 20
-217.829951
 30
748.66505
 70
    32
  0
VERTEX
  5
38C
  8
TEAM-NET
 10
196.218743
 20
-211.716955
 30
740.933824
 70
    32
  0
VERTEX
  5
38D
  8
TEAM-NET
 10
192.009723
 20
-205.254192
 30
733.757041
 70
    32
  0
VERTEX
  5
38E
  8
TEAM-NET
 10
187.55106
 20
-198.443414
 30
727.090188
 70
    32
  0
VERTEX
  5
38F
  8
TEAM-NET
 10
182.889791
 20
-191.317765
 30
720.934394
 70
    32
  0
VERTEX
  5
390
  8
TEAM-NET
 10
178.07394
 20
-183.909168
 30
715.290407
 70
    32
  0
VERTEX
  5
391
  8
TEAM-NET
 10
173.157166
 20
-176.247154
 30
710.158367
 70
    32
  0
VERTEX
  5
392
  8
TEAM-NET
 10
168.196872
 20
-168.357478
 30
705.536975
 70
    32
  0
VERTEX
  5
393
  8
TEAM-NET
 10
163.213232
 20
-160.187658
 30
701.389218
 70
    32
  0
VERTEX
  5
394
  8
TEAM-NET
 10
158.267501
 20
-151.713013
 30
697.712153
 70
    32
  0
SEQEND
  5
395
  8
TEAM-NET
  0
POLYLINE
  5
2E
  8
TEAM-NET
 66
     1
 10
0.0
 20
0.0
 30
0.0
 70
     8
  0
VERTEX
  5
396
  8
TEAM-NET
 10
-158.267501
 20
-151.713013
 30
697.712153
 70
    32
  0
VERTEX
  5
397
  8
TEAM-NET
 10
-163.317646
 20
-160.362153
 30
701.47143
 70
    32
  0
VERTEX
  5
398
  8
TEAM-NET
 10
-168.431237
 20
-168.735039
 30
705.743835
 70
    32
  0
VERTEX
  5
399
  8
TEAM-NET
 10
-173.528576
 20
-176.830129
 30
710.52563
 70
    32
  0
VERTEX
  5
39A
  8
TEAM-NET
 10
-178.541195
 20
-184.63087
 30
715.809308
 70
    32
  0
VERTEX
  5
39B
  8
TEAM-NET
 10
-183.418529
 20
-192.127654
 30
721.596104
 70
    32
  0
VERTEX
  5
39C
  8
TEAM-NET
 10
-188.150174
 20
-199.357857
 30
727.937872
 70
    32
  0
VERTEX
  5
39D
  8
TEAM-NET
 10
-192.681113
 20
-206.281844
 30
734.838241
 70
    32
  0
VERTEX
  5
39E
  8
TEAM-NET
 10
-196.951097
 20
-212.848017
 30
742.288931
 70
    32
  0
VERTEX
  5
39F
  8
TEAM-NET
 10
-200.902528
 20
-219.004677
 30
750.275832
 70
    32
  0
VERTEX
  5
3A0
  8
TEAM-NET
 10
-204.488277
 20
-224.715806
 30
758.807882
 70
    32
  0
VERTEX
  5
3A1
  8
TEAM-NET
 10
-207.670117
 20
-229.960924
 30
767.934292
 70
    32
  0
VERTEX
  5
3A2
  8
TEAM-NET
 10
-210.364706
 20
-234.648687
 30
777.594659
 70
    32
  0
VERTEX
  5
3A3
  8
TEAM-NET
 10
-212.495804
 20
-238.694713
 30
787.700335
 70
    32
  0
VERTEX
  5
3A4
  8
TEAM-NET
 10
-214.001446
 20
-242.033555
 30
798.158724
 70
    32
  0
VERTEX
  5
3A5
  8
TEAM-NET
 10
-214.839067
 20
-244.638584
 30
808.968511
 70
    32
  0
VERTEX
  5
3A6
  8
TEAM-NET
 10
-214.956705
 20
-246.457513
 30
820.012587
 70
    32
  0
SEQEND
  5
3A7
  8
TEAM-NET
  0
ARC
  5
2F
  8
TEAM-NET
 10
-100.123747
 20
820.012587
 30
0.0
 40
139.876253
210
0.0
220
1.0
230
0.0
 50
180.0
 51
239.592777
  0
POLYLINE
  5
30
  8
TEAM-NET
 66
     1
 10
0.0
 20
0.0
 30
0.0
 70
     8
  0
VERTEX
  5
3A8
  8
TEAM-NET
 10
170.921063
 20
-142.462086
 30
699.376331
 70
    32
  0
VERTEX
  5
3A9
  8
TEAM-NET
 10
176.943112
 20
-149.545881
 30
703.118811
 70
    32
  0
VERTEX
  5
3AA
  8
TEAM-NET
 10
183.011319
 20
-156.374879
 30
707.340357
 70
    32
  0
VERTEX
  5
3AB
  8
TEAM-NET
 10
189.051099
 20
-162.969709
 30
712.043964
 70
    32
  0
VERTEX
  5
3AC
  8
TEAM-NET
 10
195.037888
 20
-169.374241
 30
717.267303
 70
    32
  0
VERTEX
  5
3AD
  8
TEAM-NET
 10
200.901792
 20
-175.566946
 30
723.011696
 70
    32
  0
VERTEX
  5
3AE
  8
TEAM-NET
 10
206.577471
 20
-181.523141
 30
729.277002
 70
    32
  0
VERTEX
  5
3AF
  8
TEAM-NET
 10
212.006453
 20
-187.216141
 30
736.062458
 70
    32
  0
VERTEX
  5
3B0
  8
TEAM-NET
 10
217.131463
 20
-192.618242
 30
743.366917
 70
    32
  0
VERTEX
  5
3B1
  8
TEAM-NET
 10
221.923268
 20
-197.727979
 30
751.235681
 70
    32
  0
VERTEX
  5
3B2
  8
TEAM-NET
 10
226.314364
 20
-202.503569
 30
759.670248
 70
    32
  0
VERTEX
  5
3B3
  8
TEAM-NET
 10
230.220795
 20
-206.884458
 30
768.630288
 70
    32
  0
VERTEX
  5
3B4
  8
TEAM-NET
 10
233.56347
 20
-210.814203
 30
778.069154
 70
    32
  0
VERTEX
  5
3B5
  8
TEAM-NET
 10
236.285688
 20
-214.262493
 30
787.993347
 70
    32
  0
VERTEX
  5
3B6
  8
TEAM-NET
 10
238.317611
 20
-217.186337
 30
798.382997
 70
    32
  0
VERTEX
  5
3B7
  8
TEAM-NET
 10
239.574178
 20
-219.518615
 30
809.106839
 70
    32
  0
VERTEX
  5
3B8
  8
TEAM-NET
 10
240.0
 20
-221.216065
 30
820.012587
 70
    32
  0
SEQEND
  5
3B9
  8
TEAM-NET
  0
ARC
  5
31
  8
TEAM-NET
 10
100.123747
 20
820.012587
 30
0.0
 40
139.876253
210
0.0
220
1.0
230
0.0
 50
300.407223
 51
0.0
  0
POLYLINE
  5
32
  8
TEAM-NET
 66
     1
 10
0.0
 20
0.0
 30
0.0
 70
     8
  0
VERTEX
  5
3BA
  8
TEAM-NET
 10
-239.999838
 20
-221.215934
 30
820.012607
 70
    32
  0
VERTEX
  5
3BB
  8
TEAM-NET
 10
-239.571162
 20
-219.511318
 30
809.067281
 70
    32
  0
VERTEX
  5
3BC
  8
TEAM-NET
 10
-238.321173
 20
-217.192058
 30
798.406293
 70
    32
  0
VERTEX
  5
3BD
  8
TEAM-NET
 10
-236.306698
 20
-214.290517
 30
788.08204
 70
    32
  0
VERTEX
  5
3BE
  8
TEAM-NET
 10
-233.580485
 20
-210.834893
 30
778.123471
 70
    32
  0
VERTEX
  5
3BF
  8
TEAM-NET
 10
-230.217829
 20
-206.881066
 30
768.623004
 70
    32
  0
VERTEX
  5
3C0
  8
TEAM-NET
 10
-226.310225
 20
-202.498949
 30
759.660759
 70
    32
  0
VERTEX
  5
3C1
  8
TEAM-NET
 10
-221.946846
 20
-197.753339
 30
751.27757
 70
    32
  0
VERTEX
  5
3C2
  8
TEAM-NET
 10
-217.164019
 20
-192.652784
 30
743.416902
 70
    32
  0
VERTEX
  5
3C3
  8
TEAM-NET
 10
-212.020983
 20
-187.231375
 30
736.081512
 70
    32
  0
VERTEX
  5
3C4
  8
TEAM-NET
 10
-206.583792
 20
-181.529621
 30
729.284311
 70
    32
  0
VERTEX
  5
3C5
  8
TEAM-NET
 10
-200.921645
 20
-175.58794
 30
723.032453
 70
    32
  0
VERTEX
  5
3C6
  8
TEAM-NET
 10
-195.093438
 20
-169.432779
 30
717.318261
 70
    32
  0
VERTEX
  5
3C7
  8
TEAM-NET
 10
-189.109569
 20
-163.032422
 30
712.09187
 70
    32
  0
VERTEX
  5
3C8
  8
TEAM-NET
 10
-183.031599
 20
-156.397441
 30
707.355336
 70
    32
  0
VERTEX
  5
3C9
  8
TEAM-NET
 10
-176.938276
 20
-149.540407
 30
703.115664
 70
    32
  0
VERTEX
  5
3CA
  8
TEAM-NET
 10
-170.921063
 20
-142.462086
 30
699.376331
 70
    32
  0
SEQEND
  5
3CB
  8
TEAM-NET
  0
POLYLINE
  5
33
  8
TEAM-NET
 66
     1
 10
0.0
 20
0.0
 30
137.354528
 70
   128
210
0.0
220
-0.992546
230
0.121869
  0
VERTEX
  5
1021
  8
TEAM-NET
 10
106.2989
 20
775.867376
 30
137.354528
  0
VERTEX
  5
1022
  8
TEAM-NET
 10
112.544546
 20
788.315096
 30
137.354528
  0
VERTEX
  5
1023
  8
TEAM-NET
 10
117.875416
 20
801.187365
 30
137.354528
  0
VERTEX
  5
1024
  8
TEAM-NET
 10
122.263296
 20
814.416052
 30
137.354528
  0
VERTEX
  5
1025
  8
TEAM-NET
 10
125.684961
 20
827.931141
 30
137.354528
  0
SEQEND
  5
1026
  8
TEAM-NET
  0
POLYLINE
  5
34
  8
TEAM-NET
 66
     1
 10
0.0
 20
0.0
 30
137.354528
 70
   128
210
-0.0
220
-0.992546
230
0.121869
  0
VERTEX
  5
1027
  8
TEAM-NET
 10
-125.684961
 20
827.931141
 30
137.354528
  0
VERTEX
  5
1028
  8
TEAM-NET
 10
-122.263296
 20
814.416052
 30
137.354528
  0
VERTEX
  5
1029
  8
TEAM-NET
 10
-117.875416
 20
801.187365
 30
137.354528
  0
VERTEX
  5
102A
  8
TEAM-NET
 10
-112.544546
 20
788.315096
 30
137.354528
  0
VERTEX
  5
102B
  8
TEAM-NET
 10
-106.2989
 20
775.867376
 30
137.354528
  0
SEQEND
  5
102C
  8
TEAM-NET
  0
POLYLINE
  5
35
  8
TEAM-NET
 66
     1
 10
0.0
 20
0.0
 30
0.0
 70
     8
  0
VERTEX
  5
3D8
  8
TEAM-NET
 10
101.921665
 20
-218.414253
 30
785.257666
 70
    32
  0
VERTEX
  5
3D9
  8
TEAM-NET
 10
107.717751
 20
-222.514383
 30
797.668406
 70
    32
  0
VERTEX
  5
3DA
  8
TEAM-NET
 10
112.800801
 20
-225.823338
 30
810.736533
 70
    32
  0
VERTEX
  5
3DB
  8
TEAM-NET
 10
115.042227
 20
-227.143469
 30
817.473886
 70
    32
  0
VERTEX
  5
3DC
  8
TEAM-NET
 10
117.069786
 20
-228.224515
 30
824.320636
 70
    32
  0
VERTEX
  5
3DD
  8
TEAM-NET
 10
118.87459
 20
-229.05585
 30
831.256792
 70
    32
  0
VERTEX
  5
3DE
  8
TEAM-NET
 10
120.451128
 20
-229.630104
 30
838.263331
 70
    32
  0
SEQEND
  5
3DF
  8
TEAM-NET
  0
POLYLINE
  5
36
  8
TEAM-NET
 66
     1
 10
0.0
 20
0.0
 30
0.0
 70
     8
  0
VERTEX
  5
3E0
  8
TEAM-NET
 10
-120.451164
 20
-229.630144
 30
838.263321
 70
    32
  0
VERTEX
  5
3E1
  8
TEAM-NET
 10
-118.874758
 20
-229.055917
 30
831.257488
 70
    32
  0
VERTEX
  5
3E2
  8
TEAM-NET
 10
-117.069732
 20
-228.224454
 30
824.320715
 70
    32
  0
VERTEX
  5
3E3
  8
TEAM-NET
 10
-115.042465
 20
-227.143706
 30
817.473876
 70
    32
  0
VERTEX
  5
3E4
  8
TEAM-NET
 10
-112.800782
 20
-225.823279
 30
810.736814
 70
    32
  0
VERTEX
  5
3E5
  8
TEAM-NET
 10
-107.717909
 20
-222.514555
 30
797.668333
 70
    32
  0
VERTEX
  5
3E6
  8
TEAM-NET
 10
-101.921665
 20
-218.414253
 30
785.257666
 70
    32
  0
SEQEND
  5
3E7
  8
TEAM-NET
  0
POLYLINE
  5
37
  8
TEAM-NET
 66
     1
 10
0.0
 20
0.0
 30
0.0
 70
     8
  0
VERTEX
  5
3E8
  8
TEAM-NET
 10
101.921665
 20
-218.414253
 30
785.257666
 70
    32
  0
VERTEX
  5
3E9
  8
TEAM-NET
 10
107.717751
 20
-222.514383
 30
797.668406
 70
    32
  0
VERTEX
  5
3EA
  8
TEAM-NET
 10
112.800801
 20
-225.823338
 30
810.736533
 70
    32
  0
VERTEX
  5
3EB
  8
TEAM-NET
 10
115.042227
 20
-227.143469
 30
817.473886
 70
    32
  0
VERTEX
  5
3EC
  8
TEAM-NET
 10
117.069786
 20
-228.224515
 30
824.320636
 70
    32
  0
VERTEX
  5
3ED
  8
TEAM-NET
 10
118.87459
 20
-229.05585
 30
831.256792
 70
    32
  0
VERTEX
  5
3EE
  8
TEAM-NET
 10
120.451128
 20
-229.630104
 30
838.263331
 70
    32
  0
SEQEND
  5
3EF
  8
TEAM-NET
  0
POLYLINE
  5
38
  8
TEAM-NET
 66
     1
 10
0.0
 20
0.0
 30
0.0
 70
     8
  0
VERTEX
  5
3F0
  8
TEAM-NET
 10
135.721431
 20
-214.809185
 30
838.83406
 70
    32
  0
VERTEX
  5
3F1
  8
TEAM-NET
 10
134.030173
 20
-214.352375
 30
831.475645
 70
    32
  0
VERTEX
  5
3F2
  8
TEAM-NET
 10
132.064984
 20
-213.631609
 30
824.193584
 70
    32
  0
VERTEX
  5
3F3
  8
TEAM-NET
 10
129.830794
 20
-212.654002
 30
817.002837
 70
    32
  0
VERTEX
  5
3F4
  8
TEAM-NET
 10
127.337639
 20
-211.429925
 30
809.92678
 70
    32
  0
VERTEX
  5
3F5
  8
TEAM-NET
 10
124.597833
 20
-209.971738
 30
802.988419
 70
    32
  0
VERTEX
  5
3F6
  8
TEAM-NET
 10
121.625593
 20
-208.293509
 30
796.209936
 70
    32
  0
VERTEX
  5
3F7
  8
TEAM-NET
 10
115.053371
 20
-204.344827
 30
783.209038
 70
    32
  0
SEQEND
  5
3F8
  8
TEAM-NET
  0
POLYLINE
  5
39
  8
TEAM-NET
 66
     1
 10
0.0
 20
0.0
 30
0.0
 70
     8
  0
VERTEX
  5
3F9
  8
TEAM-NET
 10
135.721431
 20
-214.809185
 30
838.83406
 70
    32
  0
VERTEX
  5
3FA
  8
TEAM-NET
 10
134.030173
 20
-214.352375
 30
831.475645
 70
    32
  0
VERTEX
  5
3FB
  8
TEAM-NET
 10
132.064984
 20
-213.631609
 30
824.193584
 70
    32
  0
VERTEX
  5
3FC
  8
TEAM-NET
 10
129.830794
 20
-212.654002
 30
817.002837
 70
    32
  0
VERTEX
  5
3FD
  8
TEAM-NET
 10
127.337639
 20
-211.429925
 30
809.92678
 70
    32
  0
VERTEX
  5
3FE
  8
TEAM-NET
 10
124.597833
 20
-209.971738
 30
802.988419
 70
    32
  0
VERTEX
  5
3FF
  8
TEAM-NET
 10
121.625593
 20
-208.293509
 30
796.209936
 70
    32
  0
VERTEX
  5
400
  8
TEAM-NET
 10
115.053371
 20
-204.344827
 30
783.209038
 70
    32
  0
SEQEND
  5
401
  8
TEAM-NET
  0
POLYLINE
  5
3A
  8
TEAM-NET
 66
     1
 10
0.0
 20
0.0
 30
142.102733
 70
   128
210
-0.0
220
-0.993265
230
0.115868
  0
VERTEX
  5
102D
  8
TEAM-NET
 10
115.053371
 20
771.943183
 30
142.102733
  0
VERTEX
  5
102E
  8
TEAM-NET
 10
121.758955
 20
785.324059
 30
142.102733
  0
VERTEX
  5
102F
  8
TEAM-NET
 10
127.458863
 20
799.169401
 30
142.102733
  0
VERTEX
  5
1030
  8
TEAM-NET
 10
132.121607
 20
813.402726
 30
142.102733
  0
VERTEX
  5
1031
  8
TEAM-NET
 10
135.721431
 20
827.945405
 30
142.102733
  0
SEQEND
  5
1032
  8
TEAM-NET
  0
POLYLINE
  5
3B
  8
TEAM-NET
 66
     1
 10
0.0
 20
0.0
 30
142.102733
 70
   128
210
-0.0
220
-0.993265
230
0.115868
  0
VERTEX
  5
1033
  8
TEAM-NET
 10
115.053371
 20
771.943183
 30
142.102733
  0
VERTEX
  5
1034
  8
TEAM-NET
 10
121.758955
 20
785.324059
 30
142.102733
  0
VERTEX
  5
1035
  8
TEAM-NET
 10
127.458863
 20
799.169401
 30
142.102733
  0
VERTEX
  5
1036
  8
TEAM-NET
 10
132.121607
 20
813.402726
 30
142.102733
  0
VERTEX
  5
1037
  8
TEAM-NET
 10
135.721431
 20
827.945405
 30
142.102733
  0
SEQEND
  5
1038
  8
TEAM-NET
  0
POLYLINE
  5
3C
  8
TEAM-NET
 66
     1
 10
0.0
 20
0.0
 30
-137.354528
 70
   128
210
0.0
220
0.992546
230
-0.121869
  0
VERTEX
  5
1039
  8
TEAM-NET
 10
-125.684961
 20
827.931141
 30
-137.354528
  0
VERTEX
  5
103A
  8
TEAM-NET
 10
-122.263296
 20
814.416052
 30
-137.354528
  0
VERTEX
  5
103B
  8
TEAM-NET
 10
-117.875416
 20
801.187365
 30
-137.354528
  0
VERTEX
  5
103C
  8
TEAM-NET
 10
-112.544546
 20
788.315096
 30
-137.354528
  0
VERTEX
  5
103D
  8
TEAM-NET
 10
-106.2989
 20
775.867376
 30
-137.354528
  0
SEQEND
  5
103E
  8
TEAM-NET
  0
POLYLINE
  5
3D
  8
TEAM-NET
 66
     1
 10
0.0
 20
0.0
 30
-137.354528
 70
   128
210
0.0
220
0.992546
230
-0.121869
  0
VERTEX
  5
103F
  8
TEAM-NET
 10
106.2989
 20
775.867376
 30
-137.354528
  0
VERTEX
  5
1040
  8
TEAM-NET
 10
112.544546
 20
788.315096
 30
-137.354528
  0
VERTEX
  5
1041
  8
TEAM-NET
 10
117.875416
 20
801.187365
 30
-137.354528
  0
VERTEX
  5
1042
  8
TEAM-NET
 10
122.263296
 20
814.416052
 30
-137.354528
  0
VERTEX
  5
1043
  8
TEAM-NET
 10
125.684961
 20
827.931141
 30
-137.354528
  0
SEQEND
  5
1044
  8
TEAM-NET
  0
POLYLINE
  5
3E
  8
TEAM-NET
 66
     1
 10
0.0
 20
0.0
 30
142.102733
 70
   128
210
-0.0
220
-0.993265
230
0.115868
  0
VERTEX
  5
1045
  8
TEAM-NET
 10
-135.721431
 20
827.945405
 30
142.102733
  0
VERTEX
  5
1046
  8
TEAM-NET
 10
-132.121607
 20
813.402726
 30
142.102733
  0
VERTEX
  5
1047
  8
TEAM-NET
 10
-127.458863
 20
799.169401
 30
142.102733
  0
VERTEX
  5
1048
  8
TEAM-NET
 10
-121.758955
 20
785.324059
 30
142.102733
  0
VERTEX
  5
1049
  8
TEAM-NET
 10
-115.053371
 20
771.943183
 30
142.102733
  0
SEQEND
  5
104A
  8
TEAM-NET
  0
POLYLINE
  5
3F
  8
TEAM-NET
 66
     1
 10
0.0
 20
0.0
 30
142.102733
 70
   128
210
-0.0
220
-0.993265
230
0.115868
  0
VERTEX
  5
104B
  8
TEAM-NET
 10
-135.721431
 20
827.945405
 30
142.102733
  0
VERTEX
  5
104C
  8
TEAM-NET
 10
-132.121607
 20
813.402726
 30
142.102733
  0
VERTEX
  5
104D
  8
TEAM-NET
 10
-127.458863
 20
799.169401
 30
142.102733
  0
VERTEX
  5
104E
  8
TEAM-NET
 10
-121.758955
 20
785.324059
 30
142.102733
  0
VERTEX
  5
104F
  8
TEAM-NET
 10
-115.053371
 20
771.943183
 30
142.102733
  0
SEQEND
  5
1050
  8
TEAM-NET
  0
POLYLINE
  5
40
  8
TEAM-NET
 66
     1
 10
0.0
 20
0.0
 30
0.0
 70
     8
  0
VERTEX
  5
426
  8
TEAM-NET
 10
-115.053371
 20
-204.344827
 30
783.209038
 70
    32
  0
VERTEX
  5
427
  8
TEAM-NET
 10
-121.625751
 20
-208.293656
 30
796.209867
 70
    32
  0
VERTEX
  5
428
  8
TEAM-NET
 10
-124.597703
 20
-209.971604
 30
802.988627
 70
    32
  0
VERTEX
  5
429
  8
TEAM-NET
 10
-127.337715
 20
-211.42996
 30
809.927001
 70
    32
  0
VERTEX
  5
42A
  8
TEAM-NET
 10
-129.830961
 20
-212.654156
 30
817.002747
 70
    32
  0
VERTEX
  5
42B
  8
TEAM-NET
 10
-132.064981
 20
-213.631565
 30
824.193916
 70
    32
  0
VERTEX
  5
42C
  8
TEAM-NET
 10
-134.030285
 20
-214.352435
 30
831.475923
 70
    32
  0
VERTEX
  5
42D
  8
TEAM-NET
 10
-135.721431
 20
-214.809185
 30
838.83406
 70
    32
  0
SEQEND
  5
42E
  8
TEAM-NET
  0
POLYLINE
  5
41
  8
TEAM-NET
 66
     1
 10
0.0
 20
0.0
 30
0.0
 70
     8
  0
VERTEX
  5
42F
  8
TEAM-NET
 10
-115.053371
 20
-204.344827
 30
783.209038
 70
    32
  0
VERTEX
  5
430
  8
TEAM-NET
 10
-121.625751
 20
-208.293656
 30
796.209867
 70
    32
  0
VERTEX
  5
431
  8
TEAM-NET
 10
-124.597703
 20
-209.971604
 30
802.988627
 70
    32
  0
VERTEX
  5
432
  8
TEAM-NET
 10
-127.337715
 20
-211.42996
 30
809.927001
 70
    32
  0
VERTEX
  5
433
  8
TEAM-NET
 10
-129.830961
 20
-212.654156
 30
817.002747
 70
    32
  0
VERTEX
  5
434
  8
TEAM-NET
 10
-132.064981
 20
-213.631565
 30
824.193916
 70
    32
  0
VERTEX
  5
435
  8
TEAM-NET
 10
-134.030285
 20
-214.352435
 30
831.475923
 70
    32
  0
VERTEX
  5
436
  8
TEAM-NET
 10
-135.721431
 20
-214.809185
 30
838.83406
 70
    32
  0
SEQEND
  5
437
  8
TEAM-NET
  0
POLYLINE
  5
42
  8
TEAM-NET
 66
     1
 10
0.0
 20
0.0
 30
0.0
 70
     8
  0
VERTEX
  5
438
  8
TEAM-NET
 10
-120.451164
 20
-229.630144
 30
838.263321
 70
    32
  0
VERTEX
  5
439
  8
TEAM-NET
 10
-118.874758
 20
-229.055917
 30
831.257488
 70
    32
  0
VERTEX
  5
43A
  8
TEAM-NET
 10
-117.069732
 20
-228.224454
 30
824.320715
 70
    32
  0
VERTEX
  5
43B
  8
TEAM-NET
 10
-115.042465
 20
-227.143706
 30
817.473876
 70
    32
  0
VERTEX
  5
43C
  8
TEAM-NET
 10
-112.800782
 20
-225.823279
 30
810.736814
 70
    32
  0
VERTEX
  5
43D
  8
TEAM-NET
 10
-107.717909
 20
-222.514555
 30
797.668333
 70
    32
  0
VERTEX
  5
43E
  8
TEAM-NET
 10
-101.921665
 20
-218.414253
 30
785.257666
 70
    32
  0
SEQEND
  5
43F
  8
TEAM-NET
  0
ARC
  5
43
  8
TEAM-NET
 10
190.0
 20
805.011697
 30
0.0
 40
7.5
210
0.0
220
1.0
230
0.0
 50
180.314873
 51
0.314873
  0
ARC
  5
44
  8
TEAM-NET
 10
-190.0
 20
805.011697
 30
0.0
 40
7.5
210
0.0
220
1.0
230
0.0
 50
180.314873
 51
0.314873
  0
ARC
  5
45
  8
TEAM-NET
 10
100.123747
 20
820.012587
 30
0.0
 40
139.876253
210
0.0
220
1.0
230
0.0
 50
300.407223
 51
0.0
  0
ARC
  5
46
  8
TEAM-NET
 10
-100.123747
 20
820.012587
 30
0.0
 40
139.876253
210
0.0
220
1.0
230
0.0
 50
180.0
 51
239.592777
  0
LINE
  5
47
  8
TEAM-NET
 10
26.0
 20
-100.0
 30
729.464659
 11
26.0
 21
-100.0
 31
706.696187
  0
LINE
  5
48
  8
TEAM-NET
 10
-26.0
 20
-100.0
 30
729.464659
 11
-26.0
 21
-100.0
 31
706.696187
  0
LINE
  5
49
  8
TEAM-NET
 10
26.0
 20
-100.0
 30
729.464659
 11
26.0
 21
-100.0
 31
706.696187
  0
LINE
  5
4A
  8
TEAM-NET
 10
-26.0
 20
-100.0
 30
729.464659
 11
-26.0
 21
-100.0
 31
706.696187
  0
LINE
  5
4B
  8
TEAM-NET
 10
21.0
 20
-100.0
 30
731.428361
 11
21.0
 21
-100.0
 31
701.585979
  0
LINE
  5
4C
  8
TEAM-NET
 10
-21.0
 20
-100.0
 30
731.428361
 11
-21.0
 21
-100.0
 31
701.585979
  0
LINE
  5
4D
  8
TEAM-NET
 10
22.0
 20
-100.0
 30
731.585979
 11
22.0
 21
-100.0
 31
701.585979
  0
LINE
  5
4E
  8
TEAM-NET
 10
-22.0
 20
-100.0
 30
731.585979
 11
-22.0
 21
-100.0
 31
701.585979
  0
LINE
  5
4F
  8
TEAM-NET
 10
22.0
 20
-100.0
 30
731.585979
 11
22.0
 21
-100.0
 31
701.585979
  0
LINE
  5
50
  8
TEAM-NET
 10
-22.0
 20
-100.0
 30
731.585979
 11
-22.0
 21
-100.0
 31
701.585979
  0
LINE
  5
51
  8
TEAM-NET
 10
21.0
 20
-100.0
 30
731.428361
 11
21.0
 21
-100.0
 31
701.585979
  0
LINE
  5
52
  8
TEAM-NET
 10
-21.0
 20
-100.0
 30
731.428361
 11
-21.0
 21
-100.0
 31
701.585979
  0
LINE
  5
53
  8
TEAM-NET
 10
-3.506501
 20
-95.131278
 30
701.585979
 11
-3.506501
 21
-95.131278
 31
741.585979
210
0.702701
220
0.711485
230
-0.0
  0
LINE
  5
54
  8
TEAM-NET
 10
-14.221535
 20
-84.548529
 30
741.585979
 11
-14.221535
 21
-84.548529
 31
706.585979
210
0.702701
220
0.711485
230
-0.0
  0
LINE
  5
55
  8
TEAM-NET
 10
-14.221535
 20
-84.548529
 30
741.585979
 11
-14.221535
 21
-84.548529
 31
706.585979
  0
LINE
  5
56
  8
TEAM-NET
 10
-15.626937
 20
-85.971499
 30
741.585979
 11
-15.626937
 21
-85.971499
 31
706.585979
  0
LINE
  5
57
  8
TEAM-NET
 10
4.868722
 20
-96.493499
 30
701.585979
 11
4.868722
 21
-96.493499
 31
741.585979
210
0.711485
220
-0.702701
230
0.0
  0
LINE
  5
58
  8
TEAM-NET
 10
15.451471
 20
-85.778465
 30
741.585979
 11
15.451471
 21
-85.778465
 31
706.585979
210
0.711485
220
-0.702701
230
0.0
  0
LINE
  5
59
  8
TEAM-NET
 10
15.451471
 20
-85.778465
 30
741.585979
 11
15.451471
 21
-85.778465
 31
706.585979
  0
LINE
  5
5A
  8
TEAM-NET
 10
14.028501
 20
-84.373063
 30
741.585979
 11
14.028501
 21
-84.373063
 31
706.585979
  0
LINE
  5
5B
  8
TEAM-NET
 10
3.506501
 20
-104.868722
 30
701.585979
 11
3.506501
 21
-104.868722
 31
741.585979
210
-0.702701
220
-0.711485
230
0.0
  0
LINE
  5
5C
  8
TEAM-NET
 10
14.221535
 20
-115.451471
 30
741.585979
 11
14.221535
 21
-115.451471
 31
706.585979
210
-0.702701
220
-0.711485
230
0.0
  0
LINE
  5
5D
  8
TEAM-NET
 10
14.221535
 20
-115.451471
 30
741.585979
 11
14.221535
 21
-115.451471
 31
706.585979
  0
LINE
  5
5E
  8
TEAM-NET
 10
15.626937
 20
-114.028501
 30
741.585979
 11
15.626937
 21
-114.028501
 31
706.585979
  0
LINE
  5
5F
  8
TEAM-NET
 10
-4.868722
 20
-103.506501
 30
741.585979
 11
-4.868722
 21
-103.506501
 31
701.585979
210
-0.711485
220
0.702701
230
-0.0
  0
LINE
  5
60
  8
TEAM-NET
 10
-15.451471
 20
-114.221535
 30
741.585979
 11
-15.451471
 21
-114.221535
 31
706.585979
210
-0.711485
220
0.702701
230
-0.0
  0
LINE
  5
61
  8
TEAM-NET
 10
-15.451471
 20
-114.221535
 30
741.585979
 11
-15.451471
 21
-114.221535
 31
706.585979
  0
LINE
  5
62
  8
TEAM-NET
 10
-14.028501
 20
-115.626937
 30
741.585979
 11
-14.028501
 21
-115.626937
 31
706.585979
  0
LINE
  5
63
  8
TEAM-NET
 10
4.911903
 20
-103.445752
 30
741.585979
 11
4.911903
 21
-103.445752
 31
701.585979
210
0.702701
220
0.711485
230
-0.0
  0
LINE
  5
64
  8
TEAM-NET
 10
15.626937
 20
-114.028501
 30
741.585979
 11
15.626937
 21
-114.028501
 31
706.585979
210
0.702701
220
0.711485
230
-0.0
  0
LINE
  5
65
  8
TEAM-NET
 10
-3.445752
 20
-104.911903
 30
741.585979
 11
-3.445752
 21
-104.911903
 31
701.585979
  0
LINE
  5
66
  8
TEAM-NET
 10
3.506501
 20
-104.868722
 30
701.585979
 11
3.506501
 21
-104.868722
 31
741.585979
  0
LINE
  5
67
  8
TEAM-NET
 10
3.445752
 20
-95.088097
 30
741.585979
 11
3.445752
 21
-95.088097
 31
701.585979
210
-0.711485
220
0.702701
230
-0.0
  0
LINE
  5
68
  8
TEAM-NET
 10
14.028501
 20
-84.373063
 30
741.585979
 11
14.028501
 21
-84.373063
 31
706.585979
210
-0.711485
220
0.702701
230
-0.0
  0
LINE
  5
69
  8
TEAM-NET
 10
4.868722
 20
-96.493499
 30
701.585979
 11
4.868722
 21
-96.493499
 31
741.585979
  0
LINE
  5
6A
  8
TEAM-NET
 10
4.911903
 20
-103.445752
 30
741.585979
 11
4.911903
 21
-103.445752
 31
701.585979
  0
LINE
  5
6B
  8
TEAM-NET
 10
-4.911903
 20
-96.554248
 30
741.585979
 11
-4.911903
 21
-96.554248
 31
701.585979
210
-0.702701
220
-0.711485
230
0.0
  0
LINE
  5
6C
  8
TEAM-NET
 10
-15.626937
 20
-85.971499
 30
741.585979
 11
-15.626937
 21
-85.971499
 31
706.585979
210
-0.702701
220
-0.711485
230
0.0
  0
LINE
  5
6D
  8
TEAM-NET
 10
-4.868722
 20
-103.506501
 30
741.585979
 11
-4.868722
 21
-103.506501
 31
701.585979
  0
LINE
  5
6E
  8
TEAM-NET
 10
-4.911903
 20
-96.554248
 30
741.585979
 11
-4.911903
 21
-96.554248
 31
701.585979
  0
LINE
  5
6F
  8
TEAM-NET
 10
-3.506501
 20
-95.131278
 30
701.585979
 11
-3.506501
 21
-95.131278
 31
741.585979
  0
LINE
  5
70
  8
TEAM-NET
 10
3.445752
 20
-95.088097
 30
741.585979
 11
3.445752
 21
-95.088097
 31
701.585979
  0
LINE
  5
71
  8
TEAM-NET
 10
-3.445752
 20
-104.911903
 30
741.585979
 11
-3.445752
 21
-104.911903
 31
701.585979
210
0.711485
220
-0.702701
230
0.0
  0
LINE
  5
72
  8
TEAM-NET
 10
-14.028501
 20
-115.626937
 30
741.585979
 11
-14.028501
 21
-115.626937
 31
706.585979
210
0.711485
220
-0.702701
230
0.0
  0
LINE
  5
73
  8
TEAM-NET
 10
26.87868
 20
-100.0
 30
690.011697
 11
26.87868
 21
-100.0
 31
706.675302
  0
LINE
  5
74
  8
TEAM-NET
 10
-26.87868
 20
-100.0
 30
690.011697
 11
-26.87868
 21
-100.0
 31
706.675302
  0
ARC
  5
75
  8
TEAM-NET
 10
0.0
 20
-405.679386
 30
0.0
 40
1112.679386
210
0.0
220
-1.0
230
0.0
 50
82.003401
 51
97.996599
  0
LINE
  5
76
  8
TEAM-NET
 10
26.87868
 20
-100.0
 30
690.011697
 11
26.87868
 21
-100.0
 31
706.675302
  0
LINE
  5
77
  8
TEAM-NET
 10
-26.87868
 20
-100.0
 30
690.011697
 11
-26.87868
 21
-100.0
 31
706.675302
  0
POLYLINE
  5
78
  8
TEAM-NET
 66
     1
 10
0.0
 20
0.0
 30
0.0
 70
     8
  0
VERTEX
  5
440
  8
TEAM-NET
 10
-14.221535
 20
-84.548529
 30
706.585979
 70
    32
  0
VERTEX
  5
441
  8
TEAM-NET
 10
-13.949947
 20
-84.816764
 30
704.670846
 70
    32
  0
VERTEX
  5
442
  8
TEAM-NET
 10
-13.177339
 20
-85.579833
 30
703.049074
 70
    32
  0
VERTEX
  5
443
  8
TEAM-NET
 10
-12.021172
 20
-86.721727
 30
701.965756
 70
    32
  0
VERTEX
  5
444
  8
TEAM-NET
 10
-10.658804
 20
-88.067276
 30
701.585979
 70
    32
  0
SEQEND
  5
445
  8
TEAM-NET
  0
POLYLINE
  5
79
  8
TEAM-NET
 66
     1
 10
0.0
 20
0.0
 30
0.0
 70
     8
  0
VERTEX
  5
446
  8
TEAM-NET
 10
-12.064206
 20
-89.490246
 30
701.585979
 70
    32
  0
VERTEX
  5
447
  8
TEAM-NET
 10
-13.427301
 20
-88.143979
 30
701.966108
 70
    32
  0
VERTEX
  5
448
  8
TEAM-NET
 10
-14.582747
 20
-87.002798
 30
703.04908
 70
    32
  0
VERTEX
  5
449
  8
TEAM-NET
 10
-15.355649
 20
-86.239438
 30
704.671867
 70
    32
  0
VERTEX
  5
44A
  8
TEAM-NET
 10
-15.626937
 20
-85.971499
 30
706.585979
 70
    32
  0
SEQEND
  5
44B
  8
TEAM-NET
  0
POLYLINE
  5
7A
  8
TEAM-NET
 66
     1
 10
0.0
 20
0.0
 30
0.0
 70
     8
  0
VERTEX
  5
44C
  8
TEAM-NET
 10
15.451471
 20
-85.778465
 30
706.585979
 70
    32
  0
VERTEX
  5
44D
  8
TEAM-NET
 10
15.183236
 20
-86.050053
 30
704.670846
 70
    32
  0
VERTEX
  5
44E
  8
TEAM-NET
 10
14.420167
 20
-86.822661
 30
703.049074
 70
    32
  0
VERTEX
  5
44F
  8
TEAM-NET
 10
13.278273
 20
-87.978828
 30
701.965756
 70
    32
  0
VERTEX
  5
450
  8
TEAM-NET
 10
11.932724
 20
-89.341196
 30
701.585979
 70
    32
  0
SEQEND
  5
451
  8
TEAM-NET
  0
POLYLINE
  5
7B
  8
TEAM-NET
 66
     1
 10
0.0
 20
0.0
 30
0.0
 70
     8
  0
VERTEX
  5
452
  8
TEAM-NET
 10
10.509754
 20
-87.935794
 30
701.585979
 70
    32
  0
VERTEX
  5
453
  8
TEAM-NET
 10
11.856021
 20
-86.572699
 30
701.966108
 70
    32
  0
VERTEX
  5
454
  8
TEAM-NET
 10
12.997202
 20
-85.417253
 30
703.04908
 70
    32
  0
VERTEX
  5
455
  8
TEAM-NET
 10
13.760562
 20
-84.644351
 30
704.671867
 70
    32
  0
VERTEX
  5
456
  8
TEAM-NET
 10
14.028501
 20
-84.373063
 30
706.585979
 70
    32
  0
SEQEND
  5
457
  8
TEAM-NET
  0
POLYLINE
  5
7C
  8
TEAM-NET
 66
     1
 10
0.0
 20
0.0
 30
0.0
 70
     8
  0
VERTEX
  5
458
  8
TEAM-NET
 10
14.221535
 20
-115.451471
 30
706.585979
 70
    32
  0
VERTEX
  5
459
  8
TEAM-NET
 10
13.949947
 20
-115.183236
 30
704.670846
 70
    32
  0
VERTEX
  5
45A
  8
TEAM-NET
 10
13.177339
 20
-114.420167
 30
703.049074
 70
    32
  0
VERTEX
  5
45B
  8
TEAM-NET
 10
12.021172
 20
-113.278273
 30
701.965756
 70
    32
  0
VERTEX
  5
45C
  8
TEAM-NET
 10
10.658804
 20
-111.932724
 30
701.585979
 70
    32
  0
SEQEND
  5
45D
  8
TEAM-NET
  0
POLYLINE
  5
7D
  8
TEAM-NET
 66
     1
 10
0.0
 20
0.0
 30
0.0
 70
     8
  0
VERTEX
  5
45E
  8
TEAM-NET
 10
12.064206
 20
-110.509754
 30
701.585979
 70
    32
  0
VERTEX
  5
45F
  8
TEAM-NET
 10
13.427301
 20
-111.856021
 30
701.966108
 70
    32
  0
VERTEX
  5
460
  8
TEAM-NET
 10
14.582747
 20
-112.997202
 30
703.04908
 70
    32
  0
VERTEX
  5
461
  8
TEAM-NET
 10
15.355649
 20
-113.760562
 30
704.671867
 70
    32
  0
VERTEX
  5
462
  8
TEAM-NET
 10
15.626937
 20
-114.028501
 30
706.585979
 70
    32
  0
SEQEND
  5
463
  8
TEAM-NET
  0
POLYLINE
  5
7E
  8
TEAM-NET
 66
     1
 10
0.0
 20
0.0
 30
0.0
 70
     8
  0
VERTEX
  5
464
  8
TEAM-NET
 10
-15.451471
 20
-114.221535
 30
706.585979
 70
    32
  0
VERTEX
  5
465
  8
TEAM-NET
 10
-15.183236
 20
-113.949947
 30
704.670846
 70
    32
  0
VERTEX
  5
466
  8
TEAM-NET
 10
-14.420167
 20
-113.177339
 30
703.049074
 70
    32
  0
VERTEX
  5
467
  8
TEAM-NET
 10
-13.278273
 20
-112.021172
 30
701.965756
 70
    32
  0
VERTEX
  5
468
  8
TEAM-NET
 10
-11.932724
 20
-110.658804
 30
701.585979
 70
    32
  0
SEQEND
  5
469
  8
TEAM-NET
  0
POLYLINE
  5
7F
  8
TEAM-NET
 66
     1
 10
0.0
 20
0.0
 30
0.0
 70
     8
  0
VERTEX
  5
46A
  8
TEAM-NET
 10
-10.509754
 20
-112.064206
 30
701.585979
 70
    32
  0
VERTEX
  5
46B
  8
TEAM-NET
 10
-11.856021
 20
-113.427301
 30
701.966108
 70
    32
  0
VERTEX
  5
46C
  8
TEAM-NET
 10
-12.997202
 20
-114.582747
 30
703.04908
 70
    32
  0
VERTEX
  5
46D
  8
TEAM-NET
 10
-13.760562
 20
-115.355649
 30
704.671867
 70
    32
  0
VERTEX
  5
46E
  8
TEAM-NET
 10
-14.028501
 20
-115.626937
 30
706.585979
 70
    32
  0
SEQEND
  5
46F
  8
TEAM-NET
  0
POLYLINE
  5
80
  8
TEAM-NET
 66
     1
 10
0.0
 20
0.0
 30
0.0
 70
     8
  0
VERTEX
  5
470
  8
TEAM-NET
 10
-14.221535
 20
-84.548529
 30
706.585979
 70
    32
  0
VERTEX
  5
471
  8
TEAM-NET
 10
-13.949947
 20
-84.816764
 30
704.670846
 70
    32
  0
VERTEX
  5
472
  8
TEAM-NET
 10
-13.177339
 20
-85.579833
 30
703.049074
 70
    32
  0
VERTEX
  5
473
  8
TEAM-NET
 10
-12.021172
 20
-86.721727
 30
701.965756
 70
    32
  0
VERTEX
  5
474
  8
TEAM-NET
 10
-10.658804
 20
-88.067276
 30
701.585979
 70
    32
  0
SEQEND
  5
475
  8
TEAM-NET
  0
POLYLINE
  5
81
  8
TEAM-NET
 66
     1
 10
0.0
 20
0.0
 30
0.0
 70
     8
  0
VERTEX
  5
476
  8
TEAM-NET
 10
15.451471
 20
-85.778465
 30
706.585979
 70
    32
  0
VERTEX
  5
477
  8
TEAM-NET
 10
15.183236
 20
-86.050053
 30
704.670846
 70
    32
  0
VERTEX
  5
478
  8
TEAM-NET
 10
14.420167
 20
-86.822661
 30
703.049074
 70
    32
  0
VERTEX
  5
479
  8
TEAM-NET
 10
13.278273
 20
-87.978828
 30
701.965756
 70
    32
  0
VERTEX
  5
47A
  8
TEAM-NET
 10
11.932724
 20
-89.341196
 30
701.585979
 70
    32
  0
SEQEND
  5
47B
  8
TEAM-NET
  0
POLYLINE
  5
82
  8
TEAM-NET
 66
     1
 10
0.0
 20
0.0
 30
0.0
 70
     8
  0
VERTEX
  5
47C
  8
TEAM-NET
 10
14.221535
 20
-115.451471
 30
706.585979
 70
    32
  0
VERTEX
  5
47D
  8
TEAM-NET
 10
13.949947
 20
-115.183236
 30
704.670846
 70
    32
  0
VERTEX
  5
47E
  8
TEAM-NET
 10
13.177339
 20
-114.420167
 30
703.049074
 70
    32
  0
VERTEX
  5
47F
  8
TEAM-NET
 10
12.021172
 20
-113.278273
 30
701.965756
 70
    32
  0
VERTEX
  5
480
  8
TEAM-NET
 10
10.658804
 20
-111.932724
 30
701.585979
 70
    32
  0
SEQEND
  5
481
  8
TEAM-NET
  0
POLYLINE
  5
83
  8
TEAM-NET
 66
     1
 10
0.0
 20
0.0
 30
0.0
 70
     8
  0
VERTEX
  5
482
  8
TEAM-NET
 10
-15.451471
 20
-114.221535
 30
706.585979
 70
    32
  0
VERTEX
  5
483
  8
TEAM-NET
 10
-15.183236
 20
-113.949947
 30
704.670846
 70
    32
  0
VERTEX
  5
484
  8
TEAM-NET
 10
-14.420167
 20
-113.177339
 30
703.049074
 70
    32
  0
VERTEX
  5
485
  8
TEAM-NET
 10
-13.278273
 20
-112.021172
 30
701.965756
 70
    32
  0
VERTEX
  5
486
  8
TEAM-NET
 10
-11.932724
 20
-110.658804
 30
701.585979
 70
    32
  0
SEQEND
  5
487
  8
TEAM-NET
  0
POLYLINE
  5
84
  8
TEAM-NET
 66
     1
 10
0.0
 20
0.0
 30
0.0
 70
     8
  0
VERTEX
  5
488
  8
TEAM-NET
 10
12.064206
 20
-110.509754
 30
701.585979
 70
    32
  0
VERTEX
  5
489
  8
TEAM-NET
 10
13.427301
 20
-111.856021
 30
701.966108
 70
    32
  0
VERTEX
  5
48A
  8
TEAM-NET
 10
14.582747
 20
-112.997202
 30
703.04908
 70
    32
  0
VERTEX
  5
48B
  8
TEAM-NET
 10
15.355649
 20
-113.760562
 30
704.671867
 70
    32
  0
VERTEX
  5
48C
  8
TEAM-NET
 10
15.626937
 20
-114.028501
 30
706.585979
 70
    32
  0
SEQEND
  5
48D
  8
TEAM-NET
  0
POLYLINE
  5
85
  8
TEAM-NET
 66
     1
 10
0.0
 20
0.0
 30
0.0
 70
     8
  0
VERTEX
  5
48E
  8
TEAM-NET
 10
10.509754
 20
-87.935794
 30
701.585979
 70
    32
  0
VERTEX
  5
48F
  8
TEAM-NET
 10
11.856021
 20
-86.572699
 30
701.966108
 70
    32
  0
VERTEX
  5
490
  8
TEAM-NET
 10
12.997202
 20
-85.417253
 30
703.04908
 70
    32
  0
VERTEX
  5
491
  8
TEAM-NET
 10
13.760562
 20
-84.644351
 30
704.671867
 70
    32
  0
VERTEX
  5
492
  8
TEAM-NET
 10
14.028501
 20
-84.373063
 30
706.585979
 70
    32
  0
SEQEND
  5
493
  8
TEAM-NET
  0
POLYLINE
  5
86
  8
TEAM-NET
 66
     1
 10
0.0
 20
0.0
 30
0.0
 70
     8
  0
VERTEX
  5
494
  8
TEAM-NET
 10
-12.064206
 20
-89.490246
 30
701.585979
 70
    32
  0
VERTEX
  5
495
  8
TEAM-NET
 10
-13.427301
 20
-88.143979
 30
701.966108
 70
    32
  0
VERTEX
  5
496
  8
TEAM-NET
 10
-14.582747
 20
-87.002798
 30
703.04908
 70
    32
  0
VERTEX
  5
497
  8
TEAM-NET
 10
-15.355649
 20
-86.239438
 30
704.671867
 70
    32
  0
VERTEX
  5
498
  8
TEAM-NET
 10
-15.626937
 20
-85.971499
 30
706.585979
 70
    32
  0
SEQEND
  5
499
  8
TEAM-NET
  0
POLYLINE
  5
87
  8
TEAM-NET
 66
     1
 10
0.0
 20
0.0
 30
0.0
 70
     8
  0
VERTEX
  5
49A
  8
TEAM-NET
 10
-10.509754
 20
-112.064206
 30
701.585979
 70
    32
  0
VERTEX
  5
49B
  8
TEAM-NET
 10
-11.856021
 20
-113.427301
 30
701.966108
 70
    32
  0
VERTEX
  5
49C
  8
TEAM-NET
 10
-12.997202
 20
-114.582747
 30
703.04908
 70
    32
  0
VERTEX
  5
49D
  8
TEAM-NET
 10
-13.760562
 20
-115.355649
 30
704.671867
 70
    32
  0
VERTEX
  5
49E
  8
TEAM-NET
 10
-14.028501
 20
-115.626937
 30
706.585979
 70
    32
  0
SEQEND
  5
49F
  8
TEAM-NET
  0
ARC
  5
88
  8
TEAM-NET
 10
0.0
 20
-405.679386
 30
0.0
 40
1112.679386
210
0.0
220
1.0
230
0.0
 50
82.003401
 51
97.996599
  0
LINE
  5
89
  8
TEAM-NET
 10
37.5
 20
-100.0
 30
701.184369
 11
37.5
 21
-100.0
 31
690.011697
  0
ARC
  5
8A
  8
TEAM-NET
 10
0.0
 20
-100.0
 30
690.011697
 40
37.5
 50
0.0
 51
180.0
  0
POLYLINE
  5
8B
  8
TEAM-NET
 66
     1
 10
0.0
 20
0.0
 30
0.0
 70
     8
  0
VERTEX
  5
4A0
  8
TEAM-NET
 10
37.500064
 20
-99.999901
 30
701.184364
 70
    32
  0
VERTEX
  5
4A1
  8
TEAM-NET
 10
37.319323
 20
-96.323969
 30
701.192214
 70
    32
  0
VERTEX
  5
4A2
  8
TEAM-NET
 10
36.776897
 20
-92.67117
 30
701.215531
 70
    32
  0
VERTEX
  5
4A3
  8
TEAM-NET
 10
35.879205
 20
-89.094285
 30
701.253373
 70
    32
  0
VERTEX
  5
4A4
  8
TEAM-NET
 10
34.642195
 20
-85.641426
 30
701.303985
 70
    32
  0
VERTEX
  5
4A5
  8
TEAM-NET
 10
33.067697
 20
-82.314653
 30
701.365834
 70
    32
  0
VERTEX
  5
4A6
  8
TEAM-NET
 10
31.168057
 20
-79.147989
 30
701.43662
 70
    32
  0
VERTEX
  5
4A7
  8
TEAM-NET
 10
28.969994
 20
-76.188478
 30
701.513298
 70
    32
  0
VERTEX
  5
4A8
  8
TEAM-NET
 10
26.505803
 20
-73.472788
 30
701.592589
 70
    32
  0
VERTEX
  5
4A9
  8
TEAM-NET
 10
23.777035
 20
-71.001609
 30
701.672171
 70
    32
  0
VERTEX
  5
4AA
  8
TEAM-NET
 10
20.80947
 20
-68.803776
 30
701.748895
 70
    32
  0
VERTEX
  5
4AB
  8
TEAM-NET
 10
17.646149
 20
-66.911225
 30
701.819448
 70
    32
  0
VERTEX
  5
4AC
  8
TEAM-NET
 10
14.330109
 20
-65.346013
 30
701.880933
 70
    32
  0
VERTEX
  5
4AD
  8
TEAM-NET
 10
10.861938
 20
-64.107607
 30
701.931589
 70
    32
  0
VERTEX
  5
4AE
  8
TEAM-NET
 10
7.278477
 20
-63.21311
 30
701.969285
 70
    32
  0
VERTEX
  5
4AF
  8
TEAM-NET
 10
3.631615
 20
-62.676335
 30
701.99235
 70
    32
  0
VERTEX
  5
4B0
  8
TEAM-NET
 10
-0.031329
 20
-62.500045
 30
701.999997
 70
    32
  0
VERTEX
  5
4B1
  8
TEAM-NET
 10
-3.710238
 20
-62.683966
 30
701.99202
 70
    32
  0
VERTEX
  5
4B2
  8
TEAM-NET
 10
-7.362765
 20
-63.229844
 30
701.968569
 70
    32
  0
VERTEX
  5
4B3
  8
TEAM-NET
 10
-10.936794
 20
-64.130326
 30
701.930645
 70
    32
  0
VERTEX
  5
4B4
  8
TEAM-NET
 10
-14.387789
 20
-65.369894
 30
701.879975
 70
    32
  0
VERTEX
  5
4B5
  8
TEAM-NET
 10
-17.715858
 20
-66.948618
 30
701.818014
 70
    32
  0
VERTEX
  5
4B6
  8
TEAM-NET
 10
-20.880806
 20
-68.851278
 30
701.747178
 70
    32
  0
VERTEX
  5
4B7
  8
TEAM-NET
 10
-23.836419
 20
-71.050534
 30
701.670527
 70
    32
  0
VERTEX
  5
4B8
  8
TEAM-NET
 10
-26.549664
 20
-73.516706
 30
701.591239
 70
    32
  0
VERTEX
  5
4B9
  8
TEAM-NET
 10
-29.020226
 20
-76.2497
 30
701.511607
 70
    32
  0
VERTEX
  5
4BA
  8
TEAM-NET
 10
-31.215554
 20
-79.219292
 30
701.434902
 70
    32
  0
VERTEX
  5
4BB
  8
TEAM-NET
 10
-33.103758
 20
-82.38209
 30
701.364449
 70
    32
  0
VERTEX
  5
4BC
  8
TEAM-NET
 10
-34.665355
 20
-85.697289
 30
701.303053
 70
    32
  0
VERTEX
  5
4BD
  8
TEAM-NET
 10
-35.897354
 20
-89.154278
 30
701.252618
 70
    32
  0
VERTEX
  5
4BE
  8
TEAM-NET
 10
-36.784406
 20
-92.709236
 30
701.215212
 70
    32
  0
VERTEX
  5
4BF
  8
TEAM-NET
 10
-37.320762
 20
-96.337895
 30
701.192149
 70
    32
  0
VERTEX
  5
4C0
  8
TEAM-NET
 10
-37.50001
 20
-99.999997
 30
701.184369
 70
    32
  0
SEQEND
  5
4C1
  8
TEAM-NET
  0
LINE
  5
8C
  8
TEAM-NET
 10
-37.5
 20
-100.0
 30
701.184369
 11
-37.5
 21
-100.0
 31
690.011697
  0
ARC
  5
8D
  8
TEAM-NET
 10
0.0
 20
-100.0
 30
-690.011697
 40
26.87868
210
0.0
220
0.0
230
-1.0
 50
360.0
 51
180.0
  0
ARC
  5
8E
  8
TEAM-NET
 10
0.0
 20
-100.0
 30
-690.011697
 40
26.87868
210
0.0
220
0.0
230
-1.0
 50
180.0
 51
0.0
  0
ARC
  5
8F
  8
TEAM-NET
 10
0.0
 20
-100.0
 30
-690.011697
 40
37.5
210
0.0
220
0.0
230
-1.0
 50
360.0
 51
180.0
  0
ARC
  5
90
  8
TEAM-NET
 10
0.0
 20
-100.0
 30
-690.011697
 40
37.5
210
0.0
220
0.0
230
-1.0
 50
180.0
 51
0.0
  0
LINE
  5
91
  8
TEAM-NET
 10
37.5
 20
-100.0
 30
701.184369
 11
37.5
 21
-100.0
 31
690.011697
  0
POLYLINE
  5
92
  8
TEAM-NET
 66
     1
 10
0.0
 20
0.0
 30
0.0
 70
     8
  0
VERTEX
  5
4C2
  8
TEAM-NET
 10
-37.50001
 20
-99.999997
 30
701.184369
 70
    32
  0
VERTEX
  5
4C3
  8
TEAM-NET
 10
-37.320207
 20
-103.667383
 30
701.192173
 70
    32
  0
VERTEX
  5
4C4
  8
TEAM-NET
 10
-36.779325
 20
-107.316918
 30
701.215429
 70
    32
  0
VERTEX
  5
4C5
  8
TEAM-NET
 10
-35.882121
 20
-110.895445
 30
701.253252
 70
    32
  0
VERTEX
  5
4C6
  8
TEAM-NET
 10
-34.64533
 20
-114.351508
 30
701.303861
 70
    32
  0
VERTEX
  5
4C7
  8
TEAM-NET
 10
-33.075489
 20
-117.670524
 30
701.365534
 70
    32
  0
VERTEX
  5
4C8
  8
TEAM-NET
 10
-31.178951
 20
-120.83571
 30
701.436226
 70
    32
  0
VERTEX
  5
4C9
  8
TEAM-NET
 10
-28.98143
 20
-123.797639
 30
701.512913
 70
    32
  0
VERTEX
  5
4CA
  8
TEAM-NET
 10
-26.517045
 20
-126.515984
 30
701.592243
 70
    32
  0
VERTEX
  5
4CB
  8
TEAM-NET
 10
-23.795842
 20
-128.98291
 30
701.67165
 70
    32
  0
VERTEX
  5
4CC
  8
TEAM-NET
 10
-20.832312
 20
-131.181181
 30
701.748351
 70
    32
  0
VERTEX
  5
4CD
  8
TEAM-NET
 10
-17.668656
 20
-133.076649
 30
701.818983
 70
    32
  0
VERTEX
  5
4CE
  8
TEAM-NET
 10
-14.352013
 20
-134.645068
 30
701.880575
 70
    32
  0
VERTEX
  5
4CF
  8
TEAM-NET
 10
-10.892505
 20
-135.883012
 30
701.931198
 70
    32
  0
VERTEX
  5
4D0
  8
TEAM-NET
 10
-7.31307
 20
-136.780035
 30
701.968991
 70
    32
  0
VERTEX
  5
4D1
  8
TEAM-NET
 10
-3.664612
 20
-137.320482
 30
701.992211
 70
    32
  0
VERTEX
  5
4D2
  8
TEAM-NET
 10
-0.000257
 20
-137.500005
 30
702.0
 70
    32
  0
VERTEX
  5
4D3
  8
TEAM-NET
 10
3.670503
 20
-137.319907
 30
701.992188
 70
    32
  0
VERTEX
  5
4D4
  8
TEAM-NET
 10
7.321011
 20
-136.778479
 30
701.968924
 70
    32
  0
VERTEX
  5
4D5
  8
TEAM-NET
 10
10.898194
 20
-135.881314
 30
701.931132
 70
    32
  0
VERTEX
  5
4D6
  8
TEAM-NET
 10
14.351373
 20
-134.645275
 30
701.880582
 70
    32
  0
VERTEX
  5
4D7
  8
TEAM-NET
 10
17.673812
 20
-133.073981
 30
701.81888
 70
    32
  0
VERTEX
  5
4D8
  8
TEAM-NET
 10
20.839167
 20
-131.176513
 30
701.748182
 70
    32
  0
VERTEX
  5
4D9
  8
TEAM-NET
 10
23.799564
 20
-128.979869
 30
701.671548
 70
    32
  0
VERTEX
  5
4DA
  8
TEAM-NET
 10
26.516
 20
-126.517009
 30
701.592275
 70
    32
  0
VERTEX
  5
4DB
  8
TEAM-NET
 10
28.985124
 20
-123.793004
 30
701.512787
 70
    32
  0
VERTEX
  5
4DC
  8
TEAM-NET
 10
31.183534
 20
-120.828934
 30
701.436061
 70
    32
  0
VERTEX
  5
4DD
  8
TEAM-NET
 10
33.077686
 20
-117.666512
 30
701.365451
 70
    32
  0
VERTEX
  5
4DE
  8
TEAM-NET
 10
34.645163
 20
-114.351548
 30
701.303867
 70
    32
  0
VERTEX
  5
4DF
  8
TEAM-NET
 10
35.88422
 20
-110.889257
 30
701.253163
 70
    32
  0
VERTEX
  5
4E0
  8
TEAM-NET
 10
36.780819
 20
-107.308973
 30
701.215368
 70
    32
  0
VERTEX
  5
4E1
  8
TEAM-NET
 10
37.32069
 20
-103.6618
 30
701.192154
 70
    32
  0
VERTEX
  5
4E2
  8
TEAM-NET
 10
37.500064
 20
-99.999901
 30
701.184364
 70
    32
  0
SEQEND
  5
4E3
  8
TEAM-NET
  0
ARC
  5
93
  8
TEAM-NET
 10
0.0
 20
-100.0
 30
690.011697
 40
37.5
 50
180.0
 51
0.0
  0
LINE
  5
94
  8
TEAM-NET
 10
-37.5
 20
-100.0
 30
701.184369
 11
-37.5
 21
-100.0
 31
690.011697
  0
ARC
  5
95
  8
TEAM-NET
 10
158.267501
 20
720.937578
 30
142.462086
 40
25.0
210
0.0
220
-1.0
230
0.0
 50
262.003401
 51
270.0
  0
ARC
  5
96
  8
TEAM-NET
 10
158.267501
 20
720.937578
 30
142.462086
 40
25.0
210
0.0
220
-1.0
230
0.0
 50
270.0
 51
300.407223
  0
ARC
  5
97
  8
TEAM-NET
 10
186.992281
 20
728.072223
 30
-6.305805
 40
25.0
210
-0.934896
220
-0.329729
230
0.131334
 50
267.347931
 51
290.424256
  0
ARC
  5
98
  8
TEAM-NET
 10
-50.9506
 20
619.993493
 30
-422.027421
 40
25.0
210
-0.533359
220
0.785845
230
-0.31301
 50
245.241518
 51
281.993743
  0
ARC
  5
99
  8
TEAM-NET
 10
186.992281
 20
728.072223
 30
6.305805
 40
25.0
210
-0.934896
220
0.329729
230
-0.131334
 50
267.347931
 51
290.424256
  0
ARC
  5
9A
  8
TEAM-NET
 10
50.9506
 20
619.993493
 30
-422.027421
 40
25.0
210
0.533359
220
0.785845
230
-0.31301
 50
258.006257
 51
294.758482
  0
ARC
  5
9B
  8
TEAM-NET
 10
-158.267501
 20
720.937578
 30
142.462086
 40
25.0
210
-0.0
220
-1.0
230
-0.0
 50
270.0
 51
277.996599
  0
ARC
  5
9C
  8
TEAM-NET
 10
-158.267501
 20
720.937578
 30
142.462086
 40
25.0
210
-0.0
220
-1.0
230
-0.0
 50
239.592777
 51
270.0
  0
ARC
  5
9D
  8
TEAM-NET
 10
-158.267501
 20
720.937578
 30
142.462086
 40
25.0
210
-0.0
220
-1.0
230
-0.0
 50
239.592777
 51
270.0
  0
ARC
  5
9E
  8
TEAM-NET
 10
-158.267501
 20
720.937578
 30
142.462086
 40
25.0
210
-0.0
220
-1.0
230
-0.0
 50
270.0
 51
277.996599
  0
LINE
  5
9F
  8
TEAM-NET
 10
-170.921063
 20
-142.462086
 30
699.376331
 11
-170.921063
 21
0.0
 31
699.376331
  0
LINE
  5
A0
  8
TEAM-NET
 10
-154.789642
 20
0.0
 30
696.18067
 11
-154.789642
 21
-142.462086
 31
696.18067
  0
ARC
  5
A1
  8
TEAM-NET
 10
-158.267501
 20
720.937578
 30
0.0
 40
25.0
210
0.0
220
-1.0
230
0.0
 50
239.592777
 51
277.996599
  0
ARC
  5
A2
  8
TEAM-NET
 10
158.267501
 20
720.937578
 30
142.462086
 40
25.0
210
0.0
220
-1.0
230
0.0
 50
262.003401
 51
270.0
  0
ARC
  5
A3
  8
TEAM-NET
 10
158.267501
 20
720.937578
 30
142.462086
 40
25.0
210
0.0
220
-1.0
230
0.0
 50
270.0
 51
300.407223
  0
LINE
  5
A4
  8
TEAM-NET
 10
154.789642
 20
-142.462086
 30
696.18067
 11
154.789642
 21
0.0
 31
696.18067
  0
LINE
  5
A5
  8
TEAM-NET
 10
170.921063
 20
0.0
 30
699.376331
 11
170.921063
 21
-142.462086
 31
699.376331
  0
ARC
  5
A6
  8
TEAM-NET
 10
158.267501
 20
720.937578
 30
0.0
 40
25.0
210
0.0
220
-1.0
230
0.0
 50
262.003401
 51
300.407223
  0
ARC
  5
A7
  8
TEAM-NET
 10
0.0
 20
-100.0
 30
-701.585979
 40
21.0
210
0.0
220
-0.0
230
-1.0
 50
0.0
 51
180.0
  0
ARC
  5
A8
  8
TEAM-NET
 10
0.0
 20
-100.0
 30
-701.585979
 40
21.0
210
0.0
220
-0.0
230
-1.0
 50
180.0
 51
0.0
  0
ARC
  5
A9
  8
TEAM-NET
 10
0.0
 20
-100.0
 30
-701.585979
 40
22.0
210
0.0
220
-0.0
230
-1.0
 50
0.0
 51
180.0
  0
ARC
  5
AA
  8
TEAM-NET
 10
0.0
 20
-100.0
 30
-701.585979
 40
22.0
210
0.0
220
-0.0
230
-1.0
 50
180.0
 51
0.0
  0
ARC
  5
AB
  8
TEAM-NET
 10
0.0
 20
-100.0
 30
-701.585979
 40
16.0
210
0.0
220
-0.0
230
-1.0
 50
221.060808
 51
228.227452
  0
LINE
  5
AC
  8
TEAM-NET
 10
3.506501
 20
-104.868722
 30
701.585979
 11
10.658804
 21
-111.932724
 31
701.585979
210
0.0
220
-0.0
230
-1.0
  0
LINE
  5
AD
  8
TEAM-NET
 10
12.064206
 20
-110.509754
 30
701.585979
 11
4.911903
 21
-103.445752
 31
701.585979
210
0.0
220
-0.0
230
-1.0
  0
ARC
  5
AE
  8
TEAM-NET
 10
0.0
 20
-100.0
 30
-701.585979
 40
6.0
210
0.0
220
-0.0
230
-1.0
 50
234.238198
 51
305.050062
  0
ARC
  5
AF
  8
TEAM-NET
 10
0.0
 20
-100.0
 30
-701.585979
 40
6.0
210
0.0
220
-0.0
230
-1.0
 50
144.238198
 51
215.050062
  0
LINE
  5
B0
  8
TEAM-NET
 10
-10.509754
 20
-112.064206
 30
701.585979
 11
-3.445752
 21
-104.911903
 31
701.585979
210
0.0
220
-0.0
230
-1.0
  0
LINE
  5
B1
  8
TEAM-NET
 10
4.868722
 20
-96.493499
 30
701.585979
 11
11.932724
 21
-89.341196
 31
701.585979
210
0.0
220
-0.0
230
-1.0
  0
ARC
  5
B2
  8
TEAM-NET
 10
0.0
 20
-100.0
 30
-701.585979
 40
16.0
210
0.0
220
-0.0
230
-1.0
 50
311.060808
 51
318.227452
  0
ARC
  5
B3
  8
TEAM-NET
 10
0.0
 20
-100.0
 30
-701.585979
 40
16.0
210
0.0
220
-0.0
230
-1.0
 50
131.060808
 51
138.227452
  0
LINE
  5
B4
  8
TEAM-NET
 10
-4.868722
 20
-103.506501
 30
701.585979
 11
-11.932724
 21
-110.658804
 31
701.585979
210
0.0
220
-0.0
230
-1.0
  0
LINE
  5
B5
  8
TEAM-NET
 10
10.509754
 20
-87.935794
 30
701.585979
 11
3.445752
 21
-95.088097
 31
701.585979
210
0.0
220
-0.0
230
-1.0
  0
ARC
  5
B6
  8
TEAM-NET
 10
0.0
 20
-100.0
 30
-701.585979
 40
6.0
210
0.0
220
-0.0
230
-1.0
 50
324.238198
 51
35.050062
  0
ARC
  5
B7
  8
TEAM-NET
 10
0.0
 20
-100.0
 30
-701.585979
 40
6.0
210
0.0
220
-0.0
230
-1.0
 50
54.238198
 51
125.050062
  0
LINE
  5
B8
  8
TEAM-NET
 10
-12.064206
 20
-89.490246
 30
701.585979
 11
-4.911903
 21
-96.554248
 31
701.585979
210
0.0
220
-0.0
230
-1.0
  0
LINE
  5
B9
  8
TEAM-NET
 10
-3.506501
 20
-95.131278
 30
701.585979
 11
-10.658804
 21
-88.067276
 31
701.585979
210
0.0
220
-0.0
230
-1.0
  0
ARC
  5
BA
  8
TEAM-NET
 10
0.0
 20
-100.0
 30
-701.585979
 40
16.0
210
0.0
220
-0.0
230
-1.0
 50
41.060808
 51
48.227452
  0
ARC
  5
BB
  8
TEAM-NET
 10
0.0
 20
-100.0
 30
690.011697
 40
26.87868
 50
0.0
 51
180.0
  0
POLYLINE
  5
BC
  8
TEAM-NET
 66
     1
 10
0.0
 20
0.0
 30
0.0
 70
     8
  0
VERTEX
  5
4E4
  8
TEAM-NET
 10
37.500064
 20
-99.999901
 30
701.184364
 70
    32
  0
VERTEX
  5
4E5
  8
TEAM-NET
 10
37.319323
 20
-96.323969
 30
701.192214
 70
    32
  0
VERTEX
  5
4E6
  8
TEAM-NET
 10
36.776897
 20
-92.67117
 30
701.215531
 70
    32
  0
VERTEX
  5
4E7
  8
TEAM-NET
 10
35.879205
 20
-89.094285
 30
701.253373
 70
    32
  0
VERTEX
  5
4E8
  8
TEAM-NET
 10
34.642195
 20
-85.641426
 30
701.303985
 70
    32
  0
VERTEX
  5
4E9
  8
TEAM-NET
 10
33.067697
 20
-82.314653
 30
701.365834
 70
    32
  0
VERTEX
  5
4EA
  8
TEAM-NET
 10
31.168057
 20
-79.147989
 30
701.43662
 70
    32
  0
VERTEX
  5
4EB
  8
TEAM-NET
 10
28.969994
 20
-76.188478
 30
701.513298
 70
    32
  0
VERTEX
  5
4EC
  8
TEAM-NET
 10
26.505803
 20
-73.472788
 30
701.592589
 70
    32
  0
VERTEX
  5
4ED
  8
TEAM-NET
 10
23.777035
 20
-71.001609
 30
701.672171
 70
    32
  0
VERTEX
  5
4EE
  8
TEAM-NET
 10
20.80947
 20
-68.803776
 30
701.748895
 70
    32
  0
VERTEX
  5
4EF
  8
TEAM-NET
 10
17.646149
 20
-66.911225
 30
701.819448
 70
    32
  0
VERTEX
  5
4F0
  8
TEAM-NET
 10
14.330109
 20
-65.346013
 30
701.880933
 70
    32
  0
VERTEX
  5
4F1
  8
TEAM-NET
 10
10.861938
 20
-64.107607
 30
701.931589
 70
    32
  0
VERTEX
  5
4F2
  8
TEAM-NET
 10
7.278477
 20
-63.21311
 30
701.969285
 70
    32
  0
VERTEX
  5
4F3
  8
TEAM-NET
 10
3.631615
 20
-62.676335
 30
701.99235
 70
    32
  0
VERTEX
  5
4F4
  8
TEAM-NET
 10
-0.031329
 20
-62.500045
 30
701.999997
 70
    32
  0
VERTEX
  5
4F5
  8
TEAM-NET
 10
-3.710238
 20
-62.683966
 30
701.99202
 70
    32
  0
VERTEX
  5
4F6
  8
TEAM-NET
 10
-7.362765
 20
-63.229844
 30
701.968569
 70
    32
  0
VERTEX
  5
4F7
  8
TEAM-NET
 10
-10.936794
 20
-64.130326
 30
701.930645
 70
    32
  0
VERTEX
  5
4F8
  8
TEAM-NET
 10
-14.387789
 20
-65.369894
 30
701.879975
 70
    32
  0
VERTEX
  5
4F9
  8
TEAM-NET
 10
-17.715858
 20
-66.948618
 30
701.818014
 70
    32
  0
VERTEX
  5
4FA
  8
TEAM-NET
 10
-20.880806
 20
-68.851278
 30
701.747178
 70
    32
  0
VERTEX
  5
4FB
  8
TEAM-NET
 10
-23.836419
 20
-71.050534
 30
701.670527
 70
    32
  0
VERTEX
  5
4FC
  8
TEAM-NET
 10
-26.549664
 20
-73.516706
 30
701.591239
 70
    32
  0
VERTEX
  5
4FD
  8
TEAM-NET
 10
-29.020226
 20
-76.2497
 30
701.511607
 70
    32
  0
VERTEX
  5
4FE
  8
TEAM-NET
 10
-31.215554
 20
-79.219292
 30
701.434902
 70
    32
  0
VERTEX
  5
4FF
  8
TEAM-NET
 10
-33.103758
 20
-82.38209
 30
701.364449
 70
    32
  0
VERTEX
  5
500
  8
TEAM-NET
 10
-34.665355
 20
-85.697289
 30
701.303053
 70
    32
  0
VERTEX
  5
501
  8
TEAM-NET
 10
-35.897354
 20
-89.154278
 30
701.252618
 70
    32
  0
VERTEX
  5
502
  8
TEAM-NET
 10
-36.784406
 20
-92.709236
 30
701.215212
 70
    32
  0
VERTEX
  5
503
  8
TEAM-NET
 10
-37.320762
 20
-96.337895
 30
701.192149
 70
    32
  0
VERTEX
  5
504
  8
TEAM-NET
 10
-37.50001
 20
-99.999997
 30
701.184369
 70
    32
  0
SEQEND
  5
505
  8
TEAM-NET
  0
POLYLINE
  5
BD
  8
TEAM-NET
 66
     1
 10
0.0
 20
0.0
 30
0.0
 70
     8
  0
VERTEX
  5
506
  8
TEAM-NET
 10
-37.50001
 20
-99.999997
 30
701.184369
 70
    32
  0
VERTEX
  5
507
  8
TEAM-NET
 10
-37.320207
 20
-103.667383
 30
701.192173
 70
    32
  0
VERTEX
  5
508
  8
TEAM-NET
 10
-36.779325
 20
-107.316918
 30
701.215429
 70
    32
  0
VERTEX
  5
509
  8
TEAM-NET
 10
-35.882121
 20
-110.895445
 30
701.253252
 70
    32
  0
VERTEX
  5
50A
  8
TEAM-NET
 10
-34.64533
 20
-114.351508
 30
701.303861
 70
    32
  0
VERTEX
  5
50B
  8
TEAM-NET
 10
-33.075489
 20
-117.670524
 30
701.365534
 70
    32
  0
VERTEX
  5
50C
  8
TEAM-NET
 10
-31.178951
 20
-120.83571
 30
701.436226
 70
    32
  0
VERTEX
  5
50D
  8
TEAM-NET
 10
-28.98143
 20
-123.797639
 30
701.512913
 70
    32
  0
VERTEX
  5
50E
  8
TEAM-NET
 10
-26.517045
 20
-126.515984
 30
701.592243
 70
    32
  0
VERTEX
  5
50F
  8
TEAM-NET
 10
-23.795842
 20
-128.98291
 30
701.67165
 70
    32
  0
VERTEX
  5
510
  8
TEAM-NET
 10
-20.832312
 20
-131.181181
 30
701.748351
 70
    32
  0
VERTEX
  5
511
  8
TEAM-NET
 10
-17.668656
 20
-133.076649
 30
701.818983
 70
    32
  0
VERTEX
  5
512
  8
TEAM-NET
 10
-14.352013
 20
-134.645068
 30
701.880575
 70
    32
  0
VERTEX
  5
513
  8
TEAM-NET
 10
-10.892505
 20
-135.883012
 30
701.931198
 70
    32
  0
VERTEX
  5
514
  8
TEAM-NET
 10
-7.31307
 20
-136.780035
 30
701.968991
 70
    32
  0
VERTEX
  5
515
  8
TEAM-NET
 10
-3.664612
 20
-137.320482
 30
701.992211
 70
    32
  0
VERTEX
  5
516
  8
TEAM-NET
 10
-0.000257
 20
-137.500005
 30
702.0
 70
    32
  0
VERTEX
  5
517
  8
TEAM-NET
 10
3.670503
 20
-137.319907
 30
701.992188
 70
    32
  0
VERTEX
  5
518
  8
TEAM-NET
 10
7.321011
 20
-136.778479
 30
701.968924
 70
    32
  0
VERTEX
  5
519
  8
TEAM-NET
 10
10.898194
 20
-135.881314
 30
701.931132
 70
    32
  0
VERTEX
  5
51A
  8
TEAM-NET
 10
14.351373
 20
-134.645275
 30
701.880582
 70
    32
  0
VERTEX
  5
51B
  8
TEAM-NET
 10
17.673812
 20
-133.073981
 30
701.81888
 70
    32
  0
VERTEX
  5
51C
  8
TEAM-NET
 10
20.839167
 20
-131.176513
 30
701.748182
 70
    32
  0
VERTEX
  5
51D
  8
TEAM-NET
 10
23.799564
 20
-128.979869
 30
701.671548
 70
    32
  0
VERTEX
  5
51E
  8
TEAM-NET
 10
26.516
 20
-126.517009
 30
701.592275
 70
    32
  0
VERTEX
  5
51F
  8
TEAM-NET
 10
28.985124
 20
-123.793004
 30
701.512787
 70
    32
  0
VERTEX
  5
520
  8
TEAM-NET
 10
31.183534
 20
-120.828934
 30
701.436061
 70
    32
  0
VERTEX
  5
521
  8
TEAM-NET
 10
33.077686
 20
-117.666512
 30
701.365451
 70
    32
  0
VERTEX
  5
522
  8
TEAM-NET
 10
34.645163
 20
-114.351548
 30
701.303867
 70
    32
  0
VERTEX
  5
523
  8
TEAM-NET
 10
35.88422
 20
-110.889257
 30
701.253163
 70
    32
  0
VERTEX
  5
524
  8
TEAM-NET
 10
36.780819
 20
-107.308973
 30
701.215368
 70
    32
  0
VERTEX
  5
525
  8
TEAM-NET
 10
37.32069
 20
-103.6618
 30
701.192154
 70
    32
  0
VERTEX
  5
526
  8
TEAM-NET
 10
37.500064
 20
-99.999901
 30
701.184364
 70
    32
  0
SEQEND
  5
527
  8
TEAM-NET
  0
LINE
  5
BE
  8
TEAM-NET
 10
154.789642
 20
-142.462086
 30
696.18067
 11
154.789642
 21
0.0
 31
696.18067
  0
POLYLINE
  5
BF
  8
TEAM-NET
 66
     1
 10
0.0
 20
0.0
 30
0.0
 70
     8
  0
VERTEX
  5
528
  8
TEAM-NET
 10
-154.789642
 20
-142.462086
 30
696.18067
 70
    32
  0
VERTEX
  5
529
  8
TEAM-NET
 10
-145.531963
 20
-145.578181
 30
697.441582
 70
    32
  0
VERTEX
  5
52A
  8
TEAM-NET
 10
-136.145652
 20
-148.339767
 30
698.639306
 70
    32
  0
VERTEX
  5
52B
  8
TEAM-NET
 10
-117.117138
 20
-152.960736
 30
700.819141
 70
    32
  0
VERTEX
  5
52C
  8
TEAM-NET
 10
-97.904285
 20
-156.574378
 30
702.684345
 70
    32
  0
VERTEX
  5
52D
  8
TEAM-NET
 10
-78.514623
 20
-159.365429
 30
704.226409
 70
    32
  0
VERTEX
  5
52E
  8
TEAM-NET
 10
-58.996762
 20
-161.443944
 30
705.434818
 70
    32
  0
VERTEX
  5
52F
  8
TEAM-NET
 10
-39.395239
 20
-162.882659
 30
706.302392
 70
    32
  0
VERTEX
  5
530
  8
TEAM-NET
 10
-19.75429
 20
-163.72889
 30
706.824618
 70
    32
  0
VERTEX
  5
531
  8
TEAM-NET
 10
-0.119637
 20
-164.009637
 30
706.999994
 70
    32
  0
VERTEX
  5
532
  8
TEAM-NET
 10
19.535534
 20
-163.734989
 30
706.828497
 70
    32
  0
VERTEX
  5
533
  8
TEAM-NET
 10
39.226858
 20
-162.892502
 30
706.308325
 70
    32
  0
VERTEX
  5
534
  8
TEAM-NET
 10
58.891141
 20
-161.453566
 30
705.440409
 70
    32
  0
VERTEX
  5
535
  8
TEAM-NET
 10
78.469963
 20
-159.370584
 30
704.229591
 70
    32
  0
VERTEX
  5
536
  8
TEAM-NET
 10
97.909538
 20
-156.57396
 30
702.683852
 70
    32
  0
VERTEX
  5
537
  8
TEAM-NET
 10
117.15274
 20
-152.953117
 30
700.815376
 70
    32
  0
VERTEX
  5
538
  8
TEAM-NET
 10
136.128931
 20
-148.344283
 30
698.641373
 70
    32
  0
VERTEX
  5
539
  8
TEAM-NET
 10
145.495835
 20
-145.589482
 30
697.446342
 70
    32
  0
VERTEX
  5
53A
  8
TEAM-NET
 10
154.789642
 20
-142.462086
 30
696.18067
 70
    32
  0
SEQEND
  5
53B
  8
TEAM-NET
  0
LINE
  5
C0
  8
TEAM-NET
 10
-154.789642
 20
0.0
 30
696.18067
 11
-154.789642
 21
-142.462086
 31
696.18067
  0
ARC
  5
C1
  8
TEAM-NET
 10
0.0
 20
-100.0
 30
690.011697
 40
26.87868
 50
180.0
 51
0.0
  0
ARC
  5
C2
  8
TEAM-NET
 10
186.992281
 20
728.072223
 30
6.305805
 40
25.0
210
-0.934896
220
0.329729
230
-0.131334
 50
267.347931
 51
290.424256
  0
POLYLINE
  5
C3
  8
TEAM-NET
 66
     1
 10
0.0
 20
0.0
 30
0.0
 70
     8
  0
VERTEX
  5
53C
  8
TEAM-NET
 10
-154.789642
 20
-142.462086
 30
696.18067
 70
    32
  0
VERTEX
  5
53D
  8
TEAM-NET
 10
-145.531963
 20
-145.578181
 30
697.441582
 70
    32
  0
VERTEX
  5
53E
  8
TEAM-NET
 10
-136.145652
 20
-148.339767
 30
698.639306
 70
    32
  0
VERTEX
  5
53F
  8
TEAM-NET
 10
-117.117138
 20
-152.960736
 30
700.819141
 70
    32
  0
VERTEX
  5
540
  8
TEAM-NET
 10
-97.904285
 20
-156.574378
 30
702.684345
 70
    32
  0
VERTEX
  5
541
  8
TEAM-NET
 10
-78.514623
 20
-159.365429
 30
704.226409
 70
    32
  0
VERTEX
  5
542
  8
TEAM-NET
 10
-58.996762
 20
-161.443944
 30
705.434818
 70
    32
  0
VERTEX
  5
543
  8
TEAM-NET
 10
-39.395239
 20
-162.882659
 30
706.302392
 70
    32
  0
VERTEX
  5
544
  8
TEAM-NET
 10
-19.75429
 20
-163.72889
 30
706.824618
 70
    32
  0
VERTEX
  5
545
  8
TEAM-NET
 10
-0.119637
 20
-164.009637
 30
706.999994
 70
    32
  0
VERTEX
  5
546
  8
TEAM-NET
 10
19.535534
 20
-163.734989
 30
706.828497
 70
    32
  0
VERTEX
  5
547
  8
TEAM-NET
 10
39.226858
 20
-162.892502
 30
706.308325
 70
    32
  0
VERTEX
  5
548
  8
TEAM-NET
 10
58.891141
 20
-161.453566
 30
705.440409
 70
    32
  0
VERTEX
  5
549
  8
TEAM-NET
 10
78.469963
 20
-159.370584
 30
704.229591
 70
    32
  0
VERTEX
  5
54A
  8
TEAM-NET
 10
97.909538
 20
-156.57396
 30
702.683852
 70
    32
  0
VERTEX
  5
54B
  8
TEAM-NET
 10
117.15274
 20
-152.953117
 30
700.815376
 70
    32
  0
VERTEX
  5
54C
  8
TEAM-NET
 10
136.128931
 20
-148.344283
 30
698.641373
 70
    32
  0
VERTEX
  5
54D
  8
TEAM-NET
 10
145.495835
 20
-145.589482
 30
697.446342
 70
    32
  0
VERTEX
  5
54E
  8
TEAM-NET
 10
154.789642
 20
-142.462086
 30
696.18067
 70
    32
  0
SEQEND
  5
54F
  8
TEAM-NET
  0
POLYLINE
  5
C4
  8
TEAM-NET
 66
     1
 10
0.0
 20
0.0
 30
0.0
 70
     8
  0
VERTEX
  5
550
  8
TEAM-NET
 10
158.267501
 20
-151.713013
 30
697.712153
 70
    32
  0
VERTEX
  5
551
  8
TEAM-NET
 10
148.764878
 20
-155.454449
 30
699.260352
 70
    32
  0
VERTEX
  5
552
  8
TEAM-NET
 10
139.187515
 20
-158.750135
 30
700.722141
 70
    32
  0
VERTEX
  5
553
  8
TEAM-NET
 10
129.526836
 20
-161.671034
 30
702.096658
 70
    32
  0
VERTEX
  5
554
  8
TEAM-NET
 10
119.784961
 20
-164.263879
 30
703.381429
 70
    32
  0
VERTEX
  5
555
  8
TEAM-NET
 10
100.109397
 20
-168.595648
 30
705.666991
 70
    32
  0
VERTEX
  5
556
  8
TEAM-NET
 10
80.233049
 20
-171.941368
 30
707.557774
 70
    32
  0
VERTEX
  5
557
  8
TEAM-NET
 10
60.214324
 20
-174.433328
 30
709.038872
 70
    32
  0
VERTEX
  5
558
  8
TEAM-NET
 10
40.108219
 20
-176.154788
 30
710.100527
 70
    32
  0
VERTEX
  5
559
  8
TEAM-NET
 10
19.974464
 20
-177.162691
 30
710.736813
 70
    32
  0
VERTEX
  5
55A
  8
TEAM-NET
 10
-0.122325
 20
-177.491264
 30
710.946592
 70
    32
  0
VERTEX
  5
55B
  8
TEAM-NET
 10
-20.198135
 20
-177.155394
 30
710.732068
 70
    32
  0
VERTEX
  5
55C
  8
TEAM-NET
 10
-40.280382
 20
-176.143013
 30
710.09327
 70
    32
  0
VERTEX
  5
55D
  8
TEAM-NET
 10
-60.322318
 20
-174.421816
 30
709.032033
 70
    32
  0
VERTEX
  5
55E
  8
TEAM-NET
 10
-80.278712
 20
-171.935201
 30
707.553881
 70
    32
  0
VERTEX
  5
55F
  8
TEAM-NET
 10
-100.104027
 20
-168.596148
 30
705.667594
 70
    32
  0
VERTEX
  5
560
  8
TEAM-NET
 10
-119.74856
 20
-164.272994
 30
703.386034
 70
    32
  0
VERTEX
  5
561
  8
TEAM-NET
 10
-129.509703
 20
-161.675628
 30
702.099024
 70
    32
  0
VERTEX
  5
562
  8
TEAM-NET
 10
-139.204612
 20
-158.744733
 30
700.719612
 70
    32
  0
VERTEX
  5
563
  8
TEAM-NET
 10
-148.801817
 20
-155.44093
 30
699.25453
 70
    32
  0
VERTEX
  5
564
  8
TEAM-NET
 10
-158.267501
 20
-151.713013
 30
697.712153
 70
    32
  0
SEQEND
  5
565
  8
TEAM-NET
  0
ARC
  5
C5
  8
TEAM-NET
 10
186.992281
 20
728.072223
 30
-6.305805
 40
25.0
210
-0.934896
220
-0.329729
230
0.131334
 50
267.347931
 51
290.424256
  0
ARC
  5
C6
  8
TEAM-NET
 10
0.0
 20
-100.0
 30
701.585979
 40
16.0
 50
131.772548
 51
138.939192
  0
ARC
  5
C7
  8
TEAM-NET
 10
0.0
 20
-100.0
 30
701.585979
 40
16.0
 50
41.772548
 51
48.939192
  0
ARC
  5
C8
  8
TEAM-NET
 10
0.0
 20
-100.0
 30
701.585979
 40
16.0
 50
311.772548
 51
318.939192
  0
ARC
  5
C9
  8
TEAM-NET
 10
0.0
 20
-100.0
 30
701.585979
 40
16.0
 50
221.772548
 51
228.939192
  0
ARC
  5
CA
  8
TEAM-NET
 10
0.0
 20
-100.0
 30
701.585979
 40
21.0
 50
180.0
 51
0.0
  0
ARC
  5
CB
  8
TEAM-NET
 10
0.0
 20
-100.0
 30
701.585979
 40
22.0
 50
360.0
 51
180.0
  0
ARC
  5
CC
  8
TEAM-NET
 10
0.0
 20
-100.0
 30
701.585979
 40
22.0
 50
180.0
 51
0.0
  0
ARC
  5
CD
  8
TEAM-NET
 10
0.0
 20
-100.0
 30
701.585979
 40
21.0
 50
360.0
 51
180.0
  0
LINE
  5
CE
  8
TEAM-NET
 10
-3.506501
 20
-95.131278
 30
701.585979
 11
-10.658804
 21
-88.067276
 31
701.585979
210
0.702701
220
0.711485
230
-0.0
  0
LINE
  5
CF
  8
TEAM-NET
 10
4.868722
 20
-96.493499
 30
701.585979
 11
11.932724
 21
-89.341196
 31
701.585979
210
0.711485
220
-0.702701
230
0.0
  0
LINE
  5
D0
  8
TEAM-NET
 10
3.506501
 20
-104.868722
 30
701.585979
 11
10.658804
 21
-111.932724
 31
701.585979
210
-0.702701
220
-0.711485
230
0.0
  0
LINE
  5
D1
  8
TEAM-NET
 10
-4.868722
 20
-103.506501
 30
701.585979
 11
-11.932724
 21
-110.658804
 31
701.585979
210
-0.711485
220
0.702701
230
-0.0
  0
LINE
  5
D2
  8
TEAM-NET
 10
12.064206
 20
-110.509754
 30
701.585979
 11
4.911903
 21
-103.445752
 31
701.585979
210
0.702701
220
0.711485
230
-0.0
  0
ARC
  5
D3
  8
TEAM-NET
 10
0.0
 20
-100.0
 30
701.585979
 40
6.0
 50
234.949938
 51
305.761802
  0
LINE
  5
D4
  8
TEAM-NET
 10
10.509754
 20
-87.935794
 30
701.585979
 11
3.445752
 21
-95.088097
 31
701.585979
210
-0.711485
220
0.702701
230
-0.0
  0
ARC
  5
D5
  8
TEAM-NET
 10
0.0
 20
-100.0
 30
701.585979
 40
6.0
 50
324.949938
 51
35.761802
  0
LINE
  5
D6
  8
TEAM-NET
 10
-12.064206
 20
-89.490246
 30
701.585979
 11
-4.911903
 21
-96.554248
 31
701.585979
210
-0.702701
220
-0.711485
230
0.0
  0
ARC
  5
D7
  8
TEAM-NET
 10
0.0
 20
-100.0
 30
701.585979
 40
6.0
 50
144.949938
 51
215.761802
  0
ARC
  5
D8
  8
TEAM-NET
 10
0.0
 20
-100.0
 30
701.585979
 40
6.0
 50
54.949938
 51
125.761802
  0
LINE
  5
D9
  8
TEAM-NET
 10
-10.509754
 20
-112.064206
 30
701.585979
 11
-3.445752
 21
-104.911903
 31
701.585979
210
0.711485
220
-0.702701
230
0.0
  0
ARC
  5
DA
  8
TEAM-NET
 10
50.9506
 20
619.993493
 30
-422.027421
 40
25.0
210
0.533359
220
0.785845
230
-0.31301
 50
258.006257
 51
294.758482
  0
ARC
  5
DB
  8
TEAM-NET
 10
-50.9506
 20
619.993493
 30
-422.027421
 40
25.0
210
-0.533359
220
0.785845
230
-0.31301
 50
245.241518
 51
281.993743
  0
POLYLINE
  5
DC
  8
TEAM-NET
 66
     1
 10
0.0
 20
0.0
 30
0.0
 70
     8
  0
VERTEX
  5
566
  8
TEAM-NET
 10
158.267501
 20
-151.713013
 30
697.712153
 70
    32
  0
VERTEX
  5
567
  8
TEAM-NET
 10
148.764878
 20
-155.454449
 30
699.260352
 70
    32
  0
VERTEX
  5
568
  8
TEAM-NET
 10
139.187515
 20
-158.750135
 30
700.722141
 70
    32
  0
VERTEX
  5
569
  8
TEAM-NET
 10
129.526836
 20
-161.671034
 30
702.096658
 70
    32
  0
VERTEX
  5
56A
  8
TEAM-NET
 10
119.784961
 20
-164.263879
 30
703.381429
 70
    32
  0
VERTEX
  5
56B
  8
TEAM-NET
 10
100.109397
 20
-168.595648
 30
705.666991
 70
    32
  0
VERTEX
  5
56C
  8
TEAM-NET
 10
80.233049
 20
-171.941368
 30
707.557774
 70
    32
  0
VERTEX
  5
56D
  8
TEAM-NET
 10
60.214324
 20
-174.433328
 30
709.038872
 70
    32
  0
VERTEX
  5
56E
  8
TEAM-NET
 10
40.108219
 20
-176.154788
 30
710.100527
 70
    32
  0
VERTEX
  5
56F
  8
TEAM-NET
 10
19.974464
 20
-177.162691
 30
710.736813
 70
    32
  0
VERTEX
  5
570
  8
TEAM-NET
 10
-0.122325
 20
-177.491264
 30
710.946592
 70
    32
  0
VERTEX
  5
571
  8
TEAM-NET
 10
-20.198135
 20
-177.155394
 30
710.732068
 70
    32
  0
VERTEX
  5
572
  8
TEAM-NET
 10
-40.280382
 20
-176.143013
 30
710.09327
 70
    32
  0
VERTEX
  5
573
  8
TEAM-NET
 10
-60.322318
 20
-174.421816
 30
709.032033
 70
    32
  0
VERTEX
  5
574
  8
TEAM-NET
 10
-80.278712
 20
-171.935201
 30
707.553881
 70
    32
  0
VERTEX
  5
575
  8
TEAM-NET
 10
-100.104027
 20
-168.596148
 30
705.667594
 70
    32
  0
VERTEX
  5
576
  8
TEAM-NET
 10
-119.74856
 20
-164.272994
 30
703.386034
 70
    32
  0
VERTEX
  5
577
  8
TEAM-NET
 10
-129.509703
 20
-161.675628
 30
702.099024
 70
    32
  0
VERTEX
  5
578
  8
TEAM-NET
 10
-139.204612
 20
-158.744733
 30
700.719612
 70
    32
  0
VERTEX
  5
579
  8
TEAM-NET
 10
-148.801817
 20
-155.44093
 30
699.25453
 70
    32
  0
VERTEX
  5
57A
  8
TEAM-NET
 10
-158.267501
 20
-151.713013
 30
697.712153
 70
    32
  0
SEQEND
  5
57B
  8
TEAM-NET
  0
LINE
  5
DD
  8
TEAM-NET
 10
170.921063
 20
0.0
 30
699.376331
 11
170.921063
 21
-142.462086
 31
699.376331
  0
LINE
  5
DE
  8
TEAM-NET
 10
-170.921063
 20
-142.462086
 30
699.376331
 11
-170.921063
 21
0.0
 31
699.376331
  0
ARC
  5
DF
  8
TEAM-NET
 10
158.267501
 20
720.937578
 30
0.0
 40
25.0
210
0.0
220
1.0
230
0.0
 50
262.003401
 51
300.407223
  0
ARC
  5
E0
  8
TEAM-NET
 10
-158.267501
 20
720.937578
 30
0.0
 40
25.0
210
0.0
220
1.0
230
0.0
 50
239.592777
 51
277.996599
  0
POLYLINE
  5
E1
  8
TEAM-NET
 66
     1
 10
0.0
 20
0.0
 30
0.0
 70
     8
  0
VERTEX
  5
57C
  8
TEAM-NET
 10
26.87868
 20
-100.0
 30
706.675302
 70
    32
  0
VERTEX
  5
57D
  8
TEAM-NET
 10
26.376897
 20
-105.168434
 30
706.687317
 70
    32
  0
VERTEX
  5
57E
  8
TEAM-NET
 10
24.83219
 20
-110.285787
 30
706.722877
 70
    32
  0
VERTEX
  5
57F
  8
TEAM-NET
 10
22.305269
 20
-114.996542
 30
706.776402
 70
    32
  0
VERTEX
  5
580
  8
TEAM-NET
 10
19.005727
 20
-119.006498
 30
706.83767
 70
    32
  0
VERTEX
  5
581
  8
TEAM-NET
 10
14.996659
 20
-122.305375
 30
706.898925
 70
    32
  0
VERTEX
  5
582
  8
TEAM-NET
 10
10.285949
 20
-124.831857
 30
706.952429
 70
    32
  0
VERTEX
  5
583
  8
TEAM-NET
 10
5.168304
 20
-126.376337
 30
706.987965
 70
    32
  0
VERTEX
  5
584
  8
TEAM-NET
 10
0.000361
 20
-126.878686
 30
707.0
 70
    32
  0
VERTEX
  5
585
  8
TEAM-NET
 10
-5.168406
 20
-126.376787
 30
706.987984
 70
    32
  0
VERTEX
  5
586
  8
TEAM-NET
 10
-10.285768
 20
-124.832105
 30
706.952434
 70
    32
  0
VERTEX
  5
587
  8
TEAM-NET
 10
-14.996543
 20
-122.305255
 30
706.898921
 70
    32
  0
VERTEX
  5
588
  8
TEAM-NET
 10
-19.006502
 20
-119.005723
 30
706.837656
 70
    32
  0
VERTEX
  5
589
  8
TEAM-NET
 10
-22.305342
 20
-114.996636
 30
706.776398
 70
    32
  0
VERTEX
  5
58A
  8
TEAM-NET
 10
-24.831861
 20
-110.28593
 30
706.722885
 70
    32
  0
VERTEX
  5
58B
  8
TEAM-NET
 10
-26.37641
 20
-105.168318
 30
706.687338
 70
    32
  0
VERTEX
  5
58C
  8
TEAM-NET
 10
-26.87868
 20
-100.0
 30
706.675302
 70
    32
  0
SEQEND
  5
58D
  8
TEAM-NET
  0
POLYLINE
  5
E2
  8
TEAM-NET
 66
     1
 10
0.0
 20
0.0
 30
0.0
 70
     8
  0
VERTEX
  5
58E
  8
TEAM-NET
 10
-26.87868
 20
-100.0
 30
706.675302
 70
    32
  0
VERTEX
  5
58F
  8
TEAM-NET
 10
-26.376897
 20
-94.831566
 30
706.687317
 70
    32
  0
VERTEX
  5
590
  8
TEAM-NET
 10
-24.83219
 20
-89.714213
 30
706.722877
 70
    32
  0
VERTEX
  5
591
  8
TEAM-NET
 10
-22.305269
 20
-85.003458
 30
706.776402
 70
    32
  0
VERTEX
  5
592
  8
TEAM-NET
 10
-19.005727
 20
-80.993502
 30
706.83767
 70
    32
  0
VERTEX
  5
593
  8
TEAM-NET
 10
-14.996659
 20
-77.694625
 30
706.898925
 70
    32
  0
VERTEX
  5
594
  8
TEAM-NET
 10
-10.285949
 20
-75.168143
 30
706.952429
 70
    32
  0
VERTEX
  5
595
  8
TEAM-NET
 10
-5.168304
 20
-73.623663
 30
706.987965
 70
    32
  0
VERTEX
  5
596
  8
TEAM-NET
 10
-0.000361
 20
-73.121314
 30
707.0
 70
    32
  0
VERTEX
  5
597
  8
TEAM-NET
 10
5.168406
 20
-73.623213
 30
706.987984
 70
    32
  0
VERTEX
  5
598
  8
TEAM-NET
 10
10.285768
 20
-75.167895
 30
706.952434
 70
    32
  0
VERTEX
  5
599
  8
TEAM-NET
 10
14.996543
 20
-77.694745
 30
706.898921
 70
    32
  0
VERTEX
  5
59A
  8
TEAM-NET
 10
19.006502
 20
-80.994277
 30
706.837656
 70
    32
  0
VERTEX
  5
59B
  8
TEAM-NET
 10
22.305342
 20
-85.003364
 30
706.776398
 70
    32
  0
VERTEX
  5
59C
  8
TEAM-NET
 10
24.831861
 20
-89.71407
 30
706.722885
 70
    32
  0
VERTEX
  5
59D
  8
TEAM-NET
 10
26.37641
 20
-94.831682
 30
706.687338
 70
    32
  0
VERTEX
  5
59E
  8
TEAM-NET
 10
26.87868
 20
-100.0
 30
706.675302
 70
    32
  0
SEQEND
  5
59F
  8
TEAM-NET
  0
POLYLINE
  5
E3
  8
TEAM-NET
 66
     1
 10
0.0
 20
0.0
 30
0.0
 70
     8
  0
VERTEX
  5
5A0
  8
TEAM-NET
 10
-26.0
 20
-100.0
 30
706.696187
 70
    32
  0
VERTEX
  5
5A1
  8
TEAM-NET
 10
-25.514601
 20
-95.00054
 30
706.70743
 70
    32
  0
VERTEX
  5
5A2
  8
TEAM-NET
 10
-24.020375
 20
-90.050491
 30
706.740703
 70
    32
  0
VERTEX
  5
5A3
  8
TEAM-NET
 10
-21.576213
 20
-85.493637
 30
706.790782
 70
    32
  0
VERTEX
  5
5A4
  8
TEAM-NET
 10
-18.38444
 20
-81.614782
 30
706.84811
 70
    32
  0
VERTEX
  5
5A5
  8
TEAM-NET
 10
-14.506383
 20
-78.423824
 30
706.905426
 70
    32
  0
VERTEX
  5
5A6
  8
TEAM-NET
 10
-9.949652
 20
-75.979924
 30
706.955488
 70
    32
  0
VERTEX
  5
5A7
  8
TEAM-NET
 10
-4.999335
 20
-74.485938
 30
706.988738
 70
    32
  0
VERTEX
  5
5A8
  8
TEAM-NET
 10
0.000077
 20
-73.999869
 30
707.000003
 70
    32
  0
VERTEX
  5
5A9
  8
TEAM-NET
 10
4.99935
 20
-74.485857
 30
706.988742
 70
    32
  0
VERTEX
  5
5AA
  8
TEAM-NET
 10
9.949629
 20
-75.979901
 30
706.955488
 70
    32
  0
VERTEX
  5
5AB
  8
TEAM-NET
 10
14.50661
 20
-78.423444
 30
706.905428
 70
    32
  0
VERTEX
  5
5AC
  8
TEAM-NET
 10
18.384862
 20
-81.615308
 30
706.848103
 70
    32
  0
VERTEX
  5
5AD
  8
TEAM-NET
 10
21.57606
 20
-85.493701
 30
706.790781
 70
    32
  0
VERTEX
  5
5AE
  8
TEAM-NET
 10
24.02026
 20
-90.050354
 30
706.740705
 70
    32
  0
VERTEX
  5
5AF
  8
TEAM-NET
 10
25.51418
 20
-95.000643
 30
706.707447
 70
    32
  0
VERTEX
  5
5B0
  8
TEAM-NET
 10
26.0
 20
-100.0
 30
706.696187
 70
    32
  0
SEQEND
  5
5B1
  8
TEAM-NET
  0
POLYLINE
  5
E4
  8
TEAM-NET
 66
     1
 10
0.0
 20
0.0
 30
0.0
 70
     8
  0
VERTEX
  5
5B2
  8
TEAM-NET
 10
26.0
 20
-100.0
 30
706.696187
 70
    32
  0
VERTEX
  5
5B3
  8
TEAM-NET
 10
25.514601
 20
-104.99946
 30
706.70743
 70
    32
  0
VERTEX
  5
5B4
  8
TEAM-NET
 10
24.020375
 20
-109.949509
 30
706.740703
 70
    32
  0
VERTEX
  5
5B5
  8
TEAM-NET
 10
21.576213
 20
-114.506363
 30
706.790782
 70
    32
  0
VERTEX
  5
5B6
  8
TEAM-NET
 10
18.38444
 20
-118.385218
 30
706.84811
 70
    32
  0
VERTEX
  5
5B7
  8
TEAM-NET
 10
14.506383
 20
-121.576176
 30
706.905426
 70
    32
  0
VERTEX
  5
5B8
  8
TEAM-NET
 10
9.949652
 20
-124.020076
 30
706.955488
 70
    32
  0
VERTEX
  5
5B9
  8
TEAM-NET
 10
4.999335
 20
-125.514062
 30
706.988738
 70
    32
  0
VERTEX
  5
5BA
  8
TEAM-NET
 10
-0.000077
 20
-126.000131
 30
707.000003
 70
    32
  0
VERTEX
  5
5BB
  8
TEAM-NET
 10
-4.99935
 20
-125.514143
 30
706.988742
 70
    32
  0
VERTEX
  5
5BC
  8
TEAM-NET
 10
-9.949629
 20
-124.020099
 30
706.955488
 70
    32
  0
VERTEX
  5
5BD
  8
TEAM-NET
 10
-14.50661
 20
-121.576556
 30
706.905428
 70
    32
  0
VERTEX
  5
5BE
  8
TEAM-NET
 10
-18.384862
 20
-118.384692
 30
706.848103
 70
    32
  0
VERTEX
  5
5BF
  8
TEAM-NET
 10
-21.57606
 20
-114.506299
 30
706.790781
 70
    32
  0
VERTEX
  5
5C0
  8
TEAM-NET
 10
-24.02026
 20
-109.949646
 30
706.740705
 70
    32
  0
VERTEX
  5
5C1
  8
TEAM-NET
 10
-25.51418
 20
-104.999357
 30
706.707447
 70
    32
  0
VERTEX
  5
5C2
  8
TEAM-NET
 10
-26.0
 20
-100.0
 30
706.696187
 70
    32
  0
SEQEND
  5
5C3
  8
TEAM-NET
  0
POLYLINE
  5
E5
  8
TEAM-NET
 66
     1
 10
0.0
 20
0.0
 30
0.0
 70
     8
  0
VERTEX
  5
5C4
  8
TEAM-NET
 10
-26.87868
 20
-100.0
 30
706.675302
 70
    32
  0
VERTEX
  5
5C5
  8
TEAM-NET
 10
-26.376897
 20
-94.831566
 30
706.687317
 70
    32
  0
VERTEX
  5
5C6
  8
TEAM-NET
 10
-24.83219
 20
-89.714213
 30
706.722877
 70
    32
  0
VERTEX
  5
5C7
  8
TEAM-NET
 10
-22.305269
 20
-85.003458
 30
706.776402
 70
    32
  0
VERTEX
  5
5C8
  8
TEAM-NET
 10
-19.005727
 20
-80.993502
 30
706.83767
 70
    32
  0
VERTEX
  5
5C9
  8
TEAM-NET
 10
-14.996659
 20
-77.694625
 30
706.898925
 70
    32
  0
VERTEX
  5
5CA
  8
TEAM-NET
 10
-10.285949
 20
-75.168143
 30
706.952429
 70
    32
  0
VERTEX
  5
5CB
  8
TEAM-NET
 10
-5.168304
 20
-73.623663
 30
706.987965
 70
    32
  0
VERTEX
  5
5CC
  8
TEAM-NET
 10
-0.000361
 20
-73.121314
 30
707.0
 70
    32
  0
VERTEX
  5
5CD
  8
TEAM-NET
 10
5.168406
 20
-73.623213
 30
706.987984
 70
    32
  0
VERTEX
  5
5CE
  8
TEAM-NET
 10
10.285768
 20
-75.167895
 30
706.952434
 70
    32
  0
VERTEX
  5
5CF
  8
TEAM-NET
 10
14.996543
 20
-77.694745
 30
706.898921
 70
    32
  0
VERTEX
  5
5D0
  8
TEAM-NET
 10
19.006502
 20
-80.994277
 30
706.837656
 70
    32
  0
VERTEX
  5
5D1
  8
TEAM-NET
 10
22.305342
 20
-85.003364
 30
706.776398
 70
    32
  0
VERTEX
  5
5D2
  8
TEAM-NET
 10
24.831861
 20
-89.71407
 30
706.722885
 70
    32
  0
VERTEX
  5
5D3
  8
TEAM-NET
 10
26.37641
 20
-94.831682
 30
706.687338
 70
    32
  0
VERTEX
  5
5D4
  8
TEAM-NET
 10
26.87868
 20
-100.0
 30
706.675302
 70
    32
  0
SEQEND
  5
5D5
  8
TEAM-NET
  0
POLYLINE
  5
E6
  8
TEAM-NET
 66
     1
 10
0.0
 20
0.0
 30
0.0
 70
     9
  0
VERTEX
  5
5D6
  8
TEAM-NET
 10
-42.691854
 20
-100.0
 30
706.180687
 70
    32
  0
VERTEX
  5
5D7
  8
TEAM-NET
 10
-42.487896
 20
-95.850692
 30
706.188499
 70
    32
  0
VERTEX
  5
5D8
  8
TEAM-NET
 10
-41.877597
 20
-91.739252
 30
706.211654
 70
    32
  0
VERTEX
  5
5D9
  8
TEAM-NET
 10
-40.868253
 20
-87.711283
 30
706.24921
 70
    32
  0
VERTEX
  5
5DA
  8
TEAM-NET
 10
-39.466396
 20
-83.79425
 30
706.299848
 70
    32
  0
VERTEX
  5
5DB
  8
TEAM-NET
 10
-37.689493
 20
-80.037804
 30
706.361494
 70
    32
  0
VERTEX
  5
5DC
  8
TEAM-NET
 10
-35.540947
 20
-76.453956
 30
706.432235
 70
    32
  0
VERTEX
  5
5DD
  8
TEAM-NET
 10
-33.042889
 20
-73.088878
 30
706.509259
 70
    32
  0
VERTEX
  5
5DE
  8
TEAM-NET
 10
-30.231572
 20
-69.991721
 30
706.589227
 70
    32
  0
VERTEX
  5
5DF
  8
TEAM-NET
 10
-27.144088
 20
-67.196784
 30
706.668856
 70
    32
  0
VERTEX
  5
5E0
  8
TEAM-NET
 10
-23.780797
 20
-64.704164
 30
706.745843
 70
    32
  0
VERTEX
  5
5E1
  8
TEAM-NET
 10
-20.179177
 20
-62.54741
 30
706.817001
 70
    32
  0
VERTEX
  5
5E2
  8
TEAM-NET
 10
-16.391793
 20
-60.757525
 30
706.879256
 70
    32
  0
VERTEX
  5
5E3
  8
TEAM-NET
 10
-12.464481
 20
-59.351801
 30
706.930181
 70
    32
  0
VERTEX
  5
5E4
  8
TEAM-NET
 10
-8.39711
 20
-58.330144
 30
706.968315
 70
    32
  0
VERTEX
  5
5E5
  8
TEAM-NET
 10
-4.240197
 20
-57.71011
 30
706.991922
 70
    32
  0
VERTEX
  5
5E6
  8
TEAM-NET
 10
-0.05302
 20
-57.50007
 30
706.999997
 70
    32
  0
VERTEX
  5
5E7
  8
TEAM-NET
 10
4.116031
 20
-57.698068
 30
706.992384
 70
    32
  0
VERTEX
  5
5E8
  8
TEAM-NET
 10
8.266908
 20
-58.304404
 30
706.96929
 70
    32
  0
VERTEX
  5
5E9
  8
TEAM-NET
 10
12.34593
 20
-59.315983
 30
706.9315
 70
    32
  0
VERTEX
  5
5EA
  8
TEAM-NET
 10
16.294052
 20
-60.717234
 30
706.88069
 70
    32
  0
VERTEX
  5
5EB
  8
TEAM-NET
 10
20.069111
 20
-62.488709
 30
706.818997
 70
    32
  0
VERTEX
  5
5EC
  8
TEAM-NET
 10
23.670552
 20
-64.631024
 30
706.748187
 70
    32
  0
VERTEX
  5
5ED
  8
TEAM-NET
 10
27.049551
 20
-67.119336
 30
706.671163
 70
    32
  0
VERTEX
  5
5EE
  8
TEAM-NET
 10
30.157103
 20
-69.917532
 30
706.591249
 70
    32
  0
VERTEX
  5
5EF
  8
TEAM-NET
 10
32.963617
 20
-72.992733
 30
706.511612
 70
    32
  0
VERTEX
  5
5F0
  8
TEAM-NET
 10
35.467467
 20
-76.344253
 30
706.434581
 70
    32
  0
VERTEX
  5
5F1
  8
TEAM-NET
 10
37.631999
 20
-79.930776
 30
706.363442
 70
    32
  0
VERTEX
  5
5F2
  8
TEAM-NET
 10
39.426746
 20
-83.69904
 30
706.301256
 70
    32
  0
VERTEX
  5
5F3
  8
TEAM-NET
 10
40.837472
 20
-87.61017
 30
706.25034
 70
    32
  0
VERTEX
  5
5F4
  8
TEAM-NET
 10
41.862213
 20
-91.662037
 30
706.212232
 70
    32
  0
VERTEX
  5
5F5
  8
TEAM-NET
 10
42.482829
 20
-95.800355
 30
706.188695
 70
    32
  0
VERTEX
  5
5F6
  8
TEAM-NET
 10
42.691898
 20
-99.965363
 30
706.180683
 70
    32
  0
VERTEX
  5
5F7
  8
TEAM-NET
 10
42.490984
 20
-104.116649
 30
706.188382
 70
    32
  0
VERTEX
  5
5F8
  8
TEAM-NET
 10
41.879461
 20
-108.251538
 30
706.211586
 70
    32
  0
VERTEX
  5
5F9
  8
TEAM-NET
 10
40.861528
 20
-112.311039
 30
706.249455
 70
    32
  0
VERTEX
  5
5FA
  8
TEAM-NET
 10
39.453346
 20
-116.237197
 30
706.300313
 70
    32
  0
VERTEX
  5
5FB
  8
TEAM-NET
 10
37.671086
 20
-119.996266
 30
706.362118
 70
    32
  0
VERTEX
  5
5FC
  8
TEAM-NET
 10
35.516615
 20
-123.582634
 30
706.433012
 70
    32
  0
VERTEX
  5
5FD
  8
TEAM-NET
 10
33.015368
 20
-126.944436
 30
706.510075
 70
    32
  0
VERTEX
  5
5FE
  8
TEAM-NET
 10
30.205485
 20
-130.034314
 30
706.589936
 70
    32
  0
VERTEX
  5
5FF
  8
TEAM-NET
 10
27.113915
 20
-132.828044
 30
706.669595
 70
    32
  0
VERTEX
  5
600
  8
TEAM-NET
 10
23.744284
 20
-135.320095
 30
706.74662
 70
    32
  0
VERTEX
  5
601
  8
TEAM-NET
 10
20.140919
 20
-137.473104
 30
706.817698
 70
    32
  0
VERTEX
  5
602
  8
TEAM-NET
 10
16.358314
 20
-139.256388
 30
706.879748
 70
    32
  0
VERTEX
  5
603
  8
TEAM-NET
 10
12.426813
 20
-140.659505
 30
706.9306
 70
    32
  0
VERTEX
  5
604
  8
TEAM-NET
 10
8.353867
 20
-141.678455
 30
706.96864
 70
    32
  0
VERTEX
  5
605
  8
TEAM-NET
 10
4.197113
 20
-142.294084
 30
706.992083
 70
    32
  0
VERTEX
  5
606
  8
TEAM-NET
 10
0.017029
 20
-142.500002
 30
707.0
 70
    32
  0
VERTEX
  5
607
  8
TEAM-NET
 10
-4.155727
 20
-142.298132
 30
706.992237
 70
    32
  0
VERTEX
  5
608
  8
TEAM-NET
 10
-8.31057
 20
-141.687003
 30
706.968963
 70
    32
  0
VERTEX
  5
609
  8
TEAM-NET
 10
-12.38701
 20
-140.671507
 30
706.931039
 70
    32
  0
VERTEX
  5
60A
  8
TEAM-NET
 10
-16.327033
 20
-139.269358
 30
706.880212
 70
    32
  0
VERTEX
  5
60B
  8
TEAM-NET
 10
-20.104303
 20
-137.492484
 30
706.818357
 70
    32
  0
VERTEX
  5
60C
  8
TEAM-NET
 10
-23.707452
 20
-135.344707
 30
706.747409
 70
    32
  0
VERTEX
  5
60D
  8
TEAM-NET
 10
-27.08278
 20
-132.853488
 30
706.670353
 70
    32
  0
VERTEX
  5
60E
  8
TEAM-NET
 10
-30.18218
 20
-130.057548
 30
706.590569
 70
    32
  0
VERTEX
  5
60F
  8
TEAM-NET
 10
-32.989045
 20
-126.976522
 30
706.510858
 70
    32
  0
VERTEX
  5
610
  8
TEAM-NET
 10
-35.492009
 20
-123.619225
 30
706.433797
 70
    32
  0
VERTEX
  5
611
  8
TEAM-NET
 10
-37.652194
 20
-120.031377
 30
706.362757
 70
    32
  0
VERTEX
  5
612
  8
TEAM-NET
 10
-39.440286
 20
-116.269028
 30
706.300777
 70
    32
  0
VERTEX
  5
613
  8
TEAM-NET
 10
-40.84902
 20
-112.351285
 30
706.249916
 70
    32
  0
VERTEX
  5
614
  8
TEAM-NET
 10
-41.870964
 20
-108.294642
 30
706.211904
 70
    32
  0
VERTEX
  5
615
  8
TEAM-NET
 10
-42.487051
 20
-104.15745
 30
706.18853
 70
    32
  0
SEQEND
  5
616
  8
TEAM-NET
  0
POLYLINE
  5
E7
  8
TEAM-NET
 66
     1
 10
0.0
 20
0.0
 30
0.0
 70
     9
  0
VERTEX
  5
617
  8
TEAM-NET
 10
-42.691854
 20
-100.0
 30
706.180687
 70
    32
  0
VERTEX
  5
618
  8
TEAM-NET
 10
-42.487896
 20
-95.850692
 30
706.188499
 70
    32
  0
VERTEX
  5
619
  8
TEAM-NET
 10
-41.877597
 20
-91.739252
 30
706.211654
 70
    32
  0
VERTEX
  5
61A
  8
TEAM-NET
 10
-40.868253
 20
-87.711283
 30
706.24921
 70
    32
  0
VERTEX
  5
61B
  8
TEAM-NET
 10
-39.466396
 20
-83.79425
 30
706.299848
 70
    32
  0
VERTEX
  5
61C
  8
TEAM-NET
 10
-37.689493
 20
-80.037804
 30
706.361494
 70
    32
  0
VERTEX
  5
61D
  8
TEAM-NET
 10
-35.540947
 20
-76.453956
 30
706.432235
 70
    32
  0
VERTEX
  5
61E
  8
TEAM-NET
 10
-33.042889
 20
-73.088878
 30
706.509259
 70
    32
  0
VERTEX
  5
61F
  8
TEAM-NET
 10
-30.231572
 20
-69.991721
 30
706.589227
 70
    32
  0
VERTEX
  5
620
  8
TEAM-NET
 10
-27.144088
 20
-67.196784
 30
706.668856
 70
    32
  0
VERTEX
  5
621
  8
TEAM-NET
 10
-23.780797
 20
-64.704164
 30
706.745843
 70
    32
  0
VERTEX
  5
622
  8
TEAM-NET
 10
-20.179177
 20
-62.54741
 30
706.817001
 70
    32
  0
VERTEX
  5
623
  8
TEAM-NET
 10
-16.391793
 20
-60.757525
 30
706.879256
 70
    32
  0
VERTEX
  5
624
  8
TEAM-NET
 10
-12.464481
 20
-59.351801
 30
706.930181
 70
    32
  0
VERTEX
  5
625
  8
TEAM-NET
 10
-8.39711
 20
-58.330144
 30
706.968315
 70
    32
  0
VERTEX
  5
626
  8
TEAM-NET
 10
-4.240197
 20
-57.71011
 30
706.991922
 70
    32
  0
VERTEX
  5
627
  8
TEAM-NET
 10
-0.05302
 20
-57.50007
 30
706.999997
 70
    32
  0
VERTEX
  5
628
  8
TEAM-NET
 10
4.116031
 20
-57.698068
 30
706.992384
 70
    32
  0
VERTEX
  5
629
  8
TEAM-NET
 10
8.266908
 20
-58.304404
 30
706.96929
 70
    32
  0
VERTEX
  5
62A
  8
TEAM-NET
 10
12.34593
 20
-59.315983
 30
706.9315
 70
    32
  0
VERTEX
  5
62B
  8
TEAM-NET
 10
16.294052
 20
-60.717234
 30
706.88069
 70
    32
  0
VERTEX
  5
62C
  8
TEAM-NET
 10
20.069111
 20
-62.488709
 30
706.818997
 70
    32
  0
VERTEX
  5
62D
  8
TEAM-NET
 10
23.670552
 20
-64.631024
 30
706.748187
 70
    32
  0
VERTEX
  5
62E
  8
TEAM-NET
 10
27.049551
 20
-67.119336
 30
706.671163
 70
    32
  0
VERTEX
  5
62F
  8
TEAM-NET
 10
30.157103
 20
-69.917532
 30
706.591249
 70
    32
  0
VERTEX
  5
630
  8
TEAM-NET
 10
32.963617
 20
-72.992733
 30
706.511612
 70
    32
  0
VERTEX
  5
631
  8
TEAM-NET
 10
35.467467
 20
-76.344253
 30
706.434581
 70
    32
  0
VERTEX
  5
632
  8
TEAM-NET
 10
37.631999
 20
-79.930776
 30
706.363442
 70
    32
  0
VERTEX
  5
633
  8
TEAM-NET
 10
39.426746
 20
-83.69904
 30
706.301256
 70
    32
  0
VERTEX
  5
634
  8
TEAM-NET
 10
40.837472
 20
-87.61017
 30
706.25034
 70
    32
  0
VERTEX
  5
635
  8
TEAM-NET
 10
41.862213
 20
-91.662037
 30
706.212232
 70
    32
  0
VERTEX
  5
636
  8
TEAM-NET
 10
42.482829
 20
-95.800355
 30
706.188695
 70
    32
  0
VERTEX
  5
637
  8
TEAM-NET
 10
42.691898
 20
-99.965363
 30
706.180683
 70
    32
  0
VERTEX
  5
638
  8
TEAM-NET
 10
42.490984
 20
-104.116649
 30
706.188382
 70
    32
  0
VERTEX
  5
639
  8
TEAM-NET
 10
41.879461
 20
-108.251538
 30
706.211586
 70
    32
  0
VERTEX
  5
63A
  8
TEAM-NET
 10
40.861528
 20
-112.311039
 30
706.249455
 70
    32
  0
VERTEX
  5
63B
  8
TEAM-NET
 10
39.453346
 20
-116.237197
 30
706.300313
 70
    32
  0
VERTEX
  5
63C
  8
TEAM-NET
 10
37.671086
 20
-119.996266
 30
706.362118
 70
    32
  0
VERTEX
  5
63D
  8
TEAM-NET
 10
35.516615
 20
-123.582634
 30
706.433012
 70
    32
  0
VERTEX
  5
63E
  8
TEAM-NET
 10
33.015368
 20
-126.944436
 30
706.510075
 70
    32
  0
VERTEX
  5
63F
  8
TEAM-NET
 10
30.205485
 20
-130.034314
 30
706.589936
 70
    32
  0
VERTEX
  5
640
  8
TEAM-NET
 10
27.113915
 20
-132.828044
 30
706.669595
 70
    32
  0
VERTEX
  5
641
  8
TEAM-NET
 10
23.744284
 20
-135.320095
 30
706.74662
 70
    32
  0
VERTEX
  5
642
  8
TEAM-NET
 10
20.140919
 20
-137.473104
 30
706.817698
 70
    32
  0
VERTEX
  5
643
  8
TEAM-NET
 10
16.358314
 20
-139.256388
 30
706.879748
 70
    32
  0
VERTEX
  5
644
  8
TEAM-NET
 10
12.426813
 20
-140.659505
 30
706.9306
 70
    32
  0
VERTEX
  5
645
  8
TEAM-NET
 10
8.353867
 20
-141.678455
 30
706.96864
 70
    32
  0
VERTEX
  5
646
  8
TEAM-NET
 10
4.197113
 20
-142.294084
 30
706.992083
 70
    32
  0
VERTEX
  5
647
  8
TEAM-NET
 10
0.017029
 20
-142.500002
 30
707.0
 70
    32
  0
VERTEX
  5
648
  8
TEAM-NET
 10
-4.155727
 20
-142.298132
 30
706.992237
 70
    32
  0
VERTEX
  5
649
  8
TEAM-NET
 10
-8.31057
 20
-141.687003
 30
706.968963
 70
    32
  0
VERTEX
  5
64A
  8
TEAM-NET
 10
-12.38701
 20
-140.671507
 30
706.931039
 70
    32
  0
VERTEX
  5
64B
  8
TEAM-NET
 10
-16.327033
 20
-139.269358
 30
706.880212
 70
    32
  0
VERTEX
  5
64C
  8
TEAM-NET
 10
-20.104303
 20
-137.492484
 30
706.818357
 70
    32
  0
VERTEX
  5
64D
  8
TEAM-NET
 10
-23.707452
 20
-135.344707
 30
706.747409
 70
    32
  0
VERTEX
  5
64E
  8
TEAM-NET
 10
-27.08278
 20
-132.853488
 30
706.670353
 70
    32
  0
VERTEX
  5
64F
  8
TEAM-NET
 10
-30.18218
 20
-130.057548
 30
706.590569
 70
    32
  0
VERTEX
  5
650
  8
TEAM-NET
 10
-32.989045
 20
-126.976522
 30
706.510858
 70
    32
  0
VERTEX
  5
651
  8
TEAM-NET
 10
-35.492009
 20
-123.619225
 30
706.433797
 70
    32
  0
VERTEX
  5
652
  8
TEAM-NET
 10
-37.652194
 20
-120.031377
 30
706.362757
 70
    32
  0
VERTEX
  5
653
  8
TEAM-NET
 10
-39.440286
 20
-116.269028
 30
706.300777
 70
    32
  0
VERTEX
  5
654
  8
TEAM-NET
 10
-40.84902
 20
-112.351285
 30
706.249916
 70
    32
  0
VERTEX
  5
655
  8
TEAM-NET
 10
-41.870964
 20
-108.294642
 30
706.211904
 70
    32
  0
VERTEX
  5
656
  8
TEAM-NET
 10
-42.487051
 20
-104.15745
 30
706.18853
 70
    32
  0
SEQEND
  5
657
  8
TEAM-NET
  0
POLYLINE
  5
E8
  8
TEAM-NET
 66
     1
 10
0.0
 20
0.0
 30
0.0
 70
     8
  0
VERTEX
  5
658
  8
TEAM-NET
 10
26.87868
 20
-100.0
 30
706.675302
 70
    32
  0
VERTEX
  5
659
  8
TEAM-NET
 10
26.376897
 20
-105.168434
 30
706.687317
 70
    32
  0
VERTEX
  5
65A
  8
TEAM-NET
 10
24.83219
 20
-110.285787
 30
706.722877
 70
    32
  0
VERTEX
  5
65B
  8
TEAM-NET
 10
22.305269
 20
-114.996542
 30
706.776402
 70
    32
  0
VERTEX
  5
65C
  8
TEAM-NET
 10
19.005727
 20
-119.006498
 30
706.83767
 70
    32
  0
VERTEX
  5
65D
  8
TEAM-NET
 10
14.996659
 20
-122.305375
 30
706.898925
 70
    32
  0
VERTEX
  5
65E
  8
TEAM-NET
 10
10.285949
 20
-124.831857
 30
706.952429
 70
    32
  0
VERTEX
  5
65F
  8
TEAM-NET
 10
5.168304
 20
-126.376337
 30
706.987965
 70
    32
  0
VERTEX
  5
660
  8
TEAM-NET
 10
0.000361
 20
-126.878686
 30
707.0
 70
    32
  0
VERTEX
  5
661
  8
TEAM-NET
 10
-5.168406
 20
-126.376787
 30
706.987984
 70
    32
  0
VERTEX
  5
662
  8
TEAM-NET
 10
-10.285768
 20
-124.832105
 30
706.952434
 70
    32
  0
VERTEX
  5
663
  8
TEAM-NET
 10
-14.996543
 20
-122.305255
 30
706.898921
 70
    32
  0
VERTEX
  5
664
  8
TEAM-NET
 10
-19.006502
 20
-119.005723
 30
706.837656
 70
    32
  0
VERTEX
  5
665
  8
TEAM-NET
 10
-22.305342
 20
-114.996636
 30
706.776398
 70
    32
  0
VERTEX
  5
666
  8
TEAM-NET
 10
-24.831861
 20
-110.28593
 30
706.722885
 70
    32
  0
VERTEX
  5
667
  8
TEAM-NET
 10
-26.37641
 20
-105.168318
 30
706.687338
 70
    32
  0
VERTEX
  5
668
  8
TEAM-NET
 10
-26.87868
 20
-100.0
 30
706.675302
 70
    32
  0
SEQEND
  5
669
  8
TEAM-NET
  0
ARC
  5
E9
  8
TEAM-NET
 10
0.0
 20
-100.0
 30
-706.585979
 40
21.0
210
0.0
220
-0.0
230
-1.0
 50
41.914727
 51
47.373533
  0
ARC
  5
EA
  8
TEAM-NET
 10
0.0
 20
-100.0
 30
-706.585979
 40
21.0
210
0.0
220
-0.0
230
-1.0
 50
131.914727
 51
137.373533
  0
ARC
  5
EB
  8
TEAM-NET
 10
0.0
 20
-100.0
 30
-706.585979
 40
21.0
210
0.0
220
-0.0
230
-1.0
 50
221.914727
 51
227.373533
  0
ARC
  5
EC
  8
TEAM-NET
 10
0.0
 20
-100.0
 30
-706.585979
 40
21.0
210
0.0
220
-0.0
230
-1.0
 50
311.914727
 51
317.373533
  0
POLYLINE
  5
ED
  8
TEAM-NET
 66
     1
 10
0.0
 20
0.0
 30
0.0
 70
     8
  0
VERTEX
  5
66A
  8
TEAM-NET
 10
26.0
 20
-100.0
 30
706.696187
 70
    32
  0
VERTEX
  5
66B
  8
TEAM-NET
 10
25.514601
 20
-104.99946
 30
706.70743
 70
    32
  0
VERTEX
  5
66C
  8
TEAM-NET
 10
24.020375
 20
-109.949509
 30
706.740703
 70
    32
  0
VERTEX
  5
66D
  8
TEAM-NET
 10
21.576213
 20
-114.506363
 30
706.790782
 70
    32
  0
VERTEX
  5
66E
  8
TEAM-NET
 10
18.38444
 20
-118.385218
 30
706.84811
 70
    32
  0
VERTEX
  5
66F
  8
TEAM-NET
 10
14.506383
 20
-121.576176
 30
706.905426
 70
    32
  0
VERTEX
  5
670
  8
TEAM-NET
 10
9.949652
 20
-124.020076
 30
706.955488
 70
    32
  0
VERTEX
  5
671
  8
TEAM-NET
 10
4.999335
 20
-125.514062
 30
706.988738
 70
    32
  0
VERTEX
  5
672
  8
TEAM-NET
 10
-0.000077
 20
-126.000131
 30
707.000003
 70
    32
  0
VERTEX
  5
673
  8
TEAM-NET
 10
-4.99935
 20
-125.514143
 30
706.988742
 70
    32
  0
VERTEX
  5
674
  8
TEAM-NET
 10
-9.949629
 20
-124.020099
 30
706.955488
 70
    32
  0
VERTEX
  5
675
  8
TEAM-NET
 10
-14.50661
 20
-121.576556
 30
706.905428
 70
    32
  0
VERTEX
  5
676
  8
TEAM-NET
 10
-18.384862
 20
-118.384692
 30
706.848103
 70
    32
  0
VERTEX
  5
677
  8
TEAM-NET
 10
-21.57606
 20
-114.506299
 30
706.790781
 70
    32
  0
VERTEX
  5
678
  8
TEAM-NET
 10
-24.02026
 20
-109.949646
 30
706.740705
 70
    32
  0
VERTEX
  5
679
  8
TEAM-NET
 10
-25.51418
 20
-104.999357
 30
706.707447
 70
    32
  0
VERTEX
  5
67A
  8
TEAM-NET
 10
-26.0
 20
-100.0
 30
706.696187
 70
    32
  0
SEQEND
  5
67B
  8
TEAM-NET
  0
POLYLINE
  5
EE
  8
TEAM-NET
 66
     1
 10
0.0
 20
0.0
 30
0.0
 70
     8
  0
VERTEX
  5
67C
  8
TEAM-NET
 10
-26.0
 20
-100.0
 30
706.696187
 70
    32
  0
VERTEX
  5
67D
  8
TEAM-NET
 10
-25.514601
 20
-95.00054
 30
706.70743
 70
    32
  0
VERTEX
  5
67E
  8
TEAM-NET
 10
-24.020375
 20
-90.050491
 30
706.740703
 70
    32
  0
VERTEX
  5
67F
  8
TEAM-NET
 10
-21.576213
 20
-85.493637
 30
706.790782
 70
    32
  0
VERTEX
  5
680
  8
TEAM-NET
 10
-18.38444
 20
-81.614782
 30
706.84811
 70
    32
  0
VERTEX
  5
681
  8
TEAM-NET
 10
-14.506383
 20
-78.423824
 30
706.905426
 70
    32
  0
VERTEX
  5
682
  8
TEAM-NET
 10
-9.949652
 20
-75.979924
 30
706.955488
 70
    32
  0
VERTEX
  5
683
  8
TEAM-NET
 10
-4.999335
 20
-74.485938
 30
706.988738
 70
    32
  0
VERTEX
  5
684
  8
TEAM-NET
 10
0.000077
 20
-73.999869
 30
707.000003
 70
    32
  0
VERTEX
  5
685
  8
TEAM-NET
 10
4.99935
 20
-74.485857
 30
706.988742
 70
    32
  0
VERTEX
  5
686
  8
TEAM-NET
 10
9.949629
 20
-75.979901
 30
706.955488
 70
    32
  0
VERTEX
  5
687
  8
TEAM-NET
 10
14.50661
 20
-78.423444
 30
706.905428
 70
    32
  0
VERTEX
  5
688
  8
TEAM-NET
 10
18.384862
 20
-81.615308
 30
706.848103
 70
    32
  0
VERTEX
  5
689
  8
TEAM-NET
 10
21.57606
 20
-85.493701
 30
706.790781
 70
    32
  0
VERTEX
  5
68A
  8
TEAM-NET
 10
24.02026
 20
-90.050354
 30
706.740705
 70
    32
  0
VERTEX
  5
68B
  8
TEAM-NET
 10
25.51418
 20
-95.000643
 30
706.707447
 70
    32
  0
VERTEX
  5
68C
  8
TEAM-NET
 10
26.0
 20
-100.0
 30
706.696187
 70
    32
  0
SEQEND
  5
68D
  8
TEAM-NET
  0
ARC
  5
EF
  8
TEAM-NET
 10
0.0
 20
-100.0
 30
-706.585979
 40
21.0
210
0.0
220
-0.0
230
-1.0
 50
41.914727
 51
47.373533
  0
ARC
  5
F0
  8
TEAM-NET
 10
0.0
 20
-100.0
 30
-706.585979
 40
21.0
210
0.0
220
-0.0
230
-1.0
 50
131.914727
 51
137.373533
  0
ARC
  5
F1
  8
TEAM-NET
 10
0.0
 20
-100.0
 30
-706.585979
 40
21.0
210
0.0
220
-0.0
230
-1.0
 50
221.914727
 51
227.373533
  0
ARC
  5
F2
  8
TEAM-NET
 10
0.0
 20
-100.0
 30
-706.585979
 40
21.0
210
0.0
220
-0.0
230
-1.0
 50
311.914727
 51
317.373533
  0
POLYLINE
  5
F3
  8
TEAM-NET
 66
     1
 10
0.0
 20
0.0
 30
136.372764
 70
   128
210
0.0
220
-0.994097
230
0.108498
  0
VERTEX
  5
1051
  8
TEAM-NET
 10
-115.053371
 20
772.976024
 30
136.372764
  0
VERTEX
  5
1052
  8
TEAM-NET
 10
-109.359149
 20
763.913907
 30
136.372764
  0
VERTEX
  5
1053
  8
TEAM-NET
 10
-102.639965
 20
755.592422
 30
136.372764
  0
VERTEX
  5
1054
  8
TEAM-NET
 10
-94.990034
 20
748.128253
 30
136.372764
  0
VERTEX
  5
1055
  8
TEAM-NET
 10
-86.516627
 20
741.626064
 30
136.372764
  0
VERTEX
  5
1056
  8
TEAM-NET
 10
-77.338557
 20
736.17703
 30
136.372764
  0
VERTEX
  5
1057
  8
TEAM-NET
 10
-67.584522
 20
731.857559
 30
136.372764
  0
VERTEX
  5
1058
  8
TEAM-NET
 10
-57.391293
 20
728.728218
 30
136.372764
  0
VERTEX
  5
1059
  8
TEAM-NET
 10
-46.901803
 20
726.832887
 30
136.372764
  0
VERTEX
  5
105A
  8
TEAM-NET
 10
-36.263135
 20
726.198143
 30
136.372764
  0
SEQEND
  5
105B
  8
TEAM-NET
  0
POLYLINE
  5
F4
  8
TEAM-NET
 66
     1
 10
0.0
 20
0.0
 30
-137.354528
 70
   128
210
-0.0
220
0.992546
230
-0.121869
  0
VERTEX
  5
105C
  8
TEAM-NET
 10
36.263135
 20
734.22208
 30
-137.354528
  0
VERTEX
  5
105D
  8
TEAM-NET
 10
45.719729
 20
734.787178
 30
-137.354528
  0
VERTEX
  5
105E
  8
TEAM-NET
 10
55.04372
 20
736.474548
 30
-137.354528
  0
VERTEX
  5
105F
  8
TEAM-NET
 10
64.104368
 20
739.260531
 30
-137.354528
  0
VERTEX
  5
1060
  8
TEAM-NET
 10
72.774621
 20
743.106059
 30
-137.354528
  0
VERTEX
  5
1061
  8
TEAM-NET
 10
80.932906
 20
747.957211
 30
-137.354528
  0
VERTEX
  5
1062
  8
TEAM-NET
 10
88.464823
 20
753.745964
 30
-137.354528
  0
VERTEX
  5
1063
  8
TEAM-NET
 10
95.264762
 20
760.391145
 30
-137.354528
  0
VERTEX
  5
1064
  8
TEAM-NET
 10
101.23737
 20
767.799577
 30
-137.354528
  0
VERTEX
  5
1065
  8
TEAM-NET
 10
106.2989
 20
775.867376
 30
-137.354528
  0
SEQEND
  5
1066
  8
TEAM-NET
  0
POLYLINE
  5
F5
  8
TEAM-NET
 66
     1
 10
0.0
 20
0.0
 30
136.372764
 70
   128
210
0.0
220
-0.994097
230
0.108498
  0
VERTEX
  5
1067
  8
TEAM-NET
 10
36.263135
 20
726.198143
 30
136.372764
  0
VERTEX
  5
1068
  8
TEAM-NET
 10
46.901803
 20
726.832887
 30
136.372764
  0
VERTEX
  5
1069
  8
TEAM-NET
 10
57.391293
 20
728.728218
 30
136.372764
  0
VERTEX
  5
106A
  8
TEAM-NET
 10
67.584522
 20
731.857559
 30
136.372764
  0
VERTEX
  5
106B
  8
TEAM-NET
 10
77.338557
 20
736.17703
 30
136.372764
  0
VERTEX
  5
106C
  8
TEAM-NET
 10
86.516627
 20
741.626064
 30
136.372764
  0
VERTEX
  5
106D
  8
TEAM-NET
 10
94.990034
 20
748.128253
 30
136.372764
  0
VERTEX
  5
106E
  8
TEAM-NET
 10
102.639965
 20
755.592422
 30
136.372764
  0
VERTEX
  5
106F
  8
TEAM-NET
 10
109.359149
 20
763.913907
 30
136.372764
  0
VERTEX
  5
1070
  8
TEAM-NET
 10
115.053371
 20
772.976024
 30
136.372764
  0
SEQEND
  5
1071
  8
TEAM-NET
  0
POLYLINE
  5
F6
  8
TEAM-NET
 66
     1
 10
0.0
 20
0.0
 30
-137.354528
 70
   128
210
-0.0
220
0.992546
230
-0.121869
  0
VERTEX
  5
1072
  8
TEAM-NET
 10
-106.2989
 20
775.867376
 30
-137.354528
  0
VERTEX
  5
1073
  8
TEAM-NET
 10
-101.23737
 20
767.799577
 30
-137.354528
  0
VERTEX
  5
1074
  8
TEAM-NET
 10
-95.264762
 20
760.391145
 30
-137.354528
  0
VERTEX
  5
1075
  8
TEAM-NET
 10
-88.464823
 20
753.745964
 30
-137.354528
  0
VERTEX
  5
1076
  8
TEAM-NET
 10
-80.932906
 20
747.957211
 30
-137.354528
  0
VERTEX
  5
1077
  8
TEAM-NET
 10
-72.774621
 20
743.106059
 30
-137.354528
  0
VERTEX
  5
1078
  8
TEAM-NET
 10
-64.104368
 20
739.260531
 30
-137.354528
  0
VERTEX
  5
1079
  8
TEAM-NET
 10
-55.04372
 20
736.474548
 30
-137.354528
  0
VERTEX
  5
107A
  8
TEAM-NET
 10
-45.719729
 20
734.787178
 30
-137.354528
  0
VERTEX
  5
107B
  8
TEAM-NET
 10
-36.263135
 20
734.22208
 30
-137.354528
  0
SEQEND
  5
107C
  8
TEAM-NET
  0
POLYLINE
  5
F7
  8
TEAM-NET
 66
     1
 10
0.0
 20
0.0
 30
0.0
 70
     8
  0
VERTEX
  5
6BA
  8
TEAM-NET
 10
115.053371
 20
-204.344827
 30
783.209038
 70
    32
  0
VERTEX
  5
6BB
  8
TEAM-NET
 10
112.04271
 20
-202.724181
 30
778.153968
 70
    32
  0
VERTEX
  5
6BC
  8
TEAM-NET
 10
108.70851
 20
-201.049096
 30
773.306208
 70
    32
  0
VERTEX
  5
6BD
  8
TEAM-NET
 10
105.067245
 20
-199.340023
 30
768.690104
 70
    32
  0
VERTEX
  5
6BE
  8
TEAM-NET
 10
101.137504
 20
-197.61909
 30
764.32691
 70
    32
  0
VERTEX
  5
6BF
  8
TEAM-NET
 10
96.93931
 20
-195.909464
 30
760.236214
 70
    32
  0
VERTEX
  5
6C0
  8
TEAM-NET
 10
92.488052
 20
-194.232636
 30
756.430937
 70
    32
  0
VERTEX
  5
6C1
  8
TEAM-NET
 10
87.76341
 20
-192.598926
 30
752.898383
 70
    32
  0
VERTEX
  5
6C2
  8
TEAM-NET
 10
82.777704
 20
-191.033555
 30
749.659605
 70
    32
  0
VERTEX
  5
6C3
  8
TEAM-NET
 10
77.556263
 20
-189.565252
 30
746.739327
 70
    32
  0
VERTEX
  5
6C4
  8
TEAM-NET
 10
72.125779
 20
-188.222596
 30
744.161147
 70
    32
  0
VERTEX
  5
6C5
  8
TEAM-NET
 10
66.514799
 20
-187.032195
 30
741.943869
 70
    32
  0
VERTEX
  5
6C6
  8
TEAM-NET
 10
60.724202
 20
-186.013872
 30
740.095302
 70
    32
  0
VERTEX
  5
6C7
  8
TEAM-NET
 10
54.748103
 20
-185.187378
 30
738.626047
 70
    32
  0
VERTEX
  5
6C8
  8
TEAM-NET
 10
48.640319
 20
-184.579435
 30
737.562467
 70
    32
  0
VERTEX
  5
6C9
  8
TEAM-NET
 10
42.458617
 20
-184.208689
 30
736.920774
 70
    32
  0
VERTEX
  5
6CA
  8
TEAM-NET
 10
36.263135
 20
-184.084683
 30
736.707299
 70
    32
  0
SEQEND
  5
6CB
  8
TEAM-NET
  0
POLYLINE
  5
F8
  8
TEAM-NET
 66
     1
 10
0.0
 20
0.0
 30
136.372764
 70
   128
210
0.0
220
-0.994097
230
0.108498
  0
VERTEX
  5
107D
  8
TEAM-NET
 10
36.263135
 20
726.198143
 30
136.372764
  0
VERTEX
  5
107E
  8
TEAM-NET
 10
46.901803
 20
726.832887
 30
136.372764
  0
VERTEX
  5
107F
  8
TEAM-NET
 10
57.391293
 20
728.728218
 30
136.372764
  0
VERTEX
  5
1080
  8
TEAM-NET
 10
67.584522
 20
731.857559
 30
136.372764
  0
VERTEX
  5
1081
  8
TEAM-NET
 10
77.338557
 20
736.17703
 30
136.372764
  0
VERTEX
  5
1082
  8
TEAM-NET
 10
86.516627
 20
741.626064
 30
136.372764
  0
VERTEX
  5
1083
  8
TEAM-NET
 10
94.990034
 20
748.128253
 30
136.372764
  0
VERTEX
  5
1084
  8
TEAM-NET
 10
102.639965
 20
755.592422
 30
136.372764
  0
VERTEX
  5
1085
  8
TEAM-NET
 10
109.359149
 20
763.913907
 30
136.372764
  0
VERTEX
  5
1086
  8
TEAM-NET
 10
115.053371
 20
772.976024
 30
136.372764
  0
SEQEND
  5
1087
  8
TEAM-NET
  0
POLYLINE
  5
F9
  8
TEAM-NET
 66
     1
 10
0.0
 20
0.0
 30
0.0
 70
     8
  0
VERTEX
  5
6D7
  8
TEAM-NET
 10
-36.263135
 20
-184.084683
 30
736.707299
 70
    32
  0
VERTEX
  5
6D8
  8
TEAM-NET
 10
-42.458612
 20
-184.208688
 30
736.920772
 70
    32
  0
VERTEX
  5
6D9
  8
TEAM-NET
 10
-48.640311
 20
-184.579433
 30
737.562464
 70
    32
  0
VERTEX
  5
6DA
  8
TEAM-NET
 10
-54.748098
 20
-185.187376
 30
738.626043
 70
    32
  0
VERTEX
  5
6DB
  8
TEAM-NET
 10
-60.724202
 20
-186.013869
 30
740.095297
 70
    32
  0
VERTEX
  5
6DC
  8
TEAM-NET
 10
-66.514818
 20
-187.032196
 30
741.943869
 70
    32
  0
VERTEX
  5
6DD
  8
TEAM-NET
 10
-72.125806
 20
-188.222599
 30
744.161148
 70
    32
  0
VERTEX
  5
6DE
  8
TEAM-NET
 10
-77.556304
 20
-189.565256
 30
746.739329
 70
    32
  0
VERTEX
  5
6DF
  8
TEAM-NET
 10
-82.777729
 20
-191.033558
 30
749.6596
 70
    32
  0
VERTEX
  5
6E0
  8
TEAM-NET
 10
-87.763424
 20
-192.598933
 30
752.898396
 70
    32
  0
VERTEX
  5
6E1
  8
TEAM-NET
 10
-92.488067
 20
-194.232648
 30
756.430978
 70
    32
  0
VERTEX
  5
6E2
  8
TEAM-NET
 10
-96.939289
 20
-195.909462
 30
760.23622
 70
    32
  0
VERTEX
  5
6E3
  8
TEAM-NET
 10
-101.137312
 20
-197.619031
 30
764.326669
 70
    32
  0
VERTEX
  5
6E4
  8
TEAM-NET
 10
-105.067239
 20
-199.340021
 30
768.69005
 70
    32
  0
VERTEX
  5
6E5
  8
TEAM-NET
 10
-108.708623
 20
-201.049149
 30
773.306483
 70
    32
  0
VERTEX
  5
6E6
  8
TEAM-NET
 10
-112.042768
 20
-202.724209
 30
778.154123
 70
    32
  0
VERTEX
  5
6E7
  8
TEAM-NET
 10
-115.053371
 20
-204.344827
 30
783.209038
 70
    32
  0
SEQEND
  5
6E8
  8
TEAM-NET
  0
POLYLINE
  5
FA
  8
TEAM-NET
 66
     1
 10
0.0
 20
0.0
 30
136.372764
 70
   128
210
0.0
220
-0.994097
230
0.108498
  0
VERTEX
  5
1088
  8
TEAM-NET
 10
-115.053371
 20
772.976024
 30
136.372764
  0
VERTEX
  5
1089
  8
TEAM-NET
 10
-109.359149
 20
763.913907
 30
136.372764
  0
VERTEX
  5
108A
  8
TEAM-NET
 10
-102.639965
 20
755.592422
 30
136.372764
  0
VERTEX
  5
108B
  8
TEAM-NET
 10
-94.990034
 20
748.128253
 30
136.372764
  0
VERTEX
  5
108C
  8
TEAM-NET
 10
-86.516627
 20
741.626064
 30
136.372764
  0
VERTEX
  5
108D
  8
TEAM-NET
 10
-77.338557
 20
736.17703
 30
136.372764
  0
VERTEX
  5
108E
  8
TEAM-NET
 10
-67.584522
 20
731.857559
 30
136.372764
  0
VERTEX
  5
108F
  8
TEAM-NET
 10
-57.391293
 20
728.728218
 30
136.372764
  0
VERTEX
  5
1090
  8
TEAM-NET
 10
-46.901803
 20
726.832887
 30
136.372764
  0
VERTEX
  5
1091
  8
TEAM-NET
 10
-36.263135
 20
726.198143
 30
136.372764
  0
SEQEND
  5
1092
  8
TEAM-NET
  0
POLYLINE
  5
FB
  8
TEAM-NET
 66
     1
 10
0.0
 20
0.0
 30
0.0
 70
     8
  0
VERTEX
  5
6F4
  8
TEAM-NET
 10
-101.921665
 20
-218.414253
 30
785.257666
 70
    32
  0
VERTEX
  5
6F5
  8
TEAM-NET
 10
-96.634375
 20
-214.830746
 30
776.284834
 70
    32
  0
VERTEX
  5
6F6
  8
TEAM-NET
 10
-90.324949
 20
-211.101056
 30
768.148109
 70
    32
  0
VERTEX
  5
6F7
  8
TEAM-NET
 10
-83.117245
 20
-207.418923
 30
760.993722
 70
    32
  0
VERTEX
  5
6F8
  8
TEAM-NET
 10
-79.180043
 20
-205.642526
 30
757.792805
 70
    32
  0
VERTEX
  5
6F9
  8
TEAM-NET
 10
-75.025297
 20
-203.940439
 30
754.858089
 70
    32
  0
VERTEX
  5
6FA
  8
TEAM-NET
 10
-70.674109
 20
-202.343902
 30
752.211994
 70
    32
  0
VERTEX
  5
6FB
  8
TEAM-NET
 10
-66.148694
 20
-200.883983
 30
749.875871
 70
    32
  0
VERTEX
  5
6FC
  8
TEAM-NET
 10
-61.472871
 20
-199.589616
 30
747.866766
 70
    32
  0
VERTEX
  5
6FD
  8
TEAM-NET
 10
-56.647357
 20
-198.482353
 30
746.191752
 70
    32
  0
VERTEX
  5
6FE
  8
TEAM-NET
 10
-51.667271
 20
-197.583678
 30
744.860442
 70
    32
  0
VERTEX
  5
6FF
  8
TEAM-NET
 10
-46.577448
 20
-196.92264
 30
743.896719
 70
    32
  0
VERTEX
  5
700
  8
TEAM-NET
 10
-41.426032
 20
-196.519516
 30
743.315274
 70
    32
  0
VERTEX
  5
701
  8
TEAM-NET
 10
-36.263135
 20
-196.384681
 30
743.121843
 70
    32
  0
SEQEND
  5
702
  8
TEAM-NET
  0
POLYLINE
  5
FC
  8
TEAM-NET
 66
     1
 10
0.0
 20
0.0
 30
0.0
 70
     8
  0
VERTEX
  5
703
  8
TEAM-NET
 10
-36.263135
 20
-184.084683
 30
736.707299
 70
    32
  0
VERTEX
  5
704
  8
TEAM-NET
 10
-42.458612
 20
-184.208688
 30
736.920772
 70
    32
  0
VERTEX
  5
705
  8
TEAM-NET
 10
-48.640311
 20
-184.579433
 30
737.562464
 70
    32
  0
VERTEX
  5
706
  8
TEAM-NET
 10
-54.748098
 20
-185.187376
 30
738.626043
 70
    32
  0
VERTEX
  5
707
  8
TEAM-NET
 10
-60.724202
 20
-186.013869
 30
740.095297
 70
    32
  0
VERTEX
  5
708
  8
TEAM-NET
 10
-66.514818
 20
-187.032196
 30
741.943869
 70
    32
  0
VERTEX
  5
709
  8
TEAM-NET
 10
-72.125806
 20
-188.222599
 30
744.161148
 70
    32
  0
VERTEX
  5
70A
  8
TEAM-NET
 10
-77.556304
 20
-189.565256
 30
746.739329
 70
    32
  0
VERTEX
  5
70B
  8
TEAM-NET
 10
-82.777729
 20
-191.033558
 30
749.6596
 70
    32
  0
VERTEX
  5
70C
  8
TEAM-NET
 10
-87.763424
 20
-192.598933
 30
752.898396
 70
    32
  0
VERTEX
  5
70D
  8
TEAM-NET
 10
-92.488067
 20
-194.232648
 30
756.430978
 70
    32
  0
VERTEX
  5
70E
  8
TEAM-NET
 10
-96.939289
 20
-195.909462
 30
760.23622
 70
    32
  0
VERTEX
  5
70F
  8
TEAM-NET
 10
-101.137312
 20
-197.619031
 30
764.326669
 70
    32
  0
VERTEX
  5
710
  8
TEAM-NET
 10
-105.067239
 20
-199.340021
 30
768.69005
 70
    32
  0
VERTEX
  5
711
  8
TEAM-NET
 10
-108.708623
 20
-201.049149
 30
773.306483
 70
    32
  0
VERTEX
  5
712
  8
TEAM-NET
 10
-112.042768
 20
-202.724209
 30
778.154123
 70
    32
  0
VERTEX
  5
713
  8
TEAM-NET
 10
-115.053371
 20
-204.344827
 30
783.209038
 70
    32
  0
SEQEND
  5
714
  8
TEAM-NET
  0
POLYLINE
  5
FD
  8
TEAM-NET
 66
     1
 10
0.0
 20
0.0
 30
0.0
 70
     8
  0
VERTEX
  5
715
  8
TEAM-NET
 10
36.263135
 20
-196.384681
 30
743.121843
 70
    32
  0
VERTEX
  5
716
  8
TEAM-NET
 10
41.426037
 20
-196.519517
 30
743.315275
 70
    32
  0
VERTEX
  5
717
  8
TEAM-NET
 10
46.577455
 20
-196.922642
 30
743.896722
 70
    32
  0
VERTEX
  5
718
  8
TEAM-NET
 10
51.667275
 20
-197.58368
 30
744.860445
 70
    32
  0
VERTEX
  5
719
  8
TEAM-NET
 10
56.647357
 20
-198.482356
 30
746.191756
 70
    32
  0
VERTEX
  5
71A
  8
TEAM-NET
 10
61.472855
 20
-199.589615
 30
747.866767
 70
    32
  0
VERTEX
  5
71B
  8
TEAM-NET
 10
66.148672
 20
-200.88398
 30
749.875871
 70
    32
  0
VERTEX
  5
71C
  8
TEAM-NET
 10
70.674075
 20
-202.343897
 30
752.211993
 70
    32
  0
VERTEX
  5
71D
  8
TEAM-NET
 10
75.025276
 20
-203.940435
 30
754.858094
 70
    32
  0
VERTEX
  5
71E
  8
TEAM-NET
 10
79.180031
 20
-205.642519
 30
757.792793
 70
    32
  0
VERTEX
  5
71F
  8
TEAM-NET
 10
83.117232
 20
-207.41891
 30
760.993685
 70
    32
  0
VERTEX
  5
720
  8
TEAM-NET
 10
90.325109
 20
-211.10112
 30
768.148327
 70
    32
  0
VERTEX
  5
721
  8
TEAM-NET
 10
96.634281
 20
-214.830688
 30
776.284585
 70
    32
  0
VERTEX
  5
722
  8
TEAM-NET
 10
101.921665
 20
-218.414253
 30
785.257666
 70
    32
  0
SEQEND
  5
723
  8
TEAM-NET
  0
POLYLINE
  5
FE
  8
TEAM-NET
 66
     1
 10
0.0
 20
0.0
 30
0.0
 70
     8
  0
VERTEX
  5
724
  8
TEAM-NET
 10
115.053371
 20
-204.344827
 30
783.209038
 70
    32
  0
VERTEX
  5
725
  8
TEAM-NET
 10
112.04271
 20
-202.724181
 30
778.153968
 70
    32
  0
VERTEX
  5
726
  8
TEAM-NET
 10
108.70851
 20
-201.049096
 30
773.306208
 70
    32
  0
VERTEX
  5
727
  8
TEAM-NET
 10
105.067245
 20
-199.340023
 30
768.690104
 70
    32
  0
VERTEX
  5
728
  8
TEAM-NET
 10
101.137504
 20
-197.61909
 30
764.32691
 70
    32
  0
VERTEX
  5
729
  8
TEAM-NET
 10
96.93931
 20
-195.909464
 30
760.236214
 70
    32
  0
VERTEX
  5
72A
  8
TEAM-NET
 10
92.488052
 20
-194.232636
 30
756.430937
 70
    32
  0
VERTEX
  5
72B
  8
TEAM-NET
 10
87.76341
 20
-192.598926
 30
752.898383
 70
    32
  0
VERTEX
  5
72C
  8
TEAM-NET
 10
82.777704
 20
-191.033555
 30
749.659605
 70
    32
  0
VERTEX
  5
72D
  8
TEAM-NET
 10
77.556263
 20
-189.565252
 30
746.739327
 70
    32
  0
VERTEX
  5
72E
  8
TEAM-NET
 10
72.125779
 20
-188.222596
 30
744.161147
 70
    32
  0
VERTEX
  5
72F
  8
TEAM-NET
 10
66.514799
 20
-187.032195
 30
741.943869
 70
    32
  0
VERTEX
  5
730
  8
TEAM-NET
 10
60.724202
 20
-186.013872
 30
740.095302
 70
    32
  0
VERTEX
  5
731
  8
TEAM-NET
 10
54.748103
 20
-185.187378
 30
738.626047
 70
    32
  0
VERTEX
  5
732
  8
TEAM-NET
 10
48.640319
 20
-184.579435
 30
737.562467
 70
    32
  0
VERTEX
  5
733
  8
TEAM-NET
 10
42.458617
 20
-184.208689
 30
736.920774
 70
    32
  0
VERTEX
  5
734
  8
TEAM-NET
 10
36.263135
 20
-184.084683
 30
736.707299
 70
    32
  0
SEQEND
  5
735
  8
TEAM-NET
  0
POLYLINE
  5
FF
  8
TEAM-NET
 66
     1
 10
0.0
 20
0.0
 30
0.0
 70
     8
  0
VERTEX
  5
736
  8
TEAM-NET
 10
104.486559
 20
-230.0
 30
768.008368
 70
    32
  0
VERTEX
  5
737
  8
TEAM-NET
 10
97.839196
 20
-226.094417
 30
761.069843
 70
    32
  0
VERTEX
  5
738
  8
TEAM-NET
 10
90.625993
 20
-222.256885
 30
754.98096
 70
    32
  0
VERTEX
  5
739
  8
TEAM-NET
 10
83.062205
 20
-218.683977
 30
749.83177
 70
    32
  0
VERTEX
  5
73A
  8
TEAM-NET
 10
74.785628
 20
-215.32242
 30
745.368862
 70
    32
  0
VERTEX
  5
73B
  8
TEAM-NET
 10
65.685188
 20
-212.320569
 30
741.653003
 70
    32
  0
VERTEX
  5
73C
  8
TEAM-NET
 10
60.905528
 20
-211.047471
 30
740.14664
 70
    32
  0
VERTEX
  5
73D
  8
TEAM-NET
 10
56.018749
 20
-209.970755
 30
738.902795
 70
    32
  0
VERTEX
  5
73E
  8
TEAM-NET
 10
51.065216
 20
-209.114619
 30
737.933067
 70
    32
  0
VERTEX
  5
73F
  8
TEAM-NET
 10
46.089534
 20
-208.498899
 30
737.245642
 70
    32
  0
VERTEX
  5
740
  8
TEAM-NET
 10
41.138884
 20
-208.131785
 30
736.839779
 70
    32
  0
VERTEX
  5
741
  8
TEAM-NET
 10
36.263135
 20
-208.011232
 30
736.707299
 70
    32
  0
SEQEND
  5
742
  8
TEAM-NET
  0
POLYLINE
  5
100
  8
TEAM-NET
 66
     1
 10
0.0
 20
0.0
 30
0.0
 70
     8
  0
VERTEX
  5
743
  8
TEAM-NET
 10
-36.263135
 20
-208.011232
 30
736.707299
 70
    32
  0
VERTEX
  5
744
  8
TEAM-NET
 10
-41.138935
 20
-208.132043
 30
736.83997
 70
    32
  0
VERTEX
  5
745
  8
TEAM-NET
 10
-46.089626
 20
-208.498578
 30
737.245411
 70
    32
  0
VERTEX
  5
746
  8
TEAM-NET
 10
-51.065191
 20
-209.114973
 30
737.933341
 70
    32
  0
VERTEX
  5
747
  8
TEAM-NET
 10
-56.018854
 20
-209.97056
 30
738.902626
 70
    32
  0
VERTEX
  5
748
  8
TEAM-NET
 10
-60.905531
 20
-211.047657
 30
740.146859
 70
    32
  0
VERTEX
  5
749
  8
TEAM-NET
 10
-65.685235
 20
-212.320621
 30
741.653017
 70
    32
  0
VERTEX
  5
74A
  8
TEAM-NET
 10
-74.785646
 20
-215.322448
 30
745.368823
 70
    32
  0
VERTEX
  5
74B
  8
TEAM-NET
 10
-83.062208
 20
-218.683979
 30
749.831772
 70
    32
  0
VERTEX
  5
74C
  8
TEAM-NET
 10
-90.625436
 20
-222.257075
 30
754.981485
 70
    32
  0
VERTEX
  5
74D
  8
TEAM-NET
 10
-97.839527
 20
-226.094464
 30
761.069439
 70
    32
  0
VERTEX
  5
74E
  8
TEAM-NET
 10
-104.486559
 20
-230.0
 30
768.008368
 70
    32
  0
SEQEND
  5
74F
  8
TEAM-NET
  0
POLYLINE
  5
101
  8
TEAM-NET
 66
     1
 10
0.0
 20
0.0
 30
0.0
 70
     8
  0
VERTEX
  5
750
  8
TEAM-NET
 10
-36.263135
 20
-208.011232
 30
736.707299
 70
    32
  0
VERTEX
  5
751
  8
TEAM-NET
 10
-41.138935
 20
-208.132043
 30
736.83997
 70
    32
  0
VERTEX
  5
752
  8
TEAM-NET
 10
-46.089626
 20
-208.498578
 30
737.245411
 70
    32
  0
VERTEX
  5
753
  8
TEAM-NET
 10
-51.065191
 20
-209.114973
 30
737.933341
 70
    32
  0
VERTEX
  5
754
  8
TEAM-NET
 10
-56.018854
 20
-209.97056
 30
738.902626
 70
    32
  0
VERTEX
  5
755
  8
TEAM-NET
 10
-60.905531
 20
-211.047657
 30
740.146859
 70
    32
  0
VERTEX
  5
756
  8
TEAM-NET
 10
-65.685235
 20
-212.320621
 30
741.653017
 70
    32
  0
VERTEX
  5
757
  8
TEAM-NET
 10
-74.785646
 20
-215.322448
 30
745.368823
 70
    32
  0
VERTEX
  5
758
  8
TEAM-NET
 10
-83.062208
 20
-218.683979
 30
749.831772
 70
    32
  0
VERTEX
  5
759
  8
TEAM-NET
 10
-90.625436
 20
-222.257075
 30
754.981485
 70
    32
  0
VERTEX
  5
75A
  8
TEAM-NET
 10
-97.839527
 20
-226.094464
 30
761.069439
 70
    32
  0
VERTEX
  5
75B
  8
TEAM-NET
 10
-104.486559
 20
-230.0
 30
768.008368
 70
    32
  0
SEQEND
  5
75C
  8
TEAM-NET
  0
POLYLINE
  5
102
  8
TEAM-NET
 66
     1
 10
0.0
 20
0.0
 30
0.0
 70
     8
  0
VERTEX
  5
75D
  8
TEAM-NET
 10
104.486559
 20
-230.0
 30
768.008368
 70
    32
  0
VERTEX
  5
75E
  8
TEAM-NET
 10
97.839196
 20
-226.094417
 30
761.069843
 70
    32
  0
VERTEX
  5
75F
  8
TEAM-NET
 10
90.625993
 20
-222.256885
 30
754.98096
 70
    32
  0
VERTEX
  5
760
  8
TEAM-NET
 10
83.062205
 20
-218.683977
 30
749.83177
 70
    32
  0
VERTEX
  5
761
  8
TEAM-NET
 10
74.785628
 20
-215.32242
 30
745.368862
 70
    32
  0
VERTEX
  5
762
  8
TEAM-NET
 10
65.685188
 20
-212.320569
 30
741.653003
 70
    32
  0
VERTEX
  5
763
  8
TEAM-NET
 10
60.905528
 20
-211.047471
 30
740.14664
 70
    32
  0
VERTEX
  5
764
  8
TEAM-NET
 10
56.018749
 20
-209.970755
 30
738.902795
 70
    32
  0
VERTEX
  5
765
  8
TEAM-NET
 10
51.065216
 20
-209.114619
 30
737.933067
 70
    32
  0
VERTEX
  5
766
  8
TEAM-NET
 10
46.089534
 20
-208.498899
 30
737.245642
 70
    32
  0
VERTEX
  5
767
  8
TEAM-NET
 10
41.138884
 20
-208.131785
 30
736.839779
 70
    32
  0
VERTEX
  5
768
  8
TEAM-NET
 10
36.263135
 20
-208.011232
 30
736.707299
 70
    32
  0
SEQEND
  5
769
  8
TEAM-NET
  0
POLYLINE
  5
103
  8
TEAM-NET
 66
     1
 10
0.0
 20
0.0
 30
137.354528
 70
   128
210
-0.0
220
-0.992546
230
0.121869
  0
VERTEX
  5
1093
  8
TEAM-NET
 10
36.263135
 20
734.22208
 30
137.354528
  0
VERTEX
  5
1094
  8
TEAM-NET
 10
45.719729
 20
734.787178
 30
137.354528
  0
VERTEX
  5
1095
  8
TEAM-NET
 10
55.04372
 20
736.474548
 30
137.354528
  0
VERTEX
  5
1096
  8
TEAM-NET
 10
64.104368
 20
739.260531
 30
137.354528
  0
VERTEX
  5
1097
  8
TEAM-NET
 10
72.774621
 20
743.106059
 30
137.354528
  0
VERTEX
  5
1098
  8
TEAM-NET
 10
80.932906
 20
747.957211
 30
137.354528
  0
VERTEX
  5
1099
  8
TEAM-NET
 10
88.464823
 20
753.745964
 30
137.354528
  0
VERTEX
  5
109A
  8
TEAM-NET
 10
95.264762
 20
760.391145
 30
137.354528
  0
VERTEX
  5
109B
  8
TEAM-NET
 10
101.23737
 20
767.799577
 30
137.354528
  0
VERTEX
  5
109C
  8
TEAM-NET
 10
106.2989
 20
775.867376
 30
137.354528
  0
SEQEND
  5
109D
  8
TEAM-NET
  0
POLYLINE
  5
104
  8
TEAM-NET
 66
     1
 10
0.0
 20
0.0
 30
137.354528
 70
   128
210
0.0
220
-0.992546
230
0.121869
  0
VERTEX
  5
109E
  8
TEAM-NET
 10
-106.2989
 20
775.867376
 30
137.354528
  0
VERTEX
  5
109F
  8
TEAM-NET
 10
-101.23737
 20
767.799577
 30
137.354528
  0
VERTEX
  5
10A0
  8
TEAM-NET
 10
-95.264762
 20
760.391145
 30
137.354528
  0
VERTEX
  5
10A1
  8
TEAM-NET
 10
-88.464823
 20
753.745964
 30
137.354528
  0
VERTEX
  5
10A2
  8
TEAM-NET
 10
-80.932906
 20
747.957211
 30
137.354528
  0
VERTEX
  5
10A3
  8
TEAM-NET
 10
-72.774621
 20
743.106059
 30
137.354528
  0
VERTEX
  5
10A4
  8
TEAM-NET
 10
-64.104368
 20
739.260531
 30
137.354528
  0
VERTEX
  5
10A5
  8
TEAM-NET
 10
-55.04372
 20
736.474548
 30
137.354528
  0
VERTEX
  5
10A6
  8
TEAM-NET
 10
-45.719729
 20
734.787178
 30
137.354528
  0
VERTEX
  5
10A7
  8
TEAM-NET
 10
-36.263135
 20
734.22208
 30
137.354528
  0
SEQEND
  5
10A8
  8
TEAM-NET
  0
POLYLINE
  5
105
  8
TEAM-NET
 66
     1
 10
0.0
 20
0.0
 30
0.0
 70
     8
  0
VERTEX
  5
780
  8
TEAM-NET
 10
36.263135
 20
-196.384681
 30
743.121843
 70
    32
  0
VERTEX
  5
781
  8
TEAM-NET
 10
41.426037
 20
-196.519517
 30
743.315275
 70
    32
  0
VERTEX
  5
782
  8
TEAM-NET
 10
46.577455
 20
-196.922642
 30
743.896722
 70
    32
  0
VERTEX
  5
783
  8
TEAM-NET
 10
51.667275
 20
-197.58368
 30
744.860445
 70
    32
  0
VERTEX
  5
784
  8
TEAM-NET
 10
56.647357
 20
-198.482356
 30
746.191756
 70
    32
  0
VERTEX
  5
785
  8
TEAM-NET
 10
61.472855
 20
-199.589615
 30
747.866767
 70
    32
  0
VERTEX
  5
786
  8
TEAM-NET
 10
66.148672
 20
-200.88398
 30
749.875871
 70
    32
  0
VERTEX
  5
787
  8
TEAM-NET
 10
70.674075
 20
-202.343897
 30
752.211993
 70
    32
  0
VERTEX
  5
788
  8
TEAM-NET
 10
75.025276
 20
-203.940435
 30
754.858094
 70
    32
  0
VERTEX
  5
789
  8
TEAM-NET
 10
79.180031
 20
-205.642519
 30
757.792793
 70
    32
  0
VERTEX
  5
78A
  8
TEAM-NET
 10
83.117232
 20
-207.41891
 30
760.993685
 70
    32
  0
VERTEX
  5
78B
  8
TEAM-NET
 10
90.325109
 20
-211.10112
 30
768.148327
 70
    32
  0
VERTEX
  5
78C
  8
TEAM-NET
 10
96.634281
 20
-214.830688
 30
776.284585
 70
    32
  0
VERTEX
  5
78D
  8
TEAM-NET
 10
101.921665
 20
-218.414253
 30
785.257666
 70
    32
  0
SEQEND
  5
78E
  8
TEAM-NET
  0
POLYLINE
  5
106
  8
TEAM-NET
 66
     1
 10
0.0
 20
0.0
 30
0.0
 70
     8
  0
VERTEX
  5
78F
  8
TEAM-NET
 10
-101.921665
 20
-218.414253
 30
785.257666
 70
    32
  0
VERTEX
  5
790
  8
TEAM-NET
 10
-96.634375
 20
-214.830746
 30
776.284834
 70
    32
  0
VERTEX
  5
791
  8
TEAM-NET
 10
-90.324949
 20
-211.101056
 30
768.148109
 70
    32
  0
VERTEX
  5
792
  8
TEAM-NET
 10
-83.117245
 20
-207.418923
 30
760.993722
 70
    32
  0
VERTEX
  5
793
  8
TEAM-NET
 10
-79.180043
 20
-205.642526
 30
757.792805
 70
    32
  0
VERTEX
  5
794
  8
TEAM-NET
 10
-75.025297
 20
-203.940439
 30
754.858089
 70
    32
  0
VERTEX
  5
795
  8
TEAM-NET
 10
-70.674109
 20
-202.343902
 30
752.211994
 70
    32
  0
VERTEX
  5
796
  8
TEAM-NET
 10
-66.148694
 20
-200.883983
 30
749.875871
 70
    32
  0
VERTEX
  5
797
  8
TEAM-NET
 10
-61.472871
 20
-199.589616
 30
747.866766
 70
    32
  0
VERTEX
  5
798
  8
TEAM-NET
 10
-56.647357
 20
-198.482353
 30
746.191752
 70
    32
  0
VERTEX
  5
799
  8
TEAM-NET
 10
-51.667271
 20
-197.583678
 30
744.860442
 70
    32
  0
VERTEX
  5
79A
  8
TEAM-NET
 10
-46.577448
 20
-196.92264
 30
743.896719
 70
    32
  0
VERTEX
  5
79B
  8
TEAM-NET
 10
-41.426032
 20
-196.519516
 30
743.315274
 70
    32
  0
VERTEX
  5
79C
  8
TEAM-NET
 10
-36.263135
 20
-196.384681
 30
743.121843
 70
    32
  0
SEQEND
  5
79D
  8
TEAM-NET
  0
ARC
  5
107
  8
TEAM-NET
 10
-56.777007
 20
746.707299
 30
-36.263135
 40
10.0
210
1.0
220
0.0
230
0.0
 50
270.0
 51
353.0
  0
ARC
  5
108
  8
TEAM-NET
 10
-56.777007
 20
746.707299
 30
36.263135
 40
10.0
210
1.0
220
0.0
230
0.0
 50
270.0
 51
353.0
  0
ARC
  5
109
  8
TEAM-NET
 10
-184.084683
 20
751.707299
 30
-36.263135
 40
15.0
210
1.0
220
0.0
230
0.0
 50
214.915221
 51
270.0
  0
ARC
  5
10A
  8
TEAM-NET
 10
-184.084683
 20
751.707299
 30
36.263135
 40
15.0
210
1.0
220
0.0
230
0.0
 50
214.915221
 51
270.0
  0
ARC
  5
10B
  8
TEAM-NET
 10
-56.777007
 20
746.707299
 30
-36.263135
 40
10.0
210
1.0
220
0.0
230
0.0
 50
270.0
 51
353.0
  0
ARC
  5
10C
  8
TEAM-NET
 10
-56.777007
 20
746.707299
 30
36.263135
 40
10.0
210
1.0
220
0.0
230
0.0
 50
270.0
 51
353.0
  0
ARC
  5
10D
  8
TEAM-NET
 10
-184.084683
 20
751.707299
 30
-36.263135
 40
15.0
210
1.0
220
0.0
230
0.0
 50
214.915221
 51
270.0
  0
ARC
  5
10E
  8
TEAM-NET
 10
-184.084683
 20
751.707299
 30
36.263135
 40
15.0
210
1.0
220
0.0
230
0.0
 50
214.915221
 51
270.0
  0
ARC
  5
10F
  8
TEAM-NET
 10
0.0
 20
-100.0
 30
740.112019
 40
31.895533
 50
360.0
 51
180.0
  0
ARC
  5
110
  8
TEAM-NET
 10
0.0
 20
-100.0
 30
740.112019
 40
31.895533
 50
180.0
 51
0.0
  0
ARC
  5
111
  8
TEAM-NET
 10
0.0
 20
-100.0
 30
740.112019
 40
32.697766
 50
360.0
 51
180.0
  0
ARC
  5
112
  8
TEAM-NET
 10
0.0
 20
-100.0
 30
740.112019
 40
32.697766
 50
180.0
 51
0.0
  0
ARC
  5
113
  8
TEAM-NET
 10
-33.242641
 20
733.707299
 30
100.0
 40
3.0
210
0.0
220
-1.0
230
0.0
 50
45.0
 51
90.0
  0
ARC
  5
114
  8
TEAM-NET
 10
0.0
 20
-100.0
 30
736.707299
 40
33.242641
 50
180.0
 51
0.0
  0
ARC
  5
115
  8
TEAM-NET
 10
0.0
 20
-100.0
 30
-735.82862
 40
31.12132
210
0.0
220
0.0
230
-1.0
 50
180.0
 51
0.0
  0
ARC
  5
116
  8
TEAM-NET
 10
-33.242641
 20
733.707299
 30
-100.0
 40
3.0
210
0.0
220
1.0
230
0.0
 50
45.0
 51
90.0
  0
LINE
  5
117
  8
TEAM-NET
 10
31.12132
 20
-100.0
 30
735.82862
 11
26.87868
 21
-100.0
 31
731.585979
  0
ARC
  5
118
  8
TEAM-NET
 10
0.0
 20
-100.0
 30
731.585979
 40
26.87868
 50
180.0
 51
0.0
  0
ARC
  5
119
  8
TEAM-NET
 10
0.0
 20
-100.0
 30
-735.82862
 40
31.12132
210
0.0
220
0.0
230
-1.0
 50
180.0
 51
0.0
  0
LINE
  5
11A
  8
TEAM-NET
 10
-31.12132
 20
-100.0
 30
735.82862
 11
-26.87868
 21
-100.0
 31
731.585979
  0
ARC
  5
11B
  8
TEAM-NET
 10
29.0
 20
729.464659
 30
100.0
 40
3.0
210
0.0
220
-1.0
230
0.0
 50
135.0
 51
180.0
  0
ARC
  5
11C
  8
TEAM-NET
 10
0.0
 20
-100.0
 30
-729.464659
 40
26.0
210
0.0
220
0.0
230
-1.0
 50
180.0
 51
0.0
  0
ARC
  5
11D
  8
TEAM-NET
 10
0.0
 20
-100.0
 30
731.585979
 40
26.87868
 50
180.0
 51
0.0
  0
ARC
  5
11E
  8
TEAM-NET
 10
29.0
 20
729.464659
 30
-100.0
 40
3.0
210
0.0
220
1.0
230
0.0
 50
135.0
 51
180.0
  0
ARC
  5
11F
  8
TEAM-NET
 10
0.0
 20
-100.0
 30
736.707299
 40
33.242641
 50
180.0
 51
0.0
  0
ARC
  5
120
  8
TEAM-NET
 10
0.0
 20
-100.0
 30
736.707299
 40
33.242641
 50
360.0
 51
180.0
  0
LINE
  5
121
  8
TEAM-NET
 10
36.263135
 20
-184.084683
 30
736.707299
 11
-36.263135
 21
-184.084683
 31
736.707299
  0
LINE
  5
122
  8
TEAM-NET
 10
36.263135
 20
-56.777007
 30
736.707299
 11
36.263135
 21
-184.084683
 31
736.707299
  0
LINE
  5
123
  8
TEAM-NET
 10
-36.263135
 20
-56.777007
 30
736.707299
 11
-36.263135
 21
-184.084683
 31
736.707299
  0
LINE
  5
124
  8
TEAM-NET
 10
-36.263135
 20
-56.777007
 30
736.707299
 11
36.263135
 21
-56.777007
 31
736.707299
  0
ARC
  5
125
  8
TEAM-NET
 10
29.0
 20
729.464659
 30
100.0
 40
3.0
210
0.0
220
-1.0
230
0.0
 50
135.0
 51
180.0
  0
ARC
  5
126
  8
TEAM-NET
 10
0.0
 20
-100.0
 30
731.585979
 40
26.87868
 50
360.0
 51
180.0
  0
ARC
  5
127
  8
TEAM-NET
 10
0.0
 20
-100.0
 30
-729.464659
 40
26.0
210
0.0
220
0.0
230
-1.0
 50
0.0
 51
180.0
  0
ARC
  5
128
  8
TEAM-NET
 10
29.0
 20
729.464659
 30
-100.0
 40
3.0
210
0.0
220
1.0
230
0.0
 50
135.0
 51
180.0
  0
LINE
  5
129
  8
TEAM-NET
 10
31.12132
 20
-100.0
 30
735.82862
 11
26.87868
 21
-100.0
 31
731.585979
  0
ARC
  5
12A
  8
TEAM-NET
 10
0.0
 20
-100.0
 30
-735.82862
 40
31.12132
210
0.0
220
0.0
230
-1.0
 50
0.0
 51
180.0
  0
ARC
  5
12B
  8
TEAM-NET
 10
0.0
 20
-100.0
 30
731.585979
 40
26.87868
 50
360.0
 51
180.0
  0
LINE
  5
12C
  8
TEAM-NET
 10
-31.12132
 20
-100.0
 30
735.82862
 11
-26.87868
 21
-100.0
 31
731.585979
  0
ARC
  5
12D
  8
TEAM-NET
 10
-33.242641
 20
733.707299
 30
100.0
 40
3.0
210
0.0
220
-1.0
230
0.0
 50
45.0
 51
90.0
  0
ARC
  5
12E
  8
TEAM-NET
 10
0.0
 20
-100.0
 30
-735.82862
 40
31.12132
210
0.0
220
0.0
230
-1.0
 50
0.0
 51
180.0
  0
ARC
  5
12F
  8
TEAM-NET
 10
0.0
 20
-100.0
 30
736.707299
 40
33.242641
 50
360.0
 51
180.0
  0
ARC
  5
130
  8
TEAM-NET
 10
-33.242641
 20
733.707299
 30
-100.0
 40
3.0
210
0.0
220
1.0
230
0.0
 50
45.0
 51
90.0
  0
LINE
  5
131
  8
TEAM-NET
 10
-36.263135
 20
-56.777007
 30
736.707299
 11
36.263135
 21
-56.777007
 31
736.707299
  0
LINE
  5
132
  8
TEAM-NET
 10
36.263135
 20
-184.084683
 30
736.707299
 11
-36.263135
 21
-184.084683
 31
736.707299
  0
LINE
  5
133
  8
TEAM-NET
 10
31.895533
 20
-100.0
 30
740.112019
 11
21.0
 21
-100.0
 31
731.428361
  0
ARC
  5
134
  8
TEAM-NET
 10
0.0
 20
-100.0
 30
731.428361
 40
21.0
 50
180.0
 51
0.0
  0
ARC
  5
135
  8
TEAM-NET
 10
0.0
 20
-100.0
 30
740.112019
 40
31.895533
 50
180.0
 51
0.0
  0
LINE
  5
136
  8
TEAM-NET
 10
-31.895533
 20
-100.0
 30
740.112019
 11
-21.0
 21
-100.0
 31
731.428361
  0
LINE
  5
137
  8
TEAM-NET
 10
32.697766
 20
-100.0
 30
740.112019
 11
22.0
 21
-100.0
 31
731.585979
  0
ARC
  5
138
  8
TEAM-NET
 10
0.0
 20
-100.0
 30
731.585979
 40
22.0
 50
360.0
 51
180.0
  0
ARC
  5
139
  8
TEAM-NET
 10
0.0
 20
-100.0
 30
740.112019
 40
32.697766
 50
360.0
 51
180.0
  0
LINE
  5
13A
  8
TEAM-NET
 10
-32.697766
 20
-100.0
 30
740.112019
 11
-22.0
 21
-100.0
 31
731.585979
  0
LINE
  5
13B
  8
TEAM-NET
 10
32.697766
 20
-100.0
 30
740.112019
 11
22.0
 21
-100.0
 31
731.585979
  0
ARC
  5
13C
  8
TEAM-NET
 10
0.0
 20
-100.0
 30
740.112019
 40
32.697766
 50
180.0
 51
0.0
  0
ARC
  5
13D
  8
TEAM-NET
 10
0.0
 20
-100.0
 30
731.585979
 40
22.0
 50
180.0
 51
0.0
  0
LINE
  5
13E
  8
TEAM-NET
 10
-32.697766
 20
-100.0
 30
740.112019
 11
-22.0
 21
-100.0
 31
731.585979
  0
LINE
  5
13F
  8
TEAM-NET
 10
31.895533
 20
-100.0
 30
740.112019
 11
21.0
 21
-100.0
 31
731.428361
  0
ARC
  5
140
  8
TEAM-NET
 10
0.0
 20
-100.0
 30
740.112019
 40
31.895533
 50
360.0
 51
180.0
  0
ARC
  5
141
  8
TEAM-NET
 10
0.0
 20
-100.0
 30
731.428361
 40
21.0
 50
360.0
 51
180.0
  0
LINE
  5
142
  8
TEAM-NET
 10
-31.895533
 20
-100.0
 30
740.112019
 11
-21.0
 21
-100.0
 31
731.428361
  0
ARC
  5
143
  8
TEAM-NET
 10
0.0
 20
-100.0
 30
-729.464659
 40
26.0
210
0.0
220
0.0
230
-1.0
 50
180.0
 51
0.0
  0
ARC
  5
144
  8
TEAM-NET
 10
0.0
 20
-100.0
 30
-729.464659
 40
26.0
210
0.0
220
0.0
230
-1.0
 50
0.0
 51
180.0
  0
ARC
  5
145
  8
TEAM-NET
 10
0.0
 20
-100.0
 30
731.428361
 40
21.0
 50
180.0
 51
0.0
  0
ARC
  5
146
  8
TEAM-NET
 10
0.0
 20
-100.0
 30
731.585979
 40
22.0
 50
360.0
 51
180.0
  0
ARC
  5
147
  8
TEAM-NET
 10
0.0
 20
-100.0
 30
731.585979
 40
22.0
 50
180.0
 51
0.0
  0
ARC
  5
148
  8
TEAM-NET
 10
0.0
 20
-100.0
 30
731.428361
 40
21.0
 50
360.0
 51
180.0
  0
LINE
  5
149
  8
TEAM-NET
 10
36.263135
 20
-56.777007
 30
736.707299
 11
36.263135
 21
-184.084683
 31
736.707299
  0
LINE
  5
14A
  8
TEAM-NET
 10
-36.263135
 20
-56.777007
 30
736.707299
 11
-36.263135
 21
-184.084683
 31
736.707299
  0
LINE
  5
14B
  8
TEAM-NET
 10
36.263135
 20
-208.011232
 30
736.707299
 11
0.0
 21
-208.011232
 31
736.707299
  0
LINE
  5
14C
  8
TEAM-NET
 10
0.0
 20
-208.011232
 30
736.707299
 11
-36.263135
 21
-208.011232
 31
736.707299
  0
LINE
  5
14D
  8
TEAM-NET
 10
0.0
 20
-208.011232
 30
736.707299
 11
-36.263135
 21
-208.011232
 31
736.707299
  0
LINE
  5
14E
  8
TEAM-NET
 10
36.263135
 20
-208.011232
 30
736.707299
 11
0.0
 21
-208.011232
 31
736.707299
  0
ARC
  5
14F
  8
TEAM-NET
 10
0.0
 20
-100.0
 30
742.407899
 40
30.0
 50
90.0
 51
180.0
  0
ARC
  5
150
  8
TEAM-NET
 10
0.0
 20
-100.0
 30
742.407899
 40
30.0
 50
180.0
 51
270.0
  0
ARC
  5
151
  8
TEAM-NET
 10
99.353571
 20
655.436683
 30
0.0
 40
91.7912
210
-1.0
220
0.0
230
0.0
 50
89.596498
 51
108.650003
  0
ARC
  5
152
  8
TEAM-NET
 10
-100.646429
 20
655.436683
 30
0.0
 40
91.7912
210
1.0
220
0.0
230
0.0
 50
89.596498
 51
108.650003
  0
LINE
  5
153
  8
TEAM-NET
 10
30.0
 20
-100.0
 30
742.407899
 11
30.0
 21
-100.0
 31
741.585979
  0
ARC
  5
154
  8
TEAM-NET
 10
0.0
 20
-100.0
 30
742.407899
 40
30.0
 50
360.0
 51
90.0
  0
ARC
  5
155
  8
TEAM-NET
 10
0.0
 20
-100.0
 30
741.585979
 40
30.0
 50
360.0
 51
180.0
  0
ARC
  5
156
  8
TEAM-NET
 10
0.0
 20
-100.0
 30
742.407899
 40
30.0
 50
90.0
 51
180.0
  0
LINE
  5
157
  8
TEAM-NET
 10
-30.0
 20
-100.0
 30
742.407899
 11
-30.0
 21
-100.0
 31
741.585979
  0
LINE
  5
158
  8
TEAM-NET
 10
-15.626937
 20
-85.971499
 30
741.585979
 11
-4.911903
 21
-96.554248
 31
741.585979
210
0.0
220
-0.0
230
-1.0
  0
ARC
  5
159
  8
TEAM-NET
 10
0.0
 20
-100.0
 30
-741.585979
 40
6.0
210
0.0
220
-0.0
230
-1.0
 50
324.238198
 51
35.050062
  0
ARC
  5
15A
  8
TEAM-NET
 10
0.0
 20
-100.0
 30
-741.585979
 40
21.0
210
0.0
220
-0.0
230
-1.0
 50
41.914727
 51
47.373533
  0
LINE
  5
15B
  8
TEAM-NET
 10
-4.868722
 20
-103.506501
 30
741.585979
 11
-15.451471
 21
-114.221535
 31
741.585979
210
0.0
220
-0.0
230
-1.0
  0
LINE
  5
15C
  8
TEAM-NET
 10
-3.506501
 20
-95.131278
 30
741.585979
 11
-14.221535
 21
-84.548529
 31
741.585979
210
0.0
220
-0.0
230
-1.0
  0
ARC
  5
15D
  8
TEAM-NET
 10
0.0
 20
-100.0
 30
-741.585979
 40
21.0
210
0.0
220
-0.0
230
-1.0
 50
311.914727
 51
317.373533
  0
ARC
  5
15E
  8
TEAM-NET
 10
0.0
 20
-100.0
 30
-741.585979
 40
6.0
210
0.0
220
-0.0
230
-1.0
 50
54.238198
 51
125.050062
  0
LINE
  5
15F
  8
TEAM-NET
 10
-14.028501
 20
-115.626937
 30
741.585979
 11
-3.445752
 21
-104.911903
 31
741.585979
210
0.0
220
-0.0
230
-1.0
  0
LINE
  5
160
  8
TEAM-NET
 10
14.028501
 20
-84.373063
 30
741.585979
 11
3.445752
 21
-95.088097
 31
741.585979
210
0.0
220
-0.0
230
-1.0
  0
ARC
  5
161
  8
TEAM-NET
 10
0.0
 20
-100.0
 30
-741.585979
 40
6.0
210
0.0
220
-0.0
230
-1.0
 50
234.238198
 51
305.050062
  0
ARC
  5
162
  8
TEAM-NET
 10
0.0
 20
-100.0
 30
-741.585979
 40
21.0
210
0.0
220
-0.0
230
-1.0
 50
131.914727
 51
137.373533
  0
LINE
  5
163
  8
TEAM-NET
 10
3.506501
 20
-104.868722
 30
741.585979
 11
14.221535
 21
-115.451471
 31
741.585979
210
0.0
220
-0.0
230
-1.0
  0
LINE
  5
164
  8
TEAM-NET
 10
4.868722
 20
-96.493499
 30
741.585979
 11
15.451471
 21
-85.778465
 31
741.585979
210
0.0
220
-0.0
230
-1.0
  0
ARC
  5
165
  8
TEAM-NET
 10
0.0
 20
-100.0
 30
-741.585979
 40
21.0
210
0.0
220
-0.0
230
-1.0
 50
221.914727
 51
227.373533
  0
ARC
  5
166
  8
TEAM-NET
 10
0.0
 20
-100.0
 30
-741.585979
 40
6.0
210
0.0
220
-0.0
230
-1.0
 50
144.238198
 51
215.050062
  0
LINE
  5
167
  8
TEAM-NET
 10
15.626937
 20
-114.028501
 30
741.585979
 11
4.911903
 21
-103.445752
 31
741.585979
210
0.0
220
-0.0
230
-1.0
  0
ARC
  5
168
  8
TEAM-NET
 10
0.0
 20
-100.0
 30
-741.585979
 40
30.0
210
0.0
220
-0.0
230
-1.0
 50
0.0
 51
180.0
  0
ARC
  5
169
  8
TEAM-NET
 10
0.0
 20
-100.0
 30
-741.585979
 40
30.0
210
0.0
220
-0.0
230
-1.0
 50
180.0
 51
0.0
  0
ARC
  5
16A
  8
TEAM-NET
 10
0.0
 20
-100.0
 30
742.407899
 40
30.0
 50
270.0
 51
0.0
  0
LINE
  5
16B
  8
TEAM-NET
 10
30.0
 20
-100.0
 30
742.407899
 11
30.0
 21
-100.0
 31
741.585979
  0
ARC
  5
16C
  8
TEAM-NET
 10
0.0
 20
-100.0
 30
742.407899
 40
30.0
 50
180.0
 51
270.0
  0
ARC
  5
16D
  8
TEAM-NET
 10
0.0
 20
-100.0
 30
741.585979
 40
30.0
 50
180.0
 51
0.0
  0
LINE
  5
16E
  8
TEAM-NET
 10
-30.0
 20
-100.0
 30
742.407899
 11
-30.0
 21
-100.0
 31
741.585979
  0
ARC
  5
16F
  8
TEAM-NET
 10
0.0
 20
-100.0
 30
742.407899
 40
30.0
 50
360.0
 51
90.0
  0
ARC
  5
170
  8
TEAM-NET
 10
99.353571
 20
655.436683
 30
0.0
 40
91.7912
210
-1.0
220
0.0
230
0.0
 50
89.596498
 51
108.650003
  0
ARC
  5
171
  8
TEAM-NET
 10
0.0
 20
-100.0
 30
742.407899
 40
30.0
 50
270.0
 51
0.0
  0
ARC
  5
172
  8
TEAM-NET
 10
-100.646429
 20
655.436683
 30
0.0
 40
91.7912
210
1.0
220
0.0
230
0.0
 50
89.596498
 51
108.650003
  0
LINE
  5
173
  8
TEAM-NET
 10
36.263135
 20
-46.851545
 30
745.488606
 11
-36.263135
 21
-46.851545
 31
745.488606
  0
LINE
  5
174
  8
TEAM-NET
 10
-36.263135
 20
-196.384681
 30
743.121843
 11
36.263135
 21
-196.384681
 31
743.121843
  0
LINE
  5
175
  8
TEAM-NET
 10
-3.506501
 20
-95.131278
 30
741.585979
 11
-14.221535
 21
-84.548529
 31
741.585979
210
0.702701
220
0.711485
230
-0.0
  0
ARC
  5
176
  8
TEAM-NET
 10
0.0
 20
-100.0
 30
741.585979
 40
21.0
 50
132.626467
 51
138.085273
  0
LINE
  5
177
  8
TEAM-NET
 10
4.868722
 20
-96.493499
 30
741.585979
 11
15.451471
 21
-85.778465
 31
741.585979
210
0.711485
220
-0.702701
230
0.0
  0
ARC
  5
178
  8
TEAM-NET
 10
0.0
 20
-100.0
 30
741.585979
 40
21.0
 50
42.626467
 51
48.085273
  0
LINE
  5
179
  8
TEAM-NET
 10
3.506501
 20
-104.868722
 30
741.585979
 11
14.221535
 21
-115.451471
 31
741.585979
210
-0.702701
220
-0.711485
230
0.0
  0
ARC
  5
17A
  8
TEAM-NET
 10
0.0
 20
-100.0
 30
741.585979
 40
21.0
 50
312.626467
 51
318.085273
  0
LINE
  5
17B
  8
TEAM-NET
 10
-4.868722
 20
-103.506501
 30
741.585979
 11
-15.451471
 21
-114.221535
 31
741.585979
210
-0.711485
220
0.702701
230
-0.0
  0
ARC
  5
17C
  8
TEAM-NET
 10
0.0
 20
-100.0
 30
741.585979
 40
21.0
 50
222.626467
 51
228.085273
  0
LINE
  5
17D
  8
TEAM-NET
 10
15.626937
 20
-114.028501
 30
741.585979
 11
4.911903
 21
-103.445752
 31
741.585979
210
0.702701
220
0.711485
230
-0.0
  0
ARC
  5
17E
  8
TEAM-NET
 10
0.0
 20
-100.0
 30
741.585979
 40
6.0
 50
234.949938
 51
305.761802
  0
LINE
  5
17F
  8
TEAM-NET
 10
14.028501
 20
-84.373063
 30
741.585979
 11
3.445752
 21
-95.088097
 31
741.585979
210
-0.711485
220
0.702701
230
-0.0
  0
ARC
  5
180
  8
TEAM-NET
 10
0.0
 20
-100.0
 30
741.585979
 40
6.0
 50
324.949938
 51
35.761802
  0
LINE
  5
181
  8
TEAM-NET
 10
-15.626937
 20
-85.971499
 30
741.585979
 11
-4.911903
 21
-96.554248
 31
741.585979
210
-0.702701
220
-0.711485
230
0.0
  0
ARC
  5
182
  8
TEAM-NET
 10
0.0
 20
-100.0
 30
741.585979
 40
6.0
 50
144.949938
 51
215.761802
  0
ARC
  5
183
  8
TEAM-NET
 10
0.0
 20
-100.0
 30
741.585979
 40
6.0
 50
54.949938
 51
125.761802
  0
LINE
  5
184
  8
TEAM-NET
 10
-14.028501
 20
-115.626937
 30
741.585979
 11
-3.445752
 21
-104.911903
 31
741.585979
210
0.711485
220
-0.702701
230
0.0
  0
LINE
  5
185
  8
TEAM-NET
 10
36.263135
 20
-46.851545
 30
745.488606
 11
-36.263135
 21
-46.851545
 31
745.488606
210
0.0
220
-0.992546
230
0.121869
  0
LINE
  5
186
  8
TEAM-NET
 10
-36.263135
 20
-196.384681
 30
743.121843
 11
36.263135
 21
-196.384681
 31
743.121843
  0
LINE
  5
187
  8
TEAM-NET
 10
0.0
 20
-230.0
 30
768.008368
 11
104.486559
 21
-230.0
 31
768.008368
  0
LINE
  5
188
  8
TEAM-NET
 10
-104.486559
 20
-230.0
 30
768.008368
 11
0.0
 21
-230.0
 31
768.008368
  0
LINE
  5
189
  8
TEAM-NET
 10
-104.486559
 20
-230.0
 30
768.008368
 11
0.0
 21
-230.0
 31
768.008368
  0
LINE
  5
18A
  8
TEAM-NET
 10
0.0
 20
-230.0
 30
768.008368
 11
104.486559
 21
-230.0
 31
768.008368
  0
ARC
  5
18B
  8
TEAM-NET
 10
-73.546127
 20
307.393961
 30
-731.493622
 40
10.0
210
0.480546
220
-0.106876
230
-0.870433
 50
259.043723
 51
345.66698
  0
ARC
  5
18C
  8
TEAM-NET
 10
-73.546127
 20
307.393961
 30
731.493622
 40
10.0
210
0.480546
220
0.106876
230
0.870433
 50
259.043723
 51
345.66698
  0
LINE
  5
18D
  8
TEAM-NET
 10
115.053371
 20
-51.701722
 30
783.209038
 11
115.053371
 21
-204.344827
 31
783.209038
  0
LINE
  5
18E
  8
TEAM-NET
 10
-115.053371
 20
-51.701722
 30
783.209038
 11
-115.053371
 21
-204.344827
 31
783.209038
  0
ARC
  5
18F
  8
TEAM-NET
 10
113.086612
 20
272.203448
 30
768.170923
 40
15.0
210
-0.459833
220
-0.307906
230
0.832915
 50
240.850589
 51
321.203228
  0
ARC
  5
190
  8
TEAM-NET
 10
-113.086612
 20
272.203448
 30
768.170923
 40
15.0
210
0.459833
220
-0.307906
230
0.832915
 50
218.796772
 51
299.149411
  0
ARC
  5
191
  8
TEAM-NET
 10
-113.086612
 20
272.203448
 30
768.170923
 40
15.0
210
0.459833
220
-0.307906
230
0.832915
 50
218.796772
 51
299.149411
  0
LINE
  5
192
  8
TEAM-NET
 10
115.053371
 20
-51.701722
 30
783.209038
 11
115.053371
 21
-204.344827
 31
783.209038
  0
ARC
  5
193
  8
TEAM-NET
 10
-73.546127
 20
307.393961
 30
731.493622
 40
10.0
210
0.480546
220
0.106876
230
0.870433
 50
259.043723
 51
345.66698
  0
ARC
  5
194
  8
TEAM-NET
 10
-73.546127
 20
307.393961
 30
-731.493622
 40
10.0
210
0.480546
220
-0.106876
230
-0.870433
 50
259.043723
 51
345.66698
  0
LINE
  5
195
  8
TEAM-NET
 10
-115.053371
 20
-51.701722
 30
783.209038
 11
-115.053371
 21
-204.344827
 31
783.209038
  0
ARC
  5
196
  8
TEAM-NET
 10
113.086612
 20
272.203448
 30
768.170923
 40
15.0
210
-0.459833
220
-0.307906
230
0.832915
 50
240.850589
 51
321.203228
  0
LINE
  5
197
  8
TEAM-NET
 10
-136.877083
 20
-91.895309
 30
981.338679
 11
-142.79872
 21
-88.495234
 31
942.613206
  0
ARC
  5
79E
  8
TEAM-NET
 10
-147.848866
 20
264.243284
 30
914.440507
 40
22.0
210
0.15059
220
-0.086466
230
0.984808
 50
270.0
 51
90.0
1001
ACAD
1000
R13OBJECT
1002
{
1005
197
1002
}
  0
LINE
  5
79F
  8
TEAM-NET
 10
-174.454804
 20
-70.318996
 30
988.979198
 11
-180.376442
 21
-66.91892
 31
950.253726
1001
ACAD
1000
R13OBJECT
1002
{
1005
197
1002
}
  0
ARC
  5
7A0
  8
TEAM-NET
 10
-147.848866
 20
264.243284
 30
953.763383
 40
22.0
210
0.15059
220
-0.086466
230
0.984808
 50
270.0
 51
90.0
1001
ACAD
1000
R13OBJECT
1002
{
1005
197
1002
}
  0
LINE
  5
7A1
  8
TEAM-NET
 10
-150.633
 20
-58.628368
 30
946.433466
 11
-144.711362
 21
-62.028443
 31
985.158938
1001
ACAD
1000
R13OBJECT
1002
{
1005
197
1002
}
  0
LINE
  5
198
  8
TEAM-NET
 10
-136.877083
 20
-91.895309
 30
981.338679
 11
-142.79872
 21
-88.495234
 31
942.613206
  0
ARC
  5
7A2
  8
TEAM-NET
 10
-147.848866
 20
264.243284
 30
953.763383
 40
22.0
210
0.15059
220
-0.086466
230
0.984808
 50
90.0
 51
270.0
1001
ACAD
1000
R13OBJECT
1002
{
1005
198
1002
}
  0
LINE
  5
7A3
  8
TEAM-NET
 10
-174.454804
 20
-70.318996
 30
988.979198
 11
-180.376442
 21
-66.91892
 31
950.253726
1001
ACAD
1000
R13OBJECT
1002
{
1005
198
1002
}
  0
ARC
  5
7A4
  8
TEAM-NET
 10
-147.848866
 20
264.243284
 30
914.440507
 40
22.0
210
0.15059
220
-0.086466
230
0.984808
 50
90.0
 51
270.0
1001
ACAD
1000
R13OBJECT
1002
{
1005
198
1002
}
  0
LINE
  5
7A5
  8
TEAM-NET
 10
-172.542163
 20
-96.785786
 30
946.433466
 11
-166.620525
 21
-100.185862
 31
985.158938
1001
ACAD
1000
R13OBJECT
1002
{
1005
198
1002
}
  0
LINE
  5
199
  8
TEAM-NET
 10
-94.919977
 20
-125.288857
 30
868.777596
 11
-100.617283
 21
-122.017588
 31
876.316794
  0
ARC
  5
7A6
  8
TEAM-NET
 10
-147.920602
 20
555.469282
 30
-678.082058
 40
8.0
210
0.569731
220
-0.327127
230
-0.75392
 50
358.117883
 51
178.117883
1001
ACAD
1000
R13OBJECT
1002
{
1005
199
1002
}
  0
LINE
  5
7A7
  8
TEAM-NET
 10
-87.300878
 20
-111.223647
 30
868.432366
 11
-92.998184
 21
-107.952377
 31
875.971563
1001
ACAD
1000
R13OBJECT
1002
{
1005
199
1002
}
  0
ARC
  5
7A8
  8
TEAM-NET
 10
147.920602
 20
555.469282
 30
668.082058
 40
8.0
210
-0.569731
220
0.327127
230
0.75392
 50
1.882117
 51
181.882117
1001
ACAD
1000
R13OBJECT
1002
{
1005
199
1002
}
  0
ARC
  5
19A
  8
TEAM-NET
 10
-147.920602
 20
555.469282
 30
-678.082058
 40
8.0
210
0.569731
220
-0.327127
230
-0.75392
 50
358.117883
 51
178.117883
  0
ARC
  5
7A9
  8
TEAM-NET
 10
-147.920602
 20
555.469282
 30
-678.082058
 40
8.0
210
0.569731
220
-0.327127
230
-0.75392
 50
178.117883
 51
358.117883
1001
ACAD
1000
R13OBJECT
1002
{
1005
19A
1002
}
  0
ARC
  5
7AA
  8
TEAM-NET
 10
-147.920602
 20
555.469282
 30
-678.082058
 40
9.0
210
0.569731
220
-0.327127
230
-0.75392
 50
358.117883
 51
178.117883
1001
ACAD
1000
R13OBJECT
1002
{
1005
19A
1002
}
  0
ARC
  5
7AB
  8
TEAM-NET
 10
-147.920602
 20
555.469282
 30
-678.082058
 40
9.0
210
0.569731
220
-0.327127
230
-0.75392
 50
178.117883
 51
358.117883
1001
ACAD
1000
R13OBJECT
1002
{
1005
19A
1002
}
  0
ARC
  5
19B
  8
TEAM-NET
 10
155.642642
 20
681.813729
 30
-550.311424
 40
1.0
210
-0.669811
220
0.346719
230
-0.656612
 50
1.639337
 51
91.639337
  0
ARC
  5
7AC
  8
TEAM-NET
 10
-147.920602
 20
555.469282
 30
-678.082058
 40
9.0
210
0.569731
220
-0.327127
230
-0.75392
 50
178.117883
 51
358.117883
1001
ACAD
1000
R13OBJECT
1002
{
1005
19B
1002
}
  0
ARC
  5
7AD
  8
TEAM-NET
 10
-137.650009
 20
681.298787
 30
550.311424
 40
1.0
210
0.669811
220
-0.346719
230
0.656612
 50
358.360663
 51
88.360663
1001
ACAD
1000
R13OBJECT
1002
{
1005
19B
1002
}
  0
ARC
  5
7AE
  8
TEAM-NET
 10
147.920602
 20
555.469282
 30
677.082058
 40
10.0
210
-0.569731
220
0.327127
230
0.75392
 50
181.882117
 51
1.882117
1001
ACAD
1000
R13OBJECT
1002
{
1005
19B
1002
}
  0
ARC
  5
7AF
  8
TEAM-NET
 10
-36.483362
 20
866.098802
 30
166.084211
 40
1.0
210
-0.476194
220
-0.879076
230
0.021577
 50
131.053616
 51
221.053616
1001
ACAD
1000
R13OBJECT
1002
{
1005
19B
1002
}
  0
LINE
  5
19C
  8
TEAM-NET
 10
-100.99994
 20
-124.102866
 30
875.606028
 11
-96.442095
 21
-126.719882
 31
869.57467
  0
ARC
  5
7B0
  8
TEAM-NET
 10
-147.920602
 20
555.469282
 30
-669.082058
 40
10.0
210
0.569731
220
-0.327127
230
-0.75392
 50
358.117883
 51
178.117883
1001
ACAD
1000
R13OBJECT
1002
{
1005
19C
1002
}
  0
LINE
  5
7B1
  8
TEAM-NET
 10
-91.476066
 20
-106.521353
 30
875.17449
 11
-86.918222
 21
-109.138368
 31
869.143132
1001
ACAD
1000
R13OBJECT
1002
{
1005
19C
1002
}
  0
ARC
  5
7B2
  8
TEAM-NET
 10
147.920602
 20
555.469282
 30
677.082058
 40
10.0
210
-0.569731
220
0.327127
230
0.75392
 50
1.882117
 51
181.882117
1001
ACAD
1000
R13OBJECT
1002
{
1005
19C
1002
}
  0
LINE
  5
7B3
  8
TEAM-NET
 10
-84.982049
 20
-121.396313
 30
875.925021
 11
-89.539894
 21
-118.779297
 31
881.95638
1001
ACAD
1000
R13OBJECT
1002
{
1005
19C
1002
}
  0
LINE
  5
19D
  8
TEAM-NET
 10
-100.99994
 20
-124.102866
 30
875.606028
 11
-96.442095
 21
-126.719882
 31
869.57467
  0
ARC
  5
7B4
  8
TEAM-NET
 10
147.920602
 20
555.469282
 30
677.082058
 40
10.0
210
-0.569731
220
0.327127
230
0.75392
 50
181.882117
 51
1.882117
1001
ACAD
1000
R13OBJECT
1002
{
1005
19D
1002
}
  0
LINE
  5
7B5
  8
TEAM-NET
 10
-91.476066
 20
-106.521353
 30
875.17449
 11
-86.918222
 21
-109.138368
 31
869.143132
1001
ACAD
1000
R13OBJECT
1002
{
1005
19D
1002
}
  0
ARC
  5
7B6
  8
TEAM-NET
 10
-147.920602
 20
555.469282
 30
-669.082058
 40
10.0
210
0.569731
220
-0.327127
230
-0.75392
 50
178.117883
 51
358.117883
1001
ACAD
1000
R13OBJECT
1002
{
1005
19D
1002
}
  0
LINE
  5
7B7
  8
TEAM-NET
 10
-98.378267
 20
-114.461937
 30
862.79278
 11
-102.936112
 21
-111.844921
 31
868.824138
1001
ACAD
1000
R13OBJECT
1002
{
1005
19D
1002
}
  0
ARC
  5
19E
  8
TEAM-NET
 10
155.642642
 20
681.813729
 30
-550.311424
 40
1.0
210
-0.669811
220
0.346719
230
-0.656612
 50
1.639337
 51
91.639337
  0
ARC
  5
7B8
  8
TEAM-NET
 10
147.920602
 20
555.469282
 30
677.082058
 40
10.0
210
-0.569731
220
0.327127
230
0.75392
 50
1.882117
 51
181.882117
1001
ACAD
1000
R13OBJECT
1002
{
1005
19E
1002
}
  0
ARC
  5
7B9
  8
TEAM-NET
 10
-137.650009
 20
681.298787
 30
550.311424
 40
1.0
210
0.669811
220
-0.346719
230
0.656612
 50
358.360663
 51
88.360663
1001
ACAD
1000
R13OBJECT
1002
{
1005
19E
1002
}
  0
ARC
  5
7BA
  8
TEAM-NET
 10
-147.920602
 20
555.469282
 30
-678.082058
 40
9.0
210
0.569731
220
-0.327127
230
-0.75392
 50
358.117883
 51
178.117883
1001
ACAD
1000
R13OBJECT
1002
{
1005
19E
1002
}
  0
ARC
  5
7BB
  8
TEAM-NET
 10
22.909647
 20
877.920571
 30
-166.084211
 40
1.0
210
0.476194
220
0.879076
230
-0.021577
 50
48.946384
 51
138.946384
1001
ACAD
1000
R13OBJECT
1002
{
1005
19E
1002
}
  0
LINE
  5
19F
  8
TEAM-NET
 10
-94.919977
 20
-125.288857
 30
868.777596
 11
-100.617283
 21
-122.017588
 31
876.316794
  0
ARC
  5
7BC
  8
TEAM-NET
 10
147.920602
 20
555.469282
 30
668.082058
 40
8.0
210
-0.569731
220
0.327127
230
0.75392
 50
181.882117
 51
1.882117
1001
ACAD
1000
R13OBJECT
1002
{
1005
19F
1002
}
  0
LINE
  5
7BD
  8
TEAM-NET
 10
-87.300878
 20
-111.223647
 30
868.432366
 11
-92.998184
 21
-107.952377
 31
875.971563
1001
ACAD
1000
R13OBJECT
1002
{
1005
19F
1002
}
  0
ARC
  5
7BE
  8
TEAM-NET
 10
-147.920602
 20
555.469282
 30
-678.082058
 40
8.0
210
0.569731
220
-0.327127
230
-0.75392
 50
178.117883
 51
358.117883
1001
ACAD
1000
R13OBJECT
1002
{
1005
19F
1002
}
  0
LINE
  5
1A0
  8
TEAM-NET
 10
-207.866135
 20
-54.594287
 30
891.119732
 11
-208.027642
 21
-54.501553
 31
892.111486
  0
ARC
  5
7BF
  8
TEAM-NET
 10
-151.810257
 20
873.75822
 30
150.848866
 40
17.407882
210
-0.497936
220
-0.867214
230
-0.0
 50
10.635407
 51
94.182905
1001
ACAD
1000
R13OBJECT
1002
{
1005
1A0
1002
}
  0
LINE
  5
7C0
  8
TEAM-NET
 10
-191.927971
 20
-63.745636
 30
876.970996
 11
-186.326153
 21
-66.962078
 31
842.572244
1001
ACAD
1000
R13OBJECT
1002
{
1005
1A0
1002
}
  0
LINE
  5
7C1
  8
TEAM-NET
 10
-186.326153
 20
-66.962078
 30
842.572244
 11
-185.473834
 21
-67.451461
 31
842.756804
1001
ACAD
1000
R13OBJECT
1002
{
1005
1A0
1002
}
  0
LINE
  5
7C2
  8
TEAM-NET
 10
-191.063418
 20
-64.242043
 30
877.080432
 11
-185.473834
 21
-67.451461
 31
842.756804
1001
ACAD
1000
R13OBJECT
1002
{
1005
1A0
1002
}
  0
ARC
  5
7C3
  8
TEAM-NET
 10
151.883265
 20
873.666737
 30
-150.848866
 40
18.496523
210
0.497936
220
0.867214
230
0.0
 50
85.712041
 51
169.364593
1001
ACAD
1000
R13OBJECT
1002
{
1005
1A0
1002
}
  0
ARC
  5
1A1
  8
TEAM-NET
 10
145.848866
 20
901.073937
 30
86.134788
 40
1.0
210
-0.864787
220
0.496542
230
-0.074769
 50
90.0
 51
180.0
  0
ARC
  5
7C4
  8
TEAM-NET
 10
151.883265
 20
873.666737
 30
-145.848866
 40
19.496523
210
0.497936
220
0.867214
230
0.0
 50
85.712041
 51
169.364593
1001
ACAD
1000
R13OBJECT
1002
{
1005
1A1
1002
}
  0
ARC
  5
7C5
  8
TEAM-NET
 10
-145.848866
 20
30.465211
 30
-886.689824
 40
1.0
210
0.160052
220
-0.091898
230
-0.982821
 50
360.0
 51
90.0
1001
ACAD
1000
R13OBJECT
1002
{
1005
1A1
1002
}
  0
ARC
  5
7C6
  8
TEAM-NET
 10
-151.883265
 20
873.666737
 30
144.848866
 40
18.496523
210
-0.497936
220
-0.867214
230
-0.0
 50
10.635407
 51
94.287959
1001
ACAD
1000
R13OBJECT
1002
{
1005
1A1
1002
}
  0
ARC
  5
7C7
  8
TEAM-NET
 10
145.848866
 20
895.972695
 30
128.053354
 40
1.0
210
-0.866893
220
0.497751
230
-0.027211
 50
90.0
 51
180.0
1001
ACAD
1000
R13OBJECT
1002
{
1005
1A1
1002
}
  0
ARC
  5
7C8
  8
TEAM-NET
 10
145.848866
 20
740.651297
 30
514.64024
 40
1.0
210
-0.781995
220
0.449004
230
0.432296
 50
90.0
 51
180.0
1001
ACAD
1000
R13OBJECT
1002
{
1005
1A1
1002
}
  0
ARC
  5
7C9
  8
TEAM-NET
 10
145.848866
 20
425.928261
 30
787.63029
 40
1.0
210
-0.524486
220
0.301149
230
0.796382
 50
90.0
 51
180.0
1001
ACAD
1000
R13OBJECT
1002
{
1005
1A1
1002
}
  0
LINE
  5
1A2
  8
TEAM-NET
 10
-207.594547
 20
-53.597109
 30
893.108687
 11
-205.602805
 21
-50.128253
 31
893.108687
  0
ARC
  5
7CA
  8
TEAM-NET
 10
-151.883265
 20
873.666737
 30
149.848866
 40
19.496523
210
-0.497936
220
-0.867214
230
0.0
 50
10.635407
 51
94.287959
1001
ACAD
1000
R13OBJECT
1002
{
1005
1A2
1002
}
  0
LINE
  5
7CB
  8
TEAM-NET
 10
-187.721423
 20
-60.395355
 30
877.264991
 11
-189.713166
 21
-63.864211
 31
877.264991
1001
ACAD
1000
R13OBJECT
1002
{
1005
1A2
1002
}
  0
ARC
  5
7CC
  8
TEAM-NET
 10
151.883265
 20
873.666737
 30
-145.848866
 40
19.496523
210
0.497936
220
0.867214
230
0.0
 50
85.712041
 51
169.364593
1001
ACAD
1000
R13OBJECT
1002
{
1005
1A2
1002
}
  0
ARC
  5
1A3
  8
TEAM-NET
 10
149.848866
 20
901.073937
 30
86.134788
 40
1.0
210
-0.864787
220
0.496542
230
-0.074769
 50
360.0
 51
90.0
  0
ARC
  5
7CD
  8
TEAM-NET
 10
151.883265
 20
873.666737
 30
-150.848866
 40
18.496523
210
0.497936
220
0.867214
230
0.0
 50
85.712041
 51
169.364593
1001
ACAD
1000
R13OBJECT
1002
{
1005
1A3
1002
}
  0
ARC
  5
7CE
  8
TEAM-NET
 10
-149.848866
 20
30.465211
 30
-886.689824
 40
1.0
210
0.160052
220
-0.091898
230
-0.982821
 50
90.0
 51
180.0
1001
ACAD
1000
R13OBJECT
1002
{
1005
1A3
1002
}
  0
ARC
  5
7CF
  8
TEAM-NET
 10
-151.883265
 20
873.666737
 30
149.848866
 40
19.496523
210
-0.497936
220
-0.867214
230
0.0
 50
10.635407
 51
94.287959
1001
ACAD
1000
R13OBJECT
1002
{
1005
1A3
1002
}
  0
ARC
  5
7D0
  8
TEAM-NET
 10
-149.848866
 20
423.685678
 30
-788.78631
 40
1.0
210
0.522519
220
-0.300019
230
-0.798099
 50
90.0
 51
180.0
1001
ACAD
1000
R13OBJECT
1002
{
1005
1A3
1002
}
  0
ARC
  5
7D1
  8
TEAM-NET
 10
-149.848866
 20
738.331259
 30
-517.880341
 40
1.0
210
0.780302
220
-0.448033
230
-0.436343
 50
90.0
 51
180.0
1001
ACAD
1000
R13OBJECT
1002
{
1005
1A3
1002
}
  0
ARC
  5
7D2
  8
TEAM-NET
 10
-149.848866
 20
895.169554
 30
-133.440963
 40
1.0
210
0.867022
220
-0.497825
230
0.02107
 50
90.0
 51
180.0
1001
ACAD
1000
R13OBJECT
1002
{
1005
1A3
1002
}
  0
LINE
  5
1A4
  8
TEAM-NET
 10
-205.040029
 20
-49.298269
 30
892.111486
 11
-204.878522
 21
-49.391003
 31
891.119732
  0
ARC
  5
7D3
  8
TEAM-NET
 10
-151.883265
 20
873.666737
 30
144.848866
 40
18.496523
210
-0.497936
220
-0.867214
230
-0.0
 50
10.635407
 51
94.287959
1001
ACAD
1000
R13OBJECT
1002
{
1005
1A4
1002
}
  0
LINE
  5
7D4
  8
TEAM-NET
 10
-182.486221
 20
-62.248177
 30
842.756804
 11
-188.075805
 21
-59.038759
 31
877.080432
1001
ACAD
1000
R13OBJECT
1002
{
1005
1A4
1002
}
  0
LINE
  5
7D5
  8
TEAM-NET
 10
-182.486221
 20
-62.248177
 30
842.756804
 11
-183.33854
 21
-61.758794
 31
842.572244
1001
ACAD
1000
R13OBJECT
1002
{
1005
1A4
1002
}
  0
LINE
  5
7D6
  8
TEAM-NET
 10
-188.940358
 20
-58.542351
 30
876.970996
 11
-183.33854
 21
-61.758794
 31
842.572244
1001
ACAD
1000
R13OBJECT
1002
{
1005
1A4
1002
}
  0
ARC
  5
7D7
  8
TEAM-NET
 10
151.810257
 20
873.75822
 30
-144.848866
 40
17.407882
210
0.497936
220
0.867214
230
0.0
 50
85.817095
 51
169.364593
1001
ACAD
1000
R13OBJECT
1002
{
1005
1A4
1002
}
  0
POLYLINE
  5
1A5
  8
TEAM-NET
 66
     1
 10
0.0
 20
0.0
 30
0.0
 70
     8
  0
VERTEX
  5
7D8
  8
TEAM-NET
 10
-204.878522
 20
-49.391003
 30
891.119732
 70
    32
  0
VERTEX
  5
7D9
  8
TEAM-NET
 10
-204.853909
 20
-49.463036
 30
890.67787
 70
    32
  0
VERTEX
  5
7DA
  8
TEAM-NET
 10
-204.880731
 20
-49.617433
 30
890.258993
 70
    32
  0
VERTEX
  5
7DB
  8
TEAM-NET
 10
-204.895419
 20
-49.668311
 30
890.159883
 70
    32
  0
VERTEX
  5
7DC
  8
TEAM-NET
 10
-205.081219
 20
-50.141773
 30
889.566823
 70
    32
  0
VERTEX
  5
7DD
  8
TEAM-NET
 10
-205.245119
 20
-50.48654
 30
889.329157
 70
    32
  0
VERTEX
  5
7DE
  8
TEAM-NET
 10
-205.439756
 20
-50.861952
 30
889.182312
 70
    32
  0
VERTEX
  5
7DF
  8
TEAM-NET
 10
-205.655969
 20
-51.250845
 30
889.132444
 70
    32
  0
SEQEND
  5
7E0
  8
TEAM-NET
  0
ARC
  5
7E1
  8
TEAM-NET
 10
151.810257
 20
873.75822
 30
-144.848866
 40
17.407882
210
0.497936
220
0.867214
230
0.0
 50
85.817095
 51
169.364593
1001
ACAD
1000
R13OBJECT
1002
{
1005
1A5
1002
}
  0
ARC
  5
7E2
  8
TEAM-NET
 10
-146.848866
 20
29.465208
 30
-886.766261
 40
2.0
210
0.160052
220
-0.091898
230
-0.982821
 50
270.0
 51
360.0
1001
ACAD
1000
R13OBJECT
1002
{
1005
1A5
1002
}
  0
ARC
  5
7E3
  8
TEAM-NET
 10
-151.810257
 20
873.75822
 30
146.848866
 40
15.407882
210
-0.497936
220
-0.867214
230
0.0
 50
10.635407
 51
93.78782
1001
ACAD
1000
R13OBJECT
1002
{
1005
1A5
1002
}
  0
ARC
  5
7E4
  8
TEAM-NET
 10
146.848866
 20
760.681136
 30
483.781615
 40
2.0
210
-0.79707
220
0.45766
230
0.393988
 50
180.0
 51
270.0
1001
ACAD
1000
R13OBJECT
1002
{
1005
1A5
1002
}
  0
ARC
  5
7E5
  8
TEAM-NET
 10
146.848866
 20
435.953991
 30
781.868874
 40
2.0
210
-0.534116
220
0.306678
230
0.787826
 50
180.0
 51
270.0
1001
ACAD
1000
R13OBJECT
1002
{
1005
1A5
1002
}
  0
LINE
  5
1A6
  8
TEAM-NET
 10
-205.655969
 20
-51.250845
 30
889.132444
 11
-206.65184
 21
-52.985274
 31
889.132444
  0
ARC
  5
7E6
  8
TEAM-NET
 10
-151.810257
 20
873.75822
 30
146.848866
 40
15.407882
210
-0.497936
220
-0.867214
230
0.0
 50
10.635407
 51
93.78782
1001
ACAD
1000
R13OBJECT
1002
{
1005
1A6
1002
}
  0
LINE
  5
7E7
  8
TEAM-NET
 10
-192.636733
 20
-61.032444
 30
876.601879
 11
-191.640862
 21
-59.298016
 31
876.601879
1001
ACAD
1000
R13OBJECT
1002
{
1005
1A6
1002
}
  0
ARC
  5
7E8
  8
TEAM-NET
 10
151.810257
 20
873.75822
 30
-148.848866
 40
15.407882
210
0.497936
220
0.867214
230
0.0
 50
86.21218
 51
169.364593
1001
ACAD
1000
R13OBJECT
1002
{
1005
1A6
1002
}
  0
POLYLINE
  5
1A7
  8
TEAM-NET
 66
     1
 10
0.0
 20
0.0
 30
0.0
 70
     8
  0
VERTEX
  5
7E9
  8
TEAM-NET
 10
-206.65184
 20
-52.985274
 30
889.132444
 70
    32
  0
VERTEX
  5
7EA
  8
TEAM-NET
 10
-206.878793
 20
-53.368161
 30
889.182496
 70
    32
  0
VERTEX
  5
7EB
  8
TEAM-NET
 10
-207.104867
 20
-53.725468
 30
889.32933
 70
    32
  0
VERTEX
  5
7EC
  8
TEAM-NET
 10
-207.32018
 20
-54.041034
 30
889.567435
 70
    32
  0
VERTEX
  5
7ED
  8
TEAM-NET
 10
-207.466568
 20
-54.238284
 30
889.796997
 70
    32
  0
VERTEX
  5
7EE
  8
TEAM-NET
 10
-207.511875
 20
-54.295678
 30
889.882191
 70
    32
  0
VERTEX
  5
7EF
  8
TEAM-NET
 10
-207.671979
 20
-54.478536
 30
890.259729
 70
    32
  0
VERTEX
  5
7F0
  8
TEAM-NET
 10
-207.791608
 20
-54.579317
 30
890.678149
 70
    32
  0
VERTEX
  5
7F1
  8
TEAM-NET
 10
-207.834987
 20
-54.597806
 30
890.898212
 70
    32
  0
VERTEX
  5
7F2
  8
TEAM-NET
 10
-207.866135
 20
-54.594287
 30
891.119732
 70
    32
  0
SEQEND
  5
7F3
  8
TEAM-NET
  0
ARC
  5
7F4
  8
TEAM-NET
 10
151.810257
 20
873.75822
 30
-148.848866
 40
15.407882
210
0.497936
220
0.867214
230
0.0
 50
86.21218
 51
169.364593
1001
ACAD
1000
R13OBJECT
1002
{
1005
1A7
1002
}
  0
ARC
  5
7F5
  8
TEAM-NET
 10
-148.848866
 20
29.465208
 30
-886.766261
 40
2.0
210
0.160052
220
-0.091898
230
-0.982821
 50
180.0
 51
270.0
1001
ACAD
1000
R13OBJECT
1002
{
1005
1A7
1002
}
  0
ARC
  5
7F6
  8
TEAM-NET
 10
-151.810257
 20
873.75822
 30
150.848866
 40
17.407882
210
-0.497936
220
-0.867214
230
-0.0
 50
10.635407
 51
94.182905
1001
ACAD
1000
R13OBJECT
1002
{
1005
1A7
1002
}
  0
ARC
  5
7F7
  8
TEAM-NET
 10
148.848866
 20
768.628933
 30
471.345641
 40
2.0
210
-0.802645
220
0.460862
230
0.378638
 50
270.0
 51
360.0
1001
ACAD
1000
R13OBJECT
1002
{
1005
1A7
1002
}
  0
ARC
  5
7F8
  8
TEAM-NET
 10
148.848866
 20
443.800074
 30
777.617824
 40
2.0
210
-0.540963
220
0.310609
230
0.781589
 50
270.0
 51
360.0
1001
ACAD
1000
R13OBJECT
1002
{
1005
1A7
1002
}
  0
LINE
  5
1A8
  8
TEAM-NET
 10
-160.675494
 20
-83.631762
 30
932.664215
 11
-96.229235
 21
-120.635408
 31
872.633702
  0
POLYLINE
  5
7F9
  8
TEAM-NET
 66
     1
 10
0.0
 20
0.0
 30
673.257445
 70
   128
210
-0.569731
220
0.327127
230
0.75392
1001
ACAD
1000
R13OBJECT
1002
{
1005
CC253302000001A8
1002
}
  0
VERTEX
  5
1169
  8
TEAM-NET
 10
143.165056
 20
555.662435
 30
673.257445
  0
VERTEX
  5
116A
  8
TEAM-NET
 10
143.354783
 20
554.322496
 30
673.257445
  0
VERTEX
  5
116B
  8
TEAM-NET
 10
143.908594
 20
553.091112
 30
673.257445
  0
VERTEX
  5
116C
  8
TEAM-NET
 10
144.781623
 20
552.06804
 30
673.257445
  0
VERTEX
  5
116D
  8
TEAM-NET
 10
145.903141
 20
551.336166
 30
673.257445
  0
VERTEX
  5
116E
  8
TEAM-NET
 10
147.18229
 20
550.954779
 30
673.257445
  0
VERTEX
  5
116F
  8
TEAM-NET
 10
148.515442
 20
550.954779
 30
673.257445
  0
VERTEX
  5
1170
  8
TEAM-NET
 10
149.794591
 20
551.336166
 30
673.257445
  0
VERTEX
  5
1171
  8
TEAM-NET
 10
150.916109
 20
552.06804
 30
673.257445
  0
VERTEX
  5
1172
  8
TEAM-NET
 10
151.789138
 20
553.091112
 30
673.257445
  0
VERTEX
  5
1173
  8
TEAM-NET
 10
152.342949
 20
554.322496
 30
673.257445
  0
VERTEX
  5
1174
  8
TEAM-NET
 10
152.532676
 20
555.662435
 30
673.257445
  0
SEQEND
  5
1175
  8
TEAM-NET
  0
LINE
  5
807
  8
TEAM-NET
 10
-156.011023
 20
-75.508031
 30
932.664215
 11
-91.564764
 21
-112.511677
 31
872.633702
1001
ACAD
1000
R13OBJECT
1002
{
1005
1A8
1002
}
  0
ARC
  5
808
  8
TEAM-NET
 10
147.848866
 20
664.130602
 30
662.070805
 40
4.68381
210
-0.674608
220
0.387345
230
0.628385
 50
180.0
 51
0.0
1001
ACAD
1000
R13OBJECT
1002
{
1005
1A8
1002
}
  0
LINE
  5
1A9
  8
TEAM-NET
 10
-88.295932
 20
-103.645904
 30
873.90986
 11
-152.721377
 21
-66.654209
 31
933.920985
  0
ARC
  5
809
  8
TEAM-NET
 10
147.848866
 20
664.130602
 30
664.070805
 40
14.0
210
-0.674608
220
0.387345
230
0.628385
 50
0.0
 51
180.0
1001
ACAD
1000
R13OBJECT
1002
{
1005
1A9
1002
}
  0
LINE
  5
80A
  8
TEAM-NET
 10
-102.238126
 20
-127.927898
 30
873.90986
 11
-166.663572
 21
-90.936203
 31
933.920985
1001
ACAD
1000
R13OBJECT
1002
{
1005
1A9
1002
}
  0
POLYLINE
  5
80B
  8
TEAM-NET
 66
     1
 10
0.0
 20
0.0
 30
-661.433468
 70
   128
210
0.585596
220
-0.336237
230
-0.737579
1001
ACAD
1000
R13OBJECT
1002
{
1005
581A3302000001A9
1002
}
  0
VERTEX
  5
1176
  8
TEAM-NET
 10
-147.848866
 20
585.864633
 30
-661.433468
  0
VERTEX
  5
1177
  8
TEAM-NET
 10
-148.947293
 20
585.820986
 30
-661.433468
  0
VERTEX
  5
1178
  8
TEAM-NET
 10
-150.038948
 20
585.690313
 30
-661.433468
  0
VERTEX
  5
1179
  8
TEAM-NET
 10
-151.117101
 20
585.473419
 30
-661.433468
  0
VERTEX
  5
117A
  8
TEAM-NET
 10
-152.175104
 20
585.171643
 30
-661.433468
  0
VERTEX
  5
117B
  8
TEAM-NET
 10
-153.206434
 20
584.786844
 30
-661.433468
  0
VERTEX
  5
117C
  8
TEAM-NET
 10
-154.204733
 20
584.321395
 30
-661.433468
  0
VERTEX
  5
117D
  8
TEAM-NET
 10
-155.163846
 20
583.778166
 30
-661.433468
  0
VERTEX
  5
117E
  8
TEAM-NET
 10
-156.077859
 20
583.160506
 30
-661.433468
  0
VERTEX
  5
117F
  8
TEAM-NET
 10
-156.941139
 20
582.472223
 30
-661.433468
  0
VERTEX
  5
1180
  8
TEAM-NET
 10
-157.748361
 20
581.71756
 30
-661.433468
  0
VERTEX
  5
1181
  8
TEAM-NET
 10
-158.494549
 20
580.90117
 30
-661.433468
  0
VERTEX
  5
1182
  8
TEAM-NET
 10
-159.175104
 20
580.028087
 30
-661.433468
  0
VERTEX
  5
1183
  8
TEAM-NET
 10
-159.785828
 20
579.103693
 30
-661.433468
  0
VERTEX
  5
1184
  8
TEAM-NET
 10
-160.322957
 20
578.133688
 30
-661.433468
  0
VERTEX
  5
1185
  8
TEAM-NET
 10
-160.783179
 20
577.124051
 30
-661.433468
  0
VERTEX
  5
1186
  8
TEAM-NET
 10
-161.163657
 20
576.081008
 30
-661.433468
  0
VERTEX
  5
1187
  8
TEAM-NET
 10
-161.462045
 20
575.01099
 30
-661.433468
  0
VERTEX
  5
1188
  8
TEAM-NET
 10
-161.676503
 20
573.920593
 30
-661.433468
  0
VERTEX
  5
1189
  8
TEAM-NET
 10
-161.805709
 20
572.81654
 30
-661.433468
  0
VERTEX
  5
118A
  8
TEAM-NET
 10
-161.848866
 20
571.705638
 30
-661.433468
  0
SEQEND
  5
118B
  8
TEAM-NET
  0
POLYLINE
  5
822
  8
TEAM-NET
 66
     1
 10
0.0
 20
0.0
 30
0.0
 70
     8
1001
ACAD
1000
R13OBJECT
1002
{
1005
1A9
1002
}
  0
VERTEX
  5
823
  8
TEAM-NET
 10
-88.295932
 20
-103.645904
 30
873.90986
 70
    32
  0
VERTEX
  5
824
  8
TEAM-NET
 10
-87.606846
 20
-104.091328
 30
874.660009
 70
    32
  0
VERTEX
  5
825
  8
TEAM-NET
 10
-86.964987
 20
-104.608859
 30
875.405533
 70
    32
  0
VERTEX
  5
826
  8
TEAM-NET
 10
-86.374313
 20
-105.195306
 30
876.141836
 70
    32
  0
VERTEX
  5
827
  8
TEAM-NET
 10
-85.838466
 20
-105.847054
 30
876.864378
 70
    32
  0
VERTEX
  5
828
  8
TEAM-NET
 10
-85.360749
 20
-106.560085
 30
877.568704
 70
    32
  0
VERTEX
  5
829
  8
TEAM-NET
 10
-84.944108
 20
-107.330002
 30
878.250472
 70
    32
  0
VERTEX
  5
82A
  8
TEAM-NET
 10
-84.59111
 20
-108.152058
 30
878.905479
 70
    32
  0
VERTEX
  5
82B
  8
TEAM-NET
 10
-84.303934
 20
-109.021186
 30
879.529687
 70
    32
  0
VERTEX
  5
82C
  8
TEAM-NET
 10
-84.084348
 20
-109.932027
 30
880.119246
 70
    32
  0
VERTEX
  5
82D
  8
TEAM-NET
 10
-83.933708
 20
-110.878964
 30
880.670522
 70
    32
  0
VERTEX
  5
82E
  8
TEAM-NET
 10
-83.852941
 20
-111.856161
 30
881.180117
 70
    32
  0
VERTEX
  5
82F
  8
TEAM-NET
 10
-83.842546
 20
-112.857593
 30
881.644888
 70
    32
  0
VERTEX
  5
830
  8
TEAM-NET
 10
-83.902586
 20
-113.877084
 30
882.06197
 70
    32
  0
VERTEX
  5
831
  8
TEAM-NET
 10
-84.032692
 20
-114.90835
 30
882.428791
 70
    32
  0
VERTEX
  5
832
  8
TEAM-NET
 10
-84.232062
 20
-115.945033
 30
882.743091
 70
    32
  0
VERTEX
  5
833
  8
TEAM-NET
 10
-84.499466
 20
-116.980741
 30
883.00293
 70
    32
  0
VERTEX
  5
834
  8
TEAM-NET
 10
-84.833255
 20
-118.009088
 30
883.206708
 70
    32
  0
VERTEX
  5
835
  8
TEAM-NET
 10
-85.231372
 20
-119.023735
 30
883.353168
 70
    32
  0
VERTEX
  5
836
  8
TEAM-NET
 10
-85.691362
 20
-120.018425
 30
883.441407
 70
    32
  0
VERTEX
  5
837
  8
TEAM-NET
 10
-86.21039
 20
-120.987027
 30
883.47088
 70
    32
  0
SEQEND
  5
838
  8
TEAM-NET
  0
LINE
  5
839
  8
TEAM-NET
 10
-152.063254
 20
-83.175739
 30
944.81162
 11
-86.21039
 21
-120.987027
 31
883.47088
1001
ACAD
1000
R13OBJECT
1002
{
1005
1A9
1002
}
  0
POLYLINE
  5
1AA
  8
TEAM-NET
 66
     1
 10
0.0
 20
0.0
 30
0.0
 70
     8
  0
VERTEX
  5
83A
  8
TEAM-NET
 10
-90.787437
 20
-118.358986
 30
875.758278
 70
    32
  0
VERTEX
  5
83B
  8
TEAM-NET
 10
-90.487176
 20
-117.762749
 30
875.726474
 70
    32
  0
VERTEX
  5
83C
  8
TEAM-NET
 10
-90.25633
 20
-117.142303
 30
875.631711
 70
    32
  0
VERTEX
  5
83D
  8
TEAM-NET
 10
-90.099596
 20
-116.510279
 30
875.475916
 70
    32
  0
VERTEX
  5
83E
  8
TEAM-NET
 10
-90.020167
 20
-115.879543
 30
875.262262
 70
    32
  0
VERTEX
  5
83F
  8
TEAM-NET
 10
-90.01966
 20
-115.262934
 30
874.995099
 70
    32
  0
VERTEX
  5
840
  8
TEAM-NET
 10
-90.098083
 20
-114.673006
 30
874.679864
 70
    32
  0
VERTEX
  5
841
  8
TEAM-NET
 10
-90.253842
 20
-114.121767
 30
874.322975
 70
    32
  0
VERTEX
  5
842
  8
TEAM-NET
 10
-90.483765
 20
-113.620439
 30
873.931698
 70
    32
  0
VERTEX
  5
843
  8
TEAM-NET
 10
-90.783171
 20
-113.179228
 30
873.513997
 70
    32
  0
VERTEX
  5
844
  8
TEAM-NET
 10
-91.145966
 20
-112.807116
 30
873.078376
 70
    32
  0
VERTEX
  5
845
  8
TEAM-NET
 10
-91.564764
 20
-112.511677
 30
872.633702
 70
    32
  0
SEQEND
  5
846
  8
TEAM-NET
  0
POLYLINE
  5
847
  8
TEAM-NET
 66
     1
 10
0.0
 20
0.0
 30
673.257445
 70
   128
210
-0.569731
220
0.327127
230
0.75392
1001
ACAD
1000
R13OBJECT
1002
{
1005
C383302000001AA
1002
}
  0
VERTEX
  5
118C
  8
TEAM-NET
 10
143.165056
 20
555.662435
 30
673.257445
  0
VERTEX
  5
118D
  8
TEAM-NET
 10
143.354783
 20
554.322496
 30
673.257445
  0
VERTEX
  5
118E
  8
TEAM-NET
 10
143.908594
 20
553.091112
 30
673.257445
  0
VERTEX
  5
118F
  8
TEAM-NET
 10
144.781623
 20
552.06804
 30
673.257445
  0
VERTEX
  5
1190
  8
TEAM-NET
 10
145.903141
 20
551.336166
 30
673.257445
  0
VERTEX
  5
1191
  8
TEAM-NET
 10
147.18229
 20
550.954779
 30
673.257445
  0
VERTEX
  5
1192
  8
TEAM-NET
 10
148.515442
 20
550.954779
 30
673.257445
  0
VERTEX
  5
1193
  8
TEAM-NET
 10
149.794591
 20
551.336166
 30
673.257445
  0
VERTEX
  5
1194
  8
TEAM-NET
 10
150.916109
 20
552.06804
 30
673.257445
  0
VERTEX
  5
1195
  8
TEAM-NET
 10
151.789138
 20
553.091112
 30
673.257445
  0
VERTEX
  5
1196
  8
TEAM-NET
 10
152.342949
 20
554.322496
 30
673.257445
  0
VERTEX
  5
1197
  8
TEAM-NET
 10
152.532676
 20
555.662435
 30
673.257445
  0
SEQEND
  5
1198
  8
TEAM-NET
  0
POLYLINE
  5
855
  8
TEAM-NET
 66
     1
 10
0.0
 20
0.0
 30
0.0
 70
     8
1001
ACAD
1000
R13OBJECT
1002
{
1005
1AA
1002
}
  0
VERTEX
  5
856
  8
TEAM-NET
 10
-96.229235
 20
-120.635408
 30
872.633702
 70
    32
  0
VERTEX
  5
857
  8
TEAM-NET
 10
-95.803403
 20
-120.833706
 30
873.041541
 70
    32
  0
VERTEX
  5
858
  8
TEAM-NET
 10
-95.344952
 20
-120.95911
 30
873.442402
 70
    32
  0
VERTEX
  5
859
  8
TEAM-NET
 10
-94.861726
 20
-121.009477
 30
873.829426
 70
    32
  0
VERTEX
  5
85A
  8
TEAM-NET
 10
-94.361993
 20
-120.983943
 30
874.19599
 70
    32
  0
VERTEX
  5
85B
  8
TEAM-NET
 10
-93.854304
 20
-120.882946
 30
874.535823
 70
    32
  0
VERTEX
  5
85C
  8
TEAM-NET
 10
-93.347346
 20
-120.708214
 30
874.843111
 70
    32
  0
VERTEX
  5
85D
  8
TEAM-NET
 10
-92.849793
 20
-120.462737
 30
875.112595
 70
    32
  0
VERTEX
  5
85E
  8
TEAM-NET
 10
-92.370157
 20
-120.150715
 30
875.339664
 70
    32
  0
VERTEX
  5
85F
  8
TEAM-NET
 10
-91.916646
 20
-119.777486
 30
875.520434
 70
    32
  0
VERTEX
  5
860
  8
TEAM-NET
 10
-91.49702
 20
-119.349437
 30
875.65181
 70
    32
  0
VERTEX
  5
861
  8
TEAM-NET
 10
-91.118458
 20
-118.873891
 30
875.731547
 70
    32
  0
VERTEX
  5
862
  8
TEAM-NET
 10
-90.787437
 20
-118.358986
 30
875.758278
 70
    32
  0
SEQEND
  5
863
  8
TEAM-NET
  0
POLYLINE
  5
864
  8
TEAM-NET
 66
     1
 10
0.0
 20
0.0
 30
673.257445
 70
   129
210
-0.569731
220
0.327127
230
0.75392
1001
ACAD
1000
R13OBJECT
1002
{
1005
AC223302000001AA
1002
}
  0
VERTEX
  5
1199
  8
TEAM-NET
 10
147.848866
 20
567.4949
 30
673.257445
  0
VERTEX
  5
119A
  8
TEAM-NET
 10
143.744624
 20
566.760047
 30
673.257445
  0
VERTEX
  5
119B
  8
TEAM-NET
 10
140.135415
 20
564.644124
 30
673.257445
  0
VERTEX
  5
119C
  8
TEAM-NET
 10
137.456561
 20
561.40234
 30
673.257445
  0
VERTEX
  5
119D
  8
TEAM-NET
 10
136.031173
 20
557.425705
 30
673.257445
  0
VERTEX
  5
119E
  8
TEAM-NET
 10
136.031173
 20
553.193857
 30
673.257445
  0
VERTEX
  5
119F
  8
TEAM-NET
 10
137.456561
 20
549.217221
 30
673.257445
  0
VERTEX
  5
11A0
  8
TEAM-NET
 10
140.135415
 20
545.975438
 30
673.257445
  0
VERTEX
  5
11A1
  8
TEAM-NET
 10
143.744624
 20
543.859514
 30
673.257445
  0
VERTEX
  5
11A2
  8
TEAM-NET
 10
147.848866
 20
543.124661
 30
673.257445
  0
VERTEX
  5
11A3
  8
TEAM-NET
 10
151.953108
 20
543.859514
 30
673.257445
  0
VERTEX
  5
11A4
  8
TEAM-NET
 10
155.562317
 20
545.975438
 30
673.257445
  0
VERTEX
  5
11A5
  8
TEAM-NET
 10
158.241171
 20
549.217221
 30
673.257445
  0
VERTEX
  5
11A6
  8
TEAM-NET
 10
159.666559
 20
553.193857
 30
673.257445
  0
VERTEX
  5
11A7
  8
TEAM-NET
 10
159.666559
 20
557.425705
 30
673.257445
  0
VERTEX
  5
11A8
  8
TEAM-NET
 10
158.241171
 20
561.40234
 30
673.257445
  0
VERTEX
  5
11A9
  8
TEAM-NET
 10
155.562317
 20
564.644124
 30
673.257445
  0
VERTEX
  5
11AA
  8
TEAM-NET
 10
151.953108
 20
566.760047
 30
673.257445
  0
SEQEND
  5
11AB
  8
TEAM-NET
  0
ARC
  5
1AB
  8
TEAM-NET
 10
15.775893
 20
881.915075
 30
-147.848866
 40
2.0
210
0.497936
220
0.867214
230
0.0
 50
128.931071
 51
228.931071
  0
POLYLINE
  5
878
  8
TEAM-NET
 66
     1
 10
0.0
 20
0.0
 30
673.257445
 70
   129
210
-0.569731
220
0.327127
230
0.75392
1001
ACAD
1000
R13OBJECT
1002
{
1005
B8143302000001AB
1002
}
  0
VERTEX
  5
11AC
  8
TEAM-NET
 10
147.848866
 20
567.4949
 30
673.257445
  0
VERTEX
  5
11AD
  8
TEAM-NET
 10
143.744624
 20
566.760047
 30
673.257445
  0
VERTEX
  5
11AE
  8
TEAM-NET
 10
140.135415
 20
564.644124
 30
673.257445
  0
VERTEX
  5
11AF
  8
TEAM-NET
 10
137.456561
 20
561.40234
 30
673.257445
  0
VERTEX
  5
11B0
  8
TEAM-NET
 10
136.031173
 20
557.425705
 30
673.257445
  0
VERTEX
  5
11B1
  8
TEAM-NET
 10
136.031173
 20
553.193857
 30
673.257445
  0
VERTEX
  5
11B2
  8
TEAM-NET
 10
137.456561
 20
549.217221
 30
673.257445
  0
VERTEX
  5
11B3
  8
TEAM-NET
 10
140.135415
 20
545.975438
 30
673.257445
  0
VERTEX
  5
11B4
  8
TEAM-NET
 10
143.744624
 20
543.859514
 30
673.257445
  0
VERTEX
  5
11B5
  8
TEAM-NET
 10
147.848866
 20
543.124661
 30
673.257445
  0
VERTEX
  5
11B6
  8
TEAM-NET
 10
151.953108
 20
543.859514
 30
673.257445
  0
VERTEX
  5
11B7
  8
TEAM-NET
 10
155.562317
 20
545.975438
 30
673.257445
  0
VERTEX
  5
11B8
  8
TEAM-NET
 10
158.241171
 20
549.217221
 30
673.257445
  0
VERTEX
  5
11B9
  8
TEAM-NET
 10
159.666559
 20
553.193857
 30
673.257445
  0
VERTEX
  5
11BA
  8
TEAM-NET
 10
159.666559
 20
557.425705
 30
673.257445
  0
VERTEX
  5
11BB
  8
TEAM-NET
 10
158.241171
 20
561.40234
 30
673.257445
  0
VERTEX
  5
11BC
  8
TEAM-NET
 10
155.562317
 20
564.644124
 30
673.257445
  0
VERTEX
  5
11BD
  8
TEAM-NET
 10
151.953108
 20
566.760047
 30
673.257445
  0
SEQEND
  5
11BE
  8
TEAM-NET
  0
POLYLINE
  5
88C
  8
TEAM-NET
 66
     1
 10
0.0
 20
0.0
 30
-661.433468
 70
   128
210
0.585596
220
-0.336237
230
-0.737579
1001
ACAD
1000
R13OBJECT
1002
{
1005
D0243302000001AB
1002
}
  0
VERTEX
  5
11BF
  8
TEAM-NET
 10
-147.848866
 20
585.864633
 30
-661.433468
  0
VERTEX
  5
11C0
  8
TEAM-NET
 10
-148.947293
 20
585.820986
 30
-661.433468
  0
VERTEX
  5
11C1
  8
TEAM-NET
 10
-150.038948
 20
585.690313
 30
-661.433468
  0
VERTEX
  5
11C2
  8
TEAM-NET
 10
-151.117101
 20
585.473419
 30
-661.433468
  0
VERTEX
  5
11C3
  8
TEAM-NET
 10
-152.175104
 20
585.171643
 30
-661.433468
  0
VERTEX
  5
11C4
  8
TEAM-NET
 10
-153.206434
 20
584.786844
 30
-661.433468
  0
VERTEX
  5
11C5
  8
TEAM-NET
 10
-154.204733
 20
584.321395
 30
-661.433468
  0
VERTEX
  5
11C6
  8
TEAM-NET
 10
-155.163846
 20
583.778166
 30
-661.433468
  0
VERTEX
  5
11C7
  8
TEAM-NET
 10
-156.077859
 20
583.160506
 30
-661.433468
  0
VERTEX
  5
11C8
  8
TEAM-NET
 10
-156.941139
 20
582.472223
 30
-661.433468
  0
VERTEX
  5
11C9
  8
TEAM-NET
 10
-157.748361
 20
581.71756
 30
-661.433468
  0
VERTEX
  5
11CA
  8
TEAM-NET
 10
-158.494549
 20
580.90117
 30
-661.433468
  0
VERTEX
  5
11CB
  8
TEAM-NET
 10
-159.175104
 20
580.028087
 30
-661.433468
  0
VERTEX
  5
11CC
  8
TEAM-NET
 10
-159.785828
 20
579.103693
 30
-661.433468
  0
VERTEX
  5
11CD
  8
TEAM-NET
 10
-160.322957
 20
578.133688
 30
-661.433468
  0
VERTEX
  5
11CE
  8
TEAM-NET
 10
-160.783179
 20
577.124051
 30
-661.433468
  0
VERTEX
  5
11CF
  8
TEAM-NET
 10
-161.163657
 20
576.081008
 30
-661.433468
  0
VERTEX
  5
11D0
  8
TEAM-NET
 10
-161.462045
 20
575.01099
 30
-661.433468
  0
VERTEX
  5
11D1
  8
TEAM-NET
 10
-161.676503
 20
573.920593
 30
-661.433468
  0
VERTEX
  5
11D2
  8
TEAM-NET
 10
-161.805709
 20
572.81654
 30
-661.433468
  0
VERTEX
  5
11D3
  8
TEAM-NET
 10
-161.848866
 20
571.705638
 30
-661.433468
  0
SEQEND
  5
11D4
  8
TEAM-NET
  0
POLYLINE
  5
8A3
  8
TEAM-NET
 66
     1
 10
0.0
 20
0.0
 30
-661.433468
 70
   128
210
0.585596
220
-0.336237
230
-0.737579
1001
ACAD
1000
R13OBJECT
1002
{
1005
1C283302000001AB
1002
}
  0
VERTEX
  5
11D5
  8
TEAM-NET
 10
-161.848866
 20
571.705638
 30
-661.433468
  0
VERTEX
  5
11D6
  8
TEAM-NET
 10
-161.676503
 20
569.490684
 30
-661.433468
  0
VERTEX
  5
11D7
  8
TEAM-NET
 10
-161.163657
 20
567.330268
 30
-661.433468
  0
VERTEX
  5
11D8
  8
TEAM-NET
 10
-160.322957
 20
565.277589
 30
-661.433468
  0
VERTEX
  5
11D9
  8
TEAM-NET
 10
-159.175104
 20
563.38319
 30
-661.433468
  0
VERTEX
  5
11DA
  8
TEAM-NET
 10
-157.748361
 20
561.693717
 30
-661.433468
  0
VERTEX
  5
11DB
  8
TEAM-NET
 10
-156.077859
 20
560.250771
 30
-661.433468
  0
VERTEX
  5
11DC
  8
TEAM-NET
 10
-154.204733
 20
559.089882
 30
-661.433468
  0
VERTEX
  5
11DD
  8
TEAM-NET
 10
-152.175104
 20
558.239634
 30
-661.433468
  0
VERTEX
  5
11DE
  8
TEAM-NET
 10
-150.038948
 20
557.720964
 30
-661.433468
  0
VERTEX
  5
11DF
  8
TEAM-NET
 10
-147.848866
 20
557.546644
 30
-661.433468
  0
VERTEX
  5
11E0
  8
TEAM-NET
 10
-145.658783
 20
557.720964
 30
-661.433468
  0
VERTEX
  5
11E1
  8
TEAM-NET
 10
-143.522628
 20
558.239634
 30
-661.433468
  0
VERTEX
  5
11E2
  8
TEAM-NET
 10
-141.492999
 20
559.089882
 30
-661.433468
  0
VERTEX
  5
11E3
  8
TEAM-NET
 10
-139.619872
 20
560.250771
 30
-661.433468
  0
VERTEX
  5
11E4
  8
TEAM-NET
 10
-137.949371
 20
561.693717
 30
-661.433468
  0
VERTEX
  5
11E5
  8
TEAM-NET
 10
-136.522628
 20
563.38319
 30
-661.433468
  0
VERTEX
  5
11E6
  8
TEAM-NET
 10
-135.374775
 20
565.277589
 30
-661.433468
  0
VERTEX
  5
11E7
  8
TEAM-NET
 10
-134.534075
 20
567.330268
 30
-661.433468
  0
VERTEX
  5
11E8
  8
TEAM-NET
 10
-134.021229
 20
569.490684
 30
-661.433468
  0
VERTEX
  5
11E9
  8
TEAM-NET
 10
-133.848866
 20
571.705638
 30
-661.433468
  0
SEQEND
  5
11EA
  8
TEAM-NET
  0
POLYLINE
  5
8BA
  8
TEAM-NET
 66
     1
 10
0.0
 20
0.0
 30
0.0
 70
     8
1001
ACAD
1000
R13OBJECT
1002
{
1005
1AB
1002
}
  0
VERTEX
  5
8BB
  8
TEAM-NET
 10
-88.295932
 20
-103.645904
 30
873.90986
 70
    32
  0
VERTEX
  5
8BC
  8
TEAM-NET
 10
-87.606846
 20
-104.091328
 30
874.660009
 70
    32
  0
VERTEX
  5
8BD
  8
TEAM-NET
 10
-86.964987
 20
-104.608859
 30
875.405533
 70
    32
  0
VERTEX
  5
8BE
  8
TEAM-NET
 10
-86.374313
 20
-105.195306
 30
876.141836
 70
    32
  0
VERTEX
  5
8BF
  8
TEAM-NET
 10
-85.838466
 20
-105.847054
 30
876.864378
 70
    32
  0
VERTEX
  5
8C0
  8
TEAM-NET
 10
-85.360749
 20
-106.560085
 30
877.568704
 70
    32
  0
VERTEX
  5
8C1
  8
TEAM-NET
 10
-84.944108
 20
-107.330002
 30
878.250472
 70
    32
  0
VERTEX
  5
8C2
  8
TEAM-NET
 10
-84.59111
 20
-108.152058
 30
878.905479
 70
    32
  0
VERTEX
  5
8C3
  8
TEAM-NET
 10
-84.303934
 20
-109.021186
 30
879.529687
 70
    32
  0
VERTEX
  5
8C4
  8
TEAM-NET
 10
-84.084348
 20
-109.932027
 30
880.119246
 70
    32
  0
VERTEX
  5
8C5
  8
TEAM-NET
 10
-83.933708
 20
-110.878964
 30
880.670522
 70
    32
  0
VERTEX
  5
8C6
  8
TEAM-NET
 10
-83.852941
 20
-111.856161
 30
881.180117
 70
    32
  0
VERTEX
  5
8C7
  8
TEAM-NET
 10
-83.842546
 20
-112.857593
 30
881.644888
 70
    32
  0
VERTEX
  5
8C8
  8
TEAM-NET
 10
-83.902586
 20
-113.877084
 30
882.06197
 70
    32
  0
VERTEX
  5
8C9
  8
TEAM-NET
 10
-84.032692
 20
-114.90835
 30
882.428791
 70
    32
  0
VERTEX
  5
8CA
  8
TEAM-NET
 10
-84.232062
 20
-115.945033
 30
882.743091
 70
    32
  0
VERTEX
  5
8CB
  8
TEAM-NET
 10
-84.499466
 20
-116.980741
 30
883.00293
 70
    32
  0
VERTEX
  5
8CC
  8
TEAM-NET
 10
-84.833255
 20
-118.009088
 30
883.206708
 70
    32
  0
VERTEX
  5
8CD
  8
TEAM-NET
 10
-85.231372
 20
-119.023735
 30
883.353168
 70
    32
  0
VERTEX
  5
8CE
  8
TEAM-NET
 10
-85.691362
 20
-120.018425
 30
883.441407
 70
    32
  0
VERTEX
  5
8CF
  8
TEAM-NET
 10
-86.21039
 20
-120.987027
 30
883.47088
 70
    32
  0
SEQEND
  5
8D0
  8
TEAM-NET
  0
LINE
  5
1AC
  8
TEAM-NET
 10
-88.295932
 20
-103.645904
 30
873.90986
 11
-152.721377
 21
-66.654209
 31
933.920985
  0
POLYLINE
  5
8D1
  8
TEAM-NET
 66
     1
 10
0.0
 20
0.0
 30
-661.433468
 70
   128
210
0.585596
220
-0.336237
230
-0.737579
1001
ACAD
1000
R13OBJECT
1002
{
1005
3C003302000001AC
1002
}
  0
VERTEX
  5
11EB
  8
TEAM-NET
 10
-161.848866
 20
571.705638
 30
-661.433468
  0
VERTEX
  5
11EC
  8
TEAM-NET
 10
-161.676503
 20
569.490684
 30
-661.433468
  0
VERTEX
  5
11ED
  8
TEAM-NET
 10
-161.163657
 20
567.330268
 30
-661.433468
  0
VERTEX
  5
11EE
  8
TEAM-NET
 10
-160.322957
 20
565.277589
 30
-661.433468
  0
VERTEX
  5
11EF
  8
TEAM-NET
 10
-159.175104
 20
563.38319
 30
-661.433468
  0
VERTEX
  5
11F0
  8
TEAM-NET
 10
-157.748361
 20
561.693717
 30
-661.433468
  0
VERTEX
  5
11F1
  8
TEAM-NET
 10
-156.077859
 20
560.250771
 30
-661.433468
  0
VERTEX
  5
11F2
  8
TEAM-NET
 10
-154.204733
 20
559.089882
 30
-661.433468
  0
VERTEX
  5
11F3
  8
TEAM-NET
 10
-152.175104
 20
558.239634
 30
-661.433468
  0
VERTEX
  5
11F4
  8
TEAM-NET
 10
-150.038948
 20
557.720964
 30
-661.433468
  0
VERTEX
  5
11F5
  8
TEAM-NET
 10
-147.848866
 20
557.546644
 30
-661.433468
  0
VERTEX
  5
11F6
  8
TEAM-NET
 10
-145.658783
 20
557.720964
 30
-661.433468
  0
VERTEX
  5
11F7
  8
TEAM-NET
 10
-143.522628
 20
558.239634
 30
-661.433468
  0
VERTEX
  5
11F8
  8
TEAM-NET
 10
-141.492999
 20
559.089882
 30
-661.433468
  0
VERTEX
  5
11F9
  8
TEAM-NET
 10
-139.619872
 20
560.250771
 30
-661.433468
  0
VERTEX
  5
11FA
  8
TEAM-NET
 10
-137.949371
 20
561.693717
 30
-661.433468
  0
VERTEX
  5
11FB
  8
TEAM-NET
 10
-136.522628
 20
563.38319
 30
-661.433468
  0
VERTEX
  5
11FC
  8
TEAM-NET
 10
-135.374775
 20
565.277589
 30
-661.433468
  0
VERTEX
  5
11FD
  8
TEAM-NET
 10
-134.534075
 20
567.330268
 30
-661.433468
  0
VERTEX
  5
11FE
  8
TEAM-NET
 10
-134.021229
 20
569.490684
 30
-661.433468
  0
VERTEX
  5
11FF
  8
TEAM-NET
 10
-133.848866
 20
571.705638
 30
-661.433468
  0
SEQEND
  5
1200
  8
TEAM-NET
  0
LINE
  5
8E8
  8
TEAM-NET
 10
-102.238126
 20
-127.927898
 30
873.90986
 11
-166.663572
 21
-90.936203
 31
933.920985
1001
ACAD
1000
R13OBJECT
1002
{
1005
1AC
1002
}
  0
ARC
  5
8E9
  8
TEAM-NET
 10
147.848866
 20
664.130602
 30
664.070805
 40
14.0
210
-0.674608
220
0.387345
230
0.628385
 50
180.0
 51
360.0
1001
ACAD
1000
R13OBJECT
1002
{
1005
1AC
1002
}
  0
LINE
  5
8EA
  8
TEAM-NET
 10
-167.321695
 20
-74.414673
 30
923.03035
 11
-104.323668
 21
-110.586775
 31
864.34884
1001
ACAD
1000
R13OBJECT
1002
{
1005
1AC
1002
}
  0
LINE
  5
1AD
  8
TEAM-NET
 10
-160.675494
 20
-83.631762
 30
932.664215
 11
-96.229235
 21
-120.635408
 31
872.633702
  0
ARC
  5
8EB
  8
TEAM-NET
 10
147.848866
 20
664.130602
 30
662.070805
 40
4.68381
210
-0.674608
220
0.387345
230
0.628385
 50
360.0
 51
180.0
1001
ACAD
1000
R13OBJECT
1002
{
1005
1AD
1002
}
  0
LINE
  5
8EC
  8
TEAM-NET
 10
-156.011023
 20
-75.508031
 30
932.664215
 11
-91.564764
 21
-112.511677
 31
872.633702
1001
ACAD
1000
R13OBJECT
1002
{
1005
1AD
1002
}
  0
POLYLINE
  5
8ED
  8
TEAM-NET
 66
     1
 10
0.0
 20
0.0
 30
0.0
 70
     8
1001
ACAD
1000
R13OBJECT
1002
{
1005
1AD
1002
}
  0
VERTEX
  5
8EE
  8
TEAM-NET
 10
-90.787437
 20
-118.358986
 30
875.758278
 70
    32
  0
VERTEX
  5
8EF
  8
TEAM-NET
 10
-90.487176
 20
-117.762749
 30
875.726474
 70
    32
  0
VERTEX
  5
8F0
  8
TEAM-NET
 10
-90.25633
 20
-117.142303
 30
875.631711
 70
    32
  0
VERTEX
  5
8F1
  8
TEAM-NET
 10
-90.099596
 20
-116.510279
 30
875.475916
 70
    32
  0
VERTEX
  5
8F2
  8
TEAM-NET
 10
-90.020167
 20
-115.879543
 30
875.262262
 70
    32
  0
VERTEX
  5
8F3
  8
TEAM-NET
 10
-90.01966
 20
-115.262934
 30
874.995099
 70
    32
  0
VERTEX
  5
8F4
  8
TEAM-NET
 10
-90.098083
 20
-114.673006
 30
874.679864
 70
    32
  0
VERTEX
  5
8F5
  8
TEAM-NET
 10
-90.253842
 20
-114.121767
 30
874.322975
 70
    32
  0
VERTEX
  5
8F6
  8
TEAM-NET
 10
-90.483765
 20
-113.620439
 30
873.931698
 70
    32
  0
VERTEX
  5
8F7
  8
TEAM-NET
 10
-90.783171
 20
-113.179228
 30
873.513997
 70
    32
  0
VERTEX
  5
8F8
  8
TEAM-NET
 10
-91.145966
 20
-112.807116
 30
873.078376
 70
    32
  0
VERTEX
  5
8F9
  8
TEAM-NET
 10
-91.564764
 20
-112.511677
 30
872.633702
 70
    32
  0
SEQEND
  5
8FA
  8
TEAM-NET
  0
POLYLINE
  5
8FB
  8
TEAM-NET
 66
     1
 10
0.0
 20
0.0
 30
0.0
 70
     8
1001
ACAD
1000
R13OBJECT
1002
{
1005
1AD
1002
}
  0
VERTEX
  5
8FC
  8
TEAM-NET
 10
-96.229235
 20
-120.635408
 30
872.633702
 70
    32
  0
VERTEX
  5
8FD
  8
TEAM-NET
 10
-95.803403
 20
-120.833706
 30
873.041541
 70
    32
  0
VERTEX
  5
8FE
  8
TEAM-NET
 10
-95.344952
 20
-120.95911
 30
873.442402
 70
    32
  0
VERTEX
  5
8FF
  8
TEAM-NET
 10
-94.861726
 20
-121.009477
 30
873.829426
 70
    32
  0
VERTEX
  5
900
  8
TEAM-NET
 10
-94.361993
 20
-120.983943
 30
874.19599
 70
    32
  0
VERTEX
  5
901
  8
TEAM-NET
 10
-93.854304
 20
-120.882946
 30
874.535823
 70
    32
  0
VERTEX
  5
902
  8
TEAM-NET
 10
-93.347346
 20
-120.708214
 30
874.843111
 70
    32
  0
VERTEX
  5
903
  8
TEAM-NET
 10
-92.849793
 20
-120.462737
 30
875.112595
 70
    32
  0
VERTEX
  5
904
  8
TEAM-NET
 10
-92.370157
 20
-120.150715
 30
875.339664
 70
    32
  0
VERTEX
  5
905
  8
TEAM-NET
 10
-91.916646
 20
-119.777486
 30
875.520434
 70
    32
  0
VERTEX
  5
906
  8
TEAM-NET
 10
-91.49702
 20
-119.349437
 30
875.65181
 70
    32
  0
VERTEX
  5
907
  8
TEAM-NET
 10
-91.118458
 20
-118.873891
 30
875.731547
 70
    32
  0
VERTEX
  5
908
  8
TEAM-NET
 10
-90.787437
 20
-118.358986
 30
875.758278
 70
    32
  0
SEQEND
  5
909
  8
TEAM-NET
  0
LINE
  5
1AE
  8
TEAM-NET
 10
-142.371701
 20
-88.740419
 30
942.526382
 11
-157.741727
 21
-79.915283
 31
842.011697
  0
POLYLINE
  5
90A
  8
TEAM-NET
 66
     1
 10
0.0
 20
0.0
 30
842.011697
 70
   128
1001
ACAD
1000
R13OBJECT
1002
{
1005
A81C3302000001AE
1002
}
  0
VERTEX
  5
1201
  8
TEAM-NET
 10
-157.741727
 20
-79.915283
 30
842.011697
  0
VERTEX
  5
1202
  8
TEAM-NET
 10
-155.517157
 20
-74.477483
 30
842.011697
  0
VERTEX
  5
1203
  8
TEAM-NET
 10
-154.794434
 20
-68.634979
 30
842.011697
  0
VERTEX
  5
1204
  8
TEAM-NET
 10
-155.622809
 20
-62.785927
 30
842.011697
  0
VERTEX
  5
1205
  8
TEAM-NET
 10
-157.945831
 20
-57.328931
 30
842.011697
  0
VERTEX
  5
1206
  8
TEAM-NET
 10
-161.605188
 20
-52.635875
 30
842.011697
  0
VERTEX
  5
1207
  8
TEAM-NET
 10
-166.351502
 20
-49.026585
 30
842.011697
  0
VERTEX
  5
1208
  8
TEAM-NET
 10
-171.86132
 20
-46.747027
 30
842.011697
  0
VERTEX
  5
1209
  8
TEAM-NET
 10
-177.759156
 20
-45.952549
 30
842.011697
  0
VERTEX
  5
120A
  8
TEAM-NET
 10
-183.643083
 20
-46.697293
 30
842.011697
  0
VERTEX
  5
120B
  8
TEAM-NET
 10
-189.11212
 20
-48.930507
 30
842.011697
  0
VERTEX
  5
120C
  8
TEAM-NET
 10
-193.793562
 20
-52.500001
 30
842.011697
  0
VERTEX
  5
120D
  8
TEAM-NET
 10
-197.368377
 20
-57.162519
 30
842.011697
  0
SEQEND
  5
120E
  8
TEAM-NET
  0
LINE
  5
919
  8
TEAM-NET
 10
-180.803461
 20
-66.673735
 30
950.34055
 11
-197.368377
 21
-57.162519
 31
842.011697
1001
ACAD
1000
R13OBJECT
1002
{
1005
1AE
1002
}
  0
ARC
  5
91A
  8
TEAM-NET
 10
147.848866
 20
264.243284
 30
-914.440507
 40
22.5
210
-0.15059
220
0.086466
230
-0.984808
 50
90.0
 51
270.0
1001
ACAD
1000
R13OBJECT
1002
{
1005
1AE
1002
}
  0
LINE
  5
91B
  8
TEAM-NET
 10
-166.351502
 20
-49.026585
 30
842.011697
 11
-150.384032
 21
-58.194761
 31
946.433466
1001
ACAD
1000
R13OBJECT
1002
{
1005
1AE
1002
}
  0
LINE
  5
1AF
  8
TEAM-NET
 10
-142.371701
 20
-88.740419
 30
942.526382
 11
-157.741727
 21
-79.915283
 31
842.011697
  0
ARC
  5
91C
  8
TEAM-NET
 10
147.848866
 20
264.243284
 30
-914.440507
 40
22.5
210
-0.15059
220
0.086466
230
-0.984808
 50
270.0
 51
90.0
1001
ACAD
1000
R13OBJECT
1002
{
1005
1AF
1002
}
  0
LINE
  5
91D
  8
TEAM-NET
 10
-180.803461
 20
-66.673735
 30
950.34055
 11
-197.368377
 21
-57.162519
 31
842.011697
1001
ACAD
1000
R13OBJECT
1002
{
1005
1AF
1002
}
  0
POLYLINE
  5
91E
  8
TEAM-NET
 66
     1
 10
0.0
 20
0.0
 30
842.011697
 70
   128
1001
ACAD
1000
R13OBJECT
1002
{
1005
A0143302000001AF
1002
}
  0
VERTEX
  5
120F
  8
TEAM-NET
 10
-197.368377
 20
-57.162519
 30
842.011697
  0
VERTEX
  5
1210
  8
TEAM-NET
 10
-199.592946
 20
-62.600319
 30
842.011697
  0
VERTEX
  5
1211
  8
TEAM-NET
 10
-200.315669
 20
-68.442823
 30
842.011697
  0
VERTEX
  5
1212
  8
TEAM-NET
 10
-199.487294
 20
-74.291875
 30
842.011697
  0
VERTEX
  5
1213
  8
TEAM-NET
 10
-197.164273
 20
-79.748872
 30
842.011697
  0
VERTEX
  5
1214
  8
TEAM-NET
 10
-193.504915
 20
-84.441927
 30
842.011697
  0
VERTEX
  5
1215
  8
TEAM-NET
 10
-188.758601
 20
-88.051217
 30
842.011697
  0
VERTEX
  5
1216
  8
TEAM-NET
 10
-183.248783
 20
-90.330776
 30
842.011697
  0
VERTEX
  5
1217
  8
TEAM-NET
 10
-177.350947
 20
-91.125254
 30
842.011697
  0
VERTEX
  5
1218
  8
TEAM-NET
 10
-171.467021
 20
-90.380509
 30
842.011697
  0
VERTEX
  5
1219
  8
TEAM-NET
 10
-165.997983
 20
-88.147295
 30
842.011697
  0
VERTEX
  5
121A
  8
TEAM-NET
 10
-161.316541
 20
-84.577801
 30
842.011697
  0
VERTEX
  5
121B
  8
TEAM-NET
 10
-157.741727
 20
-79.915283
 30
842.011697
  0
SEQEND
  5
121C
  8
TEAM-NET
  0
LINE
  5
92D
  8
TEAM-NET
 10
-188.758601
 20
-88.051217
 30
842.011697
 11
-172.79113
 21
-97.219393
 31
946.433466
1001
ACAD
1000
R13OBJECT
1002
{
1005
1AF
1002
}
  0
ARC
  5
1B0
  8
TEAM-NET
 10
0.0
 20
839.593892
 30
25.0
 40
10.0
210
0.0
220
-1.0
230
0.0
 50
180.0
 51
0.0
  0
ARC
  5
1B1
  8
TEAM-NET
 10
-157.055052
 20
839.011697
 30
68.538901
 40
3.0
210
0.0
220
-1.0
230
0.0
 50
90.0
 51
180.0
  0
ARC
  5
1B2
  8
TEAM-NET
 10
198.055052
 20
839.011697
 30
-68.538901
 40
3.0
210
0.0
220
1.0
230
0.0
 50
90.0
 51
180.0
  0
POLYLINE
  5
1B3
  8
TEAM-NET
 66
     1
 10
0.0
 20
0.0
 30
137.354528
 70
   129
210
0.0
220
-0.992546
230
0.121869
  0
VERTEX
  5
10A9
  8
TEAM-NET
 10
0.0
 20
816.304807
 30
137.354528
  0
VERTEX
  5
10AA
  8
TEAM-NET
 10
2.460266
 20
816.541498
 30
137.354528
  0
VERTEX
  5
10AB
  8
TEAM-NET
 10
4.831612
 20
817.243017
 30
137.354528
  0
VERTEX
  5
10AC
  8
TEAM-NET
 10
7.028331
 20
818.384009
 30
137.354528
  0
VERTEX
  5
10AD
  8
TEAM-NET
 10
8.971027
 20
819.923235
 30
137.354528
  0
VERTEX
  5
10AE
  8
TEAM-NET
 10
10.589487
 20
821.805065
 30
137.354528
  0
VERTEX
  5
10AF
  8
TEAM-NET
 10
11.825216
 20
823.961483
 30
137.354528
  0
VERTEX
  5
10B0
  8
TEAM-NET
 10
12.63355
 20
826.314551
 30
137.354528
  0
VERTEX
  5
10B1
  8
TEAM-NET
 10
12.985275
 20
828.779224
 30
137.354528
  0
VERTEX
  5
10B2
  8
TEAM-NET
 10
12.867679
 20
831.266421
 30
137.354528
  0
VERTEX
  5
10B3
  8
TEAM-NET
 10
12.285011
 20
833.686249
 30
137.354528
  0
VERTEX
  5
10B4
  8
TEAM-NET
 10
11.25833
 20
835.951248
 30
137.354528
  0
VERTEX
  5
10B5
  8
TEAM-NET
 10
9.824744
 20
837.979556
 30
137.354528
  0
VERTEX
  5
10B6
  8
TEAM-NET
 10
8.036067
 20
839.697865
 30
137.354528
  0
VERTEX
  5
10B7
  8
TEAM-NET
 10
5.956945
 20
841.04407
 30
137.354528
  0
VERTEX
  5
10B8
  8
TEAM-NET
 10
3.662523
 20
841.969516
 30
137.354528
  0
VERTEX
  5
10B9
  8
TEAM-NET
 10
1.235729
 20
842.440755
 30
137.354528
  0
VERTEX
  5
10BA
  8
TEAM-NET
 10
-1.235729
 20
842.440755
 30
137.354528
  0
VERTEX
  5
10BB
  8
TEAM-NET
 10
-3.662523
 20
841.969516
 30
137.354528
  0
VERTEX
  5
10BC
  8
TEAM-NET
 10
-5.956945
 20
841.04407
 30
137.354528
  0
VERTEX
  5
10BD
  8
TEAM-NET
 10
-8.036067
 20
839.697865
 30
137.354528
  0
VERTEX
  5
10BE
  8
TEAM-NET
 10
-9.824744
 20
837.979556
 30
137.354528
  0
VERTEX
  5
10BF
  8
TEAM-NET
 10
-11.25833
 20
835.951248
 30
137.354528
  0
VERTEX
  5
10C0
  8
TEAM-NET
 10
-12.285011
 20
833.686249
 30
137.354528
  0
VERTEX
  5
10C1
  8
TEAM-NET
 10
-12.867679
 20
831.266421
 30
137.354528
  0
VERTEX
  5
10C2
  8
TEAM-NET
 10
-12.985275
 20
828.779224
 30
137.354528
  0
VERTEX
  5
10C3
  8
TEAM-NET
 10
-12.63355
 20
826.314551
 30
137.354528
  0
VERTEX
  5
10C4
  8
TEAM-NET
 10
-11.825216
 20
823.961483
 30
137.354528
  0
VERTEX
  5
10C5
  8
TEAM-NET
 10
-10.589487
 20
821.805065
 30
137.354528
  0
VERTEX
  5
10C6
  8
TEAM-NET
 10
-8.971027
 20
819.923235
 30
137.354528
  0
VERTEX
  5
10C7
  8
TEAM-NET
 10
-7.028331
 20
818.384009
 30
137.354528
  0
VERTEX
  5
10C8
  8
TEAM-NET
 10
-4.831612
 20
817.243017
 30
137.354528
  0
VERTEX
  5
10C9
  8
TEAM-NET
 10
-2.460266
 20
816.541498
 30
137.354528
  0
SEQEND
  5
10CA
  8
TEAM-NET
  0
POLYLINE
  5
1B4
  8
TEAM-NET
 66
     1
 10
0.0
 20
0.0
 30
-164.211482
 70
   128
210
0.0
220
0.987499
230
-0.157625
  0
VERTEX
  5
10CB
  8
TEAM-NET
 10
10.0
 20
824.010999
 30
-164.211482
  0
VERTEX
  5
10CC
  8
TEAM-NET
 10
9.829731
 20
825.871755
 30
-164.211482
  0
VERTEX
  5
10CD
  8
TEAM-NET
 10
9.324722
 20
827.669146
 30
-164.211482
  0
VERTEX
  5
10CE
  8
TEAM-NET
 10
8.502171
 20
829.341962
 30
-164.211482
  0
VERTEX
  5
10CF
  8
TEAM-NET
 10
7.390089
 20
830.833239
 30
-164.211482
  0
VERTEX
  5
10D0
  8
TEAM-NET
 10
6.026346
 20
832.092193
 30
-164.211482
  0
VERTEX
  5
10D1
  8
TEAM-NET
 10
4.457384
 20
833.075952
 30
-164.211482
  0
VERTEX
  5
10D2
  8
TEAM-NET
 10
2.73663
 20
833.751014
 30
-164.211482
  0
VERTEX
  5
10D3
  8
TEAM-NET
 10
0.922684
 20
834.094392
 30
-164.211482
  0
VERTEX
  5
10D4
  8
TEAM-NET
 10
-0.922684
 20
834.094392
 30
-164.211482
  0
VERTEX
  5
10D5
  8
TEAM-NET
 10
-2.73663
 20
833.751014
 30
-164.211482
  0
VERTEX
  5
10D6
  8
TEAM-NET
 10
-4.457384
 20
833.075952
 30
-164.211482
  0
VERTEX
  5
10D7
  8
TEAM-NET
 10
-6.026346
 20
832.092193
 30
-164.211482
  0
VERTEX
  5
10D8
  8
TEAM-NET
 10
-7.390089
 20
830.833239
 30
-164.211482
  0
VERTEX
  5
10D9
  8
TEAM-NET
 10
-8.502171
 20
829.341962
 30
-164.211482
  0
VERTEX
  5
10DA
  8
TEAM-NET
 10
-9.324722
 20
827.669146
 30
-164.211482
  0
VERTEX
  5
10DB
  8
TEAM-NET
 10
-9.829731
 20
825.871755
 30
-164.211482
  0
VERTEX
  5
10DC
  8
TEAM-NET
 10
-10.0
 20
824.010999
 30
-164.211482
  0
SEQEND
  5
10DD
  8
TEAM-NET
  0
POLYLINE
  5
1B5
  8
TEAM-NET
 66
     1
 10
0.0
 20
0.0
 30
-164.211482
 70
   128
210
0.0
220
0.987499
230
-0.157625
  0
VERTEX
  5
10DE
  8
TEAM-NET
 10
10.0
 20
824.010999
 30
-164.211482
  0
VERTEX
  5
10DF
  8
TEAM-NET
 10
9.829731
 20
825.871755
 30
-164.211482
  0
VERTEX
  5
10E0
  8
TEAM-NET
 10
9.324722
 20
827.669146
 30
-164.211482
  0
VERTEX
  5
10E1
  8
TEAM-NET
 10
8.502171
 20
829.341962
 30
-164.211482
  0
VERTEX
  5
10E2
  8
TEAM-NET
 10
7.390089
 20
830.833239
 30
-164.211482
  0
VERTEX
  5
10E3
  8
TEAM-NET
 10
6.026346
 20
832.092193
 30
-164.211482
  0
VERTEX
  5
10E4
  8
TEAM-NET
 10
4.457384
 20
833.075952
 30
-164.211482
  0
VERTEX
  5
10E5
  8
TEAM-NET
 10
2.73663
 20
833.751014
 30
-164.211482
  0
VERTEX
  5
10E6
  8
TEAM-NET
 10
0.922684
 20
834.094392
 30
-164.211482
  0
VERTEX
  5
10E7
  8
TEAM-NET
 10
-0.922684
 20
834.094392
 30
-164.211482
  0
VERTEX
  5
10E8
  8
TEAM-NET
 10
-2.73663
 20
833.751014
 30
-164.211482
  0
VERTEX
  5
10E9
  8
TEAM-NET
 10
-4.457384
 20
833.075952
 30
-164.211482
  0
VERTEX
  5
10EA
  8
TEAM-NET
 10
-6.026346
 20
832.092193
 30
-164.211482
  0
VERTEX
  5
10EB
  8
TEAM-NET
 10
-7.390089
 20
830.833239
 30
-164.211482
  0
VERTEX
  5
10EC
  8
TEAM-NET
 10
-8.502171
 20
829.341962
 30
-164.211482
  0
VERTEX
  5
10ED
  8
TEAM-NET
 10
-9.324722
 20
827.669146
 30
-164.211482
  0
VERTEX
  5
10EE
  8
TEAM-NET
 10
-9.829731
 20
825.871755
 30
-164.211482
  0
VERTEX
  5
10EF
  8
TEAM-NET
 10
-10.0
 20
824.010999
 30
-164.211482
  0
SEQEND
  5
10F0
  8
TEAM-NET
  0
ARC
  5
1B6
  8
TEAM-NET
 10
0.0
 20
839.593892
 30
25.0
 40
10.0
210
0.0
220
-1.0
230
0.0
 50
360.0
 51
180.0
  0
POLYLINE
  5
1B7
  8
TEAM-NET
 66
     1
 10
0.0
 20
0.0
 30
0.0
 70
     8
  0
VERTEX
  5
976
  8
TEAM-NET
 10
125.684961
 20
-35.431284
 30
838.499174
 70
    32
  0
VERTEX
  5
977
  8
TEAM-NET
 10
129.480551
 20
-35.733609
 30
839.789485
 70
    32
  0
VERTEX
  5
978
  8
TEAM-NET
 10
132.781957
 20
-36.659913
 30
840.919463
 70
    32
  0
VERTEX
  5
979
  8
TEAM-NET
 10
135.517215
 20
-37.674259
 30
841.713812
 70
    32
  0
VERTEX
  5
97A
  8
TEAM-NET
 10
137.908326
 20
-38.538901
 30
842.011697
 70
    32
  0
SEQEND
  5
97B
  8
TEAM-NET
  0
POLYLINE
  5
1B8
  8
TEAM-NET
 66
     1
 10
0.0
 20
0.0
 30
0.0
 70
     8
  0
VERTEX
  5
97C
  8
TEAM-NET
 10
137.908326
 20
-34.568716
 30
845.524219
 70
    32
  0
VERTEX
  5
97D
  8
TEAM-NET
 10
134.327725
 20
-34.641868
 30
844.92845
 70
    32
  0
VERTEX
  5
97E
  8
TEAM-NET
 10
131.068954
 20
-34.836935
 30
843.339752
 70
    32
  0
VERTEX
  5
97F
  8
TEAM-NET
 10
128.211598
 20
-35.114423
 30
841.079796
 70
    32
  0
VERTEX
  5
980
  8
TEAM-NET
 10
125.684961
 20
-35.431284
 30
838.499174
 70
    32
  0
SEQEND
  5
981
  8
TEAM-NET
  0
ARC
  5
1B9
  8
TEAM-NET
 10
-139.635983
 20
838.011697
 30
-45.212829
 40
4.0
210
0.0
220
1.0
230
0.0
 50
11.864082
 51
90.0
  0
POLYLINE
  5
1BA
  8
TEAM-NET
 66
     1
 10
0.0
 20
0.0
 30
0.0
 70
     8
  0
VERTEX
  5
982
  8
TEAM-NET
 10
125.684961
 20
-35.431284
 30
838.499174
 70
    32
  0
VERTEX
  5
983
  8
TEAM-NET
 10
129.480551
 20
-35.733609
 30
839.789485
 70
    32
  0
VERTEX
  5
984
  8
TEAM-NET
 10
132.781957
 20
-36.659913
 30
840.919463
 70
    32
  0
VERTEX
  5
985
  8
TEAM-NET
 10
135.517215
 20
-37.674259
 30
841.713812
 70
    32
  0
VERTEX
  5
986
  8
TEAM-NET
 10
137.908326
 20
-38.538901
 30
842.011697
 70
    32
  0
SEQEND
  5
987
  8
TEAM-NET
  0
ARC
  5
1BB
  8
TEAM-NET
 10
-139.635983
 20
838.011697
 30
-45.212829
 40
4.0
210
0.0
220
1.0
230
0.0
 50
11.864082
 51
90.0
  0
ARC
  5
1BC
  8
TEAM-NET
 10
-139.635983
 20
838.011697
 30
-214.809185
 40
4.0
210
0.0
220
1.0
230
0.0
 50
11.864082
 51
90.0
  0
ARC
  5
1BD
  8
TEAM-NET
 10
-139.635983
 20
838.011697
 30
-214.809185
 40
4.0
210
0.0
220
1.0
230
0.0
 50
11.864082
 51
90.0
  0
POLYLINE
  5
1BE
  8
TEAM-NET
 66
     1
 10
0.0
 20
0.0
 30
0.0
 70
     8
  0
VERTEX
  5
988
  8
TEAM-NET
 10
120.45112
 20
-229.630095
 30
838.263333
 70
    32
  0
VERTEX
  5
989
  8
TEAM-NET
 10
125.854557
 20
-229.767768
 30
840.703579
 70
    32
  0
VERTEX
  5
98A
  8
TEAM-NET
 10
128.702792
 20
-229.80991
 30
841.588458
 70
    32
  0
VERTEX
  5
98B
  8
TEAM-NET
 10
132.03359
 20
-229.828571
 30
842.011697
 70
    32
  0
SEQEND
  5
98C
  8
TEAM-NET
  0
POLYLINE
  5
1BF
  8
TEAM-NET
 66
     1
 10
0.0
 20
0.0
 30
0.0
 70
     8
  0
VERTEX
  5
98D
  8
TEAM-NET
 10
-125.684961
 20
-35.431284
 30
838.499174
 70
    32
  0
VERTEX
  5
98E
  8
TEAM-NET
 10
-128.211599
 20
-35.114423
 30
841.079795
 70
    32
  0
VERTEX
  5
98F
  8
TEAM-NET
 10
-131.068955
 20
-34.836936
 30
843.33975
 70
    32
  0
VERTEX
  5
990
  8
TEAM-NET
 10
-134.327724
 20
-34.641868
 30
844.92845
 70
    32
  0
VERTEX
  5
991
  8
TEAM-NET
 10
-137.908326
 20
-34.568716
 30
845.524219
 70
    32
  0
SEQEND
  5
992
  8
TEAM-NET
  0
POLYLINE
  5
1C0
  8
TEAM-NET
 66
     1
 10
0.0
 20
0.0
 30
0.0
 70
     8
  0
VERTEX
  5
993
  8
TEAM-NET
 10
-137.908326
 20
-38.538901
 30
842.011697
 70
    32
  0
VERTEX
  5
994
  8
TEAM-NET
 10
-135.517216
 20
-37.674265
 30
841.713812
 70
    32
  0
VERTEX
  5
995
  8
TEAM-NET
 10
-132.781956
 20
-36.659907
 30
840.919462
 70
    32
  0
VERTEX
  5
996
  8
TEAM-NET
 10
-129.480551
 20
-35.733606
 30
839.789485
 70
    32
  0
VERTEX
  5
997
  8
TEAM-NET
 10
-125.684961
 20
-35.431284
 30
838.499174
 70
    32
  0
SEQEND
  5
998
  8
TEAM-NET
  0
ARC
  5
1C1
  8
TEAM-NET
 10
139.635983
 20
838.011697
 30
-45.212829
 40
4.0
210
0.0
220
1.0
230
0.0
 50
90.0
 51
168.135918
  0
POLYLINE
  5
1C2
  8
TEAM-NET
 66
     1
 10
0.0
 20
0.0
 30
0.0
 70
     8
  0
VERTEX
  5
999
  8
TEAM-NET
 10
-137.908326
 20
-38.538901
 30
842.011697
 70
    32
  0
VERTEX
  5
99A
  8
TEAM-NET
 10
-135.517216
 20
-37.674265
 30
841.713812
 70
    32
  0
VERTEX
  5
99B
  8
TEAM-NET
 10
-132.781956
 20
-36.659907
 30
840.919462
 70
    32
  0
VERTEX
  5
99C
  8
TEAM-NET
 10
-129.480551
 20
-35.733606
 30
839.789485
 70
    32
  0
VERTEX
  5
99D
  8
TEAM-NET
 10
-125.684961
 20
-35.431284
 30
838.499174
 70
    32
  0
SEQEND
  5
99E
  8
TEAM-NET
  0
ARC
  5
1C3
  8
TEAM-NET
 10
139.635983
 20
838.011697
 30
-45.212829
 40
4.0
210
0.0
220
1.0
230
0.0
 50
90.0
 51
168.135918
  0
ARC
  5
1C4
  8
TEAM-NET
 10
139.635983
 20
838.011697
 30
-214.809185
 40
4.0
210
0.0
220
1.0
230
0.0
 50
90.0
 51
168.135918
  0
ARC
  5
1C5
  8
TEAM-NET
 10
139.635983
 20
838.011697
 30
-214.809185
 40
4.0
210
0.0
220
1.0
230
0.0
 50
90.0
 51
168.135918
  0
POLYLINE
  5
1C6
  8
TEAM-NET
 66
     1
 10
0.0
 20
0.0
 30
0.0
 70
     8
  0
VERTEX
  5
99F
  8
TEAM-NET
 10
-132.03359
 20
-229.828571
 30
842.011697
 70
    32
  0
VERTEX
  5
9A0
  8
TEAM-NET
 10
-128.702786
 20
-229.80991
 30
841.588456
 70
    32
  0
VERTEX
  5
9A1
  8
TEAM-NET
 10
-125.854546
 20
-229.767768
 30
840.703575
 70
    32
  0
VERTEX
  5
9A2
  8
TEAM-NET
 10
-120.45112
 20
-229.630095
 30
838.263333
 70
    32
  0
SEQEND
  5
9A3
  8
TEAM-NET
  0
ARC
  5
1C7
  8
TEAM-NET
 10
0.0
 20
839.593892
 30
25.0
 40
10.0
210
0.0
220
-1.0
230
0.0
 50
180.0
 51
0.0
  0
ARC
  5
1C8
  8
TEAM-NET
 10
0.0
 20
839.593892
 30
25.0
 40
10.0
210
0.0
220
-1.0
230
0.0
 50
360.0
 51
180.0
  0
ARC
  5
1C9
  8
TEAM-NET
 10
-157.055052
 20
839.011697
 30
68.538901
 40
3.0
210
0.0
220
-1.0
230
0.0
 50
90.0
 51
180.0
  0
ARC
  5
1CA
  8
TEAM-NET
 10
198.055052
 20
839.011697
 30
-68.538901
 40
3.0
210
0.0
220
1.0
230
0.0
 50
90.0
 51
180.0
  0
LINE
  5
1CB
  8
TEAM-NET
 10
250.0
 20
-230.0
 30
825.012587
 11
250.0
 21
-230.0
 31
843.011697
  0
LINE
  5
1CC
  8
TEAM-NET
 10
220.0
 20
-260.0
 30
843.011697
 11
220.0
 21
-260.0
 31
825.012587
  0
LINE
  5
1CD
  8
TEAM-NET
 10
220.0
 20
-260.0
 30
843.011697
 11
220.0
 21
-260.0
 31
825.012587
210
0.0
220
-1.0
230
0.0
  0
LINE
  5
1CE
  8
TEAM-NET
 10
-220.0
 20
-260.0
 30
825.012587
 11
-220.0
 21
-260.0
 31
843.011697
210
0.0
220
-1.0
230
0.0
  0
LINE
  5
1CF
  8
TEAM-NET
 10
-220.0
 20
-260.0
 30
825.012587
 11
-220.0
 21
-260.0
 31
843.011697
  0
LINE
  5
1D0
  8
TEAM-NET
 10
-250.0
 20
-230.0
 30
843.011697
 11
-250.0
 21
-230.0
 31
825.012587
  0
LINE
  5
1D1
  8
TEAM-NET
 10
250.0
 20
-230.0
 30
825.012587
 11
250.0
 21
-230.0
 31
843.011697
210
1.0
220
0.0
230
0.0
  0
ARC
  5
1D2
  8
TEAM-NET
 10
-51.712229
 20
870.011697
 30
250.0
 40
27.0
210
1.0
220
0.0
230
0.0
 50
270.0
 51
353.0
  0
LINE
  5
1D3
  8
TEAM-NET
 10
250.0
 20
0.0
 30
825.012587
 11
250.0
 21
0.0
 31
868.011697
210
1.0
220
0.0
230
0.0
  0
LINE
  5
1D4
  8
TEAM-NET
 10
-250.0
 20
-230.0
 30
843.011697
 11
-250.0
 21
-230.0
 31
825.012587
210
-1.0
220
0.0
230
0.0
  0
ARC
  5
1D5
  8
TEAM-NET
 10
51.712229
 20
870.011697
 30
250.0
 40
27.0
210
-1.0
220
0.0
230
0.0
 50
187.0
 51
270.0
  0
LINE
  5
1D6
  8
TEAM-NET
 10
-250.0
 20
0.0
 30
825.012587
 11
-250.0
 21
0.0
 31
868.011697
210
-1.0
220
0.0
230
0.0
  0
ARC
  5
1D7
  8
TEAM-NET
 10
-51.712229
 20
870.011697
 30
250.0
 40
27.0
210
1.0
220
0.0
230
0.0
 50
270.0
 51
353.0
  0
ARC
  5
1D8
  8
TEAM-NET
 10
51.712229
 20
870.011697
 30
250.0
 40
27.0
210
-1.0
220
0.0
230
0.0
 50
187.0
 51
270.0
  0
POLYLINE
  5
1D9
  8
TEAM-NET
 66
     1
 10
0.0
 20
0.0
 30
137.354528
 70
   129
210
0.0
220
-0.992546
230
0.121869
  0
VERTEX
  5
10F1
  8
TEAM-NET
 10
0.0
 20
816.304807
 30
137.354528
  0
VERTEX
  5
10F2
  8
TEAM-NET
 10
2.460266
 20
816.541498
 30
137.354528
  0
VERTEX
  5
10F3
  8
TEAM-NET
 10
4.831612
 20
817.243017
 30
137.354528
  0
VERTEX
  5
10F4
  8
TEAM-NET
 10
7.028331
 20
818.384009
 30
137.354528
  0
VERTEX
  5
10F5
  8
TEAM-NET
 10
8.971027
 20
819.923235
 30
137.354528
  0
VERTEX
  5
10F6
  8
TEAM-NET
 10
10.589487
 20
821.805065
 30
137.354528
  0
VERTEX
  5
10F7
  8
TEAM-NET
 10
11.825216
 20
823.961483
 30
137.354528
  0
VERTEX
  5
10F8
  8
TEAM-NET
 10
12.63355
 20
826.314551
 30
137.354528
  0
VERTEX
  5
10F9
  8
TEAM-NET
 10
12.985275
 20
828.779224
 30
137.354528
  0
VERTEX
  5
10FA
  8
TEAM-NET
 10
12.867679
 20
831.266421
 30
137.354528
  0
VERTEX
  5
10FB
  8
TEAM-NET
 10
12.285011
 20
833.686249
 30
137.354528
  0
VERTEX
  5
10FC
  8
TEAM-NET
 10
11.25833
 20
835.951248
 30
137.354528
  0
VERTEX
  5
10FD
  8
TEAM-NET
 10
9.824744
 20
837.979556
 30
137.354528
  0
VERTEX
  5
10FE
  8
TEAM-NET
 10
8.036067
 20
839.697865
 30
137.354528
  0
VERTEX
  5
10FF
  8
TEAM-NET
 10
5.956945
 20
841.04407
 30
137.354528
  0
VERTEX
  5
1100
  8
TEAM-NET
 10
3.662523
 20
841.969516
 30
137.354528
  0
VERTEX
  5
1101
  8
TEAM-NET
 10
1.235729
 20
842.440755
 30
137.354528
  0
VERTEX
  5
1102
  8
TEAM-NET
 10
-1.235729
 20
842.440755
 30
137.354528
  0
VERTEX
  5
1103
  8
TEAM-NET
 10
-3.662523
 20
841.969516
 30
137.354528
  0
VERTEX
  5
1104
  8
TEAM-NET
 10
-5.956945
 20
841.04407
 30
137.354528
  0
VERTEX
  5
1105
  8
TEAM-NET
 10
-8.036067
 20
839.697865
 30
137.354528
  0
VERTEX
  5
1106
  8
TEAM-NET
 10
-9.824744
 20
837.979556
 30
137.354528
  0
VERTEX
  5
1107
  8
TEAM-NET
 10
-11.25833
 20
835.951248
 30
137.354528
  0
VERTEX
  5
1108
  8
TEAM-NET
 10
-12.285011
 20
833.686249
 30
137.354528
  0
VERTEX
  5
1109
  8
TEAM-NET
 10
-12.867679
 20
831.266421
 30
137.354528
  0
VERTEX
  5
110A
  8
TEAM-NET
 10
-12.985275
 20
828.779224
 30
137.354528
  0
VERTEX
  5
110B
  8
TEAM-NET
 10
-12.63355
 20
826.314551
 30
137.354528
  0
VERTEX
  5
110C
  8
TEAM-NET
 10
-11.825216
 20
823.961483
 30
137.354528
  0
VERTEX
  5
110D
  8
TEAM-NET
 10
-10.589487
 20
821.805065
 30
137.354528
  0
VERTEX
  5
110E
  8
TEAM-NET
 10
-8.971027
 20
819.923235
 30
137.354528
  0
VERTEX
  5
110F
  8
TEAM-NET
 10
-7.028331
 20
818.384009
 30
137.354528
  0
VERTEX
  5
1110
  8
TEAM-NET
 10
-4.831612
 20
817.243017
 30
137.354528
  0
VERTEX
  5
1111
  8
TEAM-NET
 10
-2.460266
 20
816.541498
 30
137.354528
  0
SEQEND
  5
1112
  8
TEAM-NET
  0
POLYLINE
  5
1DA
  8
TEAM-NET
 66
     1
 10
0.0
 20
0.0
 30
0.0
 70
     8
  0
VERTEX
  5
9C6
  8
TEAM-NET
 10
137.908326
 20
-34.568716
 30
845.524219
 70
    32
  0
VERTEX
  5
9C7
  8
TEAM-NET
 10
134.327725
 20
-34.641868
 30
844.92845
 70
    32
  0
VERTEX
  5
9C8
  8
TEAM-NET
 10
131.068954
 20
-34.836935
 30
843.339752
 70
    32
  0
VERTEX
  5
9C9
  8
TEAM-NET
 10
128.211598
 20
-35.114423
 30
841.079796
 70
    32
  0
VERTEX
  5
9CA
  8
TEAM-NET
 10
125.684961
 20
-35.431284
 30
838.499174
 70
    32
  0
SEQEND
  5
9CB
  8
TEAM-NET
  0
POLYLINE
  5
1DB
  8
TEAM-NET
 66
     1
 10
0.0
 20
0.0
 30
0.0
 70
     8
  0
VERTEX
  5
9CC
  8
TEAM-NET
 10
-125.684961
 20
-35.431284
 30
838.499174
 70
    32
  0
VERTEX
  5
9CD
  8
TEAM-NET
 10
-128.211599
 20
-35.114423
 30
841.079795
 70
    32
  0
VERTEX
  5
9CE
  8
TEAM-NET
 10
-131.068955
 20
-34.836936
 30
843.33975
 70
    32
  0
VERTEX
  5
9CF
  8
TEAM-NET
 10
-134.327724
 20
-34.641868
 30
844.92845
 70
    32
  0
VERTEX
  5
9D0
  8
TEAM-NET
 10
-137.908326
 20
-34.568716
 30
845.524219
 70
    32
  0
SEQEND
  5
9D1
  8
TEAM-NET
  0
POLYLINE
  5
1DC
  8
TEAM-NET
 66
     1
 10
0.0
 20
0.0
 30
0.0
 70
     8
  0
VERTEX
  5
9D2
  8
TEAM-NET
 10
120.45112
 20
-229.630095
 30
838.263333
 70
    32
  0
VERTEX
  5
9D3
  8
TEAM-NET
 10
125.854557
 20
-229.767768
 30
840.703579
 70
    32
  0
VERTEX
  5
9D4
  8
TEAM-NET
 10
128.702792
 20
-229.80991
 30
841.588458
 70
    32
  0
VERTEX
  5
9D5
  8
TEAM-NET
 10
132.03359
 20
-229.828571
 30
842.011697
 70
    32
  0
SEQEND
  5
9D6
  8
TEAM-NET
  0
POLYLINE
  5
1DD
  8
TEAM-NET
 66
     1
 10
0.0
 20
0.0
 30
0.0
 70
     8
  0
VERTEX
  5
9D7
  8
TEAM-NET
 10
-132.03359
 20
-229.828571
 30
842.011697
 70
    32
  0
VERTEX
  5
9D8
  8
TEAM-NET
 10
-128.702786
 20
-229.80991
 30
841.588456
 70
    32
  0
VERTEX
  5
9D9
  8
TEAM-NET
 10
-125.854546
 20
-229.767768
 30
840.703575
 70
    32
  0
VERTEX
  5
9DA
  8
TEAM-NET
 10
-120.45112
 20
-229.630095
 30
838.263333
 70
    32
  0
SEQEND
  5
9DB
  8
TEAM-NET
  0
LINE
  5
1DE
  8
TEAM-NET
 10
-250.0
 20
0.0
 30
825.012587
 11
-250.0
 21
0.0
 31
868.011697
210
0.0
220
1.0
230
0.0
  0
LINE
  5
1DF
  8
TEAM-NET
 10
250.0
 20
0.0
 30
825.012587
 11
250.0
 21
0.0
 31
868.011697
210
0.0
220
1.0
230
0.0
  0
ARC
  5
1E0
  8
TEAM-NET
 10
-215.0
 20
-94.933221
 30
-844.005257
 40
25.0
210
0.0
220
0.150911
230
-0.988547
 50
180.0
 51
270.0
  0
LINE
  5
1E1
  8
TEAM-NET
 10
214.956705
 20
-246.457513
 30
820.012587
 11
215.0
 21
-245.929747
 31
816.2398
  0
ARC
  5
1E2
  8
TEAM-NET
 10
-215.0
 20
-94.933221
 30
-844.005257
 40
25.0
210
0.0
220
0.150911
230
-0.988547
 50
180.0
 51
270.0
  0
LINE
  5
1E3
  8
TEAM-NET
 10
214.956705
 20
-246.457513
 30
820.012587
 11
215.0
 21
-245.929747
 31
816.2398
  0
LINE
  5
1E4
  8
TEAM-NET
 10
-160.055052
 20
-68.538901
 30
839.011697
 11
-160.055052
 21
-68.538901
 31
817.011697
  0
LINE
  5
1E5
  8
TEAM-NET
 10
-195.055052
 20
-68.538901
 30
839.011697
 11
-195.055052
 21
-68.538901
 31
817.011697
  0
LINE
  5
1E6
  8
TEAM-NET
 10
-160.055052
 20
-68.538901
 30
839.011697
 11
-160.055052
 21
-68.538901
 31
817.011697
  0
LINE
  5
1E7
  8
TEAM-NET
 10
-195.055052
 20
-68.538901
 30
839.011697
 11
-195.055052
 21
-68.538901
 31
817.011697
  0
ARC
  5
1E8
  8
TEAM-NET
 10
245.0
 20
825.012587
 30
0.0
 40
5.0
210
0.0
220
-1.0
230
0.0
 50
270.0
 51
0.0
  0
ARC
  5
1E9
  8
TEAM-NET
 10
245.0
 20
825.012587
 30
230.0
 40
5.0
210
0.0
220
-1.0
230
0.0
 50
270.0
 51
0.0
  0
ARC
  5
1EA
  8
TEAM-NET
 10
255.0
 20
825.012587
 30
-220.0
 40
5.0
210
-1.0
220
0.0
230
0.0
 50
270.0
 51
0.0
  0
ARC
  5
1EB
  8
TEAM-NET
 10
-255.0
 20
825.012587
 30
-220.0
 40
5.0
210
1.0
220
0.0
230
0.0
 50
180.0
 51
270.0
  0
ARC
  5
1EC
  8
TEAM-NET
 10
-245.0
 20
825.012587
 30
230.0
 40
5.0
210
0.0
220
-1.0
230
0.0
 50
180.0
 51
270.0
  0
ARC
  5
1ED
  8
TEAM-NET
 10
-255.0
 20
825.012587
 30
-220.0
 40
5.0
210
1.0
220
0.0
230
0.0
 50
180.0
 51
270.0
  0
ARC
  5
1EE
  8
TEAM-NET
 10
255.0
 20
825.012587
 30
-220.0
 40
5.0
210
-1.0
220
0.0
230
0.0
 50
270.0
 51
0.0
  0
ARC
  5
1EF
  8
TEAM-NET
 10
245.0
 20
825.012587
 30
230.0
 40
5.0
210
0.0
220
-1.0
230
0.0
 50
270.0
 51
0.0
  0
ARC
  5
1F0
  8
TEAM-NET
 10
-245.0
 20
825.012587
 30
230.0
 40
5.0
210
0.0
220
-1.0
230
0.0
 50
180.0
 51
270.0
  0
ARC
  5
1F1
  8
TEAM-NET
 10
-245.0
 20
825.012587
 30
0.0
 40
5.0
210
0.0
220
-1.0
230
0.0
 50
180.0
 51
270.0
  0
ARC
  5
1F2
  8
TEAM-NET
 10
245.0
 20
825.012587
 30
0.0
 40
5.0
210
0.0
220
1.0
230
0.0
 50
270.0
 51
0.0
  0
ARC
  5
1F3
  8
TEAM-NET
 10
-245.0
 20
825.012587
 30
0.0
 40
5.0
210
0.0
220
1.0
230
0.0
 50
180.0
 51
270.0
  0
ARC
  5
1F4
  8
TEAM-NET
 10
-177.555052
 20
-68.538901
 30
817.011697
 40
17.5
 50
180.0
 51
0.0
  0
ARC
  5
1F5
  8
TEAM-NET
 10
-177.555052
 20
-68.538901
 30
817.011697
 40
17.5
 50
360.0
 51
180.0
  0
LINE
  5
1F6
  8
TEAM-NET
 10
-182.500113
 20
0.0
 30
804.97048
 11
-182.500113
 21
-50.0
 31
804.97048
  0
ARC
  5
1F7
  8
TEAM-NET
 10
190.0
 20
805.011697
 30
-50.0
 40
7.5
210
0.0
220
1.0
230
0.0
 50
0.314873
 51
180.314873
  0
ARC
  5
1F8
  8
TEAM-NET
 10
-190.0
 20
805.011697
 30
0.0
 40
7.5
210
0.0
220
-1.0
230
0.0
 50
359.685127
 51
179.685127
  0
LINE
  5
1F9
  8
TEAM-NET
 10
-197.499887
 20
0.0
 30
805.052913
 11
-197.499887
 21
-50.0
 31
805.052913
  0
LINE
  5
1FA
  8
TEAM-NET
 10
197.499887
 20
0.0
 30
804.97048
 11
197.499887
 21
-50.0
 31
804.97048
  0
ARC
  5
1FB
  8
TEAM-NET
 10
-190.0
 20
805.011697
 30
-50.0
 40
7.5
210
0.0
220
1.0
230
0.0
 50
0.314873
 51
180.314873
  0
ARC
  5
1FC
  8
TEAM-NET
 10
190.0
 20
805.011697
 30
0.0
 40
7.5
210
0.0
220
-1.0
230
0.0
 50
359.685127
 51
179.685127
  0
LINE
  5
1FD
  8
TEAM-NET
 10
182.500113
 20
0.0
 30
805.052913
 11
182.500113
 21
-50.0
 31
805.052913
  0
LINE
  5
1FE
  8
TEAM-NET
 10
197.499887
 20
0.0
 30
804.97048
 11
197.499887
 21
-50.0
 31
804.97048
  0
LINE
  5
1FF
  8
TEAM-NET
 10
182.500113
 20
0.0
 30
805.052913
 11
182.500113
 21
-50.0
 31
805.052913
  0
ARC
  5
200
  8
TEAM-NET
 10
-190.0
 20
805.011697
 30
-50.0
 40
7.5
210
0.0
220
1.0
230
0.0
 50
0.314873
 51
180.314873
  0
LINE
  5
201
  8
TEAM-NET
 10
-182.500113
 20
0.0
 30
804.97048
 11
-182.500113
 21
-50.0
 31
804.97048
  0
LINE
  5
202
  8
TEAM-NET
 10
-197.499887
 20
0.0
 30
805.052913
 11
-197.499887
 21
-50.0
 31
805.052913
  0
ARC
  5
203
  8
TEAM-NET
 10
190.0
 20
805.011697
 30
-50.0
 40
7.5
210
0.0
220
1.0
230
0.0
 50
0.314873
 51
180.314873
  0
ARC
  5
204
  8
TEAM-NET
 10
-177.555052
 20
-68.538901
 30
817.011697
 40
17.5
 50
180.0
 51
0.0
  0
ARC
  5
205
  8
TEAM-NET
 10
-177.555052
 20
-68.538901
 30
817.011697
 40
17.5
 50
360.0
 51
180.0
  0
ARC
  5
206
  8
TEAM-NET
 10
190.0
 20
805.011697
 30
0.0
 40
7.5
210
0.0
220
1.0
230
0.0
 50
0.314873
 51
180.314873
  0
ARC
  5
207
  8
TEAM-NET
 10
-190.0
 20
805.011697
 30
0.0
 40
7.5
210
0.0
220
1.0
230
0.0
 50
0.314873
 51
180.314873
  0
LINE
  5
208
  8
TEAM-NET
 10
10.0
 20
-32.27434
 30
839.593892
 11
10.0
 21
-25.0
 31
839.593892
  0
POLYLINE
  5
209
  8
TEAM-NET
 66
     1
 10
0.0
 20
0.0
 30
-164.211482
 70
   128
210
0.0
220
0.987499
230
-0.157625
  0
VERTEX
  5
1113
  8
TEAM-NET
 10
-10.0
 20
824.010999
 30
-164.211482
  0
VERTEX
  5
1114
  8
TEAM-NET
 10
-9.848078
 20
822.252535
 30
-164.211482
  0
VERTEX
  5
1115
  8
TEAM-NET
 10
-9.396926
 20
820.547501
 30
-164.211482
  0
VERTEX
  5
1116
  8
TEAM-NET
 10
-8.660254
 20
818.947703
 30
-164.211482
  0
VERTEX
  5
1117
  8
TEAM-NET
 10
-7.660444
 20
817.501751
 30
-164.211482
  0
VERTEX
  5
1118
  8
TEAM-NET
 10
-6.427876
 20
816.25358
 30
-164.211482
  0
VERTEX
  5
1119
  8
TEAM-NET
 10
-5.0
 20
815.241114
 30
-164.211482
  0
VERTEX
  5
111A
  8
TEAM-NET
 10
-3.420201
 20
814.495116
 30
-164.211482
  0
VERTEX
  5
111B
  8
TEAM-NET
 10
-1.736482
 20
814.038253
 30
-164.211482
  0
VERTEX
  5
111C
  8
TEAM-NET
 10
0.0
 20
813.884408
 30
-164.211482
  0
SEQEND
  5
111D
  8
TEAM-NET
  0
POLYLINE
  5
20A
  8
TEAM-NET
 66
     1
 10
0.0
 20
0.0
 30
-164.211482
 70
   128
210
-0.0
220
0.987499
230
-0.157625
  0
VERTEX
  5
111E
  8
TEAM-NET
 10
0.0
 20
813.884408
 30
-164.211482
  0
VERTEX
  5
111F
  8
TEAM-NET
 10
1.736482
 20
814.038253
 30
-164.211482
  0
VERTEX
  5
1120
  8
TEAM-NET
 10
3.420201
 20
814.495116
 30
-164.211482
  0
VERTEX
  5
1121
  8
TEAM-NET
 10
5.0
 20
815.241114
 30
-164.211482
  0
VERTEX
  5
1122
  8
TEAM-NET
 10
6.427876
 20
816.25358
 30
-164.211482
  0
VERTEX
  5
1123
  8
TEAM-NET
 10
7.660444
 20
817.501751
 30
-164.211482
  0
VERTEX
  5
1124
  8
TEAM-NET
 10
8.660254
 20
818.947703
 30
-164.211482
  0
VERTEX
  5
1125
  8
TEAM-NET
 10
9.396926
 20
820.547501
 30
-164.211482
  0
VERTEX
  5
1126
  8
TEAM-NET
 10
9.848078
 20
822.252535
 30
-164.211482
  0
VERTEX
  5
1127
  8
TEAM-NET
 10
10.0
 20
824.010999
 30
-164.211482
  0
SEQEND
  5
1128
  8
TEAM-NET
  0
LINE
  5
20B
  8
TEAM-NET
 10
-10.0
 20
-32.27434
 30
839.593892
 11
-10.0
 21
-25.0
 31
839.593892
  0
ARC
  5
20C
  8
TEAM-NET
 10
177.555052
 20
-68.538901
 30
-839.011697
 40
17.5
210
0.0
220
0.0
230
-1.0
 50
180.0
 51
0.0
  0
POLYLINE
  5
20D
  8
TEAM-NET
 66
     1
 10
0.0
 20
0.0
 30
-164.211482
 70
   128
210
0.0
220
0.987499
230
-0.157625
  0
VERTEX
  5
1129
  8
TEAM-NET
 10
-10.0
 20
824.010999
 30
-164.211482
  0
VERTEX
  5
112A
  8
TEAM-NET
 10
-9.848078
 20
822.252535
 30
-164.211482
  0
VERTEX
  5
112B
  8
TEAM-NET
 10
-9.396926
 20
820.547501
 30
-164.211482
  0
VERTEX
  5
112C
  8
TEAM-NET
 10
-8.660254
 20
818.947703
 30
-164.211482
  0
VERTEX
  5
112D
  8
TEAM-NET
 10
-7.660444
 20
817.501751
 30
-164.211482
  0
VERTEX
  5
112E
  8
TEAM-NET
 10
-6.427876
 20
816.25358
 30
-164.211482
  0
VERTEX
  5
112F
  8
TEAM-NET
 10
-5.0
 20
815.241114
 30
-164.211482
  0
VERTEX
  5
1130
  8
TEAM-NET
 10
-3.420201
 20
814.495116
 30
-164.211482
  0
VERTEX
  5
1131
  8
TEAM-NET
 10
-1.736482
 20
814.038253
 30
-164.211482
  0
VERTEX
  5
1132
  8
TEAM-NET
 10
0.0
 20
813.884408
 30
-164.211482
  0
SEQEND
  5
1133
  8
TEAM-NET
  0
POLYLINE
  5
20E
  8
TEAM-NET
 66
     1
 10
0.0
 20
0.0
 30
-164.211482
 70
   128
210
-0.0
220
0.987499
230
-0.157625
  0
VERTEX
  5
1134
  8
TEAM-NET
 10
0.0
 20
813.884408
 30
-164.211482
  0
VERTEX
  5
1135
  8
TEAM-NET
 10
1.736482
 20
814.038253
 30
-164.211482
  0
VERTEX
  5
1136
  8
TEAM-NET
 10
3.420201
 20
814.495116
 30
-164.211482
  0
VERTEX
  5
1137
  8
TEAM-NET
 10
5.0
 20
815.241114
 30
-164.211482
  0
VERTEX
  5
1138
  8
TEAM-NET
 10
6.427876
 20
816.25358
 30
-164.211482
  0
VERTEX
  5
1139
  8
TEAM-NET
 10
7.660444
 20
817.501751
 30
-164.211482
  0
VERTEX
  5
113A
  8
TEAM-NET
 10
8.660254
 20
818.947703
 30
-164.211482
  0
VERTEX
  5
113B
  8
TEAM-NET
 10
9.396926
 20
820.547501
 30
-164.211482
  0
VERTEX
  5
113C
  8
TEAM-NET
 10
9.848078
 20
822.252535
 30
-164.211482
  0
VERTEX
  5
113D
  8
TEAM-NET
 10
10.0
 20
824.010999
 30
-164.211482
  0
SEQEND
  5
113E
  8
TEAM-NET
  0
LINE
  5
20F
  8
TEAM-NET
 10
10.0
 20
-32.27434
 30
839.593892
 11
10.0
 21
-25.0
 31
839.593892
  0
LINE
  5
210
  8
TEAM-NET
 10
-10.0
 20
-32.27434
 30
839.593892
 11
-10.0
 21
-25.0
 31
839.593892
  0
POLYLINE
  5
211
  8
TEAM-NET
 66
     1
 10
0.0
 20
0.0
 30
0.0
 70
     8
  0
VERTEX
  5
A08
  8
TEAM-NET
 10
125.684961
 20
-35.431284
 30
838.499174
 70
    32
  0
VERTEX
  5
A09
  8
TEAM-NET
 10
127.648447
 20
-35.595461
 30
838.64641
 70
    32
  0
VERTEX
  5
A0A
  8
TEAM-NET
 10
129.539224
 20
-36.12621
 30
838.7682
 70
    32
  0
VERTEX
  5
A0B
  8
TEAM-NET
 10
131.281317
 20
-37.008603
 30
838.860586
 70
    32
  0
VERTEX
  5
A0C
  8
TEAM-NET
 10
132.809921
 20
-38.215449
 30
838.921211
 70
    32
  0
VERTEX
  5
A0D
  8
TEAM-NET
 10
134.060775
 20
-39.701358
 30
838.948532
 70
    32
  0
VERTEX
  5
A0E
  8
TEAM-NET
 10
134.985089
 20
-41.409701
 30
838.9424
 70
    32
  0
VERTEX
  5
A0F
  8
TEAM-NET
 10
135.545014
 20
-43.271368
 30
838.903619
 70
    32
  0
VERTEX
  5
A10
  8
TEAM-NET
 10
135.721431
 20
-45.212829
 30
838.83406
 70
    32
  0
SEQEND
  5
A11
  8
TEAM-NET
  0
LINE
  5
212
  8
TEAM-NET
 10
135.721431
 20
-45.212829
 30
838.83406
 11
135.721431
 21
-214.809185
 31
838.83406
  0
POLYLINE
  5
213
  8
TEAM-NET
 66
     1
 10
0.0
 20
0.0
 30
0.0
 70
     8
  0
VERTEX
  5
A12
  8
TEAM-NET
 10
135.721431
 20
-214.809185
 30
838.83406
 70
    32
  0
VERTEX
  5
A13
  8
TEAM-NET
 10
135.430273
 20
-217.737725
 30
838.851385
 70
    32
  0
VERTEX
  5
A14
  8
TEAM-NET
 10
134.555276
 20
-220.545955
 30
838.839764
 70
    32
  0
VERTEX
  5
A15
  8
TEAM-NET
 10
133.131415
 20
-223.125026
 30
838.800578
 70
    32
  0
VERTEX
  5
A16
  8
TEAM-NET
 10
131.221754
 20
-225.368476
 30
838.735724
 70
    32
  0
VERTEX
  5
A17
  8
TEAM-NET
 10
128.899401
 20
-227.197937
 30
838.647077
 70
    32
  0
VERTEX
  5
A18
  8
TEAM-NET
 10
126.264379
 20
-228.54256
 30
838.537204
 70
    32
  0
VERTEX
  5
A19
  8
TEAM-NET
 10
123.409598
 20
-229.362142
 30
838.408222
 70
    32
  0
VERTEX
  5
A1A
  8
TEAM-NET
 10
120.45112
 20
-229.630095
 30
838.263333
 70
    32
  0
SEQEND
  5
A1B
  8
TEAM-NET
  0
POLYLINE
  5
214
  8
TEAM-NET
 66
     1
 10
0.0
 20
0.0
 30
0.0
 70
     8
  0
VERTEX
  5
A1C
  8
TEAM-NET
 10
-135.721431
 20
-45.212829
 30
838.83406
 70
    32
  0
VERTEX
  5
A1D
  8
TEAM-NET
 10
-135.545007
 20
-43.271399
 30
838.903618
 70
    32
  0
VERTEX
  5
A1E
  8
TEAM-NET
 10
-134.985202
 20
-41.409787
 30
838.942404
 70
    32
  0
VERTEX
  5
A1F
  8
TEAM-NET
 10
-134.061174
 20
-39.701466
 30
838.948555
 70
    32
  0
VERTEX
  5
A20
  8
TEAM-NET
 10
-132.810403
 20
-38.215974
 30
838.921223
 70
    32
  0
VERTEX
  5
A21
  8
TEAM-NET
 10
-131.281396
 20
-37.008692
 30
838.860589
 70
    32
  0
VERTEX
  5
A22
  8
TEAM-NET
 10
-129.539214
 20
-36.126205
 30
838.7682
 70
    32
  0
VERTEX
  5
A23
  8
TEAM-NET
 10
-127.648347
 20
-35.595422
 30
838.646405
 70
    32
  0
VERTEX
  5
A24
  8
TEAM-NET
 10
-125.684961
 20
-35.431284
 30
838.499174
 70
    32
  0
SEQEND
  5
A25
  8
TEAM-NET
  0
LINE
  5
215
  8
TEAM-NET
 10
-135.721431
 20
-214.809185
 30
838.83406
 11
-135.721431
 21
-45.212829
 31
838.83406
  0
POLYLINE
  5
216
  8
TEAM-NET
 66
     1
 10
0.0
 20
0.0
 30
0.0
 70
     8
  0
VERTEX
  5
A26
  8
TEAM-NET
 10
-120.45112
 20
-229.630095
 30
838.263333
 70
    32
  0
VERTEX
  5
A27
  8
TEAM-NET
 10
-123.409617
 20
-229.362209
 30
838.408224
 70
    32
  0
VERTEX
  5
A28
  8
TEAM-NET
 10
-126.264435
 20
-228.542603
 30
838.537207
 70
    32
  0
VERTEX
  5
A29
  8
TEAM-NET
 10
-128.899688
 20
-227.197846
 30
838.64709
 70
    32
  0
VERTEX
  5
A2A
  8
TEAM-NET
 10
-131.222087
 20
-225.368229
 30
838.735737
 70
    32
  0
VERTEX
  5
A2B
  8
TEAM-NET
 10
-133.131784
 20
-223.124722
 30
838.800592
 70
    32
  0
VERTEX
  5
A2C
  8
TEAM-NET
 10
-134.55548
 20
-220.546113
 30
838.839776
 70
    32
  0
VERTEX
  5
A2D
  8
TEAM-NET
 10
-135.430319
 20
-217.737737
 30
838.851388
 70
    32
  0
VERTEX
  5
A2E
  8
TEAM-NET
 10
-135.721431
 20
-214.809185
 30
838.83406
 70
    32
  0
SEQEND
  5
A2F
  8
TEAM-NET
  0
ARC
  5
217
  8
TEAM-NET
 10
177.555052
 20
-68.538901
 30
-839.011697
 40
17.5
210
0.0
220
0.0
230
-1.0
 50
0.0
 51
180.0
  0
ARC
  5
218
  8
TEAM-NET
 10
-220.0
 20
-230.0
 30
-825.012587
 40
30.0
210
0.0
220
0.0
230
-1.0
 50
180.0
 51
270.0
  0
LINE
  5
219
  8
TEAM-NET
 10
220.0
 20
-260.0
 30
825.012587
 11
-220.0
 21
-260.0
 31
825.012587
210
0.0
220
-1.0
230
0.0
  0
ARC
  5
21A
  8
TEAM-NET
 10
220.0
 20
-230.0
 30
-825.012587
 40
30.0
210
0.0
220
0.0
230
-1.0
 50
270.0
 51
0.0
  0
LINE
  5
21B
  8
TEAM-NET
 10
250.0
 20
0.0
 30
825.012587
 11
250.0
 21
-230.0
 31
825.012587
210
1.0
220
0.0
230
0.0
  0
LINE
  5
21C
  8
TEAM-NET
 10
-250.0
 20
-230.0
 30
825.012587
 11
-250.0
 21
0.0
 31
825.012587
210
-1.0
220
0.0
230
0.0
  0
POLYLINE
  5
21D
  8
TEAM-NET
 66
     1
 10
0.0
 20
0.0
 30
0.0
 70
     8
  0
VERTEX
  5
A30
  8
TEAM-NET
 10
240.0
 20
-221.216065
 30
820.012587
 70
    32
  0
VERTEX
  5
A31
  8
TEAM-NET
 10
239.521116
 20
-226.130948
 30
820.012587
 70
    32
  0
VERTEX
  5
A32
  8
TEAM-NET
 10
238.100942
 20
-230.860346
 30
820.012587
 70
    32
  0
VERTEX
  5
A33
  8
TEAM-NET
 10
235.795642
 20
-235.216507
 30
820.012587
 70
    32
  0
VERTEX
  5
A34
  8
TEAM-NET
 10
232.69056
 20
-239.038936
 30
820.012587
 70
    32
  0
VERTEX
  5
A35
  8
TEAM-NET
 10
228.897923
 20
-242.184149
 30
820.012587
 70
    32
  0
VERTEX
  5
A36
  8
TEAM-NET
 10
224.565608
 20
-244.524788
 30
820.012587
 70
    32
  0
VERTEX
  5
A37
  8
TEAM-NET
 10
219.856679
 20
-245.969262
 30
820.012587
 70
    32
  0
VERTEX
  5
A38
  8
TEAM-NET
 10
214.956705
 20
-246.457513
 30
820.012587
 70
    32
  0
SEQEND
  5
A39
  8
TEAM-NET
  0
POLYLINE
  5
21E
  8
TEAM-NET
 66
     1
 10
0.0
 20
0.0
 30
0.0
 70
     8
  0
VERTEX
  5
A3A
  8
TEAM-NET
 10
240.0
 20
-221.216065
 30
820.012587
 70
    32
  0
VERTEX
  5
A3B
  8
TEAM-NET
 10
239.521116
 20
-226.130948
 30
820.012587
 70
    32
  0
VERTEX
  5
A3C
  8
TEAM-NET
 10
238.100942
 20
-230.860346
 30
820.012587
 70
    32
  0
VERTEX
  5
A3D
  8
TEAM-NET
 10
235.795642
 20
-235.216507
 30
820.012587
 70
    32
  0
VERTEX
  5
A3E
  8
TEAM-NET
 10
232.69056
 20
-239.038936
 30
820.012587
 70
    32
  0
VERTEX
  5
A3F
  8
TEAM-NET
 10
228.897923
 20
-242.184149
 30
820.012587
 70
    32
  0
VERTEX
  5
A40
  8
TEAM-NET
 10
224.565608
 20
-244.524788
 30
820.012587
 70
    32
  0
VERTEX
  5
A41
  8
TEAM-NET
 10
219.856679
 20
-245.969262
 30
820.012587
 70
    32
  0
VERTEX
  5
A42
  8
TEAM-NET
 10
214.956705
 20
-246.457513
 30
820.012587
 70
    32
  0
SEQEND
  5
A43
  8
TEAM-NET
  0
LINE
  5
21F
  8
TEAM-NET
 10
240.0
 20
0.0
 30
820.012587
 11
240.0
 21
-221.216065
 31
820.012587
210
0.0
220
0.0
230
-1.0
  0
LINE
  5
220
  8
TEAM-NET
 10
214.956705
 20
-246.457513
 30
820.012587
 11
-214.956705
 21
-246.457513
 31
820.012587
210
0.0
220
0.0
230
-1.0
  0
LINE
  5
221
  8
TEAM-NET
 10
245.0
 20
0.0
 30
820.012587
 11
240.0
 21
0.0
 31
820.012587
210
0.0
220
0.0
230
-1.0
  0
POLYLINE
  5
222
  8
TEAM-NET
 66
     1
 10
0.0
 20
0.0
 30
0.0
 70
     8
  0
VERTEX
  5
A44
  8
TEAM-NET
 10
-214.956705
 20
-246.457513
 30
820.012587
 70
    32
  0
VERTEX
  5
A45
  8
TEAM-NET
 10
-219.859131
 20
-245.968768
 30
820.012587
 70
    32
  0
VERTEX
  5
A46
  8
TEAM-NET
 10
-224.569143
 20
-244.523308
 30
820.012587
 70
    32
  0
VERTEX
  5
A47
  8
TEAM-NET
 10
-228.904585
 20
-242.179649
 30
820.012587
 70
    32
  0
VERTEX
  5
A48
  8
TEAM-NET
 10
-232.697421
 20
-239.031999
 30
820.012587
 70
    32
  0
VERTEX
  5
A49
  8
TEAM-NET
 10
-235.803423
 20
-235.204736
 30
820.012587
 70
    32
  0
VERTEX
  5
A4A
  8
TEAM-NET
 10
-238.106838
 20
-230.845958
 30
820.012587
 70
    32
  0
VERTEX
  5
A4B
  8
TEAM-NET
 10
-239.522565
 20
-226.123555
 30
820.012587
 70
    32
  0
VERTEX
  5
A4C
  8
TEAM-NET
 10
-240.0
 20
-221.216065
 30
820.012587
 70
    32
  0
SEQEND
  5
A4D
  8
TEAM-NET
  0
LINE
  5
223
  8
TEAM-NET
 10
245.0
 20
-230.0
 30
820.012587
 11
245.0
 21
0.0
 31
820.012587
210
0.0
220
0.0
230
-1.0
  0
LINE
  5
224
  8
TEAM-NET
 10
-240.0
 20
-221.216065
 30
820.012587
 11
-240.0
 21
0.0
 31
820.012587
210
0.0
220
0.0
230
-1.0
  0
ARC
  5
225
  8
TEAM-NET
 10
-220.0
 20
-230.0
 30
-820.012587
 40
25.0
210
0.0
220
0.0
230
-1.0
 50
180.0
 51
270.0
  0
LINE
  5
226
  8
TEAM-NET
 10
-240.0
 20
0.0
 30
820.012587
 11
-245.0
 21
0.0
 31
820.012587
210
0.0
220
0.0
230
-1.0
  0
LINE
  5
227
  8
TEAM-NET
 10
-220.0
 20
-255.0
 30
820.012587
 11
220.0
 21
-255.0
 31
820.012587
210
0.0
220
0.0
230
-1.0
  0
LINE
  5
228
  8
TEAM-NET
 10
-245.0
 20
0.0
 30
820.012587
 11
-245.0
 21
-230.0
 31
820.012587
210
0.0
220
0.0
230
-1.0
  0
ARC
  5
229
  8
TEAM-NET
 10
220.0
 20
-230.0
 30
-820.012587
 40
25.0
210
0.0
220
0.0
230
-1.0
 50
270.0
 51
0.0
  0
POLYLINE
  5
22A
  8
TEAM-NET
 66
     1
 10
0.0
 20
0.0
 30
0.0
 70
     8
  0
VERTEX
  5
A4E
  8
TEAM-NET
 10
-214.956705
 20
-246.457513
 30
820.012587
 70
    32
  0
VERTEX
  5
A4F
  8
TEAM-NET
 10
-219.859131
 20
-245.968768
 30
820.012587
 70
    32
  0
VERTEX
  5
A50
  8
TEAM-NET
 10
-224.569143
 20
-244.523308
 30
820.012587
 70
    32
  0
VERTEX
  5
A51
  8
TEAM-NET
 10
-228.904585
 20
-242.179649
 30
820.012587
 70
    32
  0
VERTEX
  5
A52
  8
TEAM-NET
 10
-232.697421
 20
-239.031999
 30
820.012587
 70
    32
  0
VERTEX
  5
A53
  8
TEAM-NET
 10
-235.803423
 20
-235.204736
 30
820.012587
 70
    32
  0
VERTEX
  5
A54
  8
TEAM-NET
 10
-238.106838
 20
-230.845958
 30
820.012587
 70
    32
  0
VERTEX
  5
A55
  8
TEAM-NET
 10
-239.522565
 20
-226.123555
 30
820.012587
 70
    32
  0
VERTEX
  5
A56
  8
TEAM-NET
 10
-240.0
 20
-221.216065
 30
820.012587
 70
    32
  0
SEQEND
  5
A57
  8
TEAM-NET
  0
LINE
  5
22B
  8
TEAM-NET
 10
214.956705
 20
-246.457513
 30
820.012587
 11
-214.956705
 21
-246.457513
 31
820.012587
  0
LINE
  5
22C
  8
TEAM-NET
 10
240.0
 20
0.0
 30
820.012587
 11
240.0
 21
-221.216065
 31
820.012587
  0
LINE
  5
22D
  8
TEAM-NET
 10
-240.0
 20
-221.216065
 30
820.012587
 11
-240.0
 21
0.0
 31
820.012587
  0
ARC
  5
22E
  8
TEAM-NET
 10
177.555052
 20
-68.538901
 30
-839.011697
 40
17.5
210
0.0
220
0.0
230
-1.0
 50
180.0
 51
0.0
  0
POLYLINE
  5
22F
  8
TEAM-NET
 66
     1
 10
0.0
 20
0.0
 30
0.0
 70
     8
  0
VERTEX
  5
A58
  8
TEAM-NET
 10
135.721431
 20
-214.809185
 30
838.83406
 70
    32
  0
VERTEX
  5
A59
  8
TEAM-NET
 10
135.430273
 20
-217.737725
 30
838.851385
 70
    32
  0
VERTEX
  5
A5A
  8
TEAM-NET
 10
134.555276
 20
-220.545955
 30
838.839764
 70
    32
  0
VERTEX
  5
A5B
  8
TEAM-NET
 10
133.131415
 20
-223.125026
 30
838.800578
 70
    32
  0
VERTEX
  5
A5C
  8
TEAM-NET
 10
131.221754
 20
-225.368476
 30
838.735724
 70
    32
  0
VERTEX
  5
A5D
  8
TEAM-NET
 10
128.899401
 20
-227.197937
 30
838.647077
 70
    32
  0
VERTEX
  5
A5E
  8
TEAM-NET
 10
126.264379
 20
-228.54256
 30
838.537204
 70
    32
  0
VERTEX
  5
A5F
  8
TEAM-NET
 10
123.409598
 20
-229.362142
 30
838.408222
 70
    32
  0
VERTEX
  5
A60
  8
TEAM-NET
 10
120.45112
 20
-229.630095
 30
838.263333
 70
    32
  0
SEQEND
  5
A61
  8
TEAM-NET
  0
LINE
  5
230
  8
TEAM-NET
 10
135.721431
 20
-45.212829
 30
838.83406
 11
135.721431
 21
-214.809185
 31
838.83406
  0
POLYLINE
  5
231
  8
TEAM-NET
 66
     1
 10
0.0
 20
0.0
 30
0.0
 70
     8
  0
VERTEX
  5
A62
  8
TEAM-NET
 10
125.684961
 20
-35.431284
 30
838.499174
 70
    32
  0
VERTEX
  5
A63
  8
TEAM-NET
 10
127.648447
 20
-35.595461
 30
838.64641
 70
    32
  0
VERTEX
  5
A64
  8
TEAM-NET
 10
129.539224
 20
-36.12621
 30
838.7682
 70
    32
  0
VERTEX
  5
A65
  8
TEAM-NET
 10
131.281317
 20
-37.008603
 30
838.860586
 70
    32
  0
VERTEX
  5
A66
  8
TEAM-NET
 10
132.809921
 20
-38.215449
 30
838.921211
 70
    32
  0
VERTEX
  5
A67
  8
TEAM-NET
 10
134.060775
 20
-39.701358
 30
838.948532
 70
    32
  0
VERTEX
  5
A68
  8
TEAM-NET
 10
134.985089
 20
-41.409701
 30
838.9424
 70
    32
  0
VERTEX
  5
A69
  8
TEAM-NET
 10
135.545014
 20
-43.271368
 30
838.903619
 70
    32
  0
VERTEX
  5
A6A
  8
TEAM-NET
 10
135.721431
 20
-45.212829
 30
838.83406
 70
    32
  0
SEQEND
  5
A6B
  8
TEAM-NET
  0
POLYLINE
  5
232
  8
TEAM-NET
 66
     1
 10
0.0
 20
0.0
 30
0.0
 70
     8
  0
VERTEX
  5
A6C
  8
TEAM-NET
 10
-135.721431
 20
-45.212829
 30
838.83406
 70
    32
  0
VERTEX
  5
A6D
  8
TEAM-NET
 10
-135.545007
 20
-43.271399
 30
838.903618
 70
    32
  0
VERTEX
  5
A6E
  8
TEAM-NET
 10
-134.985202
 20
-41.409787
 30
838.942404
 70
    32
  0
VERTEX
  5
A6F
  8
TEAM-NET
 10
-134.061174
 20
-39.701466
 30
838.948555
 70
    32
  0
VERTEX
  5
A70
  8
TEAM-NET
 10
-132.810403
 20
-38.215974
 30
838.921223
 70
    32
  0
VERTEX
  5
A71
  8
TEAM-NET
 10
-131.281396
 20
-37.008692
 30
838.860589
 70
    32
  0
VERTEX
  5
A72
  8
TEAM-NET
 10
-129.539214
 20
-36.126205
 30
838.7682
 70
    32
  0
VERTEX
  5
A73
  8
TEAM-NET
 10
-127.648347
 20
-35.595422
 30
838.646405
 70
    32
  0
VERTEX
  5
A74
  8
TEAM-NET
 10
-125.684961
 20
-35.431284
 30
838.499174
 70
    32
  0
SEQEND
  5
A75
  8
TEAM-NET
  0
LINE
  5
233
  8
TEAM-NET
 10
-135.721431
 20
-214.809185
 30
838.83406
 11
-135.721431
 21
-45.212829
 31
838.83406
  0
POLYLINE
  5
234
  8
TEAM-NET
 66
     1
 10
0.0
 20
0.0
 30
0.0
 70
     8
  0
VERTEX
  5
A76
  8
TEAM-NET
 10
-120.45112
 20
-229.630095
 30
838.263333
 70
    32
  0
VERTEX
  5
A77
  8
TEAM-NET
 10
-123.409617
 20
-229.362209
 30
838.408224
 70
    32
  0
VERTEX
  5
A78
  8
TEAM-NET
 10
-126.264435
 20
-228.542603
 30
838.537207
 70
    32
  0
VERTEX
  5
A79
  8
TEAM-NET
 10
-128.899688
 20
-227.197846
 30
838.64709
 70
    32
  0
VERTEX
  5
A7A
  8
TEAM-NET
 10
-131.222087
 20
-225.368229
 30
838.735737
 70
    32
  0
VERTEX
  5
A7B
  8
TEAM-NET
 10
-133.131784
 20
-223.124722
 30
838.800592
 70
    32
  0
VERTEX
  5
A7C
  8
TEAM-NET
 10
-134.55548
 20
-220.546113
 30
838.839776
 70
    32
  0
VERTEX
  5
A7D
  8
TEAM-NET
 10
-135.430319
 20
-217.737737
 30
838.851388
 70
    32
  0
VERTEX
  5
A7E
  8
TEAM-NET
 10
-135.721431
 20
-214.809185
 30
838.83406
 70
    32
  0
SEQEND
  5
A7F
  8
TEAM-NET
  0
ARC
  5
235
  8
TEAM-NET
 10
177.555052
 20
-68.538901
 30
-839.011697
 40
17.5
210
0.0
220
0.0
230
-1.0
 50
0.0
 51
180.0
  0
LINE
  5
236
  8
TEAM-NET
 10
245.0
 20
-230.0
 30
820.012587
 11
245.0
 21
0.0
 31
820.012587
  0
LINE
  5
237
  8
TEAM-NET
 10
250.0
 20
0.0
 30
825.012587
 11
250.0
 21
-230.0
 31
825.012587
  0
LINE
  5
238
  8
TEAM-NET
 10
220.0
 20
-260.0
 30
825.012587
 11
-220.0
 21
-260.0
 31
825.012587
  0
LINE
  5
239
  8
TEAM-NET
 10
-220.0
 20
-255.0
 30
820.012587
 11
220.0
 21
-255.0
 31
820.012587
  0
ARC
  5
23A
  8
TEAM-NET
 10
220.0
 20
-230.0
 30
-825.012587
 40
30.0
210
0.0
220
0.0
230
-1.0
 50
270.0
 51
0.0
  0
ARC
  5
23B
  8
TEAM-NET
 10
-220.0
 20
-230.0
 30
820.012587
 40
25.0
 50
180.0
 51
270.0
  0
ARC
  5
23C
  8
TEAM-NET
 10
-220.0
 20
-230.0
 30
-825.012587
 40
30.0
210
0.0
220
0.0
230
-1.0
 50
180.0
 51
270.0
  0
ARC
  5
23D
  8
TEAM-NET
 10
220.0
 20
-230.0
 30
820.012587
 40
25.0
 50
270.0
 51
0.0
  0
LINE
  5
23E
  8
TEAM-NET
 10
-250.0
 20
-230.0
 30
825.012587
 11
-250.0
 21
0.0
 31
825.012587
  0
LINE
  5
23F
  8
TEAM-NET
 10
-245.0
 20
0.0
 30
820.012587
 11
-245.0
 21
-230.0
 31
820.012587
  0
LINE
  5
240
  8
TEAM-NET
 10
-240.0
 20
0.0
 30
820.012587
 11
-245.0
 21
0.0
 31
820.012587
210
0.0
220
1.0
230
0.0
  0
LINE
  5
241
  8
TEAM-NET
 10
245.0
 20
0.0
 30
820.012587
 11
240.0
 21
0.0
 31
820.012587
210
0.0
220
1.0
230
0.0
  0
ARC
  5
242
  8
TEAM-NET
 10
-51.712229
 20
870.011697
 30
225.0
 40
20.0
210
1.0
220
0.0
230
0.0
 50
270.0
 51
353.0
  0
POLYLINE
  5
243
  8
TEAM-NET
 66
     1
 10
0.0
 20
0.0
 30
0.0
 70
     8
  0
VERTEX
  5
A80
  8
TEAM-NET
 10
225.0
 20
-31.861306
 30
867.57431
 70
    32
  0
VERTEX
  5
A81
  8
TEAM-NET
 10
221.648153
 20
-32.75075
 30
860.330366
 70
    32
  0
VERTEX
  5
A82
  8
TEAM-NET
 10
220.461691
 20
-33.221112
 30
856.499575
 70
    32
  0
VERTEX
  5
A83
  8
TEAM-NET
 10
220.0
 20
-33.689335
 30
852.686204
 70
    32
  0
SEQEND
  5
A84
  8
TEAM-NET
  0
ARC
  5
244
  8
TEAM-NET
 10
51.712229
 20
870.011697
 30
225.0
 40
20.0
210
-1.0
220
0.0
230
0.0
 50
187.0
 51
270.0
  0
POLYLINE
  5
245
  8
TEAM-NET
 66
     1
 10
0.0
 20
0.0
 30
0.0
 70
     8
  0
VERTEX
  5
A85
  8
TEAM-NET
 10
-220.0
 20
-33.689376
 30
852.685872
 70
    32
  0
VERTEX
  5
A86
  8
TEAM-NET
 10
-220.461478
 20
-33.221139
 30
856.499353
 70
    32
  0
VERTEX
  5
A87
  8
TEAM-NET
 10
-221.648049
 20
-32.750751
 30
860.330356
 70
    32
  0
VERTEX
  5
A88
  8
TEAM-NET
 10
-225.0
 20
-31.861306
 30
867.57431
 70
    32
  0
SEQEND
  5
A89
  8
TEAM-NET
  0
ARC
  5
246
  8
TEAM-NET
 10
51.712229
 20
870.011697
 30
-243.0
 40
20.0
210
-1.0
220
0.0
230
0.0
 50
187.0
 51
270.0
  0
ARC
  5
247
  8
TEAM-NET
 10
-51.712229
 20
870.011697
 30
-243.0
 40
20.0
210
1.0
220
0.0
230
0.0
 50
270.0
 51
353.0
  0
ARC
  5
248
  8
TEAM-NET
 10
51.712229
 20
870.011697
 30
-243.0
 40
20.0
210
-1.0
220
0.0
230
0.0
 50
187.0
 51
270.0
  0
ARC
  5
249
  8
TEAM-NET
 10
-51.712229
 20
870.011697
 30
225.0
 40
20.0
210
1.0
220
0.0
230
0.0
 50
270.0
 51
353.0
  0
ARC
  5
24A
  8
TEAM-NET
 10
-51.712229
 20
870.011697
 30
-243.0
 40
20.0
210
1.0
220
0.0
230
0.0
 50
270.0
 51
353.0
  0
ARC
  5
24B
  8
TEAM-NET
 10
51.712229
 20
870.011697
 30
225.0
 40
20.0
210
-1.0
220
0.0
230
0.0
 50
187.0
 51
270.0
  0
LINE
  5
24C
  8
TEAM-NET
 10
-186.039045
 20
-62.514458
 30
842.203127
 11
-191.640862
 21
-59.298016
 31
876.601879
  0
ARC
  5
A8A
  8
TEAM-NET
 10
-146.848866
 20
29.465208
 30
-886.766261
 40
2.0
210
0.160052
220
-0.091898
230
-0.982821
 50
270.0
 51
360.0
1001
ACAD
1000
R13OBJECT
1002
{
1005
24C
1002
}
  0
LINE
  5
A8B
  8
TEAM-NET
 10
-188.940358
 20
-58.542351
 30
876.970996
 11
-183.33854
 21
-61.758794
 31
842.572244
1001
ACAD
1000
R13OBJECT
1002
{
1005
24C
1002
}
  0
ARC
  5
A8C
  8
TEAM-NET
 10
146.848866
 20
29.465208
 30
851.766261
 40
2.0
210
-0.160052
220
0.091898
230
0.982821
 50
180.0
 51
270.0
1001
ACAD
1000
R13OBJECT
1002
{
1005
24C
1002
}
  0
LINE
  5
A8D
  8
TEAM-NET
 10
-190.437399
 20
-58.358263
 30
876.709991
 11
-184.835582
 21
-61.574706
 31
842.311239
1001
ACAD
1000
R13OBJECT
1002
{
1005
24C
1002
}
  0
LINE
  5
24D
  8
TEAM-NET
 10
-192.636733
 20
-61.032444
 30
876.601879
 11
-187.034916
 21
-64.248886
 31
842.203127
  0
LINE
  5
A8E
  8
TEAM-NET
 10
-192.636733
 20
-61.032444
 30
876.601879
 11
-191.640862
 21
-59.298016
 31
876.601879
1001
ACAD
1000
R13OBJECT
1002
{
1005
24D
1002
}
  0
LINE
  5
A8F
  8
TEAM-NET
 10
-186.039045
 20
-62.514458
 30
842.203127
 11
-191.640862
 21
-59.298016
 31
876.601879
1001
ACAD
1000
R13OBJECT
1002
{
1005
24D
1002
}
  0
LINE
  5
A90
  8
TEAM-NET
 10
-186.039045
 20
-62.514458
 30
842.203127
 11
-187.034916
 21
-64.248886
 31
842.203127
1001
ACAD
1000
R13OBJECT
1002
{
1005
24D
1002
}
  0
LINE
  5
24E
  8
TEAM-NET
 10
-191.927971
 20
-63.745636
 30
876.970996
 11
-186.326153
 21
-66.962078
 31
842.572244
  0
ARC
  5
A91
  8
TEAM-NET
 10
-148.848866
 20
29.465208
 30
-886.766261
 40
2.0
210
0.160052
220
-0.091898
230
-0.982821
 50
180.0
 51
270.0
1001
ACAD
1000
R13OBJECT
1002
{
1005
24E
1002
}
  0
LINE
  5
A92
  8
TEAM-NET
 10
-192.636733
 20
-61.032444
 30
876.601879
 11
-187.034916
 21
-64.248886
 31
842.203127
1001
ACAD
1000
R13OBJECT
1002
{
1005
24E
1002
}
  0
ARC
  5
A93
  8
TEAM-NET
 10
148.848866
 20
29.465208
 30
851.766261
 40
2.0
210
-0.160052
220
0.091898
230
0.982821
 50
270.0
 51
0.0
1001
ACAD
1000
R13OBJECT
1002
{
1005
24E
1002
}
  0
LINE
  5
A94
  8
TEAM-NET
 10
-192.841645
 20
-62.545543
 30
876.709991
 11
-187.239827
 21
-65.761985
 31
842.311239
1001
ACAD
1000
R13OBJECT
1002
{
1005
24E
1002
}
  0
LINE
  5
24F
  8
TEAM-NET
 10
-182.486221
 20
-62.248177
 30
842.756804
 11
-188.075805
 21
-59.038759
 31
877.080432
  0
ARC
  5
A95
  8
TEAM-NET
 10
-145.848866
 20
30.465211
 30
-886.689824
 40
1.0
210
0.160052
220
-0.091898
230
-0.982821
 50
360.0
 51
90.0
1001
ACAD
1000
R13OBJECT
1002
{
1005
24F
1002
}
  0
LINE
  5
A96
  8
TEAM-NET
 10
-187.721423
 20
-60.395355
 30
877.264991
 11
-182.13184
 21
-63.604773
 31
842.941362
1001
ACAD
1000
R13OBJECT
1002
{
1005
24F
1002
}
  0
ARC
  5
A97
  8
TEAM-NET
 10
145.848866
 20
30.465211
 30
851.766261
 40
1.0
210
-0.160052
220
0.091898
230
0.982821
 50
90.0
 51
180.0
1001
ACAD
1000
R13OBJECT
1002
{
1005
24F
1002
}
  0
LINE
  5
A98
  8
TEAM-NET
 10
-187.618968
 20
-59.638805
 30
877.210935
 11
-182.029384
 21
-62.848223
 31
842.887306
1001
ACAD
1000
R13OBJECT
1002
{
1005
24F
1002
}
  0
LINE
  5
250
  8
TEAM-NET
 10
-184.123582
 20
-67.073629
 30
842.941362
 11
-189.713166
 21
-63.864211
 31
877.264991
  0
LINE
  5
A99
  8
TEAM-NET
 10
-184.123582
 20
-67.073629
 30
842.941362
 11
-182.13184
 21
-63.604773
 31
842.941362
1001
ACAD
1000
R13OBJECT
1002
{
1005
250
1002
}
  0
LINE
  5
A9A
  8
TEAM-NET
 10
-187.721423
 20
-60.395355
 30
877.264991
 11
-182.13184
 21
-63.604773
 31
842.941362
1001
ACAD
1000
R13OBJECT
1002
{
1005
250
1002
}
  0
LINE
  5
A9B
  8
TEAM-NET
 10
-187.721423
 20
-60.395355
 30
877.264991
 11
-189.713166
 21
-63.864211
 31
877.264991
1001
ACAD
1000
R13OBJECT
1002
{
1005
250
1002
}
  0
LINE
  5
251
  8
TEAM-NET
 10
-184.123582
 20
-67.073629
 30
842.941362
 11
-189.713166
 21
-63.864211
 31
877.264991
  0
ARC
  5
A9C
  8
TEAM-NET
 10
-149.848866
 20
30.465211
 30
-886.689824
 40
1.0
210
0.160052
220
-0.091898
230
-0.982821
 50
90.0
 51
180.0
1001
ACAD
1000
R13OBJECT
1002
{
1005
251
1002
}
  0
LINE
  5
A9D
  8
TEAM-NET
 10
-191.063418
 20
-64.242043
 30
877.080432
 11
-185.473834
 21
-67.451461
 31
842.756804
1001
ACAD
1000
R13OBJECT
1002
{
1005
251
1002
}
  0
ARC
  5
A9E
  8
TEAM-NET
 10
149.848866
 20
30.465211
 30
851.766261
 40
1.0
210
-0.160052
220
0.091898
230
0.982821
 50
0.0
 51
90.0
1001
ACAD
1000
R13OBJECT
1002
{
1005
251
1002
}
  0
LINE
  5
A9F
  8
TEAM-NET
 10
-184.725313
 20
-67.543505
 30
842.887306
 11
-190.314897
 21
-64.334087
 31
877.210935
1001
ACAD
1000
R13OBJECT
1002
{
1005
251
1002
}
  0
POLYLINE
  5
252
  8
TEAM-NET
 66
     1
 10
0.0
 20
0.0
 30
0.0
 70
     8
  0
VERTEX
  5
AA0
  8
TEAM-NET
 10
225.0
 20
-31.861306
 30
867.57431
 70
    32
  0
VERTEX
  5
AA1
  8
TEAM-NET
 10
221.648153
 20
-32.75075
 30
860.330366
 70
    32
  0
VERTEX
  5
AA2
  8
TEAM-NET
 10
220.461691
 20
-33.221112
 30
856.499575
 70
    32
  0
VERTEX
  5
AA3
  8
TEAM-NET
 10
220.0
 20
-33.689335
 30
852.686204
 70
    32
  0
SEQEND
  5
AA4
  8
TEAM-NET
  0
POLYLINE
  5
253
  8
TEAM-NET
 66
     1
 10
0.0
 20
0.0
 30
0.0
 70
     8
  0
VERTEX
  5
AA5
  8
TEAM-NET
 10
-220.0
 20
-33.689376
 30
852.685872
 70
    32
  0
VERTEX
  5
AA6
  8
TEAM-NET
 10
-220.461478
 20
-33.221139
 30
856.499353
 70
    32
  0
VERTEX
  5
AA7
  8
TEAM-NET
 10
-221.648049
 20
-32.750751
 30
860.330356
 70
    32
  0
VERTEX
  5
AA8
  8
TEAM-NET
 10
-225.0
 20
-31.861306
 30
867.57431
 70
    32
  0
SEQEND
  5
AA9
  8
TEAM-NET
  0
TEXT
  5
254
  8
TEAM-TXT
 10
-138.185706
 20
-207.599597
 30
851.0
 40
30.0
  1
team 221067
 41
0.8
 51
15.0
  7
TEAM
  0
POLYLINE
  5
257
  8
TEAM-NET
 66
     1
 10
0.0
 20
0.0
 30
0.0
 70
     8
  0
VERTEX
  5
AAA
  8
TEAM-NET
 10
214.249215
 20
-234.9348
 30
850.011697
 70
    32
  0
VERTEX
  5
AAB
  8
TEAM-NET
 10
214.146741
 20
-233.05193
 30
849.643629
 70
    32
  0
VERTEX
  5
AAC
  8
TEAM-NET
 10
214.051511
 20
-231.446554
 30
848.593894
 70
    32
  0
VERTEX
  5
AAD
  8
TEAM-NET
 10
213.98144
 20
-230.354141
 30
847.016083
 70
    32
  0
VERTEX
  5
AAE
  8
TEAM-NET
 10
213.953292
 20
-229.936501
 30
845.142074
 70
    32
  0
SEQEND
  5
AAF
  8
TEAM-NET
  0
LINE
  5
258
  8
TEAM-NET
 10
213.953292
 20
-229.936501
 30
845.142074
 11
-136.94131
 21
-229.936501
 31
845.142074
  0
LINE
  5
259
  8
TEAM-NET
 10
-137.740506
 20
-234.9348
 30
850.011697
 11
214.249215
 21
-234.9348
 31
850.011697
  0
POLYLINE
  5
25A
  8
TEAM-NET
 66
     1
 10
0.0
 20
0.0
 30
0.0
 70
     8
  0
VERTEX
  5
AB0
  8
TEAM-NET
 10
-136.94131
 20
-229.936501
 30
845.142074
 70
    32
  0
VERTEX
  5
AB1
  8
TEAM-NET
 10
-137.262165
 20
-230.350875
 30
847.008335
 70
    32
  0
VERTEX
  5
AB2
  8
TEAM-NET
 10
-137.518705
 20
-231.434718
 30
848.582448
 70
    32
  0
VERTEX
  5
AB3
  8
TEAM-NET
 10
-137.683784
 20
-233.042606
 30
849.639634
 70
    32
  0
VERTEX
  5
AB4
  8
TEAM-NET
 10
-137.740506
 20
-234.9348
 30
850.011697
 70
    32
  0
SEQEND
  5
AB5
  8
TEAM-NET
  0
ARC
  5
25B
  8
TEAM-NET
 10
-225.0
 20
845.011697
 30
-223.0
 40
5.0
210
0.0
220
1.0
230
0.0
 50
0.0
 51
90.0
  0
LINE
  5
25C
  8
TEAM-NET
 10
225.0
 20
-223.0
 30
850.011697
 11
225.0
 21
-51.712229
 31
850.011697
  0
LINE
  5
25D
  8
TEAM-NET
 10
220.0
 20
-51.712229
 30
845.011697
 11
220.0
 21
-223.0
 31
845.011697
  0
ARC
  5
25E
  8
TEAM-NET
 10
225.0
 20
845.011697
 30
51.712229
 40
5.0
210
0.0
220
-1.0
230
0.0
 50
90.0
 51
180.0
  0
ARC
  5
25F
  8
TEAM-NET
 10
-225.0
 20
845.011697
 30
-223.0
 40
5.0
210
0.0
220
1.0
230
0.0
 50
0.0
 51
90.0
  0
ARC
  5
260
  8
TEAM-NET
 10
213.0
 20
-223.0
 30
850.011697
 40
12.0
 50
275.97539
 51
0.0
  0
ARC
  5
261
  8
TEAM-NET
 10
-213.0
 20
-223.0
 30
-845.011697
 40
7.0
210
0.0
220
0.0
230
-1.0
 50
180.0
 51
262.069564
  0
POLYLINE
  5
262
  8
TEAM-NET
 66
     1
 10
0.0
 20
0.0
 30
0.0
 70
     8
  0
VERTEX
  5
AB6
  8
TEAM-NET
 10
214.249215
 20
-234.9348
 30
850.011697
 70
    32
  0
VERTEX
  5
AB7
  8
TEAM-NET
 10
214.146741
 20
-233.05193
 30
849.643629
 70
    32
  0
VERTEX
  5
AB8
  8
TEAM-NET
 10
214.051511
 20
-231.446554
 30
848.593894
 70
    32
  0
VERTEX
  5
AB9
  8
TEAM-NET
 10
213.98144
 20
-230.354141
 30
847.016083
 70
    32
  0
VERTEX
  5
ABA
  8
TEAM-NET
 10
213.953292
 20
-229.936501
 30
845.142074
 70
    32
  0
SEQEND
  5
ABB
  8
TEAM-NET
  0
LINE
  5
263
  8
TEAM-NET
 10
213.965699
 20
-229.933068
 30
845.012196
 11
213.953292
 21
-229.936501
 31
845.142074
  0
ARC
  5
264
  8
TEAM-NET
 10
-220.0
 20
-230.0
 30
850.011697
 40
23.0
 50
180.0
 51
270.0
  0
LINE
  5
265
  8
TEAM-NET
 10
220.0
 20
-253.0
 30
850.011697
 11
-220.0
 21
-253.0
 31
850.011697
  0
LINE
  5
266
  8
TEAM-NET
 10
-243.0
 20
-230.0
 30
850.011697
 11
-243.0
 21
-51.712229
 31
850.011697
  0
ARC
  5
267
  8
TEAM-NET
 10
220.0
 20
-230.0
 30
850.011697
 40
23.0
 50
270.0
 51
0.0
  0
LINE
  5
268
  8
TEAM-NET
 10
-243.0
 20
-51.712229
 30
850.011697
 11
-225.0
 21
-51.712229
 31
850.011697
  0
LINE
  5
269
  8
TEAM-NET
 10
243.0
 20
-51.712229
 30
850.011697
 11
243.0
 21
-230.0
 31
850.011697
  0
LINE
  5
26A
  8
TEAM-NET
 10
-225.0
 20
-51.712229
 30
850.011697
 11
-225.0
 21
-223.0
 31
850.011697
  0
LINE
  5
26B
  8
TEAM-NET
 10
225.0
 20
-51.712229
 30
850.011697
 11
243.0
 21
-51.712229
 31
850.011697
  0
ARC
  5
26C
  8
TEAM-NET
 10
-213.0
 20
-223.0
 30
850.011697
 40
12.0
 50
180.0
 51
270.0
  0
LINE
  5
26D
  8
TEAM-NET
 10
225.0
 20
-223.0
 30
850.011697
 11
225.0
 21
-51.712229
 31
850.011697
  0
LINE
  5
26E
  8
TEAM-NET
 10
-213.0
 20
-235.0
 30
850.011697
 11
-137.740506
 21
-235.0
 31
850.011697
  0
ARC
  5
26F
  8
TEAM-NET
 10
213.0
 20
-223.0
 30
850.011697
 40
12.0
 50
275.97539
 51
0.0
  0
LINE
  5
270
  8
TEAM-NET
 10
-137.740506
 20
-235.0
 30
850.011697
 11
-137.740506
 21
-234.9348
 31
850.011697
  0
LINE
  5
271
  8
TEAM-NET
 10
-137.740506
 20
-234.9348
 30
850.011697
 11
214.249215
 21
-234.9348
 31
850.011697
  0
ARC
  5
272
  8
TEAM-NET
 10
213.0
 20
-223.0
 30
842.011697
 40
7.0
 50
282.706368
 51
0.0
  0
LINE
  5
273
  8
TEAM-NET
 10
214.539682
 20
-229.828571
 30
842.011697
 11
213.965795
 21
-229.933054
 31
845.011697
  0
LINE
  5
274
  8
TEAM-NET
 10
220.0
 20
-223.0
 30
845.011697
 11
220.0
 21
-223.0
 31
842.011697
  0
ARC
  5
275
  8
TEAM-NET
 10
-213.0
 20
-223.0
 30
-845.011697
 40
7.0
210
0.0
220
0.0
230
-1.0
 50
180.0
 51
262.069564
  0
ARC
  5
276
  8
TEAM-NET
 10
-225.0
 20
845.011697
 30
51.712229
 40
5.0
210
0.0
220
-1.0
230
0.0
 50
0.0
 51
90.0
  0
LINE
  5
277
  8
TEAM-NET
 10
-225.0
 20
-51.712229
 30
850.011697
 11
-225.0
 21
-223.0
 31
850.011697
  0
LINE
  5
278
  8
TEAM-NET
 10
-220.0
 20
-223.0
 30
845.011697
 11
-220.0
 21
-51.712229
 31
845.011697
  0
ARC
  5
279
  8
TEAM-NET
 10
225.0
 20
845.011697
 30
-223.0
 40
5.0
210
0.0
220
1.0
230
0.0
 50
90.0
 51
180.0
  0
ARC
  5
27A
  8
TEAM-NET
 10
225.0
 20
845.011697
 30
-223.0
 40
5.0
210
0.0
220
1.0
230
0.0
 50
90.0
 51
180.0
  0
ARC
  5
27B
  8
TEAM-NET
 10
-213.0
 20
-223.0
 30
850.011697
 40
12.0
 50
180.0
 51
270.0
  0
ARC
  5
27C
  8
TEAM-NET
 10
213.0
 20
-223.0
 30
-845.011697
 40
7.0
210
0.0
220
0.0
230
-1.0
 50
270.0
 51
0.0
  0
ARC
  5
27D
  8
TEAM-NET
 10
235.0
 20
845.011697
 30
213.0
 40
5.0
210
-1.0
220
0.0
230
0.0
 50
90.0
 51
180.0
  0
ARC
  5
27E
  8
TEAM-NET
 10
235.0
 20
845.011697
 30
213.0
 40
5.0
210
-1.0
220
0.0
230
0.0
 50
90.0
 51
180.0
  0
LINE
  5
27F
  8
TEAM-NET
 10
-213.0
 20
-235.0
 30
850.011697
 11
-137.740506
 21
-235.0
 31
850.011697
  0
LINE
  5
280
  8
TEAM-NET
 10
-136.918215
 20
-230.0
 30
845.011697
 11
-213.0
 21
-230.0
 31
845.011697
  0
POLYLINE
  5
281
  8
TEAM-NET
 66
     1
 10
0.0
 20
0.0
 30
0.0
 70
     8
  0
VERTEX
  5
ABC
  8
TEAM-NET
 10
-137.740506
 20
-235.000053
 30
850.011697
 70
    32
  0
VERTEX
  5
ABD
  8
TEAM-NET
 10
-137.681789
 20
-233.075912
 30
849.626633
 70
    32
  0
VERTEX
  5
ABE
  8
TEAM-NET
 10
-137.511224
 20
-231.452662
 30
848.535406
 70
    32
  0
VERTEX
  5
ABF
  8
TEAM-NET
 10
-137.246215
 20
-230.375863
 30
846.913047
 70
    32
  0
VERTEX
  5
AC0
  8
TEAM-NET
 10
-136.918242
 20
-230.0
 30
845.011846
 70
    32
  0
SEQEND
  5
AC1
  8
TEAM-NET
  0
LINE
  5
282
  8
TEAM-NET
 10
-136.362179
 20
-230.0
 30
842.011697
 11
-213.0
 21
-230.0
 31
842.011697
210
0.0
220
1.0
230
0.0
  0
LINE
  5
283
  8
TEAM-NET
 10
-213.0
 20
-230.0
 30
845.011697
 11
-213.0
 21
-230.0
 31
842.011697
210
0.0
220
1.0
230
0.0
  0
ARC
  5
284
  8
TEAM-NET
 10
-60.289367
 20
880.011697
 30
-230.0
 40
200.289367
210
0.0
220
1.0
230
0.0
 50
349.063235
 51
349.936055
  0
LINE
  5
285
  8
TEAM-NET
 10
-136.918215
 20
-230.0
 30
845.011697
 11
-213.0
 21
-230.0
 31
845.011697
210
0.0
220
1.0
230
0.0
  0
LINE
  5
286
  8
TEAM-NET
 10
132.03359
 20
-229.828571
 30
842.011697
 11
214.539682
 21
-229.828571
 31
842.011697
  0
POLYLINE
  5
287
  8
TEAM-NET
 66
     1
 10
0.0
 20
0.0
 30
0.0
 70
     8
  0
VERTEX
  5
AC2
  8
TEAM-NET
 10
132.033601
 20
-229.828585
 30
842.011697
 70
    32
  0
VERTEX
  5
AC3
  8
TEAM-NET
 10
135.208735
 20
-226.856948
 30
842.011697
 70
    32
  0
VERTEX
  5
AC4
  8
TEAM-NET
 10
137.624506
 20
-223.220725
 30
842.011697
 70
    32
  0
VERTEX
  5
AC5
  8
TEAM-NET
 10
139.125201
 20
-219.138034
 30
842.011697
 70
    32
  0
VERTEX
  5
AC6
  8
TEAM-NET
 10
139.635983
 20
-214.809185
 30
842.011697
 70
    32
  0
SEQEND
  5
AC7
  8
TEAM-NET
  0
ARC
  5
288
  8
TEAM-NET
 10
213.0
 20
-223.0
 30
842.011697
 40
7.0
 50
282.706368
 51
0.0
  0
LINE
  5
289
  8
TEAM-NET
 10
139.635983
 20
-214.809185
 30
842.011697
 11
139.635983
 21
-45.212829
 31
842.011697
  0
LINE
  5
28A
  8
TEAM-NET
 10
220.0
 20
-38.538901
 30
842.011697
 11
220.0
 21
-223.0
 31
842.011697
  0
POLYLINE
  5
28B
  8
TEAM-NET
 66
     1
 10
0.0
 20
0.0
 30
842.011697
 70
   128
  0
VERTEX
  5
113F
  8
TEAM-NET
 10
139.635983
 20
-45.212829
 30
842.011697
  0
VERTEX
  5
1140
  8
TEAM-NET
 10
139.197741
 20
-41.761351
 30
842.011697
  0
VERTEX
  5
1141
  8
TEAM-NET
 10
137.908078
 20
-38.539323
 30
842.011697
  0
SEQEND
  5
1142
  8
TEAM-NET
  0
LINE
  5
28C
  8
TEAM-NET
 10
137.908326
 20
-38.538901
 30
842.011697
 11
220.0
 21
-38.538901
 31
842.011697
  0
ARC
  5
28D
  8
TEAM-NET
 10
-177.555052
 20
-68.538901
 30
842.011697
 40
20.5
 50
180.0
 51
0.0
  0
ARC
  5
28E
  8
TEAM-NET
 10
-177.555052
 20
-68.538901
 30
842.011697
 40
20.5
 50
360.0
 51
180.0
  0
LINE
  5
28F
  8
TEAM-NET
 10
-132.03359
 20
-229.828571
 30
842.011697
 11
-136.362179
 21
-229.828571
 31
842.011697
  0
LINE
  5
290
  8
TEAM-NET
 10
-136.362179
 20
-229.828571
 30
842.011697
 11
-136.362179
 21
-230.0
 31
842.011697
  0
POLYLINE
  5
291
  8
TEAM-NET
 66
     1
 10
0.0
 20
0.0
 30
842.011697
 70
   128
  0
VERTEX
  5
1143
  8
TEAM-NET
 10
-139.635983
 20
-214.809185
 30
842.011697
  0
VERTEX
  5
1144
  8
TEAM-NET
 10
-139.125423
 20
-219.138101
 30
842.011697
  0
VERTEX
  5
1145
  8
TEAM-NET
 10
-137.624892
 20
-223.220414
 30
842.011697
  0
VERTEX
  5
1146
  8
TEAM-NET
 10
-135.209311
 20
-226.856491
 30
842.011697
  0
VERTEX
  5
1147
  8
TEAM-NET
 10
-132.033662
 20
-229.828668
 30
842.011697
  0
SEQEND
  5
1148
  8
TEAM-NET
  0
LINE
  5
292
  8
TEAM-NET
 10
-136.362179
 20
-230.0
 30
842.011697
 11
-213.0
 21
-230.0
 31
842.011697
  0
LINE
  5
293
  8
TEAM-NET
 10
-139.635983
 20
-45.212829
 30
842.011697
 11
-139.635983
 21
-214.809185
 31
842.011697
  0
ARC
  5
294
  8
TEAM-NET
 10
-213.0
 20
-223.0
 30
842.011697
 40
7.0
 50
180.0
 51
270.0
  0
POLYLINE
  5
295
  8
TEAM-NET
 66
     1
 10
0.0
 20
0.0
 30
842.011697
 70
   128
  0
VERTEX
  5
1149
  8
TEAM-NET
 10
-137.908397
 20
-38.538862
 30
842.011697
  0
VERTEX
  5
114A
  8
TEAM-NET
 10
-139.197798
 20
-41.761127
 30
842.011697
  0
VERTEX
  5
114B
  8
TEAM-NET
 10
-139.635983
 20
-45.212829
 30
842.011697
  0
SEQEND
  5
114C
  8
TEAM-NET
  0
LINE
  5
296
  8
TEAM-NET
 10
-220.0
 20
-223.0
 30
842.011697
 11
-220.0
 21
-38.538901
 31
842.011697
  0
LINE
  5
297
  8
TEAM-NET
 10
-220.0
 20
-38.538901
 30
842.011697
 11
-137.908326
 21
-38.538901
 31
842.011697
  0
ARC
  5
298
  8
TEAM-NET
 10
60.289367
 20
880.011697
 30
230.0
 40
200.289367
210
0.0
220
-1.0
230
0.0
 50
190.063945
 51
190.936765
  0
POLYLINE
  5
299
  8
TEAM-NET
 66
     1
 10
0.0
 20
0.0
 30
0.0
 70
     8
  0
VERTEX
  5
AD6
  8
TEAM-NET
 10
-137.740506
 20
-235.000053
 30
850.011697
 70
    32
  0
VERTEX
  5
AD7
  8
TEAM-NET
 10
-137.681789
 20
-233.075912
 30
849.626633
 70
    32
  0
VERTEX
  5
AD8
  8
TEAM-NET
 10
-137.511224
 20
-231.452662
 30
848.535406
 70
    32
  0
VERTEX
  5
AD9
  8
TEAM-NET
 10
-137.246215
 20
-230.375863
 30
846.913047
 70
    32
  0
VERTEX
  5
ADA
  8
TEAM-NET
 10
-136.918242
 20
-230.0
 30
845.011846
 70
    32
  0
SEQEND
  5
ADB
  8
TEAM-NET
  0
LINE
  5
29A
  8
TEAM-NET
 10
-136.362179
 20
-229.828571
 30
842.011697
 11
-136.362179
 21
-230.0
 31
842.011697
  0
LINE
  5
29B
  8
TEAM-NET
 10
-137.740506
 20
-235.0
 30
850.011697
 11
-137.740506
 21
-234.9348
 31
850.011697
  0
LINE
  5
29C
  8
TEAM-NET
 10
-136.362179
 20
-229.828571
 30
842.011697
 11
-136.94131
 21
-229.936501
 31
845.142074
  0
POLYLINE
  5
29D
  8
TEAM-NET
 66
     1
 10
0.0
 20
0.0
 30
0.0
 70
     8
  0
VERTEX
  5
ADC
  8
TEAM-NET
 10
-136.94131
 20
-229.936501
 30
845.142074
 70
    32
  0
VERTEX
  5
ADD
  8
TEAM-NET
 10
-137.262165
 20
-230.350875
 30
847.008335
 70
    32
  0
VERTEX
  5
ADE
  8
TEAM-NET
 10
-137.518705
 20
-231.434718
 30
848.582448
 70
    32
  0
VERTEX
  5
ADF
  8
TEAM-NET
 10
-137.683784
 20
-233.042606
 30
849.639634
 70
    32
  0
VERTEX
  5
AE0
  8
TEAM-NET
 10
-137.740506
 20
-234.9348
 30
850.011697
 70
    32
  0
SEQEND
  5
AE1
  8
TEAM-NET
  0
ARC
  5
29E
  8
TEAM-NET
 10
-253.0
 20
843.011697
 30
-220.0
 40
7.0
210
1.0
220
0.0
230
0.0
 50
90.0
 51
180.0
  0
LINE
  5
29F
  8
TEAM-NET
 10
-220.0
 20
-260.0
 30
843.011697
 11
220.0
 21
-260.0
 31
843.011697
  0
LINE
  5
2A0
  8
TEAM-NET
 10
220.0
 20
-253.0
 30
850.011697
 11
-220.0
 21
-253.0
 31
850.011697
  0
ARC
  5
2A1
  8
TEAM-NET
 10
253.0
 20
843.011697
 30
-220.0
 40
7.0
210
-1.0
220
0.0
230
0.0
 50
0.0
 51
90.0
  0
ARC
  5
2A2
  8
TEAM-NET
 10
253.0
 20
843.011697
 30
-220.0
 40
7.0
210
-1.0
220
0.0
230
0.0
 50
0.0
 51
90.0
  0
ARC
  5
2A3
  8
TEAM-NET
 10
220.0
 20
-230.0
 30
843.011697
 40
30.0
 50
270.0
 51
0.0
  0
ARC
  5
2A4
  8
TEAM-NET
 10
-220.0
 20
-230.0
 30
-850.011697
 40
23.0
210
0.0
220
0.0
230
-1.0
 50
180.0
 51
270.0
  0
ARC
  5
2A5
  8
TEAM-NET
 10
243.0
 20
843.011697
 30
230.0
 40
7.0
210
0.0
220
-1.0
230
0.0
 50
0.0
 51
90.0
  0
ARC
  5
2A6
  8
TEAM-NET
 10
-253.0
 20
843.011697
 30
-220.0
 40
7.0
210
1.0
220
0.0
230
0.0
 50
90.0
 51
180.0
  0
ARC
  5
2A7
  8
TEAM-NET
 10
220.0
 20
-230.0
 30
-850.011697
 40
23.0
210
0.0
220
0.0
230
-1.0
 50
270.0
 51
0.0
  0
ARC
  5
2A8
  8
TEAM-NET
 10
-220.0
 20
-230.0
 30
843.011697
 40
30.0
 50
180.0
 51
270.0
  0
ARC
  5
2A9
  8
TEAM-NET
 10
-243.0
 20
843.011697
 30
230.0
 40
7.0
210
0.0
220
-1.0
230
0.0
 50
90.0
 51
180.0
  0
ARC
  5
2AA
  8
TEAM-NET
 10
243.0
 20
843.011697
 30
230.0
 40
7.0
210
0.0
220
-1.0
230
0.0
 50
0.0
 51
90.0
  0
LINE
  5
2AB
  8
TEAM-NET
 10
250.0
 20
-230.0
 30
843.011697
 11
250.0
 21
-51.712229
 31
843.011697
  0
LINE
  5
2AC
  8
TEAM-NET
 10
243.0
 20
-51.712229
 30
850.011697
 11
243.0
 21
-230.0
 31
850.011697
  0
ARC
  5
2AD
  8
TEAM-NET
 10
243.0
 20
843.011697
 30
51.712229
 40
7.0
210
0.0
220
-1.0
230
0.0
 50
0.0
 51
90.0
  0
ARC
  5
2AE
  8
TEAM-NET
 10
-243.0
 20
843.011697
 30
230.0
 40
7.0
210
0.0
220
-1.0
230
0.0
 50
90.0
 51
180.0
  0
LINE
  5
2AF
  8
TEAM-NET
 10
-243.0
 20
-230.0
 30
850.011697
 11
-243.0
 21
-51.712229
 31
850.011697
  0
LINE
  5
2B0
  8
TEAM-NET
 10
-250.0
 20
-51.712229
 30
843.011697
 11
-250.0
 21
-230.0
 31
843.011697
  0
ARC
  5
2B1
  8
TEAM-NET
 10
-243.0
 20
843.011697
 30
51.712229
 40
7.0
210
0.0
220
-1.0
230
0.0
 50
90.0
 51
180.0
  0
ARC
  5
2B2
  8
TEAM-NET
 10
-213.0
 20
-223.0
 30
842.011697
 40
7.0
 50
180.0
 51
270.0
  0
LINE
  5
2B3
  8
TEAM-NET
 10
-220.0
 20
-223.0
 30
842.011697
 11
-220.0
 21
-223.0
 31
845.011697
  0
LINE
  5
2B4
  8
TEAM-NET
 10
-213.0
 20
-230.0
 30
845.011697
 11
-213.0
 21
-230.0
 31
842.011697
  0
ARC
  5
2B5
  8
TEAM-NET
 10
213.0
 20
-223.0
 30
-845.011697
 40
7.0
210
0.0
220
0.0
230
-1.0
 50
270.0
 51
0.0
  0
ARC
  5
2B6
  8
TEAM-NET
 10
-177.555052
 20
-68.538901
 30
842.011697
 40
20.5
 50
180.0
 51
0.0
  0
ARC
  5
2B7
  8
TEAM-NET
 10
38.538901
 20
846.011697
 30
-137.908326
 40
4.0
210
-1.0
220
0.0
230
0.0
 50
187.0
 51
270.0
  0
LINE
  5
2B8
  8
TEAM-NET
 10
137.908326
 20
-38.538901
 30
842.011697
 11
220.0
 21
-38.538901
 31
842.011697
  0
LINE
  5
2B9
  8
TEAM-NET
 10
220.0
 20
-34.568716
 30
845.524219
 11
137.908326
 21
-34.568716
 31
845.524219
  0
ARC
  5
2BA
  8
TEAM-NET
 10
38.538901
 20
846.011697
 30
-220.0
 40
4.0
210
-1.0
220
0.0
230
0.0
 50
187.0
 51
270.0
  0
ARC
  5
2BB
  8
TEAM-NET
 10
38.538901
 20
846.011697
 30
-137.908326
 40
4.0
210
-1.0
220
0.0
230
0.0
 50
187.0
 51
270.0
  0
LINE
  5
2BC
  8
TEAM-NET
 10
220.0
 20
-38.538901
 30
842.011697
 11
220.0
 21
-223.0
 31
842.011697
210
-1.0
220
0.0
230
0.0
  0
LINE
  5
2BD
  8
TEAM-NET
 10
220.0
 20
-223.0
 30
845.011697
 11
220.0
 21
-223.0
 31
842.011697
210
-1.0
220
0.0
230
0.0
  0
ARC
  5
2BE
  8
TEAM-NET
 10
38.538901
 20
846.011697
 30
-220.0
 40
4.0
210
-1.0
220
0.0
230
0.0
 50
187.0
 51
270.0
  0
LINE
  5
2BF
  8
TEAM-NET
 10
220.0
 20
-51.712229
 30
845.011697
 11
220.0
 21
-223.0
 31
845.011697
210
-1.0
220
0.0
230
0.0
  0
LINE
  5
2C0
  8
TEAM-NET
 10
220.0
 20
-33.689346
 30
852.686118
 11
220.0
 21
-34.568716
 31
845.524219
210
-1.0
220
0.0
230
0.0
  0
ARC
  5
2C1
  8
TEAM-NET
 10
51.712229
 20
870.011697
 30
-220.0
 40
25.0
210
-1.0
220
0.0
230
0.0
 50
223.869898
 51
270.0
  0
POLYLINE
  5
2C2
  8
TEAM-NET
 66
     1
 10
0.0
 20
0.0
 30
842.011697
 70
   128
  0
VERTEX
  5
114D
  8
TEAM-NET
 10
139.635983
 20
-45.212829
 30
842.011697
  0
VERTEX
  5
114E
  8
TEAM-NET
 10
139.197741
 20
-41.761351
 30
842.011697
  0
VERTEX
  5
114F
  8
TEAM-NET
 10
137.908078
 20
-38.539323
 30
842.011697
  0
SEQEND
  5
1150
  8
TEAM-NET
  0
LINE
  5
2C3
  8
TEAM-NET
 10
139.635983
 20
-214.809185
 30
842.011697
 11
139.635983
 21
-45.212829
 31
842.011697
  0
POLYLINE
  5
2C4
  8
TEAM-NET
 66
     1
 10
0.0
 20
0.0
 30
0.0
 70
     8
  0
VERTEX
  5
AE6
  8
TEAM-NET
 10
132.033601
 20
-229.828585
 30
842.011697
 70
    32
  0
VERTEX
  5
AE7
  8
TEAM-NET
 10
135.208735
 20
-226.856948
 30
842.011697
 70
    32
  0
VERTEX
  5
AE8
  8
TEAM-NET
 10
137.624506
 20
-223.220725
 30
842.011697
 70
    32
  0
VERTEX
  5
AE9
  8
TEAM-NET
 10
139.125201
 20
-219.138034
 30
842.011697
 70
    32
  0
VERTEX
  5
AEA
  8
TEAM-NET
 10
139.635983
 20
-214.809185
 30
842.011697
 70
    32
  0
SEQEND
  5
AEB
  8
TEAM-NET
  0
ARC
  5
2C5
  8
TEAM-NET
 10
-38.538901
 20
846.011697
 30
-137.908326
 40
4.0
210
1.0
220
0.0
230
0.0
 50
270.0
 51
353.0
  0
LINE
  5
2C6
  8
TEAM-NET
 10
-137.908326
 20
-34.568716
 30
845.524219
 11
-220.0
 21
-34.568716
 31
845.524219
  0
LINE
  5
2C7
  8
TEAM-NET
 10
-220.0
 20
-38.538901
 30
842.011697
 11
-137.908326
 21
-38.538901
 31
842.011697
  0
ARC
  5
2C8
  8
TEAM-NET
 10
-38.538901
 20
846.011697
 30
-220.0
 40
4.0
210
1.0
220
0.0
230
0.0
 50
270.0
 51
353.0
  0
ARC
  5
2C9
  8
TEAM-NET
 10
-38.538901
 20
846.011697
 30
-137.908326
 40
4.0
210
1.0
220
0.0
230
0.0
 50
270.0
 51
353.0
  0
ARC
  5
2CA
  8
TEAM-NET
 10
-38.538901
 20
846.011697
 30
-220.0
 40
4.0
210
1.0
220
0.0
230
0.0
 50
270.0
 51
353.0
  0
LINE
  5
2CB
  8
TEAM-NET
 10
-220.0
 20
-33.689346
 30
852.686118
 11
-220.0
 21
-34.568716
 31
845.524219
210
1.0
220
0.0
230
0.0
  0
LINE
  5
2CC
  8
TEAM-NET
 10
-220.0
 20
-223.0
 30
842.011697
 11
-220.0
 21
-38.538901
 31
842.011697
210
1.0
220
0.0
230
0.0
  0
ARC
  5
2CD
  8
TEAM-NET
 10
-51.712229
 20
870.011697
 30
-220.0
 40
25.0
210
1.0
220
0.0
230
0.0
 50
270.0
 51
316.130102
  0
LINE
  5
2CE
  8
TEAM-NET
 10
-220.0
 20
-223.0
 30
842.011697
 11
-220.0
 21
-223.0
 31
845.011697
210
1.0
220
0.0
230
0.0
  0
LINE
  5
2CF
  8
TEAM-NET
 10
-220.0
 20
-223.0
 30
845.011697
 11
-220.0
 21
-51.712229
 31
845.011697
210
1.0
220
0.0
230
0.0
  0
POLYLINE
  5
2D0
  8
TEAM-NET
 66
     1
 10
0.0
 20
0.0
 30
842.011697
 70
   128
  0
VERTEX
  5
1151
  8
TEAM-NET
 10
-137.908397
 20
-38.538862
 30
842.011697
  0
VERTEX
  5
1152
  8
TEAM-NET
 10
-139.197798
 20
-41.761127
 30
842.011697
  0
VERTEX
  5
1153
  8
TEAM-NET
 10
-139.635983
 20
-45.212829
 30
842.011697
  0
SEQEND
  5
1154
  8
TEAM-NET
  0
LINE
  5
2D1
  8
TEAM-NET
 10
-139.635983
 20
-45.212829
 30
842.011697
 11
-139.635983
 21
-214.809185
 31
842.011697
  0
POLYLINE
  5
2D2
  8
TEAM-NET
 66
     1
 10
0.0
 20
0.0
 30
842.011697
 70
   128
  0
VERTEX
  5
1155
  8
TEAM-NET
 10
-139.635983
 20
-214.809185
 30
842.011697
  0
VERTEX
  5
1156
  8
TEAM-NET
 10
-139.125423
 20
-219.138101
 30
842.011697
  0
VERTEX
  5
1157
  8
TEAM-NET
 10
-137.624892
 20
-223.220414
 30
842.011697
  0
VERTEX
  5
1158
  8
TEAM-NET
 10
-135.209311
 20
-226.856491
 30
842.011697
  0
VERTEX
  5
1159
  8
TEAM-NET
 10
-132.033662
 20
-229.828668
 30
842.011697
  0
SEQEND
  5
115A
  8
TEAM-NET
  0
ARC
  5
2D3
  8
TEAM-NET
 10
-177.555052
 20
-68.538901
 30
842.011697
 40
20.5
 50
360.0
 51
180.0
  0
ARC
  5
2D4
  8
TEAM-NET
 10
220.0
 20
-230.0
 30
843.011697
 40
30.0
 50
270.0
 51
0.0
  0
LINE
  5
2D5
  8
TEAM-NET
 10
-220.0
 20
-260.0
 30
843.011697
 11
220.0
 21
-260.0
 31
843.011697
210
0.0
220
-1.0
230
0.0
  0
ARC
  5
2D6
  8
TEAM-NET
 10
-220.0
 20
-230.0
 30
843.011697
 40
30.0
 50
180.0
 51
270.0
  0
LINE
  5
2D7
  8
TEAM-NET
 10
250.0
 20
-230.0
 30
843.011697
 11
250.0
 21
-51.712229
 31
843.011697
210
1.0
220
0.0
230
0.0
  0
LINE
  5
2D8
  8
TEAM-NET
 10
-250.0
 20
-51.712229
 30
843.011697
 11
-250.0
 21
-230.0
 31
843.011697
210
-1.0
220
0.0
230
0.0
  0
ARC
  5
2D9
  8
TEAM-NET
 10
225.0
 20
845.011697
 30
51.712229
 40
5.0
210
0.0
220
-1.0
230
0.0
 50
90.0
 51
180.0
  0
ARC
  5
2DA
  8
TEAM-NET
 10
51.712229
 20
870.011697
 30
-220.0
 40
25.0
210
-1.0
220
0.0
230
0.0
 50
223.869898
 51
270.0
  0
ARC
  5
2DB
  8
TEAM-NET
 10
-225.0
 20
845.011697
 30
51.712229
 40
5.0
210
0.0
220
-1.0
230
0.0
 50
0.0
 51
90.0
  0
ARC
  5
2DC
  8
TEAM-NET
 10
-51.712229
 20
870.011697
 30
-220.0
 40
25.0
210
1.0
220
0.0
230
0.0
 50
270.0
 51
316.130102
  0
ARC
  5
2DD
  8
TEAM-NET
 10
243.0
 20
843.011697
 30
51.712229
 40
7.0
210
0.0
220
-1.0
230
0.0
 50
0.0
 51
90.0
  0
ARC
  5
2DE
  8
TEAM-NET
 10
-243.0
 20
843.011697
 30
51.712229
 40
7.0
210
0.0
220
-1.0
230
0.0
 50
90.0
 51
180.0
  0
LINE
  5
2DF
  8
TEAM-NET
 10
225.0
 20
-51.712229
 30
850.011697
 11
243.0
 21
-51.712229
 31
850.011697
  0
LINE
  5
2E0
  8
TEAM-NET
 10
-243.0
 20
-51.712229
 30
850.011697
 11
-225.0
 21
-51.712229
 31
850.011697
  0
LINE
  5
2E1
  8
TEAM-NET
 10
-184.123582
 20
-67.073629
 30
842.941362
 11
-182.13184
 21
-63.604773
 31
842.941362
  0
ARC
  5
AF6
  8
TEAM-NET
 10
149.848866
 20
30.465211
 30
851.766261
 40
1.0
210
-0.160052
220
0.091898
230
0.982821
 50
0.0
 51
90.0
1001
ACAD
1000
R13OBJECT
1002
{
1005
2E1
1002
}
  0
LINE
  5
AF7
  8
TEAM-NET
 10
-186.326153
 20
-66.962078
 30
842.572244
 11
-185.473834
 21
-67.451461
 31
842.756804
1001
ACAD
1000
R13OBJECT
1002
{
1005
2E1
1002
}
  0
ARC
  5
AF8
  8
TEAM-NET
 10
148.848866
 20
29.465208
 30
851.766261
 40
2.0
210
-0.160052
220
0.091898
230
0.982821
 50
270.0
 51
0.0
1001
ACAD
1000
R13OBJECT
1002
{
1005
2E1
1002
}
  0
LINE
  5
AF9
  8
TEAM-NET
 10
-186.039045
 20
-62.514458
 30
842.203127
 11
-187.034916
 21
-64.248886
 31
842.203127
1001
ACAD
1000
R13OBJECT
1002
{
1005
2E1
1002
}
  0
ARC
  5
AFA
  8
TEAM-NET
 10
146.848866
 20
29.465208
 30
851.766261
 40
2.0
210
-0.160052
220
0.091898
230
0.982821
 50
180.0
 51
270.0
1001
ACAD
1000
R13OBJECT
1002
{
1005
2E1
1002
}
  0
LINE
  5
AFB
  8
TEAM-NET
 10
-182.486221
 20
-62.248177
 30
842.756804
 11
-183.33854
 21
-61.758794
 31
842.572244
1001
ACAD
1000
R13OBJECT
1002
{
1005
2E1
1002
}
  0
ARC
  5
AFC
  8
TEAM-NET
 10
145.848866
 20
30.465211
 30
851.766261
 40
1.0
210
-0.160052
220
0.091898
230
0.982821
 50
90.0
 51
180.0
1001
ACAD
1000
R13OBJECT
1002
{
1005
2E1
1002
}
  0
LINE
  5
2E2
  8
TEAM-NET
 10
220.0
 20
-34.568716
 30
845.524219
 11
137.908326
 21
-34.568716
 31
845.524219
210
0.0
220
-0.992546
230
0.121869
  0
LINE
  5
2E3
  8
TEAM-NET
 10
-137.908326
 20
-34.568716
 30
845.524219
 11
-220.0
 21
-34.568716
 31
845.524219
210
0.0
220
-0.992546
230
0.121869
  0
LINE
  5
2E4
  8
TEAM-NET
 10
220.0
 20
-33.689346
 30
852.686118
 11
220.0
 21
-34.568716
 31
845.524219
210
0.0
220
-0.992546
230
0.121869
  0
LINE
  5
2E5
  8
TEAM-NET
 10
-220.0
 20
-33.689346
 30
852.686118
 11
-220.0
 21
-34.568716
 31
845.524219
210
0.0
220
-0.992546
230
0.121869
  0
LINE
  5
2E6
  8
TEAM-NET
 10
132.03359
 20
-229.828571
 30
842.011697
 11
214.539682
 21
-229.828571
 31
842.011697
  0
LINE
  5
2E7
  8
TEAM-NET
 10
-132.03359
 20
-229.828571
 30
842.011697
 11
-136.362179
 21
-229.828571
 31
842.011697
  0
LINE
  5
2E8
  8
TEAM-NET
 10
214.539682
 20
-229.828571
 30
842.011697
 11
213.965795
 21
-229.933054
 31
845.011697
  0
LINE
  5
2E9
  8
TEAM-NET
 10
-136.362179
 20
-229.828571
 30
842.011697
 11
-136.94131
 21
-229.936501
 31
845.142074
  0
LINE
  5
2EA
  8
TEAM-NET
 10
213.965699
 20
-229.933068
 30
845.012196
 11
213.953292
 21
-229.936501
 31
845.142074
  0
LINE
  5
2EB
  8
TEAM-NET
 10
213.953292
 20
-229.936501
 30
845.142074
 11
-136.94131
 21
-229.936501
 31
845.142074
  0
POLYLINE
  5
2EC
  8
TEAM-NET
 66
     1
 10
0.0
 20
0.0
 30
842.011697
 70
   128
  0
VERTEX
  5
115B
  8
TEAM-NET
 10
-197.368377
 20
-57.162519
 30
842.011697
  0
VERTEX
  5
115C
  8
TEAM-NET
 10
-199.592946
 20
-62.600319
 30
842.011697
  0
VERTEX
  5
115D
  8
TEAM-NET
 10
-200.315669
 20
-68.442823
 30
842.011697
  0
VERTEX
  5
115E
  8
TEAM-NET
 10
-199.487294
 20
-74.291875
 30
842.011697
  0
VERTEX
  5
115F
  8
TEAM-NET
 10
-197.164273
 20
-79.748872
 30
842.011697
  0
VERTEX
  5
1160
  8
TEAM-NET
 10
-193.504915
 20
-84.441927
 30
842.011697
  0
VERTEX
  5
1161
  8
TEAM-NET
 10
-188.758601
 20
-88.051217
 30
842.011697
  0
VERTEX
  5
1162
  8
TEAM-NET
 10
-183.248783
 20
-90.330776
 30
842.011697
  0
VERTEX
  5
1163
  8
TEAM-NET
 10
-177.350947
 20
-91.125254
 30
842.011697
  0
VERTEX
  5
1164
  8
TEAM-NET
 10
-171.467021
 20
-90.380509
 30
842.011697
  0
VERTEX
  5
1165
  8
TEAM-NET
 10
-165.997983
 20
-88.147295
 30
842.011697
  0
VERTEX
  5
1166
  8
TEAM-NET
 10
-161.316541
 20
-84.577801
 30
842.011697
  0
VERTEX
  5
1167
  8
TEAM-NET
 10
-157.741727
 20
-79.915283
 30
842.011697
  0
SEQEND
  5
1168
  8
TEAM-NET
  0
POLYLINE
  5
B0B
  8
TEAM-NET
 66
     1
 10
0.0
 20
0.0
 30
842.011697
 70
   128
1001
ACAD
1000
R13OBJECT
1002
{
1005
B8243302000002EC
1002
}
  0
VERTEX
  5
121D
  8
TEAM-NET
 10
-157.741727
 20
-79.915283
 30
842.011697
  0
VERTEX
  5
121E
  8
TEAM-NET
 10
-155.517157
 20
-74.477483
 30
842.011697
  0
VERTEX
  5
121F
  8
TEAM-NET
 10
-154.794434
 20
-68.634979
 30
842.011697
  0
VERTEX
  5
1220
  8
TEAM-NET
 10
-155.622809
 20
-62.785927
 30
842.011697
  0
VERTEX
  5
1221
  8
TEAM-NET
 10
-157.945831
 20
-57.328931
 30
842.011697
  0
VERTEX
  5
1222
  8
TEAM-NET
 10
-161.605188
 20
-52.635875
 30
842.011697
  0
VERTEX
  5
1223
  8
TEAM-NET
 10
-166.351502
 20
-49.026585
 30
842.011697
  0
VERTEX
  5
1224
  8
TEAM-NET
 10
-171.86132
 20
-46.747027
 30
842.011697
  0
VERTEX
  5
1225
  8
TEAM-NET
 10
-177.759156
 20
-45.952549
 30
842.011697
  0
VERTEX
  5
1226
  8
TEAM-NET
 10
-183.643083
 20
-46.697293
 30
842.011697
  0
VERTEX
  5
1227
  8
TEAM-NET
 10
-189.11212
 20
-48.930507
 30
842.011697
  0
VERTEX
  5
1228
  8
TEAM-NET
 10
-193.793562
 20
-52.500001
 30
842.011697
  0
VERTEX
  5
1229
  8
TEAM-NET
 10
-197.368377
 20
-57.162519
 30
842.011697
  0
SEQEND
  5
122A
  8
TEAM-NET
  0
ARC
  5
2ED
  8
TEAM-NET
 10
243.0
 20
130.354528
 30
-857.224626
 40
7.0
210
0.0
220
-0.121869
230
-0.992546
 50
0.0
 51
90.0
  0
LINE
  5
2EE
  8
TEAM-NET
 10
250.0
 20
-24.913483
 30
866.721225
 11
250.0
 21
-24.755033
 31
868.011697
  0
LINE
  5
2EF
  8
TEAM-NET
 10
243.0
 20
-31.702856
 30
868.864782
 11
243.0
 21
-31.861306
 31
867.57431
  0
ARC
  5
2F0
  8
TEAM-NET
 10
-243.0
 20
130.354528
 30
858.52479
 40
7.0
210
-0.0
220
0.121869
230
0.992546
 50
90.0
 51
180.0
  0
ARC
  5
2F1
  8
TEAM-NET
 10
-243.0
 20
130.354528
 30
-857.224626
 40
7.0
210
0.0
220
-0.121869
230
-0.992546
 50
90.0
 51
180.0
  0
LINE
  5
2F2
  8
TEAM-NET
 10
-243.0
 20
-31.861306
 30
867.57431
 11
-243.0
 21
-31.702856
 31
868.864782
  0
LINE
  5
2F3
  8
TEAM-NET
 10
-250.0
 20
-24.755033
 30
868.011697
 11
-250.0
 21
-24.913483
 31
866.721225
  0
ARC
  5
2F4
  8
TEAM-NET
 10
243.0
 20
130.354528
 30
858.52479
 40
7.0
210
-0.0
220
0.121869
230
0.992546
 50
360.0
 51
90.0
  0
LINE
  5
2F5
  8
TEAM-NET
 10
-243.0
 20
-24.755033
 30
875.011697
 11
-243.0
 21
0.0
 31
875.011697
  0
LINE
  5
2F6
  8
TEAM-NET
 10
243.0
 20
-24.755033
 30
875.011697
 11
-243.0
 21
-24.755033
 31
875.011697
  0
LINE
  5
2F7
  8
TEAM-NET
 10
-243.0
 20
0.0
 30
875.011697
 11
243.0
 21
0.0
 31
875.011697
  0
LINE
  5
2F8
  8
TEAM-NET
 10
243.0
 20
0.0
 30
875.011697
 11
243.0
 21
-24.755033
 31
875.011697
  0
ARC
  5
2F9
  8
TEAM-NET
 10
-243.0
 20
868.011697
 30
-24.755033
 40
7.0
210
0.0
220
1.0
230
0.0
 50
90.0
 51
180.0
  0
LINE
  5
2FA
  8
TEAM-NET
 10
250.0
 20
-24.755033
 30
868.011697
 11
250.0
 21
0.0
 31
868.011697
  0
LINE
  5
2FB
  8
TEAM-NET
 10
243.0
 20
0.0
 30
875.011697
 11
243.0
 21
-24.755033
 31
875.011697
  0
ARC
  5
2FC
  8
TEAM-NET
 10
243.0
 20
868.011697
 30
0.0
 40
7.0
210
0.0
220
-1.0
230
0.0
 50
0.0
 51
90.0
  0
ARC
  5
2FD
  8
TEAM-NET
 10
-24.755033
 20
868.011697
 30
-243.0
 40
7.0
210
1.0
220
0.0
230
0.0
 50
90.0
 51
173.0
  0
LINE
  5
2FE
  8
TEAM-NET
 10
-243.0
 20
-31.702856
 30
868.864782
 11
243.0
 21
-31.702856
 31
868.864782
  0
LINE
  5
2FF
  8
TEAM-NET
 10
243.0
 20
-24.755033
 30
875.011697
 11
-243.0
 21
-24.755033
 31
875.011697
  0
ARC
  5
300
  8
TEAM-NET
 10
24.755033
 20
868.011697
 30
-243.0
 40
7.0
210
-1.0
220
0.0
230
0.0
 50
7.0
 51
90.0
  0
ARC
  5
301
  8
TEAM-NET
 10
-243.0
 20
868.011697
 30
-24.755033
 40
7.0
210
0.0
220
1.0
230
0.0
 50
90.0
 51
180.0
  0
ARC
  5
302
  8
TEAM-NET
 10
-243.0
 20
130.354528
 30
858.52479
 40
7.0
210
-0.0
220
0.121869
230
0.992546
 50
90.0
 51
180.0
  0
ARC
  5
303
  8
TEAM-NET
 10
24.755033
 20
868.011697
 30
-243.0
 40
7.0
210
-1.0
220
0.0
230
0.0
 50
7.0
 51
90.0
  0
ARC
  5
304
  8
TEAM-NET
 10
243.0
 20
868.011697
 30
-24.755033
 40
7.0
210
0.0
220
1.0
230
0.0
 50
0.0
 51
90.0
  0
LINE
  5
305
  8
TEAM-NET
 10
-243.0
 20
-24.755033
 30
875.011697
 11
-243.0
 21
0.0
 31
875.011697
  0
LINE
  5
306
  8
TEAM-NET
 10
-250.0
 20
0.0
 30
868.011697
 11
-250.0
 21
-24.755033
 31
868.011697
  0
ARC
  5
307
  8
TEAM-NET
 10
-243.0
 20
868.011697
 30
0.0
 40
7.0
210
0.0
220
-1.0
230
0.0
 50
90.0
 51
180.0
  0
ARC
  5
308
  8
TEAM-NET
 10
-24.755033
 20
868.011697
 30
-243.0
 40
7.0
210
1.0
220
0.0
230
0.0
 50
90.0
 51
173.0
  0
ARC
  5
309
  8
TEAM-NET
 10
243.0
 20
130.354528
 30
858.52479
 40
7.0
210
-0.0
220
0.121869
230
0.992546
 50
360.0
 51
90.0
  0
ARC
  5
30A
  8
TEAM-NET
 10
243.0
 20
868.011697
 30
-24.755033
 40
7.0
210
0.0
220
1.0
230
0.0
 50
0.0
 51
90.0
  0
ARC
  5
30B
  8
TEAM-NET
 10
147.920602
 20
555.469282
 30
668.082058
 40
8.0
210
-0.569731
220
0.327127
230
0.75392
 50
181.882117
 51
1.882117
  0
ARC
  5
B1A
  8
TEAM-NET
 10
147.920602
 20
555.469282
 30
668.082058
 40
8.0
210
-0.569731
220
0.327127
230
0.75392
 50
1.882117
 51
181.882117
1001
ACAD
1000
R13OBJECT
1002
{
1005
30B
1002
}
  0
ARC
  5
B1B
  8
TEAM-NET
 10
147.920602
 20
555.469282
 30
668.082058
 40
9.0
210
-0.569731
220
0.327127
230
0.75392
 50
181.882117
 51
1.882117
1001
ACAD
1000
R13OBJECT
1002
{
1005
30B
1002
}
  0
ARC
  5
B1C
  8
TEAM-NET
 10
147.920602
 20
555.469282
 30
668.082058
 40
9.0
210
-0.569731
220
0.327127
230
0.75392
 50
1.882117
 51
181.882117
1001
ACAD
1000
R13OBJECT
1002
{
1005
30B
1002
}
  0
ARC
  5
30C
  8
TEAM-NET
 10
155.871505
 20
673.817004
 30
-550.311424
 40
1.0
210
-0.669811
220
0.346719
230
-0.656612
 50
271.639337
 51
1.639337
  0
ARC
  5
B1D
  8
TEAM-NET
 10
-147.920602
 20
555.469282
 30
-669.082058
 40
10.0
210
0.569731
220
-0.327127
230
-0.75392
 50
178.117883
 51
358.117883
1001
ACAD
1000
R13OBJECT
1002
{
1005
30C
1002
}
  0
ARC
  5
B1E
  8
TEAM-NET
 10
-137.878873
 20
673.302061
 30
550.311424
 40
1.0
210
0.669811
220
-0.346719
230
0.656612
 50
268.360663
 51
358.360663
1001
ACAD
1000
R13OBJECT
1002
{
1005
30C
1002
}
  0
ARC
  5
B1F
  8
TEAM-NET
 10
147.920602
 20
555.469282
 30
668.082058
 40
9.0
210
-0.569731
220
0.327127
230
0.75392
 50
181.882117
 51
1.882117
1001
ACAD
1000
R13OBJECT
1002
{
1005
30C
1002
}
  0
ARC
  5
B20
  8
TEAM-NET
 10
-31.229243
 20
860.066039
 30
166.084211
 40
1.0
210
-0.476194
220
-0.879076
230
0.021577
 50
221.053616
 51
311.053616
1001
ACAD
1000
R13OBJECT
1002
{
1005
30C
1002
}
  0
ARC
  5
30D
  8
TEAM-NET
 10
155.871505
 20
673.817004
 30
-550.311424
 40
1.0
210
-0.669811
220
0.346719
230
-0.656612
 50
271.639337
 51
1.639337
  0
ARC
  5
B21
  8
TEAM-NET
 10
147.920602
 20
555.469282
 30
668.082058
 40
9.0
210
-0.569731
220
0.327127
230
0.75392
 50
1.882117
 51
181.882117
1001
ACAD
1000
R13OBJECT
1002
{
1005
30D
1002
}
  0
ARC
  5
B22
  8
TEAM-NET
 10
-137.878873
 20
673.302061
 30
550.311424
 40
1.0
210
0.669811
220
-0.346719
230
0.656612
 50
268.360663
 51
358.360663
1001
ACAD
1000
R13OBJECT
1002
{
1005
30D
1002
}
  0
ARC
  5
B23
  8
TEAM-NET
 10
-147.920602
 20
555.469282
 30
-669.082058
 40
10.0
210
0.569731
220
-0.327127
230
-0.75392
 50
358.117883
 51
178.117883
1001
ACAD
1000
R13OBJECT
1002
{
1005
30D
1002
}
  0
ARC
  5
B24
  8
TEAM-NET
 10
17.655527
 20
871.887809
 30
-166.084211
 40
1.0
210
0.476194
220
0.879076
230
-0.021577
 50
138.946384
 51
228.946384
1001
ACAD
1000
R13OBJECT
1002
{
1005
30D
1002
}
  0
LINE
  5
30E
  8
TEAM-NET
 10
250.0
 20
-24.913483
 30
866.721225
 11
250.0
 21
-24.755033
 31
868.011697
210
1.0
220
0.0
230
0.0
  0
LINE
  5
30F
  8
TEAM-NET
 10
250.0
 20
-24.755033
 30
868.011697
 11
250.0
 21
0.0
 31
868.011697
210
1.0
220
0.0
230
0.0
  0
LINE
  5
310
  8
TEAM-NET
 10
-250.0
 20
-24.755033
 30
868.011697
 11
-250.0
 21
-24.913483
 31
866.721225
210
-1.0
220
0.0
230
0.0
  0
LINE
  5
311
  8
TEAM-NET
 10
-250.0
 20
0.0
 30
868.011697
 11
-250.0
 21
-24.755033
 31
868.011697
210
-1.0
220
0.0
230
0.0
  0
ARC
  5
312
  8
TEAM-NET
 10
243.0
 20
130.354528
 30
-857.224626
 40
7.0
210
0.0
220
-0.121869
230
-0.992546
 50
0.0
 51
90.0
  0
ARC
  5
313
  8
TEAM-NET
 10
-243.0
 20
130.354528
 30
-857.224626
 40
7.0
210
0.0
220
-0.121869
230
-0.992546
 50
90.0
 51
180.0
  0
LINE
  5
314
  8
TEAM-NET
 10
243.0
 20
-31.861306
 30
867.57431
 11
225.0
 21
-31.861306
 31
867.57431
  0
LINE
  5
315
  8
TEAM-NET
 10
-225.0
 20
-31.861306
 30
867.57431
 11
-243.0
 21
-31.861306
 31
867.57431
  0
LINE
  5
316
  8
TEAM-NET
 10
243.0
 20
-31.861306
 30
867.57431
 11
225.0
 21
-31.861306
 31
867.57431
210
0.0
220
-0.992546
230
0.121869
  0
LINE
  5
317
  8
TEAM-NET
 10
-225.0
 20
-31.861306
 30
867.57431
 11
-243.0
 21
-31.861306
 31
867.57431
210
0.0
220
-0.992546
230
0.121869
  0
LINE
  5
318
  8
TEAM-NET
 10
243.0
 20
-31.702856
 30
868.864782
 11
243.0
 21
-31.861306
 31
867.57431
210
0.0
220
-0.992546
230
0.121869
  0
LINE
  5
319
  8
TEAM-NET
 10
-243.0
 20
-31.861306
 30
867.57431
 11
-243.0
 21
-31.702856
 31
868.864782
210
0.0
220
-0.992546
230
0.121869
  0
LINE
  5
31A
  8
TEAM-NET
 10
-243.0
 20
-31.702856
 30
868.864782
 11
243.0
 21
-31.702856
 31
868.864782
210
0.0
220
-0.992546
230
0.121869
  0
ARC
  5
31B
  8
TEAM-NET
 10
243.0
 20
868.011697
 30
0.0
 40
7.0
210
0.0
220
1.0
230
0.0
 50
0.0
 51
90.0
  0
LINE
  5
31C
  8
TEAM-NET
 10
-243.0
 20
0.0
 30
875.011697
 11
243.0
 21
0.0
 31
875.011697
210
0.0
220
1.0
230
0.0
  0
ARC
  5
31D
  8
TEAM-NET
 10
-243.0
 20
868.011697
 30
0.0
 40
7.0
210
0.0
220
1.0
230
0.0
 50
90.0
 51
180.0
  0
LINE
  5
31E
  8
TEAM-NET
 10
-206.228774
 20
-49.768835
 30
890.935173
 11
-206.390281
 21
-49.676101
 31
891.926927
  0
POLYLINE
  5
B25
  8
TEAM-NET
 66
     1
 10
0.0
 20
0.0
 30
0.0
 70
     8
1001
ACAD
1000
R13OBJECT
1002
{
1005
31E
1002
}
  0
VERTEX
  5
B26
  8
TEAM-NET
 10
-206.565575
 20
-50.728569
 30
889.9457
 70
    32
  0
VERTEX
  5
B27
  8
TEAM-NET
 10
-206.458849
 20
-50.53333
 30
889.970529
 70
    32
  0
VERTEX
  5
B28
  8
TEAM-NET
 10
-206.365572
 20
-50.343304
 30
890.043641
 70
    32
  0
VERTEX
  5
B29
  8
TEAM-NET
 10
-206.290085
 20
-50.167209
 30
890.161972
 70
    32
  0
VERTEX
  5
B2A
  8
TEAM-NET
 10
-206.212913
 20
-49.921447
 30
890.457253
 70
    32
  0
VERTEX
  5
B2B
  8
TEAM-NET
 10
-206.208144
 20
-49.89453
 30
890.5066
 70
    32
  0
VERTEX
  5
B2C
  8
TEAM-NET
 10
-206.205447
 20
-49.811179
 30
890.715162
 70
    32
  0
VERTEX
  5
B2D
  8
TEAM-NET
 10
-206.228774
 20
-49.768835
 30
890.935173
 70
    32
  0
SEQEND
  5
B2E
  8
TEAM-NET
  0
LINE
  5
B2F
  8
TEAM-NET
 10
-207.561446
 20
-52.462997
 30
889.9457
 11
-206.565575
 21
-50.728569
 31
889.9457
1001
ACAD
1000
R13OBJECT
1002
{
1005
31E
1002
}
  0
POLYLINE
  5
B30
  8
TEAM-NET
 66
     1
 10
0.0
 20
0.0
 30
0.0
 70
     8
1001
ACAD
1000
R13OBJECT
1002
{
1005
31E
1002
}
  0
VERTEX
  5
B31
  8
TEAM-NET
 10
-208.220517
 20
-53.237691
 30
890.935173
 70
    32
  0
VERTEX
  5
B32
  8
TEAM-NET
 10
-208.199453
 20
-53.242603
 30
890.824874
 70
    32
  0
VERTEX
  5
B33
  8
TEAM-NET
 10
-208.172239
 20
-53.23653
 30
890.715301
 70
    32
  0
VERTEX
  5
B34
  8
TEAM-NET
 10
-208.101722
 20
-53.192284
 30
890.506967
 70
    32
  0
VERTEX
  5
B35
  8
TEAM-NET
 10
-208.011782
 20
-53.106533
 30
890.318991
 70
    32
  0
VERTEX
  5
B36
  8
TEAM-NET
 10
-207.986866
 20
-53.079136
 30
890.276573
 70
    32
  0
VERTEX
  5
B37
  8
TEAM-NET
 10
-207.907517
 20
-52.984044
 30
890.162277
 70
    32
  0
VERTEX
  5
B38
  8
TEAM-NET
 10
-207.793385
 20
-52.829979
 30
890.043727
 70
    32
  0
VERTEX
  5
B39
  8
TEAM-NET
 10
-207.676308
 20
-52.653645
 30
889.970621
 70
    32
  0
VERTEX
  5
B3A
  8
TEAM-NET
 10
-207.561446
 20
-52.462997
 30
889.9457
 70
    32
  0
SEQEND
  5
B3B
  8
TEAM-NET
  0
LINE
  5
B3C
  8
TEAM-NET
 10
-208.382023
 20
-53.144957
 30
891.926927
 11
-208.220517
 21
-53.237691
 31
890.935173
1001
ACAD
1000
R13OBJECT
1002
{
1005
31E
1002
}
  0
LINE
  5
B3D
  8
TEAM-NET
 10
-206.390281
 20
-49.676101
 30
891.926927
 11
-208.382023
 21
-53.144957
 31
891.926927
1001
ACAD
1000
R13OBJECT
1002
{
1005
31E
1002
}
  0
ARC
  5
31F
  8
TEAM-NET
 10
153.266235
 20
892.111486
 30
-145.848866
 40
1.0
210
0.497936
220
0.867214
230
-0.0
 50
349.364593
 51
85.712041
  0
LINE
  5
B3E
  8
TEAM-NET
 10
-206.390281
 20
-49.676101
 30
891.926927
 11
-208.382023
 21
-53.144957
 31
891.926927
1001
ACAD
1000
R13OBJECT
1002
{
1005
31F
1002
}
  0
ARC
  5
B3F
  8
TEAM-NET
 10
-153.266235
 20
892.111486
 30
149.848866
 40
1.0
210
-0.497936
220
-0.867214
230
-0.0
 50
94.287959
 51
190.635407
1001
ACAD
1000
R13OBJECT
1002
{
1005
31F
1002
}
  0
LINE
  5
B40
  8
TEAM-NET
 10
-207.594547
 20
-53.597109
 30
893.108687
 11
-205.602805
 21
-50.128253
 31
893.108687
1001
ACAD
1000
R13OBJECT
1002
{
1005
31F
1002
}
  0
LINE
  5
B41
  8
TEAM-NET
 10
-208.21736
 20
-53.239503
 30
892.720778
 11
-206.225618
 21
-49.770647
 31
892.720778
1001
ACAD
1000
R13OBJECT
1002
{
1005
31F
1002
}
  0
ARC
  5
320
  8
TEAM-NET
 10
153.266235
 20
892.111486
 30
-145.848866
 40
1.0
210
0.497936
220
0.867214
230
-0.0
 50
349.364593
 51
85.712041
  0
ARC
  5
B42
  8
TEAM-NET
 10
145.848866
 20
901.073937
 30
86.134788
 40
1.0
210
-0.864787
220
0.496542
230
-0.074769
 50
90.0
 51
180.0
1001
ACAD
1000
R13OBJECT
1002
{
1005
320
1002
}
  0
ARC
  5
B43
  8
TEAM-NET
 10
-145.848866
 20
14.013615
 30
-905.072959
 40
1.0
210
0.160052
220
-0.091898
230
-0.982821
 50
270.0
 51
360.0
1001
ACAD
1000
R13OBJECT
1002
{
1005
320
1002
}
  0
ARC
  5
B44
  8
TEAM-NET
 10
145.848866
 20
905.072959
 30
-14.013615
 40
1.0
210
-0.852317
220
0.489382
230
-0.184559
 50
90.0
 51
180.0
1001
ACAD
1000
R13OBJECT
1002
{
1005
320
1002
}
  0
ARC
  5
B45
  8
TEAM-NET
 10
153.266235
 20
892.111486
 30
-145.141759
 40
0.707107
210
0.497936
220
0.867214
230
0.0
 50
349.364593
 51
85.712041
1001
ACAD
1000
R13OBJECT
1002
{
1005
320
1002
}
  0
ARC
  5
321
  8
TEAM-NET
 10
-153.266235
 20
892.111486
 30
149.848866
 40
1.0
210
-0.497936
220
-0.867214
230
-0.0
 50
94.287959
 51
190.635407
  0
ARC
  5
B46
  8
TEAM-NET
 10
-149.848866
 20
14.013615
 30
-905.072959
 40
1.0
210
0.160052
220
-0.091898
230
-0.982821
 50
180.0
 51
270.0
1001
ACAD
1000
R13OBJECT
1002
{
1005
321
1002
}
  0
ARC
  5
B47
  8
TEAM-NET
 10
149.848866
 20
901.073937
 30
86.134788
 40
1.0
210
-0.864787
220
0.496542
230
-0.074769
 50
360.0
 51
90.0
1001
ACAD
1000
R13OBJECT
1002
{
1005
321
1002
}
  0
ARC
  5
B48
  8
TEAM-NET
 10
149.848866
 20
905.072959
 30
-14.013615
 40
1.0
210
-0.852317
220
0.489382
230
-0.184559
 50
0.0
 51
90.0
1001
ACAD
1000
R13OBJECT
1002
{
1005
321
1002
}
  0
ARC
  5
B49
  8
TEAM-NET
 10
153.266235
 20
892.111486
 30
-150.555973
 40
0.707107
210
0.497936
220
0.867214
230
0.0
 50
349.364593
 51
85.712041
1001
ACAD
1000
R13OBJECT
1002
{
1005
321
1002
}
  0
ARC
  5
322
  8
TEAM-NET
 10
152.894191
 20
890.130259
 30
-146.848866
 40
1.0
210
0.497936
220
0.867214
230
0.0
 50
266.21218
 51
349.364593
  0
LINE
  5
B4A
  8
TEAM-NET
 10
-205.655969
 20
-51.250845
 30
889.132444
 11
-206.65184
 21
-52.985274
 31
889.132444
1001
ACAD
1000
R13OBJECT
1002
{
1005
322
1002
}
  0
ARC
  5
B4B
  8
TEAM-NET
 10
-152.894191
 20
890.130259
 30
148.848866
 40
1.0
210
-0.497936
220
-0.867214
230
-0.0
 50
190.635407
 51
273.78782
1001
ACAD
1000
R13OBJECT
1002
{
1005
322
1002
}
  0
LINE
  5
B4C
  8
TEAM-NET
 10
-207.561446
 20
-52.462997
 30
889.9457
 11
-206.565575
 21
-50.728569
 31
889.9457
1001
ACAD
1000
R13OBJECT
1002
{
1005
322
1002
}
  0
LINE
  5
B4D
  8
TEAM-NET
 10
-207.240512
 20
-52.647271
 30
889.33998
 11
-206.244641
 21
-50.912842
 31
889.33998
1001
ACAD
1000
R13OBJECT
1002
{
1005
322
1002
}
  0
ARC
  5
323
  8
TEAM-NET
 10
145.848866
 20
14.013615
 30
904.06387
 40
1.0
210
-0.160052
220
0.091898
230
0.982821
 50
180.0
 51
270.0
  0
POLYLINE
  5
B4E
  8
TEAM-NET
 66
     1
 10
0.0
 20
0.0
 30
0.0
 70
     8
1001
ACAD
1000
R13OBJECT
1002
{
1005
323
1002
}
  0
VERTEX
  5
B4F
  8
TEAM-NET
 10
-204.878522
 20
-49.391003
 30
891.119732
 70
    32
  0
VERTEX
  5
B50
  8
TEAM-NET
 10
-204.853909
 20
-49.463036
 30
890.67787
 70
    32
  0
VERTEX
  5
B51
  8
TEAM-NET
 10
-204.880731
 20
-49.617433
 30
890.258993
 70
    32
  0
VERTEX
  5
B52
  8
TEAM-NET
 10
-204.895419
 20
-49.668311
 30
890.159883
 70
    32
  0
VERTEX
  5
B53
  8
TEAM-NET
 10
-205.081219
 20
-50.141773
 30
889.566823
 70
    32
  0
VERTEX
  5
B54
  8
TEAM-NET
 10
-205.245119
 20
-50.48654
 30
889.329157
 70
    32
  0
VERTEX
  5
B55
  8
TEAM-NET
 10
-205.439756
 20
-50.861952
 30
889.182312
 70
    32
  0
VERTEX
  5
B56
  8
TEAM-NET
 10
-205.655969
 20
-51.250845
 30
889.132444
 70
    32
  0
SEQEND
  5
B57
  8
TEAM-NET
  0
ARC
  5
B58
  8
TEAM-NET
 10
152.894191
 20
890.130259
 30
-146.848866
 40
1.0
210
0.497936
220
0.867214
230
0.0
 50
266.21218
 51
349.364593
1001
ACAD
1000
R13OBJECT
1002
{
1005
323
1002
}
  0
POLYLINE
  5
B59
  8
TEAM-NET
 66
     1
 10
0.0
 20
0.0
 30
0.0
 70
     8
1001
ACAD
1000
R13OBJECT
1002
{
1005
323
1002
}
  0
VERTEX
  5
B5A
  8
TEAM-NET
 10
-206.565575
 20
-50.728569
 30
889.9457
 70
    32
  0
VERTEX
  5
B5B
  8
TEAM-NET
 10
-206.458849
 20
-50.53333
 30
889.970529
 70
    32
  0
VERTEX
  5
B5C
  8
TEAM-NET
 10
-206.365572
 20
-50.343304
 30
890.043641
 70
    32
  0
VERTEX
  5
B5D
  8
TEAM-NET
 10
-206.290085
 20
-50.167209
 30
890.161972
 70
    32
  0
VERTEX
  5
B5E
  8
TEAM-NET
 10
-206.212913
 20
-49.921447
 30
890.457253
 70
    32
  0
VERTEX
  5
B5F
  8
TEAM-NET
 10
-206.208144
 20
-49.89453
 30
890.5066
 70
    32
  0
VERTEX
  5
B60
  8
TEAM-NET
 10
-206.205447
 20
-49.811179
 30
890.715162
 70
    32
  0
VERTEX
  5
B61
  8
TEAM-NET
 10
-206.228774
 20
-49.768835
 30
890.935173
 70
    32
  0
SEQEND
  5
B62
  8
TEAM-NET
  0
ARC
  5
324
  8
TEAM-NET
 10
-145.848866
 20
14.013615
 30
-905.072959
 40
1.0
210
0.160052
220
-0.091898
230
-0.982821
 50
270.0
 51
360.0
  0
LINE
  5
B63
  8
TEAM-NET
 10
-205.040029
 20
-49.298269
 30
892.111486
 11
-204.878522
 21
-49.391003
 31
891.119732
1001
ACAD
1000
R13OBJECT
1002
{
1005
324
1002
}
  0
ARC
  5
B64
  8
TEAM-NET
 10
145.848866
 20
14.013615
 30
904.06387
 40
1.0
210
-0.160052
220
0.091898
230
0.982821
 50
180.0
 51
270.0
1001
ACAD
1000
R13OBJECT
1002
{
1005
324
1002
}
  0
LINE
  5
B65
  8
TEAM-NET
 10
-206.228774
 20
-49.768835
 30
890.935173
 11
-206.390281
 21
-49.676101
 31
891.926927
1001
ACAD
1000
R13OBJECT
1002
{
1005
324
1002
}
  0
LINE
  5
B66
  8
TEAM-NET
 10
-205.78855
 20
-49.206225
 30
891.980983
 11
-205.627043
 21
-49.298959
 31
890.989229
1001
ACAD
1000
R13OBJECT
1002
{
1005
324
1002
}
  0
ARC
  5
325
  8
TEAM-NET
 10
-152.894191
 20
890.130259
 30
148.848866
 40
1.0
210
-0.497936
220
-0.867214
230
-0.0
 50
190.635407
 51
273.78782
  0
POLYLINE
  5
B67
  8
TEAM-NET
 66
     1
 10
0.0
 20
0.0
 30
0.0
 70
     8
1001
ACAD
1000
R13OBJECT
1002
{
1005
325
1002
}
  0
VERTEX
  5
B68
  8
TEAM-NET
 10
-206.65184
 20
-52.985274
 30
889.132444
 70
    32
  0
VERTEX
  5
B69
  8
TEAM-NET
 10
-206.878793
 20
-53.368161
 30
889.182496
 70
    32
  0
VERTEX
  5
B6A
  8
TEAM-NET
 10
-207.104867
 20
-53.725468
 30
889.32933
 70
    32
  0
VERTEX
  5
B6B
  8
TEAM-NET
 10
-207.32018
 20
-54.041034
 30
889.567435
 70
    32
  0
VERTEX
  5
B6C
  8
TEAM-NET
 10
-207.466568
 20
-54.238284
 30
889.796997
 70
    32
  0
VERTEX
  5
B6D
  8
TEAM-NET
 10
-207.511875
 20
-54.295678
 30
889.882191
 70
    32
  0
VERTEX
  5
B6E
  8
TEAM-NET
 10
-207.671979
 20
-54.478536
 30
890.259729
 70
    32
  0
VERTEX
  5
B6F
  8
TEAM-NET
 10
-207.791608
 20
-54.579317
 30
890.678149
 70
    32
  0
VERTEX
  5
B70
  8
TEAM-NET
 10
-207.834987
 20
-54.597806
 30
890.898212
 70
    32
  0
VERTEX
  5
B71
  8
TEAM-NET
 10
-207.866135
 20
-54.594287
 30
891.119732
 70
    32
  0
SEQEND
  5
B72
  8
TEAM-NET
  0
ARC
  5
B73
  8
TEAM-NET
 10
149.848866
 20
14.013615
 30
904.06387
 40
1.0
210
-0.160052
220
0.091898
230
0.982821
 50
270.0
 51
0.0
1001
ACAD
1000
R13OBJECT
1002
{
1005
325
1002
}
  0
POLYLINE
  5
B74
  8
TEAM-NET
 66
     1
 10
0.0
 20
0.0
 30
0.0
 70
     8
1001
ACAD
1000
R13OBJECT
1002
{
1005
325
1002
}
  0
VERTEX
  5
B75
  8
TEAM-NET
 10
-208.220517
 20
-53.237691
 30
890.935173
 70
    32
  0
VERTEX
  5
B76
  8
TEAM-NET
 10
-208.199453
 20
-53.242603
 30
890.824874
 70
    32
  0
VERTEX
  5
B77
  8
TEAM-NET
 10
-208.172239
 20
-53.23653
 30
890.715301
 70
    32
  0
VERTEX
  5
B78
  8
TEAM-NET
 10
-208.101722
 20
-53.192284
 30
890.506967
 70
    32
  0
VERTEX
  5
B79
  8
TEAM-NET
 10
-208.011782
 20
-53.106533
 30
890.318991
 70
    32
  0
VERTEX
  5
B7A
  8
TEAM-NET
 10
-207.986866
 20
-53.079136
 30
890.276573
 70
    32
  0
VERTEX
  5
B7B
  8
TEAM-NET
 10
-207.907517
 20
-52.984044
 30
890.162277
 70
    32
  0
VERTEX
  5
B7C
  8
TEAM-NET
 10
-207.793385
 20
-52.829979
 30
890.043727
 70
    32
  0
VERTEX
  5
B7D
  8
TEAM-NET
 10
-207.676308
 20
-52.653645
 30
889.970621
 70
    32
  0
VERTEX
  5
B7E
  8
TEAM-NET
 10
-207.561446
 20
-52.462997
 30
889.9457
 70
    32
  0
SEQEND
  5
B7F
  8
TEAM-NET
  0
ARC
  5
326
  8
TEAM-NET
 10
-149.848866
 20
14.013615
 30
-905.072959
 40
1.0
210
0.160052
220
-0.091898
230
-0.982821
 50
180.0
 51
270.0
  0
LINE
  5
B80
  8
TEAM-NET
 10
-208.382023
 20
-53.144957
 30
891.926927
 11
-208.220517
 21
-53.237691
 31
890.935173
1001
ACAD
1000
R13OBJECT
1002
{
1005
326
1002
}
  0
ARC
  5
B81
  8
TEAM-NET
 10
149.848866
 20
14.013615
 30
904.06387
 40
1.0
210
-0.160052
220
0.091898
230
0.982821
 50
270.0
 51
0.0
1001
ACAD
1000
R13OBJECT
1002
{
1005
326
1002
}
  0
LINE
  5
B82
  8
TEAM-NET
 10
-207.866135
 20
-54.594287
 30
891.119732
 11
-208.027642
 21
-54.501553
 31
892.111486
1001
ACAD
1000
R13OBJECT
1002
{
1005
326
1002
}
  0
LINE
  5
B83
  8
TEAM-NET
 10
-208.484479
 20
-53.901507
 30
891.980983
 11
-208.322972
 21
-53.994241
 31
890.989229
1001
ACAD
1000
R13OBJECT
1002
{
1005
326
1002
}
  0
LINE
  5
327
  8
TEAM-NET
 10
-159.411812
 20
-85.29279
 30
938.227494
 11
-165.329407
 21
-81.895035
 31
929.780187
  0
LINE
  5
B84
  8
TEAM-NET
 10
-165.329407
 20
-81.895035
 30
929.780187
 11
-159.679812
 21
-72.055593
 31
929.780187
1001
ACAD
1000
R13OBJECT
1002
{
1005
327
1002
}
  0
LINE
  5
B85
  8
TEAM-NET
 10
-159.679812
 20
-72.055593
 30
929.780187
 11
-153.762217
 21
-75.453348
 31
938.227494
1001
ACAD
1000
R13OBJECT
1002
{
1005
327
1002
}
  0
LINE
  5
B86
  8
TEAM-NET
 10
-153.762217
 20
-75.453348
 30
938.227494
 11
-159.411812
 21
-85.29279
 31
938.227494
1001
ACAD
1000
R13OBJECT
1002
{
1005
327
1002
}
  0
ARC
  5
B87
  8
TEAM-NET
 10
147.848866
 20
664.130602
 30
664.070805
 40
14.0
210
-0.674608
220
0.387345
230
0.628385
 50
0.0
 51
180.0
1001
ACAD
1000
R13OBJECT
1002
{
1005
327
1002
}
  0
ARC
  5
B88
  8
TEAM-NET
 10
147.848866
 20
664.130602
 30
664.070805
 40
14.0
210
-0.674608
220
0.387345
230
0.628385
 50
180.0
 51
360.0
1001
ACAD
1000
R13OBJECT
1002
{
1005
327
1002
}
  0
ARC
  5
328
  8
TEAM-NET
 10
147.848866
 20
664.130602
 30
662.070805
 40
4.68381
210
-0.674608
220
0.387345
230
0.628385
 50
180.0
 51
0.0
  0
ARC
  5
B89
  8
TEAM-NET
 10
147.848866
 20
664.130602
 30
662.070805
 40
4.68381
210
-0.674608
220
0.387345
230
0.628385
 50
360.0
 51
180.0
1001
ACAD
1000
R13OBJECT
1002
{
1005
328
1002
}
  0
LINE
  5
B8A
  8
TEAM-NET
 10
-163.980191
 20
-82.669726
 30
928.523417
 11
-158.062596
 21
-86.06748
 31
936.970724
1001
ACAD
1000
R13OBJECT
1002
{
1005
328
1002
}
  0
LINE
  5
B8B
  8
TEAM-NET
 10
-158.062596
 20
-86.06748
 30
936.970724
 11
-152.413001
 21
-76.228038
 31
936.970724
1001
ACAD
1000
R13OBJECT
1002
{
1005
328
1002
}
  0
LINE
  5
B8C
  8
TEAM-NET
 10
-152.413001
 20
-76.228038
 30
936.970724
 11
-158.330596
 21
-72.830283
 31
928.523417
1001
ACAD
1000
R13OBJECT
1002
{
1005
328
1002
}
  0
LINE
  5
B8D
  8
TEAM-NET
 10
-158.330596
 20
-72.830283
 30
928.523417
 11
-163.980191
 21
-82.669726
 31
928.523417
1001
ACAD
1000
R13OBJECT
1002
{
1005
328
1002
}
  0
LINE
  5
329
  8
TEAM-NET
 10
-158.330596
 20
-72.830283
 30
928.523417
 11
-163.980191
 21
-82.669726
 31
928.523417
  0
LINE
  5
B8E
  8
TEAM-NET
 10
-159.679812
 20
-72.055593
 30
929.780187
 11
-158.330596
 21
-72.830283
 31
928.523417
1001
ACAD
1000
R13OBJECT
1002
{
1005
329
1002
}
  0
LINE
  5
B8F
  8
TEAM-NET
 10
-165.329407
 20
-81.895035
 30
929.780187
 11
-159.679812
 21
-72.055593
 31
929.780187
1001
ACAD
1000
R13OBJECT
1002
{
1005
329
1002
}
  0
LINE
  5
B90
  8
TEAM-NET
 10
-165.329407
 20
-81.895035
 30
929.780187
 11
-163.980191
 21
-82.669726
 31
928.523417
1001
ACAD
1000
R13OBJECT
1002
{
1005
329
1002
}
  0
LINE
  5
32A
  8
TEAM-NET
 10
-152.413001
 20
-76.228038
 30
936.970724
 11
-158.330596
 21
-72.830283
 31
928.523417
  0
LINE
  5
B91
  8
TEAM-NET
 10
-153.762217
 20
-75.453348
 30
938.227494
 11
-152.413001
 21
-76.228038
 31
936.970724
1001
ACAD
1000
R13OBJECT
1002
{
1005
32A
1002
}
  0
LINE
  5
B92
  8
TEAM-NET
 10
-159.679812
 20
-72.055593
 30
929.780187
 11
-153.762217
 21
-75.453348
 31
938.227494
1001
ACAD
1000
R13OBJECT
1002
{
1005
32A
1002
}
  0
LINE
  5
B93
  8
TEAM-NET
 10
-159.679812
 20
-72.055593
 30
929.780187
 11
-158.330596
 21
-72.830283
 31
928.523417
1001
ACAD
1000
R13OBJECT
1002
{
1005
32A
1002
}
  0
LINE
  5
32B
  8
TEAM-NET
 10
-158.062596
 20
-86.06748
 30
936.970724
 11
-152.413001
 21
-76.228038
 31
936.970724
  0
LINE
  5
B94
  8
TEAM-NET
 10
-159.411812
 20
-85.29279
 30
938.227494
 11
-158.062596
 21
-86.06748
 31
936.970724
1001
ACAD
1000
R13OBJECT
1002
{
1005
32B
1002
}
  0
LINE
  5
B95
  8
TEAM-NET
 10
-153.762217
 20
-75.453348
 30
938.227494
 11
-159.411812
 21
-85.29279
 31
938.227494
1001
ACAD
1000
R13OBJECT
1002
{
1005
32B
1002
}
  0
LINE
  5
B96
  8
TEAM-NET
 10
-153.762217
 20
-75.453348
 30
938.227494
 11
-152.413001
 21
-76.228038
 31
936.970724
1001
ACAD
1000
R13OBJECT
1002
{
1005
32B
1002
}
  0
LINE
  5
32C
  8
TEAM-NET
 10
-163.980191
 20
-82.669726
 30
928.523417
 11
-158.062596
 21
-86.06748
 31
936.970724
  0
LINE
  5
B97
  8
TEAM-NET
 10
-165.329407
 20
-81.895035
 30
929.780187
 11
-163.980191
 21
-82.669726
 31
928.523417
1001
ACAD
1000
R13OBJECT
1002
{
1005
32C
1002
}
  0
LINE
  5
B98
  8
TEAM-NET
 10
-159.411812
 20
-85.29279
 30
938.227494
 11
-165.329407
 21
-81.895035
 31
929.780187
1001
ACAD
1000
R13OBJECT
1002
{
1005
32C
1002
}
  0
LINE
  5
B99
  8
TEAM-NET
 10
-159.411812
 20
-85.29279
 30
938.227494
 11
-158.062596
 21
-86.06748
 31
936.970724
1001
ACAD
1000
R13OBJECT
1002
{
1005
32C
1002
}
  0
ARC
  5
32D
  8
TEAM-NET
 10
-147.848866
 20
264.243284
 30
914.440507
 40
22.0
210
0.15059
220
-0.086466
230
0.984808
 50
90.0
 51
270.0
  0
ARC
  5
B9A
  8
TEAM-NET
 10
-147.848866
 20
264.243284
 30
914.440507
 40
22.0
210
0.15059
220
-0.086466
230
0.984808
 50
270.0
 51
90.0
1001
ACAD
1000
R13OBJECT
1002
{
1005
32D
1002
}
  0
ARC
  5
B9B
  8
TEAM-NET
 10
147.848866
 20
264.243284
 30
-914.440507
 40
22.5
210
-0.15059
220
0.086466
230
-0.984808
 50
90.0
 51
270.0
1001
ACAD
1000
R13OBJECT
1002
{
1005
32D
1002
}
  0
ARC
  5
B9C
  8
TEAM-NET
 10
147.848866
 20
264.243284
 30
-914.440507
 40
22.5
210
-0.15059
220
0.086466
230
-0.984808
 50
270.0
 51
90.0
1001
ACAD
1000
R13OBJECT
1002
{
1005
32D
1002
}
  0
ARC
  5
32E
  8
TEAM-NET
 10
147.848866
 20
980.368828
 30
67.557434
 40
4.0
210
-0.866798
220
0.497696
230
-0.030984
 50
208.695233
 51
28.695233
  0
ARC
  5
B9D
  8
TEAM-NET
 10
147.848866
 20
980.368828
 30
67.557434
 40
4.0
210
-0.866798
220
0.497696
230
-0.030984
 50
28.695233
 51
208.695233
1001
ACAD
1000
R13OBJECT
1002
{
1005
32E
1002
}
  0
ARC
  5
32F
  8
TEAM-NET
 10
147.848866
 20
980.368828
 30
-7.442566
 40
2.0
210
-0.866798
220
0.497696
230
-0.030984
 50
208.695233
 51
28.695233
  0
ARC
  5
B9E
  8
TEAM-NET
 10
147.848866
 20
980.368828
 30
-7.442566
 40
2.0
210
-0.866798
220
0.497696
230
-0.030984
 50
28.695233
 51
208.695233
1001
ACAD
1000
R13OBJECT
1002
{
1005
32F
1002
}
  0
LINE
  5
330
  8
TEAM-NET
 10
-97.042791
 20
-118.813293
 30
981.986441
 11
-160.319022
 21
-82.481452
 31
979.724593
  0
ARC
  5
B9F
  8
TEAM-NET
 10
147.848866
 20
980.368828
 30
67.557434
 40
4.0
210
-0.866798
220
0.497696
230
-0.030984
 50
208.695233
 51
28.695233
1001
ACAD
1000
R13OBJECT
1002
{
1005
330
1002
}
  0
LINE
  5
BA0
  8
TEAM-NET
 10
-93.445321
 20
-112.78689
 30
978.147081
 11
-156.721552
 21
-76.455049
 31
975.885233
1001
ACAD
1000
R13OBJECT
1002
{
1005
330
1002
}
  0
ARC
  5
BA1
  8
TEAM-NET
 10
-147.848866
 20
980.368828
 30
5.442566
 40
4.0
210
0.866798
220
-0.497696
230
0.030984
 50
151.304767
 51
331.304767
1001
ACAD
1000
R13OBJECT
1002
{
1005
330
1002
}
  0
LINE
  5
BA2
  8
TEAM-NET
 10
-159.382343
 20
-81.187957
 30
974.297853
 11
-96.106113
 21
-117.519798
 31
976.559701
1001
ACAD
1000
R13OBJECT
1002
{
1005
330
1002
}
  0
ARC
  5
331
  8
TEAM-NET
 10
33.380616
 20
601.514647
 30
788.976218
 40
2.0
210
0.215514
220
0.429927
230
0.876765
 50
86.306042
 51
176.306042
  0
ARC
  5
BA3
  8
TEAM-NET
 10
147.848866
 20
980.368828
 30
-7.442566
 40
2.0
210
-0.866798
220
0.497696
230
-0.030984
 50
28.695233
 51
208.695233
1001
ACAD
1000
R13OBJECT
1002
{
1005
331
1002
}
  0
ARC
  5
BA4
  8
TEAM-NET
 10
-33.122908
 20
597.522957
 30
-788.976218
 40
2.0
210
-0.215514
220
-0.429927
230
-0.876765
 50
273.693958
 51
3.693958
1001
ACAD
1000
R13OBJECT
1002
{
1005
331
1002
}
  0
ARC
  5
BA5
  8
TEAM-NET
 10
-147.848866
 20
980.368828
 30
5.442566
 40
4.0
210
0.866798
220
-0.497696
230
0.030984
 50
331.304767
 51
151.304767
1001
ACAD
1000
R13OBJECT
1002
{
1005
331
1002
}
  0
ARC
  5
332
  8
TEAM-NET
 10
33.380616
 20
601.514647
 30
788.976218
 40
2.0
210
0.215514
220
0.429927
230
0.876765
 50
86.306042
 51
176.306042
  0
ARC
  5
BA6
  8
TEAM-NET
 10
-147.848866
 20
980.368828
 30
5.442566
 40
4.0
210
0.866798
220
-0.497696
230
0.030984
 50
151.304767
 51
331.304767
1001
ACAD
1000
R13OBJECT
1002
{
1005
332
1002
}
  0
ARC
  5
BA7
  8
TEAM-NET
 10
-33.122908
 20
597.522957
 30
-788.976218
 40
2.0
210
-0.215514
220
-0.429927
230
-0.876765
 50
273.693958
 51
3.693958
1001
ACAD
1000
R13OBJECT
1002
{
1005
332
1002
}
  0
ARC
  5
BA8
  8
TEAM-NET
 10
147.848866
 20
980.368828
 30
-7.442566
 40
2.0
210
-0.866798
220
0.497696
230
-0.030984
 50
208.695233
 51
28.695233
1001
ACAD
1000
R13OBJECT
1002
{
1005
332
1002
}
  0
LINE
  5
333
  8
TEAM-NET
 10
-97.042791
 20
-118.813293
 30
981.986441
 11
-160.319022
 21
-82.481452
 31
979.724593
  0
ARC
  5
BA9
  8
TEAM-NET
 10
-147.848866
 20
980.368828
 30
5.442566
 40
4.0
210
0.866798
220
-0.497696
230
0.030984
 50
331.304767
 51
151.304767
1001
ACAD
1000
R13OBJECT
1002
{
1005
333
1002
}
  0
LINE
  5
BAA
  8
TEAM-NET
 10
-93.445321
 20
-112.78689
 30
978.147081
 11
-156.721552
 21
-76.455049
 31
975.885233
1001
ACAD
1000
R13OBJECT
1002
{
1005
333
1002
}
  0
ARC
  5
BAB
  8
TEAM-NET
 10
147.848866
 20
980.368828
 30
67.557434
 40
4.0
210
-0.866798
220
0.497696
230
-0.030984
 50
28.695233
 51
208.695233
1001
ACAD
1000
R13OBJECT
1002
{
1005
333
1002
}
  0
LINE
  5
BAC
  8
TEAM-NET
 10
-157.658231
 20
-77.748544
 30
981.311973
 11
-94.382
 21
-114.080385
 31
983.57382
1001
ACAD
1000
R13OBJECT
1002
{
1005
333
1002
}
  0
ARC
  5
334
  8
TEAM-NET
 10
147.848866
 20
264.243284
 30
-954.440507
 40
20.5
210
-0.15059
220
0.086466
230
-0.984808
 50
90.0
 51
270.0
  0
ARC
  5
BAD
  8
TEAM-NET
 10
147.848866
 20
264.243284
 30
-954.440507
 40
20.5
210
-0.15059
220
0.086466
230
-0.984808
 50
270.0
 51
90.0
1001
ACAD
1000
R13OBJECT
1002
{
1005
334
1002
}
  0
ARC
  5
335
  8
TEAM-NET
 10
-74.650717
 20
980.296373
 30
147.848866
 40
2.0
210
-0.497936
220
-0.867214
230
-0.0
 50
31.409622
 51
80.0
  0
ARC
  5
BAE
  8
TEAM-NET
 10
147.848866
 20
264.243284
 30
-954.440507
 40
20.5
210
-0.15059
220
0.086466
230
-0.984808
 50
270.0
 51
90.0
1001
ACAD
1000
R13OBJECT
1002
{
1005
335
1002
}
  0
ARC
  5
BAF
  8
TEAM-NET
 10
115.027835
 20
987.415948
 30
-147.848866
 40
2.0
210
0.497936
220
0.867214
230
0.0
 50
51.409622
 51
100.0
1001
ACAD
1000
R13OBJECT
1002
{
1005
335
1002
}
  0
ARC
  5
BB0
  8
TEAM-NET
 10
-147.848866
 20
264.243284
 30
953.763383
 40
22.0
210
0.15059
220
-0.086466
230
0.984808
 50
90.0
 51
270.0
1001
ACAD
1000
R13OBJECT
1002
{
1005
335
1002
}
  0
ARC
  5
BB1
  8
TEAM-NET
 10
-168.348866
 20
952.440507
 30
-264.243284
 40
2.0
210
0.854039
220
-0.490371
230
-0.173648
 50
90.0
 51
138.590378
1001
ACAD
1000
R13OBJECT
1002
{
1005
335
1002
}
  0
ARC
  5
336
  8
TEAM-NET
 10
-74.650717
 20
980.296373
 30
147.848866
 40
2.0
210
-0.497936
220
-0.867214
230
-0.0
 50
31.409622
 51
80.0
  0
ARC
  5
BB2
  8
TEAM-NET
 10
-147.848866
 20
264.243284
 30
953.763383
 40
22.0
210
0.15059
220
-0.086466
230
0.984808
 50
270.0
 51
90.0
1001
ACAD
1000
R13OBJECT
1002
{
1005
336
1002
}
  0
ARC
  5
BB3
  8
TEAM-NET
 10
115.027835
 20
987.415948
 30
-147.848866
 40
2.0
210
0.497936
220
0.867214
230
0.0
 50
51.409622
 51
100.0
1001
ACAD
1000
R13OBJECT
1002
{
1005
336
1002
}
  0
ARC
  5
BB4
  8
TEAM-NET
 10
147.848866
 20
264.243284
 30
-954.440507
 40
20.5
210
-0.15059
220
0.086466
230
-0.984808
 50
90.0
 51
270.0
1001
ACAD
1000
R13OBJECT
1002
{
1005
336
1002
}
  0
ARC
  5
BB5
  8
TEAM-NET
 10
127.348866
 20
952.440507
 30
264.243284
 40
2.0
210
-0.854039
220
0.490371
230
0.173648
 50
90.0
 51
138.590378
1001
ACAD
1000
R13OBJECT
1002
{
1005
336
1002
}
  0
ENDSEC
  0
EOF
