  0
SECTION
  2
HEADER
  9
$ACADVER
  1
AC1009
  9
$INSBASE
 10
0.0
 20
0.0
 30
0.0
  9
$EXTMIN
 10
-227.085602
 20
-352.081811
 30
-0.065424
  9
$EXTMAX
 10
227.089456
 20
10.022039
 30
1072.018527
  9
$LIMMIN
 10
-227.085602
 20
-352.081811
  9
$LIMMAX
 10
227.089456
 20
10.022039
  9
$ORTHOMODE
 70
     1
  9
$REGENMODE
 70
     1
  9
$FILLMODE
 70
     1
  9
$QTEXTMODE
 70
     0
  9
$MIRRTEXT
 70
     0
  9
$DRAGMODE
 70
     2
  9
$LTSCALE
 40
25.0
  9
$OSMODE
 70
     0
  9
$ATTMODE
 70
     1
  9
$TEXTSIZE
 40
200.0
  9
$TRACEWID
 40
1.0
  9
$TEXTSTYLE
  7
STANDARD
  9
$CLAYER
  8
TEAM-MAS
  9
$CELTYPE
  6
BYLAYER
  9
$CECOLOR
 62
   256
  9
$DIMSCALE
 40
0.0
  9
$DIMASZ
 40
20.0
  9
$DIMEXO
 40
10.0
  9
$DIMDLI
 40
1.0
  9
$DIMRND
 40
0.0
  9
$DIMDLE
 40
0.0
  9
$DIMEXE
 40
1.0
  9
$DIMTP
 40
0.0
  9
$DIMTM
 40
0.0
  9
$DIMTXT
 40
35.0
  9
$DIMCEN
 40
1.0
  9
$DIMTSZ
 40
0.0
  9
$DIMTOL
 70
     0
  9
$DIMLIM
 70
     0
  9
$DIMTIH
 70
     0
  9
$DIMTOH
 70
     0
  9
$DIMSE1
 70
     0
  9
$DIMSE2
 70
     0
  9
$DIMTAD
 70
     0
  9
$DIMZIN
 70
     0
  9
$DIMBLK
  1

  9
$DIMASO
 70
     1
  9
$DIMSHO
 70
     0
  9
$DIMPOST
  1

  9
$DIMAPOST
  1

  9
$DIMALT
 70
     0
  9
$DIMALTD
 70
     2
  9
$DIMALTF
 40
25.4
  9
$DIMLFAC
 40
1.0
  9
$DIMTOFL
 70
     0
  9
$DIMTVP
 40
0.0
  9
$DIMTIX
 70
     0
  9
$DIMSOXD
 70
     0
  9
$DIMSAH
 70
     0
  9
$DIMBLK1
  1

  9
$DIMBLK2
  1

  9
$DIMSTYLE
  2
TEAM
  9
$DIMCLRD
 70
     9
  9
$DIMCLRE
 70
     9
  9
$DIMCLRT
 70
    11
  9
$DIMTFAC
 40
1.0
  9
$DIMGAP
 40
15.0
  9
$LUNITS
 70
     2
  9
$LUPREC
 70
     1
  9
$SKETCHINC
 40
1.0
  9
$FILLETRAD
 40
50.0
  9
$AUNITS
 70
     0
  9
$AUPREC
 70
     0
  9
$MENU
  1
ROPLANS
  9
$ELEVATION
 40
0.0
  9
$PELEVATION
 40
0.0
  9
$THICKNESS
 40
0.0
  9
$LIMCHECK
 70
     0
  9
$BLIPMODE
 70
     1
  9
$CHAMFERA
 40
0.0
  9
$CHAMFERB
 40
0.0
  9
$SKPOLY
 70
     0
  9
$TDCREATE
 40
2450392.957851
  9
$TDUPDATE
 40
2455505.390806
  9
$TDINDWG
 40
2.108696
  9
$TDUSRTIMER
 40
2.108696
  9
$USRTIMER
 70
     1
  9
$ANGBASE
 50
0.0
  9
$ANGDIR
 70
     0
  9
$PDMODE
 70
     0
  9
$PDSIZE
 40
0.0
  9
$PLINEWID
 40
0.0
  9
$COORDS
 70
     2
  9
$SPLFRAME
 70
     0
  9
$SPLINETYPE
 70
     6
  9
$SPLINESEGS
 70
     8
  9
$ATTDIA
 70
     0
  9
$ATTREQ
 70
     0
  9
$HANDLING
 70
     1
  9
$HANDSEED
  5
876
  9
$SURFTAB1
 70
    24
  9
$SURFTAB2
 70
    24
  9
$SURFTYPE
 70
     6
  9
$SURFU
 70
     6
  9
$SURFV
 70
     6
  9
$UCSNAME
  2

  9
$UCSORG
 10
0.0
 20
0.0
 30
0.0
  9
$UCSXDIR
 10
1.0
 20
0.0
 30
0.0
  9
$UCSYDIR
 10
0.0
 20
1.0
 30
0.0
  9
$PUCSNAME
  2

  9
$PUCSORG
 10
0.0
 20
0.0
 30
0.0
  9
$PUCSXDIR
 10
1.0
 20
0.0
 30
0.0
  9
$PUCSYDIR
 10
0.0
 20
1.0
 30
0.0
  9
$USERI1
 70
     0
  9
$USERI2
 70
     0
  9
$USERI3
 70
     0
  9
$USERI4
 70
     0
  9
$USERI5
 70
     0
  9
$USERR1
 40
0.0
  9
$USERR2
 40
0.0
  9
$USERR3
 40
0.0
  9
$USERR4
 40
0.0
  9
$USERR5
 40
0.0
  9
$WORLDVIEW
 70
     1
  9
$SHADEDGE
 70
     0
  9
$SHADEDIF
 70
    70
  9
$TILEMODE
 70
     1
  9
$MAXACTVP
 70
    16
  9
$PLIMCHECK
 70
     0
  9
$PEXTMIN
 10
-0.805942
 20
0.005011
 30
0.0
  9
$PEXTMAX
 10
20.250094
 20
11.356329
 30
0.0
  9
$PLIMMIN
 10
0.0
 20
0.0
  9
$PLIMMAX
 10
12.0
 20
9.0
  9
$UNITMODE
 70
     0
  9
$VISRETAIN
 70
     0
  9
$PLINEGEN
 70
     0
  9
$PSLTSCALE
 70
     0
  0
ENDSEC
  0
SECTION
  2
TABLES
  0
TABLE
  2
VPORT
 70
     2
  0
VPORT
  2
*ACTIVE
 70
     0
 10
0.0
 20
0.0
 11
1.0
 21
1.0
 12
0.001927
 22
-171.029886
 13
0.0
 23
0.0
 14
1.0
 24
1.0
 15
50.0
 25
50.0
 16
0.0
 26
0.0
 36
1.0
 17
0.0
 27
0.0
 37
0.0
 40
364.327619
 41
1.865779
 42
50.0
 43
0.0
 44
0.0
 50
0.0
 51
0.0
 71
     0
 72
   100
 73
     1
 74
     1
 75
     0
 76
     0
 77
     0
 78
     0
  0
ENDTAB
  0
TABLE
  2
LTYPE
 70
     1
  0
LTYPE
  2
CONTINUOUS
 70
     0
  3
Solid Line
 72
    65
 73
     0
 40
0.0
  0
ENDTAB
  0
TABLE
  2
LAYER
 70
     5
  0
LAYER
  2
0
 70
     0
 62
     7
  6
CONTINUOUS
  0
LAYER
  2
TEAM-MAS
 70
     0
 62
     9
  6
CONTINUOUS
  0
LAYER
  2
TEAM-TXT
 70
     0
 62
    11
  6
CONTINUOUS
  0
LAYER
  2
TEAM-NET
 70
     0
 62
    15
  6
CONTINUOUS
  0
LAYER
  2
TEAM-INSP
 70
     0
 62
     5
  6
CONTINUOUS
  0
ENDTAB
  0
TABLE
  2
STYLE
 70
     2
  0
STYLE
  2
STANDARD
 70
     0
 40
0.0
 41
1.0
 50
0.0
 71
     0
 42
200.0
  3
txt
  4

  0
STYLE
  2
TEAM
 70
     0
 40
0.0
 41
0.8
 50
15.0
 71
     0
 42
7.0
  3
ROMANS.shx
  4

  0
ENDTAB
  0
TABLE
  2
VIEW
 70
     0
  0
ENDTAB
  0
TABLE
  2
UCS
 70
     0
  0
ENDTAB
  0
TABLE
  2
APPID
 70
     1
  0
APPID
  2
ACAD
 70
     0
  0
ENDTAB
  0
TABLE
  2
DIMSTYLE
 70
     1
  0
DIMSTYLE
  2
TEAM
 70
     0
  3

  4

  5

  6

  7

 40
0.0
 41
20.0
 42
10.0
 43
1.0
 44
1.0
 45
0.0
 46
0.0
 47
0.0
 48
0.0
140
35.0
141
1.0
142
0.0
143
25.4
144
1.0
145
0.0
146
1.0
147
15.0
 71
     0
 72
     0
 73
     0
 74
     0
 75
     0
 76
     0
 77
     0
 78
     0
170
     0
171
     2
172
     0
173
     0
174
     0
175
     0
176
     9
177
     9
178
    11
  0
ENDTAB
  0
ENDSEC
  0
SECTION
  2
BLOCKS
  0
BLOCK
  8
0
  2
$MODEL_SPACE
 70
     0
 10
0.0
 20
0.0
 30
0.0
  3
$MODEL_SPACE
  1

  0
ENDBLK
  5
7C5
  8
0
  0
BLOCK
 67
     1
  8
0
  2
$PAPER_SPACE
 70
     0
 10
0.0
 20
0.0
 30
0.0
  3
$PAPER_SPACE
  1

  0
ENDBLK
  5
7C3
 67
     1
  8
0
  0
ENDSEC
  0
SECTION
  2
ENTITIES
  0
CIRCLE
  5
20
  8
TEAM-INSP
 10
0.0
 20
0.0
 30
0.0
 40
10.0
  0
LINE
  5
22
  8
TEAM-NET
 10
15.219469
 20
-186.628131
 30
936.172458
 11
17.636112
 21
-56.699651
 31
1011.172458
1001
ACAD
1000
R13OBJECT
1002
{
1005
25
1002
}
  0
LINE
  5
24
  8
TEAM-NET
 10
0.209684
 20
-65.595275
 30
1026.327903
 11
1.278327
 21
-193.74463
 31
948.296814
1001
ACAD
1000
R13OBJECT
1002
{
1005
25
1002
}
  0
LINE
  5
25
  8
TEAM-NET
 10
0.063756
 20
-48.095884
 30
996.017014
 11
1.161585
 21
-179.745117
 31
924.048103
  0
LINE
  5
26
  8
TEAM-NET
 10
-12.779557
 20
-186.861616
 30
936.172458
 11
-17.362672
 21
-56.991508
 31
1011.172458
1001
ACAD
1000
R13OBJECT
1002
{
1005
28
1002
}
  0
LINE
  5
27
  8
TEAM-NET
 10
0.209684
 20
-65.595275
 30
1026.327903
 11
1.278327
 21
-193.74463
 31
948.296814
1001
ACAD
1000
R13OBJECT
1002
{
1005
28
1002
}
  0
LINE
  5
28
  8
TEAM-NET
 10
0.063756
 20
-48.095884
 30
996.017014
 11
1.161585
 21
-179.745117
 31
924.048103
  0
LINE
  5
29
  8
TEAM-NET
 10
-4.00775
 20
-37.352207
 30
902.632548
 11
-4.00775
 21
-37.352207
 31
1022.632548
1001
ACAD
1000
R13OBJECT
1002
{
1005
2B
1002
}
  0
LINE
  5
2A
  8
TEAM-NET
 10
22.649717
 20
-55.990326
 30
1022.632548
 11
22.649717
 21
-55.990326
 31
902.632548
1001
ACAD
1000
R13OBJECT
1002
{
1005
2B
1002
}
  0
LINE
  5
2B
  8
TEAM-NET
 10
-22.645868
 20
-64.009674
 30
1022.632548
 11
-22.645868
 21
-64.009674
 31
902.632548
  0
LINE
  5
2C
  8
TEAM-NET
 10
4.011599
 20
-82.647793
 30
902.632548
 11
4.011599
 21
-82.647793
 31
1022.632548
1001
ACAD
1000
R13OBJECT
1002
{
1005
2E
1002
}
  0
LINE
  5
2D
  8
TEAM-NET
 10
22.649717
 20
-55.990326
 30
1022.632548
 11
22.649717
 21
-55.990326
 31
902.632548
1001
ACAD
1000
R13OBJECT
1002
{
1005
2E
1002
}
  0
LINE
  5
2E
  8
TEAM-NET
 10
-22.645868
 20
-64.009674
 30
1022.632548
 11
-22.645868
 21
-64.009674
 31
902.632548
  0
LINE
  5
2F
  8
TEAM-NET
 10
-188.998075
 20
-95.0
 30
757.632548
 11
-188.998075
 21
-95.0
 31
862.632548
210
0.0
220
1.0
230
0.0
  0
LINE
  5
30
  8
TEAM-NET
 10
-188.998075
 20
-20.0
 30
780.392382
 11
-188.998075
 21
-20.0
 31
862.632548
210
0.0
220
-1.0
230
0.0
  0
LINE
  5
31
  8
TEAM-NET
 10
-188.998075
 20
-20.0
 30
780.392382
 11
-188.998075
 21
-20.0
 31
862.632548
210
1.0
220
0.0
230
0.0
  0
LINE
  5
32
  8
TEAM-NET
 10
-188.998075
 20
-95.0
 30
757.632548
 11
-188.998075
 21
-95.0
 31
862.632548
210
1.0
220
0.0
230
0.0
  0
LINE
  5
33
  8
TEAM-NET
 10
189.001925
 20
-95.0
 30
757.632548
 11
189.001925
 21
-95.0
 31
862.632548
210
0.0
220
1.0
230
0.0
  0
LINE
  5
34
  8
TEAM-NET
 10
189.001925
 20
-20.0
 30
780.0
 11
189.001925
 21
-20.0
 31
862.632548
210
-1.0
220
0.0
230
0.0
  0
LINE
  5
35
  8
TEAM-NET
 10
189.001925
 20
-95.0
 30
757.632548
 11
189.001925
 21
-95.0
 31
862.632548
210
-1.0
220
0.0
230
0.0
  0
LINE
  5
36
  8
TEAM-NET
 10
189.001925
 20
-20.0
 30
780.0
 11
189.001925
 21
-20.0
 31
862.632548
210
0.0
220
-1.0
230
0.0
  0
LINE
  5
37
  8
TEAM-NET
 10
-224.998075
 20
0.0
 30
757.632548
 11
-224.998075
 21
0.0
 31
882.632548
210
-1.0
220
0.0
230
0.0
  0
LINE
  5
38
  8
TEAM-NET
 10
-224.998075
 20
-340.0
 30
882.632548
 11
-224.998075
 21
-340.0
 31
757.632548
210
-1.0
220
0.0
230
0.0
  0
LINE
  5
39
  8
TEAM-NET
 10
-214.998075
 20
-350.0
 30
767.632548
 11
-214.998075
 21
-350.0
 31
882.632548
210
0.0
220
-1.0
230
0.0
  0
LINE
  5
3A
  8
TEAM-NET
 10
-224.998075
 20
0.0
 30
757.632548
 11
-224.998075
 21
0.0
 31
882.632548
210
0.0
220
1.0
230
0.0
  0
LINE
  5
3B
  8
TEAM-NET
 10
-214.998075
 20
-350.0
 30
767.632548
 11
-214.998075
 21
-350.0
 31
882.632548
  0
LINE
  5
3C
  8
TEAM-NET
 10
-224.998075
 20
-340.0
 30
882.632548
 11
-224.998075
 21
-340.0
 31
757.632548
  0
LINE
  5
3D
  8
TEAM-NET
 10
-174.998075
 20
-120.0
 30
802.122193
 11
-174.998075
 21
-120.0
 31
887.632548
210
0.0
220
-1.0
230
0.0
  0
LINE
  5
3E
  8
TEAM-NET
 10
-174.998075
 20
-310.0
 30
887.632548
 11
-174.998075
 21
-310.0
 31
802.122193
210
0.0
220
1.0
230
0.0
  0
LINE
  5
3F
  8
TEAM-NET
 10
-174.998075
 20
-310.0
 30
887.632548
 11
-174.998075
 21
-310.0
 31
802.122193
  0
LINE
  5
40
  8
TEAM-NET
 10
-184.998075
 20
-300.0
 30
802.122193
 11
-184.998075
 21
-300.0
 31
887.632548
  0
LINE
  5
41
  8
TEAM-NET
 10
-184.998075
 20
-300.0
 30
802.122193
 11
-184.998075
 21
-300.0
 31
887.632548
210
1.0
220
0.0
230
0.0
  0
LINE
  5
42
  8
TEAM-NET
 10
-184.998075
 20
-130.0
 30
887.632548
 11
-184.998075
 21
-130.0
 31
802.122193
210
1.0
220
0.0
230
0.0
  0
LINE
  5
43
  8
TEAM-NET
 10
-184.998075
 20
-130.0
 30
887.632548
 11
-184.998075
 21
-130.0
 31
802.122193
  0
LINE
  5
44
  8
TEAM-NET
 10
-174.998075
 20
-120.0
 30
802.122193
 11
-174.998075
 21
-120.0
 31
887.632548
  0
LINE
  5
45
  8
TEAM-NET
 10
215.001925
 20
-350.0
 30
882.632548
 11
215.001925
 21
-350.0
 31
767.632548
210
0.0
220
-1.0
230
0.0
  0
LINE
  5
46
  8
TEAM-NET
 10
225.001925
 20
-340.0
 30
767.632548
 11
225.001925
 21
-340.0
 31
882.632548
210
1.0
220
0.0
230
0.0
  0
LINE
  5
47
  8
TEAM-NET
 10
225.001925
 20
0.0
 30
767.632548
 11
225.001925
 21
0.0
 31
882.632548
210
1.0
220
0.0
230
0.0
  0
LINE
  5
48
  8
TEAM-NET
 10
225.001925
 20
0.0
 30
767.632548
 11
225.001925
 21
0.0
 31
882.632548
210
0.0
220
1.0
230
0.0
  0
LINE
  5
49
  8
TEAM-NET
 10
215.001925
 20
-350.0
 30
882.632548
 11
215.001925
 21
-350.0
 31
767.632548
  0
LINE
  5
4A
  8
TEAM-NET
 10
225.001925
 20
-340.0
 30
767.632548
 11
225.001925
 21
-340.0
 31
882.632548
  0
LINE
  5
4B
  8
TEAM-NET
 10
175.001925
 20
-120.0
 30
887.632548
 11
175.001925
 21
-120.0
 31
802.122193
210
0.0
220
-1.0
230
0.0
  0
LINE
  5
4C
  8
TEAM-NET
 10
185.001925
 20
-300.0
 30
887.632548
 11
185.001925
 21
-300.0
 31
802.122193
  0
LINE
  5
4D
  8
TEAM-NET
 10
175.001925
 20
-310.0
 30
802.122193
 11
175.001925
 21
-310.0
 31
887.632548
  0
LINE
  5
4E
  8
TEAM-NET
 10
185.001925
 20
-130.0
 30
802.122193
 11
185.001925
 21
-130.0
 31
887.632548
210
-1.0
220
0.0
230
0.0
  0
LINE
  5
4F
  8
TEAM-NET
 10
185.001925
 20
-300.0
 30
887.632548
 11
185.001925
 21
-300.0
 31
802.122193
210
-1.0
220
0.0
230
0.0
  0
LINE
  5
50
  8
TEAM-NET
 10
175.001925
 20
-120.0
 30
887.632548
 11
175.001925
 21
-120.0
 31
802.122193
  0
LINE
  5
51
  8
TEAM-NET
 10
185.001925
 20
-130.0
 30
802.122193
 11
185.001925
 21
-130.0
 31
887.632548
  0
LINE
  5
52
  8
TEAM-NET
 10
175.001925
 20
-310.0
 30
802.122193
 11
175.001925
 21
-310.0
 31
887.632548
210
0.0
220
1.0
230
0.0
  0
ARC
  5
53
  8
TEAM-NET
 10
-59.324245
 20
737.632548
 30
195.0
 40
20.0
210
0.0
220
-1.0
230
0.0
 50
5.0
 51
90.0
  0
ARC
  5
54
  8
TEAM-NET
 10
-59.328095
 20
737.632548
 30
-195.0
 40
20.0
210
0.0
220
1.0
230
0.0
 50
5.0
 51
90.0
  0
ARC
  5
55
  8
TEAM-NET
 10
-59.324245
 20
737.632548
 30
195.0
 40
20.0
210
0.0
220
-1.0
230
0.0
 50
5.0
 51
90.0
  0
ARC
  5
56
  8
TEAM-NET
 10
-59.328095
 20
737.632548
 30
-195.0
 40
20.0
210
0.0
220
1.0
230
0.0
 50
5.0
 51
90.0
  0
LINE
  5
57
  8
TEAM-NET
 10
-14.21961
 20
-179.548529
 30
777.799918
 11
-14.21961
 21
-179.548529
 31
742.799918
210
0.702701
220
0.711485
230
0.0
  0
LINE
  5
58
  8
TEAM-NET
 10
-14.21961
 20
-179.548529
 30
777.799918
 11
-14.21961
 21
-179.548529
 31
742.799918
  0
LINE
  5
59
  8
TEAM-NET
 10
-15.625012
 20
-180.971499
 30
777.799918
 11
-15.625012
 21
-180.971499
 31
742.799918
  0
LINE
  5
5A
  8
TEAM-NET
 10
15.453396
 20
-180.778465
 30
777.799918
 11
15.453396
 21
-180.778465
 31
742.799918
210
0.711485
220
-0.702701
230
-0.0
  0
LINE
  5
5B
  8
TEAM-NET
 10
15.453396
 20
-180.778465
 30
777.799918
 11
15.453396
 21
-180.778465
 31
742.799918
  0
LINE
  5
5C
  8
TEAM-NET
 10
14.030426
 20
-179.373063
 30
777.799918
 11
14.030426
 21
-179.373063
 31
742.799918
  0
LINE
  5
5D
  8
TEAM-NET
 10
14.223459
 20
-210.451471
 30
777.799918
 11
14.223459
 21
-210.451471
 31
742.799918
210
-0.702701
220
-0.711485
230
-0.0
  0
LINE
  5
5E
  8
TEAM-NET
 10
14.223459
 20
-210.451471
 30
777.799918
 11
14.223459
 21
-210.451471
 31
742.799918
  0
LINE
  5
5F
  8
TEAM-NET
 10
15.628862
 20
-209.028501
 30
777.799918
 11
15.628862
 21
-209.028501
 31
742.799918
  0
LINE
  5
60
  8
TEAM-NET
 10
-15.449546
 20
-209.221535
 30
777.799918
 11
-15.449546
 21
-209.221535
 31
742.799918
210
-0.711485
220
0.702701
230
0.0
  0
LINE
  5
61
  8
TEAM-NET
 10
-15.449546
 20
-209.221535
 30
777.799918
 11
-15.449546
 21
-209.221535
 31
742.799918
  0
LINE
  5
62
  8
TEAM-NET
 10
-14.026576
 20
-210.626937
 30
777.799918
 11
-14.026576
 21
-210.626937
 31
742.799918
  0
LINE
  5
63
  8
TEAM-NET
 10
15.628862
 20
-209.028501
 30
777.799918
 11
15.628862
 21
-209.028501
 31
742.799918
210
0.702701
220
0.711485
230
0.0
  0
LINE
  5
64
  8
TEAM-NET
 10
14.030426
 20
-179.373063
 30
777.799918
 11
14.030426
 21
-179.373063
 31
742.799918
210
-0.711485
220
0.702701
230
0.0
  0
LINE
  5
65
  8
TEAM-NET
 10
-15.625012
 20
-180.971499
 30
777.799918
 11
-15.625012
 21
-180.971499
 31
742.799918
210
-0.702701
220
-0.711485
230
-0.0
  0
LINE
  5
66
  8
TEAM-NET
 10
-14.026576
 20
-210.626937
 30
777.799918
 11
-14.026576
 21
-210.626937
 31
742.799918
210
0.711485
220
-0.702701
230
-0.0
  0
LINE
  5
67
  8
TEAM-NET
 10
21.001925
 20
-195.0
 30
767.799918
 11
21.001925
 21
-195.0
 31
737.957536
  0
LINE
  5
68
  8
TEAM-NET
 10
-20.998075
 20
-195.0
 30
767.799918
 11
-20.998075
 21
-195.0
 31
737.957536
  0
LINE
  5
69
  8
TEAM-NET
 10
22.001925
 20
-195.0
 30
767.957536
 11
22.001925
 21
-195.0
 31
737.957536
  0
LINE
  5
6A
  8
TEAM-NET
 10
-21.998075
 20
-195.0
 30
767.957536
 11
-21.998075
 21
-195.0
 31
737.957536
  0
LINE
  5
6B
  8
TEAM-NET
 10
22.001925
 20
-195.0
 30
767.957536
 11
22.001925
 21
-195.0
 31
737.957536
  0
LINE
  5
6C
  8
TEAM-NET
 10
-21.998075
 20
-195.0
 30
767.957536
 11
-21.998075
 21
-195.0
 31
737.957536
  0
LINE
  5
6D
  8
TEAM-NET
 10
21.001925
 20
-195.0
 30
767.799918
 11
21.001925
 21
-195.0
 31
737.957536
  0
LINE
  5
6E
  8
TEAM-NET
 10
-20.998075
 20
-195.0
 30
767.799918
 11
-20.998075
 21
-195.0
 31
737.957536
  0
LINE
  5
6F
  8
TEAM-NET
 10
-3.504576
 20
-190.131278
 30
737.799918
 11
-3.504576
 21
-190.131278
 31
777.799918
210
0.702701
220
0.711485
230
0.0
  0
LINE
  5
70
  8
TEAM-NET
 10
4.870646
 20
-191.493499
 30
737.799918
 11
4.870646
 21
-191.493499
 31
777.799918
210
0.711485
220
-0.702701
230
-0.0
  0
LINE
  5
71
  8
TEAM-NET
 10
3.508426
 20
-199.868722
 30
737.799918
 11
3.508426
 21
-199.868722
 31
777.799918
210
-0.702701
220
-0.711485
230
-0.0
  0
LINE
  5
72
  8
TEAM-NET
 10
-4.866797
 20
-198.506501
 30
777.799918
 11
-4.866797
 21
-198.506501
 31
737.799918
210
-0.711485
220
0.702701
230
0.0
  0
LINE
  5
73
  8
TEAM-NET
 10
4.913828
 20
-198.445752
 30
777.799918
 11
4.913828
 21
-198.445752
 31
737.799918
210
0.702701
220
0.711485
230
0.0
  0
LINE
  5
74
  8
TEAM-NET
 10
-3.443827
 20
-199.911903
 30
777.799918
 11
-3.443827
 21
-199.911903
 31
737.799918
  0
LINE
  5
75
  8
TEAM-NET
 10
3.508426
 20
-199.868722
 30
737.799918
 11
3.508426
 21
-199.868722
 31
777.799918
  0
LINE
  5
76
  8
TEAM-NET
 10
3.447676
 20
-190.088097
 30
777.799918
 11
3.447676
 21
-190.088097
 31
737.799918
210
-0.711485
220
0.702701
230
0.0
  0
LINE
  5
77
  8
TEAM-NET
 10
4.870646
 20
-191.493499
 30
737.799918
 11
4.870646
 21
-191.493499
 31
777.799918
  0
LINE
  5
78
  8
TEAM-NET
 10
4.913828
 20
-198.445752
 30
777.799918
 11
4.913828
 21
-198.445752
 31
737.799918
  0
LINE
  5
79
  8
TEAM-NET
 10
-4.909979
 20
-191.554248
 30
777.799918
 11
-4.909979
 21
-191.554248
 31
737.799918
210
-0.702701
220
-0.711485
230
-0.0
  0
LINE
  5
7A
  8
TEAM-NET
 10
-4.866797
 20
-198.506501
 30
777.799918
 11
-4.866797
 21
-198.506501
 31
737.799918
  0
LINE
  5
7B
  8
TEAM-NET
 10
-4.909979
 20
-191.554248
 30
777.799918
 11
-4.909979
 21
-191.554248
 31
737.799918
  0
LINE
  5
7C
  8
TEAM-NET
 10
-3.504576
 20
-190.131278
 30
737.799918
 11
-3.504576
 21
-190.131278
 31
777.799918
  0
LINE
  5
7D
  8
TEAM-NET
 10
3.447676
 20
-190.088097
 30
777.799918
 11
3.447676
 21
-190.088097
 31
737.799918
  0
LINE
  5
7E
  8
TEAM-NET
 10
-3.443827
 20
-199.911903
 30
777.799918
 11
-3.443827
 21
-199.911903
 31
737.799918
210
0.711485
220
-0.702701
230
-0.0
  0
LINE
  5
7F
  8
TEAM-NET
 10
-25.998075
 20
-195.0
 30
717.632548
 11
-25.998075
 21
-195.0
 31
767.35946
  0
LINE
  5
80
  8
TEAM-NET
 10
26.001925
 20
-195.0
 30
717.632548
 11
26.001925
 21
-195.0
 31
767.35946
  0
LINE
  5
81
  8
TEAM-NET
 10
-25.998075
 20
-195.0
 30
717.632548
 11
-25.998075
 21
-195.0
 31
767.35946
  0
LINE
  5
82
  8
TEAM-NET
 10
26.001925
 20
-195.0
 30
717.632548
 11
26.001925
 21
-195.0
 31
767.35946
  0
LINE
  5
83
  8
TEAM-NET
 10
-37.498075
 20
-195.0
 30
717.632548
 11
-39.400351
 21
-195.0
 31
739.375663
  0
LINE
  5
84
  8
TEAM-NET
 10
37.501925
 20
-195.0
 30
717.632548
 11
39.404201
 21
-195.0
 31
739.375663
  0
LINE
  5
85
  8
TEAM-NET
 10
-37.498075
 20
-195.0
 30
717.632548
 11
-39.400351
 21
-195.0
 31
739.375663
  0
LINE
  5
86
  8
TEAM-NET
 10
37.501925
 20
-195.0
 30
717.632548
 11
39.404201
 21
-195.0
 31
739.375663
  0
ARC
  5
87
  8
TEAM-NET
 10
-0.001925
 20
-195.0
 30
-717.632548
 40
26.0
210
0.0
220
0.0
230
-1.0
 50
360.0
 51
180.0
  0
ARC
  5
88
  8
TEAM-NET
 10
-0.001925
 20
-195.0
 30
-717.632548
 40
26.0
210
0.0
220
0.0
230
-1.0
 50
180.0
 51
0.0
  0
ARC
  5
89
  8
TEAM-NET
 10
-0.001925
 20
-195.0
 30
-717.632548
 40
37.5
210
0.0
220
0.0
230
-1.0
 50
360.0
 51
180.0
  0
ARC
  5
8A
  8
TEAM-NET
 10
-0.001925
 20
-195.0
 30
-717.632548
 40
37.5
210
0.0
220
0.0
230
-1.0
 50
180.0
 51
0.0
  0
ARC
  5
8B
  8
TEAM-NET
 10
0.001925
 20
-195.0
 30
717.632548
 40
37.5
 50
0.0
 51
180.0
  0
ARC
  5
8C
  8
TEAM-NET
 10
0.001925
 20
-195.0
 30
717.632548
 40
37.5
 50
180.0
 51
0.0
  0
ARC
  5
8D
  8
TEAM-NET
 10
0.001925
 20
-195.0
 30
717.632548
 40
26.0
 50
180.0
 51
0.0
  0
ARC
  5
8E
  8
TEAM-NET
 10
0.001925
 20
-195.0
 30
717.632548
 40
26.0
 50
0.0
 51
180.0
  0
POLYLINE
  5
8F
  8
TEAM-NET
 66
     1
 10
0.0
 20
0.0
 30
0.0
 70
     8
  0
VERTEX
  5
90
  8
TEAM-NET
 10
-10.507829
 20
-207.064206
 30
737.799918
 70
    32
  0
VERTEX
  5
91
  8
TEAM-NET
 10
-11.854096
 20
-208.427301
 30
738.180047
 70
    32
  0
VERTEX
  5
92
  8
TEAM-NET
 10
-12.995277
 20
-209.582747
 30
739.263019
 70
    32
  0
VERTEX
  5
93
  8
TEAM-NET
 10
-13.758637
 20
-210.355649
 30
740.885806
 70
    32
  0
VERTEX
  5
94
  8
TEAM-NET
 10
-14.026576
 20
-210.626937
 30
742.799918
 70
    32
  0
SEQEND
  5
95
  8
TEAM-NET
  0
POLYLINE
  5
96
  8
TEAM-NET
 66
     1
 10
0.0
 20
0.0
 30
0.0
 70
     8
  0
VERTEX
  5
97
  8
TEAM-NET
 10
-12.062281
 20
-184.490246
 30
737.799918
 70
    32
  0
VERTEX
  5
98
  8
TEAM-NET
 10
-13.425376
 20
-183.143979
 30
738.180047
 70
    32
  0
VERTEX
  5
99
  8
TEAM-NET
 10
-14.580822
 20
-182.002798
 30
739.263019
 70
    32
  0
VERTEX
  5
9A
  8
TEAM-NET
 10
-15.353724
 20
-181.239438
 30
740.885806
 70
    32
  0
VERTEX
  5
9B
  8
TEAM-NET
 10
-15.625012
 20
-180.971499
 30
742.799918
 70
    32
  0
SEQEND
  5
9C
  8
TEAM-NET
  0
POLYLINE
  5
9D
  8
TEAM-NET
 66
     1
 10
0.0
 20
0.0
 30
0.0
 70
     8
  0
VERTEX
  5
9E
  8
TEAM-NET
 10
10.511679
 20
-182.935794
 30
737.799918
 70
    32
  0
VERTEX
  5
9F
  8
TEAM-NET
 10
11.857945
 20
-181.572699
 30
738.180047
 70
    32
  0
VERTEX
  5
A0
  8
TEAM-NET
 10
12.999126
 20
-180.417253
 30
739.263019
 70
    32
  0
VERTEX
  5
A1
  8
TEAM-NET
 10
13.762486
 20
-179.644351
 30
740.885806
 70
    32
  0
VERTEX
  5
A2
  8
TEAM-NET
 10
14.030426
 20
-179.373063
 30
742.799918
 70
    32
  0
SEQEND
  5
A3
  8
TEAM-NET
  0
POLYLINE
  5
A4
  8
TEAM-NET
 66
     1
 10
0.0
 20
0.0
 30
0.0
 70
     8
  0
VERTEX
  5
A5
  8
TEAM-NET
 10
12.066131
 20
-205.509754
 30
737.799918
 70
    32
  0
VERTEX
  5
A6
  8
TEAM-NET
 10
13.429226
 20
-206.856021
 30
738.180047
 70
    32
  0
VERTEX
  5
A7
  8
TEAM-NET
 10
14.584671
 20
-207.997202
 30
739.263019
 70
    32
  0
VERTEX
  5
A8
  8
TEAM-NET
 10
15.357573
 20
-208.760562
 30
740.885806
 70
    32
  0
VERTEX
  5
A9
  8
TEAM-NET
 10
15.628862
 20
-209.028501
 30
742.799918
 70
    32
  0
SEQEND
  5
AA
  8
TEAM-NET
  0
POLYLINE
  5
AB
  8
TEAM-NET
 66
     1
 10
0.0
 20
0.0
 30
0.0
 70
     8
  0
VERTEX
  5
AC
  8
TEAM-NET
 10
-15.449546
 20
-209.221535
 30
742.799918
 70
    32
  0
VERTEX
  5
AD
  8
TEAM-NET
 10
-15.181311
 20
-208.949947
 30
740.884784
 70
    32
  0
VERTEX
  5
AE
  8
TEAM-NET
 10
-14.418242
 20
-208.177339
 30
739.263012
 70
    32
  0
VERTEX
  5
AF
  8
TEAM-NET
 10
-13.276348
 20
-207.021172
 30
738.179695
 70
    32
  0
VERTEX
  5
B0
  8
TEAM-NET
 10
-11.930799
 20
-205.658804
 30
737.799918
 70
    32
  0
SEQEND
  5
B1
  8
TEAM-NET
  0
POLYLINE
  5
B2
  8
TEAM-NET
 66
     1
 10
0.0
 20
0.0
 30
0.0
 70
     8
  0
VERTEX
  5
B3
  8
TEAM-NET
 10
14.223459
 20
-210.451471
 30
742.799918
 70
    32
  0
VERTEX
  5
B4
  8
TEAM-NET
 10
13.951871
 20
-210.183236
 30
740.884784
 70
    32
  0
VERTEX
  5
B5
  8
TEAM-NET
 10
13.179264
 20
-209.420167
 30
739.263012
 70
    32
  0
VERTEX
  5
B6
  8
TEAM-NET
 10
12.023096
 20
-208.278273
 30
738.179695
 70
    32
  0
VERTEX
  5
B7
  8
TEAM-NET
 10
10.660728
 20
-206.932724
 30
737.799918
 70
    32
  0
SEQEND
  5
B8
  8
TEAM-NET
  0
POLYLINE
  5
B9
  8
TEAM-NET
 66
     1
 10
0.0
 20
0.0
 30
0.0
 70
     8
  0
VERTEX
  5
BA
  8
TEAM-NET
 10
15.453396
 20
-180.778465
 30
742.799918
 70
    32
  0
VERTEX
  5
BB
  8
TEAM-NET
 10
15.185161
 20
-181.050053
 30
740.884784
 70
    32
  0
VERTEX
  5
BC
  8
TEAM-NET
 10
14.422092
 20
-181.822661
 30
739.263012
 70
    32
  0
VERTEX
  5
BD
  8
TEAM-NET
 10
13.280198
 20
-182.978828
 30
738.179695
 70
    32
  0
VERTEX
  5
BE
  8
TEAM-NET
 10
11.934649
 20
-184.341196
 30
737.799918
 70
    32
  0
SEQEND
  5
BF
  8
TEAM-NET
  0
POLYLINE
  5
C0
  8
TEAM-NET
 66
     1
 10
0.0
 20
0.0
 30
0.0
 70
     8
  0
VERTEX
  5
C1
  8
TEAM-NET
 10
-14.21961
 20
-179.548529
 30
742.799918
 70
    32
  0
VERTEX
  5
C2
  8
TEAM-NET
 10
-13.948022
 20
-179.816764
 30
740.884784
 70
    32
  0
VERTEX
  5
C3
  8
TEAM-NET
 10
-13.175414
 20
-180.579833
 30
739.263012
 70
    32
  0
VERTEX
  5
C4
  8
TEAM-NET
 10
-12.019247
 20
-181.721727
 30
738.179695
 70
    32
  0
VERTEX
  5
C5
  8
TEAM-NET
 10
-10.656879
 20
-183.067276
 30
737.799918
 70
    32
  0
SEQEND
  5
C6
  8
TEAM-NET
  0
POLYLINE
  5
C7
  8
TEAM-NET
 66
     1
 10
0.0
 20
0.0
 30
0.0
 70
     8
  0
VERTEX
  5
C8
  8
TEAM-NET
 10
-10.507829
 20
-207.064206
 30
737.799918
 70
    32
  0
VERTEX
  5
C9
  8
TEAM-NET
 10
-11.854096
 20
-208.427301
 30
738.180047
 70
    32
  0
VERTEX
  5
CA
  8
TEAM-NET
 10
-12.995277
 20
-209.582747
 30
739.263019
 70
    32
  0
VERTEX
  5
CB
  8
TEAM-NET
 10
-13.758637
 20
-210.355649
 30
740.885806
 70
    32
  0
VERTEX
  5
CC
  8
TEAM-NET
 10
-14.026576
 20
-210.626937
 30
742.799918
 70
    32
  0
SEQEND
  5
CD
  8
TEAM-NET
  0
POLYLINE
  5
CE
  8
TEAM-NET
 66
     1
 10
0.0
 20
0.0
 30
0.0
 70
     8
  0
VERTEX
  5
CF
  8
TEAM-NET
 10
-15.449546
 20
-209.221535
 30
742.799918
 70
    32
  0
VERTEX
  5
D0
  8
TEAM-NET
 10
-15.181311
 20
-208.949947
 30
740.884784
 70
    32
  0
VERTEX
  5
D1
  8
TEAM-NET
 10
-14.418242
 20
-208.177339
 30
739.263012
 70
    32
  0
VERTEX
  5
D2
  8
TEAM-NET
 10
-13.276348
 20
-207.021172
 30
738.179695
 70
    32
  0
VERTEX
  5
D3
  8
TEAM-NET
 10
-11.930799
 20
-205.658804
 30
737.799918
 70
    32
  0
SEQEND
  5
D4
  8
TEAM-NET
  0
POLYLINE
  5
D5
  8
TEAM-NET
 66
     1
 10
0.0
 20
0.0
 30
0.0
 70
     8
  0
VERTEX
  5
D6
  8
TEAM-NET
 10
12.066131
 20
-205.509754
 30
737.799918
 70
    32
  0
VERTEX
  5
D7
  8
TEAM-NET
 10
13.429226
 20
-206.856021
 30
738.180047
 70
    32
  0
VERTEX
  5
D8
  8
TEAM-NET
 10
14.584671
 20
-207.997202
 30
739.263019
 70
    32
  0
VERTEX
  5
D9
  8
TEAM-NET
 10
15.357573
 20
-208.760562
 30
740.885806
 70
    32
  0
VERTEX
  5
DA
  8
TEAM-NET
 10
15.628862
 20
-209.028501
 30
742.799918
 70
    32
  0
SEQEND
  5
DB
  8
TEAM-NET
  0
POLYLINE
  5
DC
  8
TEAM-NET
 66
     1
 10
0.0
 20
0.0
 30
0.0
 70
     8
  0
VERTEX
  5
DD
  8
TEAM-NET
 10
14.223459
 20
-210.451471
 30
742.799918
 70
    32
  0
VERTEX
  5
DE
  8
TEAM-NET
 10
13.951871
 20
-210.183236
 30
740.884784
 70
    32
  0
VERTEX
  5
DF
  8
TEAM-NET
 10
13.179264
 20
-209.420167
 30
739.263012
 70
    32
  0
VERTEX
  5
E0
  8
TEAM-NET
 10
12.023096
 20
-208.278273
 30
738.179695
 70
    32
  0
VERTEX
  5
E1
  8
TEAM-NET
 10
10.660728
 20
-206.932724
 30
737.799918
 70
    32
  0
SEQEND
  5
E2
  8
TEAM-NET
  0
POLYLINE
  5
E3
  8
TEAM-NET
 66
     1
 10
0.0
 20
0.0
 30
0.0
 70
     8
  0
VERTEX
  5
E4
  8
TEAM-NET
 10
10.511679
 20
-182.935794
 30
737.799918
 70
    32
  0
VERTEX
  5
E5
  8
TEAM-NET
 10
11.857945
 20
-181.572699
 30
738.180047
 70
    32
  0
VERTEX
  5
E6
  8
TEAM-NET
 10
12.999126
 20
-180.417253
 30
739.263019
 70
    32
  0
VERTEX
  5
E7
  8
TEAM-NET
 10
13.762486
 20
-179.644351
 30
740.885806
 70
    32
  0
VERTEX
  5
E8
  8
TEAM-NET
 10
14.030426
 20
-179.373063
 30
742.799918
 70
    32
  0
SEQEND
  5
E9
  8
TEAM-NET
  0
POLYLINE
  5
EA
  8
TEAM-NET
 66
     1
 10
0.0
 20
0.0
 30
0.0
 70
     8
  0
VERTEX
  5
EB
  8
TEAM-NET
 10
15.453396
 20
-180.778465
 30
742.799918
 70
    32
  0
VERTEX
  5
EC
  8
TEAM-NET
 10
15.185161
 20
-181.050053
 30
740.884784
 70
    32
  0
VERTEX
  5
ED
  8
TEAM-NET
 10
14.422092
 20
-181.822661
 30
739.263012
 70
    32
  0
VERTEX
  5
EE
  8
TEAM-NET
 10
13.280198
 20
-182.978828
 30
738.179695
 70
    32
  0
VERTEX
  5
EF
  8
TEAM-NET
 10
11.934649
 20
-184.341196
 30
737.799918
 70
    32
  0
SEQEND
  5
F0
  8
TEAM-NET
  0
POLYLINE
  5
F1
  8
TEAM-NET
 66
     1
 10
0.0
 20
0.0
 30
0.0
 70
     8
  0
VERTEX
  5
F2
  8
TEAM-NET
 10
-12.062281
 20
-184.490246
 30
737.799918
 70
    32
  0
VERTEX
  5
F3
  8
TEAM-NET
 10
-13.425376
 20
-183.143979
 30
738.180047
 70
    32
  0
VERTEX
  5
F4
  8
TEAM-NET
 10
-14.580822
 20
-182.002798
 30
739.263019
 70
    32
  0
VERTEX
  5
F5
  8
TEAM-NET
 10
-15.353724
 20
-181.239438
 30
740.885806
 70
    32
  0
VERTEX
  5
F6
  8
TEAM-NET
 10
-15.625012
 20
-180.971499
 30
742.799918
 70
    32
  0
SEQEND
  5
F7
  8
TEAM-NET
  0
POLYLINE
  5
F8
  8
TEAM-NET
 66
     1
 10
0.0
 20
0.0
 30
0.0
 70
     8
  0
VERTEX
  5
F9
  8
TEAM-NET
 10
-14.21961
 20
-179.548529
 30
742.799918
 70
    32
  0
VERTEX
  5
FA
  8
TEAM-NET
 10
-13.948022
 20
-179.816764
 30
740.884784
 70
    32
  0
VERTEX
  5
FB
  8
TEAM-NET
 10
-13.175414
 20
-180.579833
 30
739.263012
 70
    32
  0
VERTEX
  5
FC
  8
TEAM-NET
 10
-12.019247
 20
-181.721727
 30
738.179695
 70
    32
  0
VERTEX
  5
FD
  8
TEAM-NET
 10
-10.656879
 20
-183.067276
 30
737.799918
 70
    32
  0
SEQEND
  5
FE
  8
TEAM-NET
  0
ARC
  5
FF
  8
TEAM-NET
 10
0.001925
 20
-195.0
 30
737.799918
 40
16.0
 50
131.772548
 51
138.939192
  0
ARC
  5
100
  8
TEAM-NET
 10
0.001925
 20
-195.0
 30
737.799918
 40
16.0
 50
41.772548
 51
48.939192
  0
ARC
  5
101
  8
TEAM-NET
 10
0.001925
 20
-195.0
 30
737.799918
 40
16.0
 50
311.772548
 51
318.939192
  0
ARC
  5
102
  8
TEAM-NET
 10
0.001925
 20
-195.0
 30
737.799918
 40
16.0
 50
221.772548
 51
228.939192
  0
ARC
  5
103
  8
TEAM-NET
 10
-0.001925
 20
-195.0
 30
-737.799918
 40
16.0
210
0.0
220
0.0
230
-1.0
 50
221.060808
 51
228.227452
  0
LINE
  5
104
  8
TEAM-NET
 10
3.508426
 20
-199.868722
 30
737.799918
 11
10.660728
 21
-206.932724
 31
737.799918
210
0.0
220
0.0
230
-1.0
  0
LINE
  5
105
  8
TEAM-NET
 10
12.066131
 20
-205.509754
 30
737.799918
 11
4.913828
 21
-198.445752
 31
737.799918
210
0.0
220
0.0
230
-1.0
  0
ARC
  5
106
  8
TEAM-NET
 10
-0.001925
 20
-195.0
 30
-737.799918
 40
6.0
210
0.0
220
0.0
230
-1.0
 50
234.238198
 51
305.050062
  0
ARC
  5
107
  8
TEAM-NET
 10
-0.001925
 20
-195.0
 30
-737.799918
 40
6.0
210
0.0
220
0.0
230
-1.0
 50
144.238198
 51
215.050062
  0
LINE
  5
108
  8
TEAM-NET
 10
-10.507829
 20
-207.064206
 30
737.799918
 11
-3.443827
 21
-199.911903
 31
737.799918
210
0.0
220
0.0
230
-1.0
  0
LINE
  5
109
  8
TEAM-NET
 10
4.870646
 20
-191.493499
 30
737.799918
 11
11.934649
 21
-184.341196
 31
737.799918
210
0.0
220
0.0
230
-1.0
  0
ARC
  5
10A
  8
TEAM-NET
 10
-0.001925
 20
-195.0
 30
-737.799918
 40
16.0
210
0.0
220
0.0
230
-1.0
 50
311.060808
 51
318.227452
  0
ARC
  5
10B
  8
TEAM-NET
 10
-0.001925
 20
-195.0
 30
-737.799918
 40
16.0
210
0.0
220
0.0
230
-1.0
 50
131.060808
 51
138.227452
  0
LINE
  5
10C
  8
TEAM-NET
 10
-4.866797
 20
-198.506501
 30
737.799918
 11
-11.930799
 21
-205.658804
 31
737.799918
210
0.0
220
0.0
230
-1.0
  0
LINE
  5
10D
  8
TEAM-NET
 10
10.511679
 20
-182.935794
 30
737.799918
 11
3.447676
 21
-190.088097
 31
737.799918
210
0.0
220
0.0
230
-1.0
  0
ARC
  5
10E
  8
TEAM-NET
 10
-0.001925
 20
-195.0
 30
-737.799918
 40
6.0
210
0.0
220
0.0
230
-1.0
 50
324.238198
 51
35.050062
  0
ARC
  5
10F
  8
TEAM-NET
 10
-0.001925
 20
-195.0
 30
-737.799918
 40
6.0
210
0.0
220
0.0
230
-1.0
 50
54.238198
 51
125.050062
  0
LINE
  5
110
  8
TEAM-NET
 10
-12.062281
 20
-184.490246
 30
737.799918
 11
-4.909979
 21
-191.554248
 31
737.799918
210
0.0
220
0.0
230
-1.0
  0
LINE
  5
111
  8
TEAM-NET
 10
-3.504576
 20
-190.131278
 30
737.799918
 11
-10.656879
 21
-183.067276
 31
737.799918
210
0.0
220
0.0
230
-1.0
  0
ARC
  5
112
  8
TEAM-NET
 10
-0.001925
 20
-195.0
 30
-737.799918
 40
16.0
210
0.0
220
0.0
230
-1.0
 50
41.060808
 51
48.227452
  0
LINE
  5
113
  8
TEAM-NET
 10
-3.504576
 20
-190.131278
 30
737.799918
 11
-10.656879
 21
-183.067276
 31
737.799918
210
0.702701
220
0.711485
230
0.0
  0
LINE
  5
114
  8
TEAM-NET
 10
4.870646
 20
-191.493499
 30
737.799918
 11
11.934649
 21
-184.341196
 31
737.799918
210
0.711485
220
-0.702701
230
-0.0
  0
LINE
  5
115
  8
TEAM-NET
 10
3.508426
 20
-199.868722
 30
737.799918
 11
10.660728
 21
-206.932724
 31
737.799918
210
-0.702701
220
-0.711485
230
-0.0
  0
LINE
  5
116
  8
TEAM-NET
 10
-4.866797
 20
-198.506501
 30
737.799918
 11
-11.930799
 21
-205.658804
 31
737.799918
210
-0.711485
220
0.702701
230
0.0
  0
LINE
  5
117
  8
TEAM-NET
 10
12.066131
 20
-205.509754
 30
737.799918
 11
4.913828
 21
-198.445752
 31
737.799918
210
0.702701
220
0.711485
230
0.0
  0
ARC
  5
118
  8
TEAM-NET
 10
0.001925
 20
-195.0
 30
737.799918
 40
6.0
 50
234.949938
 51
305.761802
  0
LINE
  5
119
  8
TEAM-NET
 10
10.511679
 20
-182.935794
 30
737.799918
 11
3.447676
 21
-190.088097
 31
737.799918
210
-0.711485
220
0.702701
230
0.0
  0
ARC
  5
11A
  8
TEAM-NET
 10
0.001925
 20
-195.0
 30
737.799918
 40
6.0
 50
324.949938
 51
35.761802
  0
LINE
  5
11B
  8
TEAM-NET
 10
-12.062281
 20
-184.490246
 30
737.799918
 11
-4.909979
 21
-191.554248
 31
737.799918
210
-0.702701
220
-0.711485
230
-0.0
  0
ARC
  5
11C
  8
TEAM-NET
 10
0.001925
 20
-195.0
 30
737.799918
 40
6.0
 50
144.949938
 51
215.761802
  0
ARC
  5
11D
  8
TEAM-NET
 10
0.001925
 20
-195.0
 30
737.799918
 40
6.0
 50
54.949938
 51
125.761802
  0
LINE
  5
11E
  8
TEAM-NET
 10
-10.507829
 20
-207.064206
 30
737.799918
 11
-3.443827
 21
-199.911903
 31
737.799918
210
0.711485
220
-0.702701
230
-0.0
  0
ARC
  5
11F
  8
TEAM-NET
 10
-0.001925
 20
-195.0
 30
-742.799918
 40
21.0
210
0.0
220
0.0
230
-1.0
 50
41.914727
 51
47.373533
  0
ARC
  5
120
  8
TEAM-NET
 10
-0.001925
 20
-195.0
 30
-742.799918
 40
21.0
210
0.0
220
0.0
230
-1.0
 50
131.914727
 51
137.373533
  0
ARC
  5
121
  8
TEAM-NET
 10
-0.001925
 20
-195.0
 30
-742.799918
 40
21.0
210
0.0
220
0.0
230
-1.0
 50
221.914727
 51
227.373533
  0
ARC
  5
122
  8
TEAM-NET
 10
-0.001925
 20
-195.0
 30
-742.799918
 40
21.0
210
0.0
220
0.0
230
-1.0
 50
311.914727
 51
317.373533
  0
ARC
  5
123
  8
TEAM-NET
 10
0.001925
 20
-195.0
 30
739.375663
 40
39.402276
 50
0.0
 51
180.0
  0
ARC
  5
124
  8
TEAM-NET
 10
0.001925
 20
-195.0
 30
739.375663
 40
39.402276
 50
180.0
 51
0.0
  0
ARC
  5
125
  8
TEAM-NET
 10
0.001925
 20
-195.0
 30
739.375663
 40
39.402276
 50
0.0
 51
180.0
  0
ARC
  5
126
  8
TEAM-NET
 10
0.001925
 20
-195.0
 30
739.375663
 40
39.402276
 50
180.0
 51
0.0
  0
ARC
  5
127
  8
TEAM-NET
 10
-0.001925
 20
-195.0
 30
-742.799918
 40
21.0
210
0.0
220
0.0
230
-1.0
 50
41.914727
 51
47.373533
  0
ARC
  5
128
  8
TEAM-NET
 10
-0.001925
 20
-195.0
 30
-742.799918
 40
21.0
210
0.0
220
0.0
230
-1.0
 50
131.914727
 51
137.373533
  0
ARC
  5
129
  8
TEAM-NET
 10
-0.001925
 20
-195.0
 30
-742.799918
 40
21.0
210
0.0
220
0.0
230
-1.0
 50
221.914727
 51
227.373533
  0
ARC
  5
12A
  8
TEAM-NET
 10
-0.001925
 20
-195.0
 30
-742.799918
 40
21.0
210
0.0
220
0.0
230
-1.0
 50
311.914727
 51
317.373533
  0
ARC
  5
12B
  8
TEAM-NET
 10
-0.001925
 20
-195.0
 30
-737.957536
 40
21.0
210
0.0
220
0.0
230
-1.0
 50
0.0
 51
180.0
  0
ARC
  5
12C
  8
TEAM-NET
 10
-0.001925
 20
-195.0
 30
-737.957536
 40
21.0
210
0.0
220
0.0
230
-1.0
 50
180.0
 51
0.0
  0
ARC
  5
12D
  8
TEAM-NET
 10
-0.001925
 20
-195.0
 30
-737.957536
 40
22.0
210
0.0
220
0.0
230
-1.0
 50
0.0
 51
180.0
  0
ARC
  5
12E
  8
TEAM-NET
 10
-0.001925
 20
-195.0
 30
-737.957536
 40
22.0
210
0.0
220
0.0
230
-1.0
 50
180.0
 51
0.0
  0
ARC
  5
12F
  8
TEAM-NET
 10
0.001925
 20
-195.0
 30
737.957536
 40
21.0
 50
180.0
 51
0.0
  0
ARC
  5
130
  8
TEAM-NET
 10
0.001925
 20
-195.0
 30
737.957536
 40
22.0
 50
360.0
 51
180.0
  0
ARC
  5
131
  8
TEAM-NET
 10
0.001925
 20
-195.0
 30
737.957536
 40
22.0
 50
180.0
 51
0.0
  0
ARC
  5
132
  8
TEAM-NET
 10
0.001925
 20
-195.0
 30
737.957536
 40
21.0
 50
360.0
 51
180.0
  0
LINE
  5
133
  8
TEAM-NET
 10
0.001925
 20
-120.0
 30
783.779471
 11
-174.998075
 21
-120.0
 31
802.122193
210
0.0
220
-1.0
230
0.0
  0
LINE
  5
134
  8
TEAM-NET
 10
-174.998075
 20
-310.0
 30
802.122193
 11
0.001925
 21
-310.0
 31
783.779471
210
0.0
220
1.0
230
0.0
  0
LINE
  5
135
  8
TEAM-NET
 10
0.001925
 20
-120.0
 30
783.779471
 11
-174.998075
 21
-120.0
 31
802.122193
  0
LINE
  5
136
  8
TEAM-NET
 10
-174.998075
 20
-310.0
 30
802.122193
 11
0.001925
 21
-310.0
 31
783.779471
  0
LINE
  5
137
  8
TEAM-NET
 10
175.001925
 20
-120.0
 30
802.122193
 11
0.001925
 21
-120.0
 31
783.779471
210
0.0
220
-1.0
230
0.0
  0
LINE
  5
138
  8
TEAM-NET
 10
0.001925
 20
-310.0
 30
783.779471
 11
175.001925
 21
-310.0
 31
802.122193
210
0.0
220
1.0
230
0.0
  0
LINE
  5
139
  8
TEAM-NET
 10
0.001925
 20
-310.0
 30
783.779471
 11
175.001925
 21
-310.0
 31
802.122193
  0
LINE
  5
13A
  8
TEAM-NET
 10
175.001925
 20
-120.0
 30
802.122193
 11
0.001925
 21
-120.0
 31
783.779471
  0
ARC
  5
13B
  8
TEAM-NET
 10
-169.001925
 20
780.0
 30
20.0
 40
20.0
210
0.0
220
-1.0
230
0.0
 50
90.0
 51
178.875836
  0
ARC
  5
13C
  8
TEAM-NET
 10
169.001925
 20
780.0
 30
0.0
 40
20.0
210
0.0
220
1.0
230
0.0
 50
0.0
 51
90.0
  0
ARC
  5
13D
  8
TEAM-NET
 10
169.001925
 20
780.0
 30
0.0
 40
20.0
210
0.0
220
1.0
230
0.0
 50
0.0
 51
90.0
  0
ARC
  5
13E
  8
TEAM-NET
 10
169.001925
 20
780.0
 30
-20.0
 40
20.0
210
0.0
220
1.0
230
0.0
 50
1.124164
 51
90.0
  0
ARC
  5
13F
  8
TEAM-NET
 10
169.001925
 20
780.0
 30
20.0
 40
20.0
210
0.0
220
-1.0
230
0.0
 50
0.0
 51
90.0
  0
ARC
  5
140
  8
TEAM-NET
 10
-169.001925
 20
780.0
 30
0.0
 40
20.0
210
0.0
220
1.0
230
0.0
 50
90.0
 51
180.0
  0
ARC
  5
141
  8
TEAM-NET
 10
169.001925
 20
780.0
 30
20.0
 40
20.0
210
0.0
220
-1.0
230
0.0
 50
0.0
 51
90.0
  0
ARC
  5
142
  8
TEAM-NET
 10
-169.001925
 20
780.0
 30
0.0
 40
20.0
210
0.0
220
1.0
230
0.0
 50
90.0
 51
180.0
  0
LINE
  5
143
  8
TEAM-NET
 10
-175.521435
 20
-130.0
 30
792.135898
 11
0.001925
 21
-130.0
 31
773.765747
  0
LINE
  5
144
  8
TEAM-NET
 10
0.001925
 20
-300.0
 30
773.765747
 11
-175.521435
 21
-300.0
 31
792.135898
  0
LINE
  5
145
  8
TEAM-NET
 10
0.001925
 20
-300.0
 30
773.765747
 11
-175.521435
 21
-300.0
 31
792.135898
210
0.052336
220
0.0
230
0.99863
  0
LINE
  5
146
  8
TEAM-NET
 10
-175.521435
 20
-130.0
 30
792.135898
 11
0.001925
 21
-130.0
 31
773.765747
210
0.052336
220
0.0
230
0.99863
  0
LINE
  5
147
  8
TEAM-NET
 10
0.001925
 20
-130.0
 30
773.765747
 11
175.525284
 21
-130.0
 31
792.135898
210
-0.052336
220
0.0
230
0.99863
  0
LINE
  5
148
  8
TEAM-NET
 10
175.525284
 20
-300.0
 30
792.135898
 11
0.001925
 21
-300.0
 31
773.765747
210
-0.052336
220
0.0
230
0.99863
  0
LINE
  5
149
  8
TEAM-NET
 10
175.525284
 20
-300.0
 30
792.135898
 11
0.001925
 21
-300.0
 31
773.765747
  0
LINE
  5
14A
  8
TEAM-NET
 10
0.001925
 20
-130.0
 30
773.765747
 11
175.525284
 21
-130.0
 31
792.135898
  0
LINE
  5
14B
  8
TEAM-NET
 10
215.001925
 20
-350.0
 30
767.632548
 11
-214.998075
 21
-350.0
 31
767.632548
  0
LINE
  5
14C
  8
TEAM-NET
 10
215.001925
 20
-350.0
 30
767.632548
 11
-214.998075
 21
-350.0
 31
767.632548
210
0.0
220
-1.0
230
0.0
  0
LINE
  5
14D
  8
TEAM-NET
 10
-224.998075
 20
-340.0
 30
757.632548
 11
215.001925
 21
-340.0
 31
757.632548
  0
LINE
  5
14E
  8
TEAM-NET
 10
-224.998075
 20
-340.0
 30
757.632548
 11
215.001925
 21
-340.0
 31
757.632548
210
0.0
220
0.0
230
-1.0
  0
LINE
  5
14F
  8
TEAM-NET
 10
189.001925
 20
0.0
 30
757.632548
 11
215.001925
 21
0.0
 31
757.632548
210
0.0
220
1.0
230
0.0
  0
LINE
  5
150
  8
TEAM-NET
 10
189.001925
 20
0.0
 30
757.632548
 11
215.001925
 21
0.0
 31
757.632548
210
0.0
220
0.0
230
-1.0
  0
LINE
  5
151
  8
TEAM-NET
 10
27.501925
 20
-195.0
 30
769.957536
 11
36.878182
 21
-195.0
 31
775.370921
  0
LINE
  5
152
  8
TEAM-NET
 10
-27.498075
 20
-195.0
 30
769.957536
 11
-36.874332
 21
-195.0
 31
775.370921
  0
LINE
  5
153
  8
TEAM-NET
 10
27.501925
 20
-195.0
 30
769.957536
 11
36.878182
 21
-195.0
 31
775.370921
  0
LINE
  5
154
  8
TEAM-NET
 10
-27.498075
 20
-195.0
 30
769.957536
 11
-36.874332
 21
-195.0
 31
775.370921
  0
LINE
  5
155
  8
TEAM-NET
 10
31.897458
 20
-195.0
 30
776.483576
 11
21.001925
 21
-195.0
 31
767.799918
  0
LINE
  5
156
  8
TEAM-NET
 10
-31.893608
 20
-195.0
 30
776.483576
 11
-20.998075
 21
-195.0
 31
767.799918
  0
LINE
  5
157
  8
TEAM-NET
 10
32.699691
 20
-195.0
 30
776.483576
 11
22.001925
 21
-195.0
 31
767.957536
  0
LINE
  5
158
  8
TEAM-NET
 10
-32.695842
 20
-195.0
 30
776.483576
 11
-21.998075
 21
-195.0
 31
767.957536
  0
LINE
  5
159
  8
TEAM-NET
 10
32.699691
 20
-195.0
 30
776.483576
 11
22.001925
 21
-195.0
 31
767.957536
  0
LINE
  5
15A
  8
TEAM-NET
 10
-32.695842
 20
-195.0
 30
776.483576
 11
-21.998075
 21
-195.0
 31
767.957536
  0
LINE
  5
15B
  8
TEAM-NET
 10
31.897458
 20
-195.0
 30
776.483576
 11
21.001925
 21
-195.0
 31
767.799918
  0
LINE
  5
15C
  8
TEAM-NET
 10
-31.893608
 20
-195.0
 30
776.483576
 11
-20.998075
 21
-195.0
 31
767.799918
  0
LINE
  5
15D
  8
TEAM-NET
 10
-188.998075
 20
-30.0
 30
757.632548
 11
-188.998075
 21
-30.0
 31
780.392382
210
1.0
220
0.0
230
0.0
  0
LINE
  5
15E
  8
TEAM-NET
 10
-189.001925
 20
0.0
 30
780.0
 11
-189.001925
 21
0.0
 31
757.632548
210
0.0
220
1.0
230
0.0
  0
LINE
  5
15F
  8
TEAM-NET
 10
-188.998075
 20
-30.0
 30
757.632548
 11
-188.998075
 21
-30.0
 31
780.392382
210
0.0
220
1.0
230
0.0
  0
LINE
  5
160
  8
TEAM-NET
 10
-189.001925
 20
-30.0
 30
757.632548
 11
-189.001925
 21
-30.0
 31
780.0
210
0.0
220
1.0
230
0.0
  0
LINE
  5
161
  8
TEAM-NET
 10
-189.001925
 20
-30.0
 30
757.632548
 11
-189.001925
 21
-30.0
 31
780.0
210
1.0
220
0.0
230
0.0
  0
LINE
  5
162
  8
TEAM-NET
 10
-189.001925
 20
0.0
 30
780.0
 11
-189.001925
 21
0.0
 31
757.632548
210
1.0
220
0.0
230
0.0
  0
LINE
  5
163
  8
TEAM-NET
 10
189.001925
 20
0.0
 30
757.632548
 11
189.001925
 21
0.0
 31
780.0
210
-1.0
220
0.0
230
0.0
  0
LINE
  5
164
  8
TEAM-NET
 10
189.001925
 20
0.0
 30
757.632548
 11
189.001925
 21
0.0
 31
780.0
210
0.0
220
1.0
230
0.0
  0
ARC
  5
165
  8
TEAM-NET
 10
-28.998075
 20
767.35946
 30
195.0
 40
3.0
210
0.0
220
-1.0
230
0.0
 50
360.0
 51
60.0
  0
ARC
  5
166
  8
TEAM-NET
 10
-29.001925
 20
767.35946
 30
-195.0
 40
3.0
210
0.0
220
1.0
230
0.0
 50
360.0
 51
60.0
  0
ARC
  5
167
  8
TEAM-NET
 10
-28.998075
 20
767.35946
 30
195.0
 40
3.0
210
0.0
220
-1.0
230
0.0
 50
360.0
 51
60.0
  0
ARC
  5
168
  8
TEAM-NET
 10
-29.001925
 20
767.35946
 30
-195.0
 40
3.0
210
0.0
220
1.0
230
0.0
 50
360.0
 51
60.0
  0
ARC
  5
169
  8
TEAM-NET
 10
-0.001925
 20
-195.0
 30
-767.35946
 40
26.0
210
0.0
220
0.0
230
-1.0
 50
180.0
 51
0.0
  0
ARC
  5
16A
  8
TEAM-NET
 10
-0.001925
 20
-195.0
 30
-767.35946
 40
26.0
210
0.0
220
0.0
230
-1.0
 50
360.0
 51
180.0
  0
ARC
  5
16B
  8
TEAM-NET
 10
-0.001925
 20
-195.0
 30
-767.35946
 40
26.0
210
0.0
220
0.0
230
-1.0
 50
180.0
 51
0.0
  0
ARC
  5
16C
  8
TEAM-NET
 10
-0.001925
 20
-195.0
 30
-767.35946
 40
26.0
210
0.0
220
0.0
230
-1.0
 50
360.0
 51
180.0
  0
ARC
  5
16D
  8
TEAM-NET
 10
0.001925
 20
-195.0
 30
769.957536
 40
27.5
 50
0.0
 51
180.0
  0
ARC
  5
16E
  8
TEAM-NET
 10
0.001925
 20
-195.0
 30
769.957536
 40
27.5
 50
180.0
 51
0.0
  0
ARC
  5
16F
  8
TEAM-NET
 10
0.001925
 20
-195.0
 30
767.799918
 40
21.0
 50
180.0
 51
0.0
  0
ARC
  5
170
  8
TEAM-NET
 10
0.001925
 20
-195.0
 30
767.957536
 40
22.0
 50
360.0
 51
180.0
  0
ARC
  5
171
  8
TEAM-NET
 10
0.001925
 20
-195.0
 30
767.957536
 40
22.0
 50
180.0
 51
0.0
  0
ARC
  5
172
  8
TEAM-NET
 10
0.001925
 20
-195.0
 30
767.799918
 40
21.0
 50
360.0
 51
180.0
  0
ARC
  5
173
  8
TEAM-NET
 10
0.001925
 20
-195.0
 30
769.957536
 40
27.5
 50
180.0
 51
0.0
  0
ARC
  5
174
  8
TEAM-NET
 10
0.001925
 20
-195.0
 30
769.957536
 40
27.5
 50
0.0
 51
180.0
  0
ARC
  5
175
  8
TEAM-NET
 10
0.001925
 20
-195.0
 30
767.799918
 40
21.0
 50
180.0
 51
0.0
  0
ARC
  5
176
  8
TEAM-NET
 10
0.001925
 20
-195.0
 30
767.957536
 40
22.0
 50
360.0
 51
180.0
  0
ARC
  5
177
  8
TEAM-NET
 10
0.001925
 20
-195.0
 30
767.957536
 40
22.0
 50
180.0
 51
0.0
  0
ARC
  5
178
  8
TEAM-NET
 10
0.001925
 20
-195.0
 30
767.799918
 40
21.0
 50
360.0
 51
180.0
  0
LINE
  5
179
  8
TEAM-NET
 10
-224.998075
 20
-340.0
 30
757.632548
 11
-224.998075
 21
0.0
 31
757.632548
210
-1.0
220
0.0
230
0.0
  0
LINE
  5
17A
  8
TEAM-NET
 10
-224.998075
 20
-340.0
 30
757.632548
 11
-224.998075
 21
0.0
 31
757.632548
210
0.0
220
0.0
230
-1.0
  0
LINE
  5
17B
  8
TEAM-NET
 10
-188.998075
 20
-30.0
 30
757.632548
 11
-188.998075
 21
-95.0
 31
757.632548
210
1.0
220
0.0
230
0.0
  0
LINE
  5
17C
  8
TEAM-NET
 10
-224.998075
 20
0.0
 30
757.632548
 11
-189.001925
 21
0.0
 31
757.632548
210
0.0
220
1.0
230
0.0
  0
LINE
  5
17D
  8
TEAM-NET
 10
-224.998075
 20
0.0
 30
757.632548
 11
-189.001925
 21
0.0
 31
757.632548
210
0.0
220
0.0
230
-1.0
  0
LINE
  5
17E
  8
TEAM-NET
 10
-189.001925
 20
0.0
 30
757.632548
 11
-189.001925
 21
-30.0
 31
757.632548
210
0.0
220
0.0
230
-1.0
  0
LINE
  5
17F
  8
TEAM-NET
 10
-189.001925
 20
-30.0
 30
757.632548
 11
-188.998075
 21
-30.0
 31
757.632548
210
0.0
220
0.0
230
-1.0
  0
LINE
  5
180
  8
TEAM-NET
 10
-188.998075
 20
-30.0
 30
757.632548
 11
-188.998075
 21
-95.0
 31
757.632548
210
0.0
220
0.0
230
-1.0
  0
LINE
  5
181
  8
TEAM-NET
 10
-189.001925
 20
-30.0
 30
757.632548
 11
-188.998075
 21
-30.0
 31
757.632548
210
0.0
220
1.0
230
0.0
  0
LINE
  5
182
  8
TEAM-NET
 10
-189.001925
 20
0.0
 30
757.632548
 11
-189.001925
 21
-30.0
 31
757.632548
210
1.0
220
0.0
230
0.0
  0
LINE
  5
183
  8
TEAM-NET
 10
-188.998075
 20
-95.0
 30
757.632548
 11
189.001925
 21
-95.0
 31
757.632548
210
0.0
220
0.0
230
-1.0
  0
LINE
  5
184
  8
TEAM-NET
 10
-188.998075
 20
-95.0
 30
757.632548
 11
189.001925
 21
-95.0
 31
757.632548
210
0.0
220
1.0
230
0.0
  0
LINE
  5
185
  8
TEAM-NET
 10
189.001925
 20
-95.0
 30
757.632548
 11
189.001925
 21
0.0
 31
757.632548
210
-1.0
220
0.0
230
0.0
  0
LINE
  5
186
  8
TEAM-NET
 10
189.001925
 20
-95.0
 30
757.632548
 11
189.001925
 21
0.0
 31
757.632548
210
0.0
220
0.0
230
-1.0
  0
ARC
  5
187
  8
TEAM-NET
 10
-0.001925
 20
-195.0
 30
-757.632548
 40
59.32617
210
0.0
220
0.0
230
-1.0
 50
180.0
 51
0.0
  0
ARC
  5
188
  8
TEAM-NET
 10
-0.001925
 20
-195.0
 30
-757.632548
 40
59.32617
210
0.0
220
0.0
230
-1.0
 50
360.0
 51
180.0
  0
ARC
  5
189
  8
TEAM-NET
 10
-0.001925
 20
-195.0
 30
-757.632548
 40
59.32617
210
0.0
220
0.0
230
-1.0
 50
360.0
 51
180.0
  0
ARC
  5
18A
  8
TEAM-NET
 10
-0.001925
 20
-195.0
 30
-757.632548
 40
59.32617
210
0.0
220
0.0
230
-1.0
 50
180.0
 51
0.0
  0
POLYLINE
  5
18B
  8
TEAM-NET
 66
     1
 10
0.0
 20
0.0
 30
-694.824777
 70
   128
210
0.707107
220
-0.0
230
-0.707107
  0
VERTEX
  5
7CB
  8
TEAM-NET
 10
-350.0
 20
390.771583
 30
-694.824777
  0
VERTEX
  5
7CC
  8
TEAM-NET
 10
-349.848078
 20
388.315827
 30
-694.824777
  0
VERTEX
  5
7CD
  8
TEAM-NET
 10
-349.396926
 20
385.934688
 30
-694.824777
  0
VERTEX
  5
7CE
  8
TEAM-NET
 10
-348.660254
 20
383.700515
 30
-694.824777
  0
VERTEX
  5
7CF
  8
TEAM-NET
 10
-347.660444
 20
381.681193
 30
-694.824777
  0
VERTEX
  5
7D0
  8
TEAM-NET
 10
-346.427876
 20
379.938079
 30
-694.824777
  0
VERTEX
  5
7D1
  8
TEAM-NET
 10
-345.0
 20
378.524134
 30
-694.824777
  0
VERTEX
  5
7D2
  8
TEAM-NET
 10
-343.420201
 20
377.482323
 30
-694.824777
  0
VERTEX
  5
7D3
  8
TEAM-NET
 10
-341.736482
 20
376.844298
 30
-694.824777
  0
VERTEX
  5
7D4
  8
TEAM-NET
 10
-340.0
 20
376.629447
 30
-694.824777
  0
SEQEND
  5
7D5
  8
TEAM-NET
  0
POLYLINE
  5
18C
  8
TEAM-NET
 66
     1
 10
0.0
 20
0.0
 30
-694.824777
 70
   128
210
0.707107
220
-0.0
230
-0.707107
  0
VERTEX
  5
7D6
  8
TEAM-NET
 10
-350.0
 20
390.771583
 30
-694.824777
  0
VERTEX
  5
7D7
  8
TEAM-NET
 10
-349.848078
 20
388.315827
 30
-694.824777
  0
VERTEX
  5
7D8
  8
TEAM-NET
 10
-349.396926
 20
385.934688
 30
-694.824777
  0
VERTEX
  5
7D9
  8
TEAM-NET
 10
-348.660254
 20
383.700515
 30
-694.824777
  0
VERTEX
  5
7DA
  8
TEAM-NET
 10
-347.660444
 20
381.681193
 30
-694.824777
  0
VERTEX
  5
7DB
  8
TEAM-NET
 10
-346.427876
 20
379.938079
 30
-694.824777
  0
VERTEX
  5
7DC
  8
TEAM-NET
 10
-345.0
 20
378.524134
 30
-694.824777
  0
VERTEX
  5
7DD
  8
TEAM-NET
 10
-343.420201
 20
377.482323
 30
-694.824777
  0
VERTEX
  5
7DE
  8
TEAM-NET
 10
-341.736482
 20
376.844298
 30
-694.824777
  0
VERTEX
  5
7DF
  8
TEAM-NET
 10
-340.0
 20
376.629447
 30
-694.824777
  0
SEQEND
  5
7E0
  8
TEAM-NET
  0
LINE
  5
18D
  8
TEAM-NET
 10
-188.998075
 20
-20.0
 30
780.392382
 11
-188.998075
 21
-30.0
 31
780.392382
210
1.0
220
0.0
230
0.0
  0
ARC
  5
18E
  8
TEAM-NET
 10
169.001925
 20
780.0
 30
-30.0
 40
20.0
210
0.0
220
1.0
230
0.0
 50
0.0
 51
1.124164
  0
LINE
  5
18F
  8
TEAM-NET
 10
-189.001925
 20
-30.0
 30
780.0
 11
-189.001925
 21
0.0
 31
780.0
  0
LINE
  5
190
  8
TEAM-NET
 10
-188.998075
 20
-20.0
 30
780.392382
 11
-188.998075
 21
-30.0
 31
780.392382
  0
ARC
  5
191
  8
TEAM-NET
 10
169.001925
 20
780.0
 30
-30.0
 40
20.0
210
0.0
220
1.0
230
0.0
 50
0.0
 51
1.124164
  0
LINE
  5
192
  8
TEAM-NET
 10
-189.001925
 20
-30.0
 30
780.0
 11
-189.001925
 21
0.0
 31
780.0
210
1.0
220
0.0
230
0.0
  0
LINE
  5
193
  8
TEAM-NET
 10
189.001925
 20
0.0
 30
780.0
 11
189.001925
 21
-20.0
 31
780.0
210
-1.0
220
0.0
230
0.0
  0
LINE
  5
194
  8
TEAM-NET
 10
189.001925
 20
0.0
 30
780.0
 11
189.001925
 21
-20.0
 31
780.0
  0
ARC
  5
195
  8
TEAM-NET
 10
0.001925
 20
-195.0
 30
778.621838
 40
30.0
 50
90.0
 51
180.0
  0
ARC
  5
196
  8
TEAM-NET
 10
0.001925
 20
-195.0
 30
778.621838
 40
30.0
 50
180.0
 51
270.0
  0
LINE
  5
197
  8
TEAM-NET
 10
30.001925
 20
-195.0
 30
778.621838
 11
30.001925
 21
-195.0
 31
777.799918
  0
ARC
  5
198
  8
TEAM-NET
 10
0.001925
 20
-195.0
 30
778.621838
 40
30.0
 50
360.0
 51
90.0
  0
ARC
  5
199
  8
TEAM-NET
 10
0.001925
 20
-195.0
 30
777.799918
 40
30.0
 50
360.0
 51
180.0
  0
ARC
  5
19A
  8
TEAM-NET
 10
0.001925
 20
-195.0
 30
778.621838
 40
30.0
 50
90.0
 51
180.0
  0
LINE
  5
19B
  8
TEAM-NET
 10
-29.998075
 20
-195.0
 30
778.621838
 11
-29.998075
 21
-195.0
 31
777.799918
  0
LINE
  5
19C
  8
TEAM-NET
 10
-15.625012
 20
-180.971499
 30
777.799918
 11
-4.909979
 21
-191.554248
 31
777.799918
210
0.0
220
0.0
230
-1.0
  0
ARC
  5
19D
  8
TEAM-NET
 10
-0.001925
 20
-195.0
 30
-777.799918
 40
6.0
210
0.0
220
0.0
230
-1.0
 50
324.238198
 51
35.050062
  0
ARC
  5
19E
  8
TEAM-NET
 10
-0.001925
 20
-195.0
 30
-777.799918
 40
21.0
210
0.0
220
0.0
230
-1.0
 50
41.914727
 51
47.373533
  0
LINE
  5
19F
  8
TEAM-NET
 10
-4.866797
 20
-198.506501
 30
777.799918
 11
-15.449546
 21
-209.221535
 31
777.799918
210
0.0
220
0.0
230
-1.0
  0
LINE
  5
1A0
  8
TEAM-NET
 10
-3.504576
 20
-190.131278
 30
777.799918
 11
-14.21961
 21
-179.548529
 31
777.799918
210
0.0
220
0.0
230
-1.0
  0
ARC
  5
1A1
  8
TEAM-NET
 10
-0.001925
 20
-195.0
 30
-777.799918
 40
21.0
210
0.0
220
0.0
230
-1.0
 50
311.914727
 51
317.373533
  0
ARC
  5
1A2
  8
TEAM-NET
 10
-0.001925
 20
-195.0
 30
-777.799918
 40
6.0
210
0.0
220
0.0
230
-1.0
 50
54.238198
 51
125.050062
  0
LINE
  5
1A3
  8
TEAM-NET
 10
-14.026576
 20
-210.626937
 30
777.799918
 11
-3.443827
 21
-199.911903
 31
777.799918
210
0.0
220
0.0
230
-1.0
  0
LINE
  5
1A4
  8
TEAM-NET
 10
14.030426
 20
-179.373063
 30
777.799918
 11
3.447676
 21
-190.088097
 31
777.799918
210
0.0
220
0.0
230
-1.0
  0
ARC
  5
1A5
  8
TEAM-NET
 10
-0.001925
 20
-195.0
 30
-777.799918
 40
6.0
210
0.0
220
0.0
230
-1.0
 50
234.238198
 51
305.050062
  0
ARC
  5
1A6
  8
TEAM-NET
 10
-0.001925
 20
-195.0
 30
-777.799918
 40
21.0
210
0.0
220
0.0
230
-1.0
 50
131.914727
 51
137.373533
  0
LINE
  5
1A7
  8
TEAM-NET
 10
3.508426
 20
-199.868722
 30
777.799918
 11
14.223459
 21
-210.451471
 31
777.799918
210
0.0
220
0.0
230
-1.0
  0
LINE
  5
1A8
  8
TEAM-NET
 10
4.870646
 20
-191.493499
 30
777.799918
 11
15.453396
 21
-180.778465
 31
777.799918
210
0.0
220
0.0
230
-1.0
  0
ARC
  5
1A9
  8
TEAM-NET
 10
-0.001925
 20
-195.0
 30
-777.799918
 40
21.0
210
0.0
220
0.0
230
-1.0
 50
221.914727
 51
227.373533
  0
ARC
  5
1AA
  8
TEAM-NET
 10
-0.001925
 20
-195.0
 30
-777.799918
 40
6.0
210
0.0
220
0.0
230
-1.0
 50
144.238198
 51
215.050062
  0
LINE
  5
1AB
  8
TEAM-NET
 10
15.628862
 20
-209.028501
 30
777.799918
 11
4.913828
 21
-198.445752
 31
777.799918
210
0.0
220
0.0
230
-1.0
  0
ARC
  5
1AC
  8
TEAM-NET
 10
-0.001925
 20
-195.0
 30
-777.799918
 40
30.0
210
0.0
220
0.0
230
-1.0
 50
0.0
 51
180.0
  0
ARC
  5
1AD
  8
TEAM-NET
 10
-0.001925
 20
-195.0
 30
-777.799918
 40
30.0
210
0.0
220
0.0
230
-1.0
 50
180.0
 51
0.0
  0
ARC
  5
1AE
  8
TEAM-NET
 10
0.001925
 20
-195.0
 30
778.621838
 40
30.0
 50
270.0
 51
0.0
  0
LINE
  5
1AF
  8
TEAM-NET
 10
30.001925
 20
-195.0
 30
778.621838
 11
30.001925
 21
-195.0
 31
777.799918
  0
ARC
  5
1B0
  8
TEAM-NET
 10
0.001925
 20
-195.0
 30
778.621838
 40
30.0
 50
180.0
 51
270.0
  0
ARC
  5
1B1
  8
TEAM-NET
 10
0.001925
 20
-195.0
 30
777.799918
 40
30.0
 50
180.0
 51
0.0
  0
LINE
  5
1B2
  8
TEAM-NET
 10
-29.998075
 20
-195.0
 30
778.621838
 11
-29.998075
 21
-195.0
 31
777.799918
  0
ARC
  5
1B3
  8
TEAM-NET
 10
0.001925
 20
-195.0
 30
778.621838
 40
30.0
 50
360.0
 51
90.0
  0
ARC
  5
1B4
  8
TEAM-NET
 10
0.001925
 20
-195.0
 30
778.621838
 40
30.0
 50
270.0
 51
0.0
  0
ARC
  5
1B5
  8
TEAM-NET
 10
0.001925
 20
-195.0
 30
776.483576
 40
31.895533
 50
180.0
 51
0.0
  0
ARC
  5
1B6
  8
TEAM-NET
 10
0.001925
 20
-195.0
 30
776.483576
 40
32.697766
 50
360.0
 51
180.0
  0
ARC
  5
1B7
  8
TEAM-NET
 10
0.001925
 20
-195.0
 30
776.483576
 40
32.697766
 50
180.0
 51
0.0
  0
ARC
  5
1B8
  8
TEAM-NET
 10
0.001925
 20
-195.0
 30
776.483576
 40
31.895533
 50
360.0
 51
180.0
  0
ARC
  5
1B9
  8
TEAM-NET
 10
0.001925
 20
-195.0
 30
776.483576
 40
31.895533
 50
180.0
 51
0.0
  0
ARC
  5
1BA
  8
TEAM-NET
 10
0.001925
 20
-195.0
 30
776.483576
 40
32.697766
 50
360.0
 51
180.0
  0
ARC
  5
1BB
  8
TEAM-NET
 10
0.001925
 20
-195.0
 30
776.483576
 40
32.697766
 50
180.0
 51
0.0
  0
ARC
  5
1BC
  8
TEAM-NET
 10
0.001925
 20
-195.0
 30
776.483576
 40
31.895533
 50
360.0
 51
180.0
  0
LINE
  5
1BD
  8
TEAM-NET
 10
-3.504576
 20
-190.131278
 30
777.799918
 11
-14.21961
 21
-179.548529
 31
777.799918
210
0.702701
220
0.711485
230
0.0
  0
ARC
  5
1BE
  8
TEAM-NET
 10
0.001925
 20
-195.0
 30
777.799918
 40
21.0
 50
132.626467
 51
138.085273
  0
LINE
  5
1BF
  8
TEAM-NET
 10
4.870646
 20
-191.493499
 30
777.799918
 11
15.453396
 21
-180.778465
 31
777.799918
210
0.711485
220
-0.702701
230
-0.0
  0
ARC
  5
1C0
  8
TEAM-NET
 10
0.001925
 20
-195.0
 30
777.799918
 40
21.0
 50
42.626467
 51
48.085273
  0
LINE
  5
1C1
  8
TEAM-NET
 10
3.508426
 20
-199.868722
 30
777.799918
 11
14.223459
 21
-210.451471
 31
777.799918
210
-0.702701
220
-0.711485
230
-0.0
  0
ARC
  5
1C2
  8
TEAM-NET
 10
0.001925
 20
-195.0
 30
777.799918
 40
21.0
 50
312.626467
 51
318.085273
  0
LINE
  5
1C3
  8
TEAM-NET
 10
-4.866797
 20
-198.506501
 30
777.799918
 11
-15.449546
 21
-209.221535
 31
777.799918
210
-0.711485
220
0.702701
230
0.0
  0
ARC
  5
1C4
  8
TEAM-NET
 10
0.001925
 20
-195.0
 30
777.799918
 40
21.0
 50
222.626467
 51
228.085273
  0
LINE
  5
1C5
  8
TEAM-NET
 10
15.628862
 20
-209.028501
 30
777.799918
 11
4.913828
 21
-198.445752
 31
777.799918
210
0.702701
220
0.711485
230
0.0
  0
ARC
  5
1C6
  8
TEAM-NET
 10
0.001925
 20
-195.0
 30
777.799918
 40
6.0
 50
234.949938
 51
305.761802
  0
LINE
  5
1C7
  8
TEAM-NET
 10
14.030426
 20
-179.373063
 30
777.799918
 11
3.447676
 21
-190.088097
 31
777.799918
210
-0.711485
220
0.702701
230
0.0
  0
ARC
  5
1C8
  8
TEAM-NET
 10
0.001925
 20
-195.0
 30
777.799918
 40
6.0
 50
324.949938
 51
35.761802
  0
LINE
  5
1C9
  8
TEAM-NET
 10
-15.625012
 20
-180.971499
 30
777.799918
 11
-4.909979
 21
-191.554248
 31
777.799918
210
-0.702701
220
-0.711485
230
-0.0
  0
ARC
  5
1CA
  8
TEAM-NET
 10
0.001925
 20
-195.0
 30
777.799918
 40
6.0
 50
144.949938
 51
215.761802
  0
ARC
  5
1CB
  8
TEAM-NET
 10
0.001925
 20
-195.0
 30
777.799918
 40
6.0
 50
54.949938
 51
125.761802
  0
LINE
  5
1CC
  8
TEAM-NET
 10
-14.026576
 20
-210.626937
 30
777.799918
 11
-3.443827
 21
-199.911903
 31
777.799918
210
0.711485
220
-0.702701
230
-0.0
  0
LINE
  5
1CD
  8
TEAM-NET
 10
0.001925
 20
-130.0
 30
773.765747
 11
0.001925
 21
-160.093369
 31
773.765747
210
0.052336
220
0.0
230
0.99863
  0
LINE
  5
1CE
  8
TEAM-NET
 10
0.001925
 20
-130.0
 30
773.765747
 11
0.001925
 21
-160.093369
 31
773.765747
210
-0.052336
220
0.0
230
0.99863
  0
LINE
  5
1CF
  8
TEAM-NET
 10
0.001925
 20
-161.607268
 30
773.359706
 11
0.001925
 21
-160.093369
 31
773.765747
  0
LINE
  5
1D0
  8
TEAM-NET
 10
0.001925
 20
-228.392732
 30
773.359706
 11
0.001925
 21
-229.906631
 31
773.765747
  0
LINE
  5
1D1
  8
TEAM-NET
 10
0.001925
 20
-228.392732
 30
773.359706
 11
0.001925
 21
-229.906631
 31
773.765747
  0
LINE
  5
1D2
  8
TEAM-NET
 10
0.001925
 20
-161.607268
 30
773.359706
 11
0.001925
 21
-160.093369
 31
773.765747
  0
LINE
  5
1D3
  8
TEAM-NET
 10
0.001925
 20
-229.906631
 30
773.765747
 11
0.001925
 21
-300.0
 31
773.765747
210
0.052336
220
0.0
230
0.99863
  0
LINE
  5
1D4
  8
TEAM-NET
 10
0.001925
 20
-229.906631
 30
773.765747
 11
0.001925
 21
-300.0
 31
773.765747
210
-0.052336
220
0.0
230
0.99863
  0
POLYLINE
  5
1D5
  8
TEAM-NET
 66
     1
 10
0.0
 20
0.0
 30
772.705227
 70
   128
210
-0.052336
220
-0.0
230
0.99863
  0
VERTEX
  5
7E1
  8
TEAM-NET
 10
229.906631
 20
40.497692
 30
772.705227
  0
VERTEX
  5
7E2
  8
TEAM-NET
 10
229.831163
 20
47.355241
 30
772.705227
  0
VERTEX
  5
7E3
  8
TEAM-NET
 10
228.435886
 20
54.068167
 30
772.705227
  0
VERTEX
  5
7E4
  8
TEAM-NET
 10
225.773668
 20
60.382105
 30
772.705227
  0
VERTEX
  5
7E5
  8
TEAM-NET
 10
221.945387
 20
66.057812
 30
772.705227
  0
VERTEX
  5
7E6
  8
TEAM-NET
 10
217.0961
 20
70.880224
 30
772.705227
  0
VERTEX
  5
7E7
  8
TEAM-NET
 10
211.409557
 20
74.666613
 30
772.705227
  0
VERTEX
  5
7E8
  8
TEAM-NET
 10
205.101229
 20
77.273506
 30
772.705227
  0
VERTEX
  5
7E9
  8
TEAM-NET
 10
198.410148
 20
78.602125
 30
772.705227
  0
VERTEX
  5
7EA
  8
TEAM-NET
 10
191.589852
 20
78.602125
 30
772.705227
  0
VERTEX
  5
7EB
  8
TEAM-NET
 10
184.898771
 20
77.273506
 30
772.705227
  0
VERTEX
  5
7EC
  8
TEAM-NET
 10
178.590443
 20
74.666613
 30
772.705227
  0
VERTEX
  5
7ED
  8
TEAM-NET
 10
172.9039
 20
70.880224
 30
772.705227
  0
VERTEX
  5
7EE
  8
TEAM-NET
 10
168.054613
 20
66.057812
 30
772.705227
  0
VERTEX
  5
7EF
  8
TEAM-NET
 10
164.226332
 20
60.382105
 30
772.705227
  0
VERTEX
  5
7F0
  8
TEAM-NET
 10
161.564114
 20
54.068167
 30
772.705227
  0
VERTEX
  5
7F1
  8
TEAM-NET
 10
160.168837
 20
47.355241
 30
772.705227
  0
VERTEX
  5
7F2
  8
TEAM-NET
 10
160.093369
 20
40.497692
 30
772.705227
  0
SEQEND
  5
7F3
  8
TEAM-NET
  0
POLYLINE
  5
1D6
  8
TEAM-NET
 66
     1
 10
0.0
 20
0.0
 30
772.705429
 70
   128
210
0.052336
220
-0.0
230
0.99863
  0
VERTEX
  5
7F4
  8
TEAM-NET
 10
-160.093369
 20
40.493848
 30
772.705429
  0
VERTEX
  5
7F5
  8
TEAM-NET
 10
-160.168837
 20
47.351397
 30
772.705429
  0
VERTEX
  5
7F6
  8
TEAM-NET
 10
-161.564114
 20
54.064322
 30
772.705429
  0
VERTEX
  5
7F7
  8
TEAM-NET
 10
-164.226332
 20
60.378261
 30
772.705429
  0
VERTEX
  5
7F8
  8
TEAM-NET
 10
-168.054613
 20
66.053967
 30
772.705429
  0
VERTEX
  5
7F9
  8
TEAM-NET
 10
-172.9039
 20
70.87638
 30
772.705429
  0
VERTEX
  5
7FA
  8
TEAM-NET
 10
-178.590443
 20
74.662769
 30
772.705429
  0
VERTEX
  5
7FB
  8
TEAM-NET
 10
-184.898771
 20
77.269662
 30
772.705429
  0
VERTEX
  5
7FC
  8
TEAM-NET
 10
-191.589852
 20
78.598281
 30
772.705429
  0
VERTEX
  5
7FD
  8
TEAM-NET
 10
-198.410148
 20
78.598281
 30
772.705429
  0
VERTEX
  5
7FE
  8
TEAM-NET
 10
-205.101229
 20
77.269662
 30
772.705429
  0
VERTEX
  5
7FF
  8
TEAM-NET
 10
-211.409557
 20
74.662769
 30
772.705429
  0
VERTEX
  5
800
  8
TEAM-NET
 10
-217.0961
 20
70.87638
 30
772.705429
  0
VERTEX
  5
801
  8
TEAM-NET
 10
-221.945387
 20
66.053967
 30
772.705429
  0
VERTEX
  5
802
  8
TEAM-NET
 10
-225.773668
 20
60.378261
 30
772.705429
  0
VERTEX
  5
803
  8
TEAM-NET
 10
-228.435886
 20
54.064322
 30
772.705429
  0
VERTEX
  5
804
  8
TEAM-NET
 10
-229.831163
 20
47.351397
 30
772.705429
  0
VERTEX
  5
805
  8
TEAM-NET
 10
-229.906631
 20
40.493848
 30
772.705429
  0
SEQEND
  5
806
  8
TEAM-NET
  0
POLYLINE
  5
1D7
  8
TEAM-NET
 66
     1
 10
0.0
 20
0.0
 30
0.0
 70
     8
  0
VERTEX
  5
1D8
  8
TEAM-NET
 10
0.001925
 20
-161.607268
 30
773.359706
 70
    32
  0
VERTEX
  5
1D9
  8
TEAM-NET
 10
6.988293
 20
-161.669547
 30
773.741974
 70
    32
  0
VERTEX
  5
1DA
  8
TEAM-NET
 10
13.816794
 20
-163.167578
 30
774.115009
 70
    32
  0
VERTEX
  5
1DB
  8
TEAM-NET
 10
20.191381
 20
-166.039987
 30
774.462748
 70
    32
  0
VERTEX
  5
1DC
  8
TEAM-NET
 10
25.836206
 20
-170.164369
 30
774.770295
 70
    32
  0
VERTEX
  5
1DD
  8
TEAM-NET
 10
30.504166
 20
-175.364754
 30
775.024361
 70
    32
  0
VERTEX
  5
1DE
  8
TEAM-NET
 10
33.993236
 20
-181.416074
 30
775.214115
 70
    32
  0
VERTEX
  5
1DF
  8
TEAM-NET
 10
36.148725
 20
-188.057488
 30
775.33128
 70
    32
  0
VERTEX
  5
1E0
  8
TEAM-NET
 10
36.877997
 20
-195.0
 30
775.370911
 70
    32
  0
SEQEND
  5
1E1
  8
TEAM-NET
  0
POLYLINE
  5
1E2
  8
TEAM-NET
 66
     1
 10
0.0
 20
0.0
 30
0.0
 70
     8
  0
VERTEX
  5
1E3
  8
TEAM-NET
 10
36.877997
 20
-195.0
 30
775.370911
 70
    32
  0
VERTEX
  5
1E4
  8
TEAM-NET
 10
36.148615
 20
-201.942439
 30
775.331274
 70
    32
  0
VERTEX
  5
1E5
  8
TEAM-NET
 10
33.992711
 20
-208.583635
 30
775.214086
 70
    32
  0
VERTEX
  5
1E6
  8
TEAM-NET
 10
30.504131
 20
-214.635184
 30
775.024359
 70
    32
  0
VERTEX
  5
1E7
  8
TEAM-NET
 10
25.836396
 20
-219.835866
 30
774.770305
 70
    32
  0
VERTEX
  5
1E8
  8
TEAM-NET
 10
20.191847
 20
-223.960505
 30
774.462773
 70
    32
  0
VERTEX
  5
1E9
  8
TEAM-NET
 10
13.816775
 20
-226.832414
 30
774.115008
 70
    32
  0
VERTEX
  5
1EA
  8
TEAM-NET
 10
6.988444
 20
-228.330607
 30
773.741982
 70
    32
  0
VERTEX
  5
1EB
  8
TEAM-NET
 10
0.001925
 20
-228.392732
 30
773.359706
 70
    32
  0
SEQEND
  5
1EC
  8
TEAM-NET
  0
POLYLINE
  5
1ED
  8
TEAM-NET
 66
     1
 10
0.0
 20
0.0
 30
772.705227
 70
   128
210
-0.052336
220
-0.0
230
0.99863
  0
VERTEX
  5
807
  8
TEAM-NET
 10
229.906631
 20
40.497692
 30
772.705227
  0
VERTEX
  5
808
  8
TEAM-NET
 10
229.831163
 20
47.355241
 30
772.705227
  0
VERTEX
  5
809
  8
TEAM-NET
 10
228.435886
 20
54.068167
 30
772.705227
  0
VERTEX
  5
80A
  8
TEAM-NET
 10
225.773668
 20
60.382105
 30
772.705227
  0
VERTEX
  5
80B
  8
TEAM-NET
 10
221.945387
 20
66.057812
 30
772.705227
  0
VERTEX
  5
80C
  8
TEAM-NET
 10
217.0961
 20
70.880224
 30
772.705227
  0
VERTEX
  5
80D
  8
TEAM-NET
 10
211.409557
 20
74.666613
 30
772.705227
  0
VERTEX
  5
80E
  8
TEAM-NET
 10
205.101229
 20
77.273506
 30
772.705227
  0
VERTEX
  5
80F
  8
TEAM-NET
 10
198.410148
 20
78.602125
 30
772.705227
  0
VERTEX
  5
810
  8
TEAM-NET
 10
191.589852
 20
78.602125
 30
772.705227
  0
VERTEX
  5
811
  8
TEAM-NET
 10
184.898771
 20
77.273506
 30
772.705227
  0
VERTEX
  5
812
  8
TEAM-NET
 10
178.590443
 20
74.666613
 30
772.705227
  0
VERTEX
  5
813
  8
TEAM-NET
 10
172.9039
 20
70.880224
 30
772.705227
  0
VERTEX
  5
814
  8
TEAM-NET
 10
168.054613
 20
66.057812
 30
772.705227
  0
VERTEX
  5
815
  8
TEAM-NET
 10
164.226332
 20
60.382105
 30
772.705227
  0
VERTEX
  5
816
  8
TEAM-NET
 10
161.564114
 20
54.068167
 30
772.705227
  0
VERTEX
  5
817
  8
TEAM-NET
 10
160.168837
 20
47.355241
 30
772.705227
  0
VERTEX
  5
818
  8
TEAM-NET
 10
160.093369
 20
40.497692
 30
772.705227
  0
SEQEND
  5
819
  8
TEAM-NET
  0
POLYLINE
  5
1EE
  8
TEAM-NET
 66
     1
 10
0.0
 20
0.0
 30
0.0
 70
     8
  0
VERTEX
  5
1EF
  8
TEAM-NET
 10
0.001925
 20
-228.392732
 30
773.359706
 70
    32
  0
VERTEX
  5
1F0
  8
TEAM-NET
 10
-6.984506
 20
-228.330533
 30
773.741977
 70
    32
  0
VERTEX
  5
1F1
  8
TEAM-NET
 10
-13.812783
 20
-226.832329
 30
774.115
 70
    32
  0
VERTEX
  5
1F2
  8
TEAM-NET
 10
-20.187681
 20
-223.960265
 30
774.462756
 70
    32
  0
VERTEX
  5
1F3
  8
TEAM-NET
 10
-25.83233
 20
-219.835556
 30
774.770293
 70
    32
  0
VERTEX
  5
1F4
  8
TEAM-NET
 10
-30.500455
 20
-214.635288
 30
775.024368
 70
    32
  0
VERTEX
  5
1F5
  8
TEAM-NET
 10
-33.989443
 20
-208.583934
 30
775.214118
 70
    32
  0
VERTEX
  5
1F6
  8
TEAM-NET
 10
-36.144963
 20
-201.942541
 30
775.331285
 70
    32
  0
VERTEX
  5
1F7
  8
TEAM-NET
 10
-36.874197
 20
-195.0
 30
775.370913
 70
    32
  0
SEQEND
  5
1F8
  8
TEAM-NET
  0
POLYLINE
  5
1F9
  8
TEAM-NET
 66
     1
 10
0.0
 20
0.0
 30
0.0
 70
     8
  0
VERTEX
  5
1FA
  8
TEAM-NET
 10
-36.874197
 20
-195.0
 30
775.370913
 70
    32
  0
VERTEX
  5
1FB
  8
TEAM-NET
 10
-36.144803
 20
-188.057559
 30
775.331276
 70
    32
  0
VERTEX
  5
1FC
  8
TEAM-NET
 10
-33.988899
 20
-181.416364
 30
775.214088
 70
    32
  0
VERTEX
  5
1FD
  8
TEAM-NET
 10
-30.500302
 20
-175.364824
 30
775.02436
 70
    32
  0
VERTEX
  5
1FE
  8
TEAM-NET
 10
-25.832549
 20
-170.164149
 30
774.770305
 70
    32
  0
VERTEX
  5
1FF
  8
TEAM-NET
 10
-20.187994
 20
-166.039509
 30
774.462773
 70
    32
  0
VERTEX
  5
200
  8
TEAM-NET
 10
-13.81292
 20
-163.167594
 30
774.115008
 70
    32
  0
VERTEX
  5
201
  8
TEAM-NET
 10
-6.984593
 20
-161.669395
 30
773.741982
 70
    32
  0
VERTEX
  5
202
  8
TEAM-NET
 10
0.001925
 20
-161.607268
 30
773.359706
 70
    32
  0
SEQEND
  5
203
  8
TEAM-NET
  0
POLYLINE
  5
204
  8
TEAM-NET
 66
     1
 10
0.0
 20
0.0
 30
772.705429
 70
   128
210
0.052336
220
-0.0
230
0.99863
  0
VERTEX
  5
81A
  8
TEAM-NET
 10
-160.093369
 20
40.493848
 30
772.705429
  0
VERTEX
  5
81B
  8
TEAM-NET
 10
-160.168837
 20
47.351397
 30
772.705429
  0
VERTEX
  5
81C
  8
TEAM-NET
 10
-161.564114
 20
54.064322
 30
772.705429
  0
VERTEX
  5
81D
  8
TEAM-NET
 10
-164.226332
 20
60.378261
 30
772.705429
  0
VERTEX
  5
81E
  8
TEAM-NET
 10
-168.054613
 20
66.053967
 30
772.705429
  0
VERTEX
  5
81F
  8
TEAM-NET
 10
-172.9039
 20
70.87638
 30
772.705429
  0
VERTEX
  5
820
  8
TEAM-NET
 10
-178.590443
 20
74.662769
 30
772.705429
  0
VERTEX
  5
821
  8
TEAM-NET
 10
-184.898771
 20
77.269662
 30
772.705429
  0
VERTEX
  5
822
  8
TEAM-NET
 10
-191.589852
 20
78.598281
 30
772.705429
  0
VERTEX
  5
823
  8
TEAM-NET
 10
-198.410148
 20
78.598281
 30
772.705429
  0
VERTEX
  5
824
  8
TEAM-NET
 10
-205.101229
 20
77.269662
 30
772.705429
  0
VERTEX
  5
825
  8
TEAM-NET
 10
-211.409557
 20
74.662769
 30
772.705429
  0
VERTEX
  5
826
  8
TEAM-NET
 10
-217.0961
 20
70.87638
 30
772.705429
  0
VERTEX
  5
827
  8
TEAM-NET
 10
-221.945387
 20
66.053967
 30
772.705429
  0
VERTEX
  5
828
  8
TEAM-NET
 10
-225.773668
 20
60.378261
 30
772.705429
  0
VERTEX
  5
829
  8
TEAM-NET
 10
-228.435886
 20
54.064322
 30
772.705429
  0
VERTEX
  5
82A
  8
TEAM-NET
 10
-229.831163
 20
47.351397
 30
772.705429
  0
VERTEX
  5
82B
  8
TEAM-NET
 10
-229.906631
 20
40.493848
 30
772.705429
  0
SEQEND
  5
82C
  8
TEAM-NET
  0
POLYLINE
  5
205
  8
TEAM-NET
 66
     1
 10
0.0
 20
0.0
 30
0.0
 70
     8
  0
VERTEX
  5
206
  8
TEAM-NET
 10
0.001925
 20
-228.392732
 30
773.359706
 70
    32
  0
VERTEX
  5
207
  8
TEAM-NET
 10
-6.984506
 20
-228.330533
 30
773.741977
 70
    32
  0
VERTEX
  5
208
  8
TEAM-NET
 10
-13.812783
 20
-226.832329
 30
774.115
 70
    32
  0
VERTEX
  5
209
  8
TEAM-NET
 10
-20.187681
 20
-223.960265
 30
774.462756
 70
    32
  0
VERTEX
  5
20A
  8
TEAM-NET
 10
-25.83233
 20
-219.835556
 30
774.770293
 70
    32
  0
VERTEX
  5
20B
  8
TEAM-NET
 10
-30.500455
 20
-214.635288
 30
775.024368
 70
    32
  0
VERTEX
  5
20C
  8
TEAM-NET
 10
-33.989443
 20
-208.583934
 30
775.214118
 70
    32
  0
VERTEX
  5
20D
  8
TEAM-NET
 10
-36.144963
 20
-201.942541
 30
775.331285
 70
    32
  0
VERTEX
  5
20E
  8
TEAM-NET
 10
-36.874197
 20
-195.0
 30
775.370913
 70
    32
  0
SEQEND
  5
20F
  8
TEAM-NET
  0
POLYLINE
  5
210
  8
TEAM-NET
 66
     1
 10
0.0
 20
0.0
 30
0.0
 70
     8
  0
VERTEX
  5
211
  8
TEAM-NET
 10
36.877997
 20
-195.0
 30
775.370911
 70
    32
  0
VERTEX
  5
212
  8
TEAM-NET
 10
36.148615
 20
-201.942439
 30
775.331274
 70
    32
  0
VERTEX
  5
213
  8
TEAM-NET
 10
33.992711
 20
-208.583635
 30
775.214086
 70
    32
  0
VERTEX
  5
214
  8
TEAM-NET
 10
30.504131
 20
-214.635184
 30
775.024359
 70
    32
  0
VERTEX
  5
215
  8
TEAM-NET
 10
25.836396
 20
-219.835866
 30
774.770305
 70
    32
  0
VERTEX
  5
216
  8
TEAM-NET
 10
20.191847
 20
-223.960505
 30
774.462773
 70
    32
  0
VERTEX
  5
217
  8
TEAM-NET
 10
13.816775
 20
-226.832414
 30
774.115008
 70
    32
  0
VERTEX
  5
218
  8
TEAM-NET
 10
6.988444
 20
-228.330607
 30
773.741982
 70
    32
  0
VERTEX
  5
219
  8
TEAM-NET
 10
0.001925
 20
-228.392732
 30
773.359706
 70
    32
  0
SEQEND
  5
21A
  8
TEAM-NET
  0
POLYLINE
  5
21B
  8
TEAM-NET
 66
     1
 10
0.0
 20
0.0
 30
0.0
 70
     8
  0
VERTEX
  5
21C
  8
TEAM-NET
 10
-36.874197
 20
-195.0
 30
775.370913
 70
    32
  0
VERTEX
  5
21D
  8
TEAM-NET
 10
-36.144803
 20
-188.057559
 30
775.331276
 70
    32
  0
VERTEX
  5
21E
  8
TEAM-NET
 10
-33.988899
 20
-181.416364
 30
775.214088
 70
    32
  0
VERTEX
  5
21F
  8
TEAM-NET
 10
-30.500302
 20
-175.364824
 30
775.02436
 70
    32
  0
VERTEX
  5
220
  8
TEAM-NET
 10
-25.832549
 20
-170.164149
 30
774.770305
 70
    32
  0
VERTEX
  5
221
  8
TEAM-NET
 10
-20.187994
 20
-166.039509
 30
774.462773
 70
    32
  0
VERTEX
  5
222
  8
TEAM-NET
 10
-13.81292
 20
-163.167594
 30
774.115008
 70
    32
  0
VERTEX
  5
223
  8
TEAM-NET
 10
-6.984593
 20
-161.669395
 30
773.741982
 70
    32
  0
VERTEX
  5
224
  8
TEAM-NET
 10
0.001925
 20
-161.607268
 30
773.359706
 70
    32
  0
SEQEND
  5
225
  8
TEAM-NET
  0
POLYLINE
  5
226
  8
TEAM-NET
 66
     1
 10
0.0
 20
0.0
 30
0.0
 70
     8
  0
VERTEX
  5
227
  8
TEAM-NET
 10
0.001925
 20
-161.607268
 30
773.359706
 70
    32
  0
VERTEX
  5
228
  8
TEAM-NET
 10
6.988293
 20
-161.669547
 30
773.741974
 70
    32
  0
VERTEX
  5
229
  8
TEAM-NET
 10
13.816794
 20
-163.167578
 30
774.115009
 70
    32
  0
VERTEX
  5
22A
  8
TEAM-NET
 10
20.191381
 20
-166.039987
 30
774.462748
 70
    32
  0
VERTEX
  5
22B
  8
TEAM-NET
 10
25.836206
 20
-170.164369
 30
774.770295
 70
    32
  0
VERTEX
  5
22C
  8
TEAM-NET
 10
30.504166
 20
-175.364754
 30
775.024361
 70
    32
  0
VERTEX
  5
22D
  8
TEAM-NET
 10
33.993236
 20
-181.416074
 30
775.214115
 70
    32
  0
VERTEX
  5
22E
  8
TEAM-NET
 10
36.148725
 20
-188.057488
 30
775.33128
 70
    32
  0
VERTEX
  5
22F
  8
TEAM-NET
 10
36.877997
 20
-195.0
 30
775.370911
 70
    32
  0
SEQEND
  5
230
  8
TEAM-NET
  0
ARC
  5
231
  8
TEAM-NET
 10
194.353571
 20
691.650622
 30
-0.001925
 40
91.7912
210
-1.0
220
0.0
230
0.0
 50
89.596498
 51
108.650003
  0
ARC
  5
232
  8
TEAM-NET
 10
-195.646429
 20
691.650622
 30
0.001925
 40
91.7912
210
1.0
220
0.0
230
0.0
 50
89.596498
 51
108.650003
  0
ARC
  5
233
  8
TEAM-NET
 10
194.353571
 20
691.650622
 30
-0.001925
 40
91.7912
210
-1.0
220
0.0
230
0.0
 50
89.596498
 51
108.650003
  0
ARC
  5
234
  8
TEAM-NET
 10
-195.646429
 20
691.650622
 30
0.001925
 40
91.7912
210
1.0
220
0.0
230
0.0
 50
89.596498
 51
108.650003
  0
POLYLINE
  5
235
  8
TEAM-NET
 66
     1
 10
0.0
 20
0.0
 30
0.001925
 70
   128
210
1.0
220
0.0
230
0.0
  0
VERTEX
  5
82D
  8
TEAM-NET
 10
-130.0
 20
773.765747
 30
0.001925
  0
VERTEX
  5
82E
  8
TEAM-NET
 10
-128.049097
 20
773.958158
 30
0.001925
  0
VERTEX
  5
82F
  8
TEAM-NET
 10
-126.173166
 20
774.527997
 30
0.001925
  0
VERTEX
  5
830
  8
TEAM-NET
 10
-124.444298
 20
775.453364
 30
0.001925
  0
VERTEX
  5
831
  8
TEAM-NET
 10
-122.928932
 20
776.698699
 30
0.001925
  0
VERTEX
  5
832
  8
TEAM-NET
 10
-121.685304
 20
778.216144
 30
0.001925
  0
VERTEX
  5
833
  8
TEAM-NET
 10
-120.761205
 20
779.947385
 30
0.001925
  0
VERTEX
  5
834
  8
TEAM-NET
 10
-120.192147
 20
781.82589
 30
0.001925
  0
VERTEX
  5
835
  8
TEAM-NET
 10
-120.0
 20
783.779471
 30
0.001925
  0
SEQEND
  5
836
  8
TEAM-NET
  0
POLYLINE
  5
236
  8
TEAM-NET
 66
     1
 10
0.0
 20
0.0
 30
0.001925
 70
   128
210
1.0
220
0.0
230
0.0
  0
VERTEX
  5
837
  8
TEAM-NET
 10
-130.0
 20
773.765747
 30
0.001925
  0
VERTEX
  5
838
  8
TEAM-NET
 10
-128.049097
 20
773.958158
 30
0.001925
  0
VERTEX
  5
839
  8
TEAM-NET
 10
-126.173166
 20
774.527997
 30
0.001925
  0
VERTEX
  5
83A
  8
TEAM-NET
 10
-124.444298
 20
775.453364
 30
0.001925
  0
VERTEX
  5
83B
  8
TEAM-NET
 10
-122.928932
 20
776.698699
 30
0.001925
  0
VERTEX
  5
83C
  8
TEAM-NET
 10
-121.685304
 20
778.216144
 30
0.001925
  0
VERTEX
  5
83D
  8
TEAM-NET
 10
-120.761205
 20
779.947385
 30
0.001925
  0
VERTEX
  5
83E
  8
TEAM-NET
 10
-120.192147
 20
781.82589
 30
0.001925
  0
VERTEX
  5
83F
  8
TEAM-NET
 10
-120.0
 20
783.779471
 30
0.001925
  0
SEQEND
  5
840
  8
TEAM-NET
  0
POLYLINE
  5
237
  8
TEAM-NET
 66
     1
 10
0.0
 20
0.0
 30
0.001925
 70
   128
210
1.0
220
0.0
230
0.0
  0
VERTEX
  5
841
  8
TEAM-NET
 10
-310.0
 20
783.779471
 30
0.001925
  0
VERTEX
  5
842
  8
TEAM-NET
 10
-309.807853
 20
781.82589
 30
0.001925
  0
VERTEX
  5
843
  8
TEAM-NET
 10
-309.238795
 20
779.947385
 30
0.001925
  0
VERTEX
  5
844
  8
TEAM-NET
 10
-308.314696
 20
778.216144
 30
0.001925
  0
VERTEX
  5
845
  8
TEAM-NET
 10
-307.071068
 20
776.698699
 30
0.001925
  0
VERTEX
  5
846
  8
TEAM-NET
 10
-305.555702
 20
775.453364
 30
0.001925
  0
VERTEX
  5
847
  8
TEAM-NET
 10
-303.826834
 20
774.527997
 30
0.001925
  0
VERTEX
  5
848
  8
TEAM-NET
 10
-301.950903
 20
773.958158
 30
0.001925
  0
VERTEX
  5
849
  8
TEAM-NET
 10
-300.0
 20
773.765747
 30
0.001925
  0
SEQEND
  5
84A
  8
TEAM-NET
  0
POLYLINE
  5
238
  8
TEAM-NET
 66
     1
 10
0.0
 20
0.0
 30
0.001925
 70
   128
210
1.0
220
0.0
230
0.0
  0
VERTEX
  5
84B
  8
TEAM-NET
 10
-310.0
 20
783.779471
 30
0.001925
  0
VERTEX
  5
84C
  8
TEAM-NET
 10
-309.807853
 20
781.82589
 30
0.001925
  0
VERTEX
  5
84D
  8
TEAM-NET
 10
-309.238795
 20
779.947385
 30
0.001925
  0
VERTEX
  5
84E
  8
TEAM-NET
 10
-308.314696
 20
778.216144
 30
0.001925
  0
VERTEX
  5
84F
  8
TEAM-NET
 10
-307.071068
 20
776.698699
 30
0.001925
  0
VERTEX
  5
850
  8
TEAM-NET
 10
-305.555702
 20
775.453364
 30
0.001925
  0
VERTEX
  5
851
  8
TEAM-NET
 10
-303.826834
 20
774.527997
 30
0.001925
  0
VERTEX
  5
852
  8
TEAM-NET
 10
-301.950903
 20
773.958158
 30
0.001925
  0
VERTEX
  5
853
  8
TEAM-NET
 10
-300.0
 20
773.765747
 30
0.001925
  0
SEQEND
  5
854
  8
TEAM-NET
  0
LINE
  5
239
  8
TEAM-NET
 10
225.001925
 20
0.0
 30
767.632548
 11
225.001925
 21
-340.0
 31
767.632548
210
1.0
220
0.0
230
0.0
  0
LINE
  5
23A
  8
TEAM-NET
 10
225.001925
 20
0.0
 30
767.632548
 11
225.001925
 21
-340.0
 31
767.632548
  0
ARC
  5
23B
  8
TEAM-NET
 10
215.001925
 20
-340.0
 30
767.632548
 40
10.0
 50
270.0
 51
360.0
  0
ARC
  5
23C
  8
TEAM-NET
 10
215.001925
 20
-340.0
 30
767.632548
 40
10.0
 50
270.0
 51
360.0
  0
LINE
  5
23D
  8
TEAM-NET
 10
215.001925
 20
-340.0
 30
757.632548
 11
215.001925
 21
0.0
 31
757.632548
210
0.0
220
0.0
230
-1.0
  0
LINE
  5
23E
  8
TEAM-NET
 10
215.001925
 20
-340.0
 30
757.632548
 11
215.001925
 21
0.0
 31
757.632548
  0
ARC
  5
23F
  8
TEAM-NET
 10
215.001925
 20
767.632548
 30
340.0
 40
10.0
210
0.0
220
-1.0
230
0.0
 50
270.0
 51
0.0
  0
ARC
  5
240
  8
TEAM-NET
 10
340.0
 20
767.632548
 30
-215.001925
 40
10.0
210
-1.0
220
0.0
230
0.0
 50
270.0
 51
360.0
  0
ARC
  5
241
  8
TEAM-NET
 10
215.001925
 20
767.632548
 30
340.0
 40
10.0
210
0.0
220
-1.0
230
0.0
 50
270.0
 51
0.0
  0
ARC
  5
242
  8
TEAM-NET
 10
340.0
 20
767.632548
 30
-215.001925
 40
10.0
210
-1.0
220
0.0
230
0.0
 50
270.0
 51
360.0
  0
ARC
  5
243
  8
TEAM-NET
 10
-215.001925
 20
767.632548
 30
0.0
 40
10.0
210
0.0
220
1.0
230
0.0
 50
180.0
 51
270.0
  0
ARC
  5
244
  8
TEAM-NET
 10
215.001925
 20
767.632548
 30
0.0
 40
10.0
210
0.0
220
-1.0
230
0.0
 50
270.0
 51
0.0
  0
LINE
  5
245
  8
TEAM-NET
 10
-184.998075
 20
-130.0
 30
802.122193
 11
-184.998075
 21
-300.0
 31
802.122193
210
1.0
220
0.0
230
0.0
  0
LINE
  5
246
  8
TEAM-NET
 10
-184.998075
 20
-130.0
 30
802.122193
 11
-184.998075
 21
-300.0
 31
802.122193
  0
ARC
  5
247
  8
TEAM-NET
 10
-174.998075
 20
-300.0
 30
802.122193
 40
10.0
 50
180.0
 51
270.0
  0
ARC
  5
248
  8
TEAM-NET
 10
-174.998075
 20
-300.0
 30
802.122193
 40
10.0
 50
180.0
 51
270.0
  0
ARC
  5
249
  8
TEAM-NET
 10
-174.998075
 20
-130.0
 30
802.122193
 40
10.0
 50
90.0
 51
180.0
  0
LINE
  5
24A
  8
TEAM-NET
 10
-169.001925
 20
0.0
 30
800.0
 11
-169.001925
 21
-20.0
 31
800.0
  0
LINE
  5
24B
  8
TEAM-NET
 10
-169.001925
 20
0.0
 30
800.0
 11
-169.001925
 21
-20.0
 31
800.0
210
0.0
220
0.0
230
-1.0
  0
ARC
  5
24C
  8
TEAM-NET
 10
-174.998075
 20
-130.0
 30
802.122193
 40
10.0
 50
90.0
 51
180.0
  0
LINE
  5
24D
  8
TEAM-NET
 10
-169.001925
 20
-20.0
 30
800.0
 11
169.001925
 21
-20.0
 31
800.0
210
0.0
220
0.0
230
-1.0
  0
LINE
  5
24E
  8
TEAM-NET
 10
169.001925
 20
0.0
 30
800.0
 11
-169.001925
 21
0.0
 31
800.0
210
0.0
220
0.0
230
-1.0
  0
LINE
  5
24F
  8
TEAM-NET
 10
169.001925
 20
0.0
 30
800.0
 11
-169.001925
 21
0.0
 31
800.0
210
0.0
220
1.0
230
0.0
  0
LINE
  5
250
  8
TEAM-NET
 10
-169.001925
 20
-20.0
 30
800.0
 11
169.001925
 21
-20.0
 31
800.0
210
0.0
220
-1.0
230
0.0
  0
LINE
  5
251
  8
TEAM-NET
 10
185.001925
 20
-300.0
 30
802.122193
 11
185.001925
 21
-130.0
 31
802.122193
210
-1.0
220
0.0
230
0.0
  0
LINE
  5
252
  8
TEAM-NET
 10
185.001925
 20
-300.0
 30
802.122193
 11
185.001925
 21
-130.0
 31
802.122193
  0
ARC
  5
253
  8
TEAM-NET
 10
175.001925
 20
-300.0
 30
802.122193
 40
10.0
 50
270.0
 51
0.0
  0
ARC
  5
254
  8
TEAM-NET
 10
175.001925
 20
-300.0
 30
802.122193
 40
10.0
 50
270.0
 51
0.0
  0
ARC
  5
255
  8
TEAM-NET
 10
175.001925
 20
-130.0
 30
802.122193
 40
10.0
 50
0.0
 51
90.0
  0
LINE
  5
256
  8
TEAM-NET
 10
169.001925
 20
-20.0
 30
800.0
 11
169.001925
 21
0.0
 31
800.0
  0
LINE
  5
257
  8
TEAM-NET
 10
169.001925
 20
-20.0
 30
800.0
 11
169.001925
 21
0.0
 31
800.0
210
0.0
220
0.0
230
-1.0
  0
ARC
  5
258
  8
TEAM-NET
 10
175.001925
 20
-130.0
 30
802.122193
 40
10.0
 50
0.0
 51
90.0
  0
LINE
  5
259
  8
TEAM-NET
 10
-175.521435
 20
-300.0
 30
792.135898
 11
-175.521435
 21
-130.0
 31
792.135898
210
0.052336
220
0.0
230
0.99863
  0
LINE
  5
25A
  8
TEAM-NET
 10
-175.521435
 20
-300.0
 30
792.135898
 11
-175.521435
 21
-130.0
 31
792.135898
  0
LINE
  5
25B
  8
TEAM-NET
 10
175.525284
 20
-130.0
 30
792.135898
 11
175.525284
 21
-300.0
 31
792.135898
210
-0.052336
220
0.0
230
0.99863
  0
LINE
  5
25C
  8
TEAM-NET
 10
175.525284
 20
-130.0
 30
792.135898
 11
175.525284
 21
-300.0
 31
792.135898
  0
ARC
  5
25D
  8
TEAM-NET
 10
-300.0
 20
791.864221
 30
-216.738079
 40
10.0
210
0.99863
220
0.0
230
-0.052336
 50
180.0
 51
270.0
  0
ARC
  5
25E
  8
TEAM-NET
 10
174.998075
 20
802.122193
 30
-300.0
 40
10.0
210
0.0
220
1.0
230
0.0
 50
273.0
 51
0.0
  0
ARC
  5
25F
  8
TEAM-NET
 10
174.998075
 20
802.122193
 30
-300.0
 40
10.0
210
0.0
220
1.0
230
0.0
 50
273.0
 51
0.0
  0
ARC
  5
260
  8
TEAM-NET
 10
-300.0
 20
791.864221
 30
-216.738079
 40
10.0
210
0.99863
220
0.0
230
-0.052336
 50
180.0
 51
270.0
  0
ARC
  5
261
  8
TEAM-NET
 10
-130.0
 20
791.864221
 30
-216.738079
 40
10.0
210
0.99863
220
-0.0
230
-0.052336
 50
270.0
 51
0.0
  0
ARC
  5
262
  8
TEAM-NET
 10
174.998075
 20
802.122193
 30
-130.0
 40
10.0
210
0.0
220
1.0
230
0.0
 50
273.0
 51
0.0
  0
ARC
  5
263
  8
TEAM-NET
 10
174.998075
 20
802.122193
 30
-130.0
 40
10.0
210
0.0
220
1.0
230
0.0
 50
273.0
 51
0.0
  0
ARC
  5
264
  8
TEAM-NET
 10
-130.0
 20
791.864221
 30
-216.738079
 40
10.0
210
0.99863
220
-0.0
230
-0.052336
 50
270.0
 51
0.0
  0
ARC
  5
265
  8
TEAM-NET
 10
300.0
 20
791.86402
 30
-216.741923
 40
10.0
210
-0.99863
220
0.0
230
-0.052336
 50
270.0
 51
0.0
  0
ARC
  5
266
  8
TEAM-NET
 10
175.001925
 20
802.122193
 30
300.0
 40
10.0
210
0.0
220
-1.0
230
0.0
 50
273.0
 51
0.0
  0
ARC
  5
267
  8
TEAM-NET
 10
175.001925
 20
802.122193
 30
300.0
 40
10.0
210
0.0
220
-1.0
230
0.0
 50
273.0
 51
0.0
  0
ARC
  5
268
  8
TEAM-NET
 10
300.0
 20
791.86402
 30
-216.741923
 40
10.0
210
-0.99863
220
0.0
230
-0.052336
 50
270.0
 51
0.0
  0
ARC
  5
269
  8
TEAM-NET
 10
130.0
 20
791.86402
 30
-216.741923
 40
10.0
210
-0.99863
220
0.0
230
-0.052336
 50
180.0
 51
270.0
  0
ARC
  5
26A
  8
TEAM-NET
 10
-175.001925
 20
802.122193
 30
-130.0
 40
10.0
210
0.0
220
1.0
230
0.0
 50
180.0
 51
267.0
  0
ARC
  5
26B
  8
TEAM-NET
 10
-175.001925
 20
802.122193
 30
-130.0
 40
10.0
210
0.0
220
1.0
230
0.0
 50
180.0
 51
267.0
  0
ARC
  5
26C
  8
TEAM-NET
 10
130.0
 20
791.86402
 30
-216.741923
 40
10.0
210
-0.99863
220
0.0
230
-0.052336
 50
180.0
 51
270.0
  0
ARC
  5
26D
  8
TEAM-NET
 10
20.501925
 20
889.632548
 30
60.0
 40
3.0
210
0.0
220
-1.0
230
0.0
 50
90.0
 51
180.0
  0
ARC
  5
26E
  8
TEAM-NET
 10
20.498075
 20
889.632548
 30
-60.0
 40
3.0
210
0.0
220
1.0
230
0.0
 50
90.0
 51
180.0
  0
ARC
  5
26F
  8
TEAM-NET
 10
20.501925
 20
889.632548
 30
60.0
 40
3.0
210
0.0
220
-1.0
230
0.0
 50
90.0
 51
180.0
  0
ARC
  5
270
  8
TEAM-NET
 10
20.498075
 20
889.632548
 30
-60.0
 40
3.0
210
0.0
220
1.0
230
0.0
 50
90.0
 51
180.0
  0
ARC
  5
271
  8
TEAM-NET
 10
-189.998075
 20
887.632548
 30
300.0
 40
5.0
210
0.0
220
-1.0
230
0.0
 50
0.0
 51
90.0
  0
ARC
  5
272
  8
TEAM-NET
 10
-189.998075
 20
887.632548
 30
300.0
 40
5.0
210
0.0
220
-1.0
230
0.0
 50
0.0
 51
90.0
  0
ARC
  5
273
  8
TEAM-NET
 10
-315.0
 20
887.632548
 30
-174.998075
 40
5.0
210
1.0
220
0.0
230
0.0
 50
0.0
 51
90.0
  0
ARC
  5
274
  8
TEAM-NET
 10
-315.0
 20
887.632548
 30
-174.998075
 40
5.0
210
1.0
220
0.0
230
0.0
 50
0.0
 51
90.0
  0
ARC
  5
275
  8
TEAM-NET
 10
-189.998075
 20
887.632548
 30
130.0
 40
5.0
210
0.0
220
-1.0
230
0.0
 50
0.0
 51
90.0
  0
ARC
  5
276
  8
TEAM-NET
 10
115.0
 20
887.632548
 30
174.998075
 40
5.0
210
-1.0
220
0.0
230
0.0
 50
0.0
 51
90.0
  0
ARC
  5
277
  8
TEAM-NET
 10
115.0
 20
887.632548
 30
174.998075
 40
5.0
210
-1.0
220
0.0
230
0.0
 50
0.0
 51
90.0
  0
ARC
  5
278
  8
TEAM-NET
 10
-189.998075
 20
887.632548
 30
130.0
 40
5.0
210
0.0
220
-1.0
230
0.0
 50
0.0
 51
90.0
  0
ARC
  5
279
  8
TEAM-NET
 10
190.001925
 20
887.632548
 30
300.0
 40
5.0
210
0.0
220
-1.0
230
0.0
 50
90.0
 51
180.0
  0
ARC
  5
27A
  8
TEAM-NET
 10
190.001925
 20
887.632548
 30
300.0
 40
5.0
210
0.0
220
-1.0
230
0.0
 50
90.0
 51
180.0
  0
ARC
  5
27B
  8
TEAM-NET
 10
315.0
 20
887.632548
 30
-175.001925
 40
5.0
210
-1.0
220
0.0
230
0.0
 50
90.0
 51
180.0
  0
ARC
  5
27C
  8
TEAM-NET
 10
315.0
 20
887.632548
 30
-175.001925
 40
5.0
210
-1.0
220
0.0
230
0.0
 50
90.0
 51
180.0
  0
ARC
  5
27D
  8
TEAM-NET
 10
190.001925
 20
887.632548
 30
130.0
 40
5.0
210
0.0
220
-1.0
230
0.0
 50
90.0
 51
180.0
  0
ARC
  5
27E
  8
TEAM-NET
 10
-115.0
 20
887.632548
 30
175.001925
 40
5.0
210
1.0
220
0.0
230
0.0
 50
90.0
 51
180.0
  0
ARC
  5
27F
  8
TEAM-NET
 10
-115.0
 20
887.632548
 30
175.001925
 40
5.0
210
1.0
220
0.0
230
0.0
 50
90.0
 51
180.0
  0
ARC
  5
280
  8
TEAM-NET
 10
190.001925
 20
887.632548
 30
130.0
 40
5.0
210
0.0
220
-1.0
230
0.0
 50
90.0
 51
180.0
  0
ARC
  5
281
  8
TEAM-NET
 10
214.998075
 20
882.632548
 30
-340.0
 40
10.0
210
0.0
220
1.0
230
0.0
 50
360.0
 51
90.0
  0
ARC
  5
282
  8
TEAM-NET
 10
340.0
 20
882.632548
 30
214.998075
 40
10.0
210
-1.0
220
0.0
230
0.0
 50
0.0
 51
90.0
  0
ARC
  5
283
  8
TEAM-NET
 10
340.0
 20
882.632548
 30
214.998075
 40
10.0
210
-1.0
220
0.0
230
0.0
 50
0.0
 51
90.0
  0
ARC
  5
284
  8
TEAM-NET
 10
214.998075
 20
882.632548
 30
-340.0
 40
10.0
210
0.0
220
1.0
230
0.0
 50
360.0
 51
90.0
  0
ARC
  5
285
  8
TEAM-NET
 10
214.998075
 20
882.632548
 30
0.0
 40
10.0
210
0.0
220
1.0
230
0.0
 50
0.0
 51
90.0
  0
ARC
  5
286
  8
TEAM-NET
 10
-214.998075
 20
882.632548
 30
0.0
 40
10.0
210
0.0
220
-1.0
230
0.0
 50
90.0
 51
180.0
  0
ARC
  5
287
  8
TEAM-NET
 10
215.001925
 20
882.632548
 30
340.0
 40
10.0
210
0.0
220
-1.0
230
0.0
 50
0.0
 51
90.0
  0
ARC
  5
288
  8
TEAM-NET
 10
340.0
 20
882.632548
 30
-215.001925
 40
10.0
210
-1.0
220
0.0
230
0.0
 50
360.0
 51
90.0
  0
ARC
  5
289
  8
TEAM-NET
 10
215.001925
 20
882.632548
 30
340.0
 40
10.0
210
0.0
220
-1.0
230
0.0
 50
0.0
 51
90.0
  0
ARC
  5
28A
  8
TEAM-NET
 10
340.0
 20
882.632548
 30
-215.001925
 40
10.0
210
-1.0
220
0.0
230
0.0
 50
360.0
 51
90.0
  0
ARC
  5
28B
  8
TEAM-NET
 10
-215.001925
 20
882.632548
 30
0.0
 40
10.0
210
0.0
220
1.0
230
0.0
 50
90.0
 51
180.0
  0
ARC
  5
28C
  8
TEAM-NET
 10
215.001925
 20
882.632548
 30
0.0
 40
10.0
210
0.0
220
-1.0
230
0.0
 50
0.0
 51
90.0
  0
ARC
  5
28D
  8
TEAM-NET
 10
1.181801
 20
862.632548
 30
-117.0
 40
12.5
210
0.0
220
1.0
230
0.0
 50
180.0
 51
270.0
  0
ARC
  5
28E
  8
TEAM-NET
 10
1.181801
 20
862.632548
 30
-117.0
 40
12.5
210
0.0
220
1.0
230
0.0
 50
270.0
 51
0.0
  0
ARC
  5
28F
  8
TEAM-NET
 10
1.181801
 20
862.632548
 30
-117.0
 40
12.5
210
0.0
220
1.0
230
0.0
 50
270.0
 51
0.0
  0
ARC
  5
290
  8
TEAM-NET
 10
1.181801
 20
862.632548
 30
-117.0
 40
12.5
210
0.0
220
1.0
230
0.0
 50
180.0
 51
270.0
  0
ARC
  5
291
  8
TEAM-NET
 10
-1.181801
 20
862.632548
 30
120.0
 40
15.5
210
0.0
220
-1.0
230
0.0
 50
270.0
 51
0.0
  0
ARC
  5
292
  8
TEAM-NET
 10
-1.181801
 20
862.632548
 30
120.0
 40
15.5
210
0.0
220
-1.0
230
0.0
 50
270.0
 51
0.0
  0
ARC
  5
293
  8
TEAM-NET
 10
-1.181801
 20
862.632548
 30
105.0
 40
12.5
210
0.0
220
-1.0
230
0.0
 50
180.0
 51
0.0
  0
ARC
  5
294
  8
TEAM-NET
 10
-1.181801
 20
862.632548
 30
120.0
 40
15.5
210
0.0
220
-1.0
230
0.0
 50
90.0
 51
270.0
  0
ARC
  5
295
  8
TEAM-NET
 10
-1.181801
 20
862.632548
 30
105.0
 40
12.5
210
0.0
220
-1.0
230
0.0
 50
360.0
 51
180.0
  0
ARC
  5
296
  8
TEAM-NET
 10
-1.181801
 20
862.632548
 30
105.0
 40
12.5
210
0.0
220
-1.0
230
0.0
 50
180.0
 51
0.0
  0
ARC
  5
297
  8
TEAM-NET
 10
-1.181801
 20
862.632548
 30
105.0
 40
12.5
210
0.0
220
-1.0
230
0.0
 50
360.0
 51
180.0
  0
ARC
  5
298
  8
TEAM-NET
 10
-1.181801
 20
862.632548
 30
120.0
 40
15.5
210
0.0
220
-1.0
230
0.0
 50
90.0
 51
270.0
  0
ARC
  5
299
  8
TEAM-NET
 10
-114.998075
 20
837.632548
 30
0.0
 40
10.0
210
0.0
220
-1.0
230
0.0
 50
180.0
 51
0.0
  0
ARC
  5
29A
  8
TEAM-NET
 10
114.998075
 20
837.632548
 30
-20.0
 40
10.0
210
0.0
220
1.0
230
0.0
 50
180.0
 51
0.0
  0
ARC
  5
29B
  8
TEAM-NET
 10
115.001925
 20
837.632548
 30
0.0
 40
10.0
210
0.0
220
-1.0
230
0.0
 50
180.0
 51
0.0
  0
ARC
  5
29C
  8
TEAM-NET
 10
-115.001925
 20
837.632548
 30
-20.0
 40
10.0
210
0.0
220
1.0
230
0.0
 50
180.0
 51
0.0
  0
ARC
  5
29D
  8
TEAM-NET
 10
-115.001925
 20
837.632548
 30
-20.0
 40
10.0
210
0.0
220
1.0
230
0.0
 50
0.0
 51
180.0
  0
ARC
  5
29E
  8
TEAM-NET
 10
115.001925
 20
837.632548
 30
0.0
 40
10.0
210
0.0
220
-1.0
230
0.0
 50
360.0
 51
180.0
  0
ARC
  5
29F
  8
TEAM-NET
 10
114.998075
 20
837.632548
 30
-20.0
 40
10.0
210
0.0
220
1.0
230
0.0
 50
0.0
 51
180.0
  0
ARC
  5
2A0
  8
TEAM-NET
 10
-114.998075
 20
837.632548
 30
0.0
 40
10.0
210
0.0
220
-1.0
230
0.0
 50
360.0
 51
180.0
  0
ARC
  5
2A1
  8
TEAM-NET
 10
114.998075
 20
837.632548
 30
0.0
 40
10.0
210
0.0
220
1.0
230
0.0
 50
180.0
 51
0.0
  0
ARC
  5
2A2
  8
TEAM-NET
 10
114.998075
 20
837.632548
 30
0.0
 40
10.0
210
0.0
220
1.0
230
0.0
 50
0.0
 51
180.0
  0
ARC
  5
2A3
  8
TEAM-NET
 10
-115.001925
 20
837.632548
 30
0.0
 40
10.0
210
0.0
220
1.0
230
0.0
 50
180.0
 51
0.0
  0
ARC
  5
2A4
  8
TEAM-NET
 10
-115.001925
 20
837.632548
 30
0.0
 40
10.0
210
0.0
220
1.0
230
0.0
 50
0.0
 51
180.0
  0
ARC
  5
2A5
  8
TEAM-NET
 10
-114.998075
 20
837.632548
 30
20.0
 40
10.0
210
0.0
220
-1.0
230
0.0
 50
360.0
 51
180.0
  0
ARC
  5
2A6
  8
TEAM-NET
 10
-114.998075
 20
837.632548
 30
20.0
 40
10.0
210
0.0
220
-1.0
230
0.0
 50
180.0
 51
0.0
  0
ARC
  5
2A7
  8
TEAM-NET
 10
115.001925
 20
837.632548
 30
20.0
 40
10.0
210
0.0
220
-1.0
230
0.0
 50
360.0
 51
180.0
  0
ARC
  5
2A8
  8
TEAM-NET
 10
115.001925
 20
837.632548
 30
20.0
 40
10.0
210
0.0
220
-1.0
230
0.0
 50
180.0
 51
0.0
  0
LINE
  5
2A9
  8
TEAM-NET
 10
-104.998075
 20
0.0
 30
837.632548
 11
-104.998075
 21
-20.0
 31
837.632548
  0
LINE
  5
2AA
  8
TEAM-NET
 10
-124.998075
 20
0.0
 30
837.632548
 11
-124.998075
 21
-20.0
 31
837.632548
  0
LINE
  5
2AB
  8
TEAM-NET
 10
125.001925
 20
0.0
 30
837.632548
 11
125.001925
 21
-20.0
 31
837.632548
  0
LINE
  5
2AC
  8
TEAM-NET
 10
105.001925
 20
0.0
 30
837.632548
 11
105.001925
 21
-20.0
 31
837.632548
  0
LINE
  5
2AD
  8
TEAM-NET
 10
125.001925
 20
0.0
 30
837.632548
 11
125.001925
 21
-20.0
 31
837.632548
  0
LINE
  5
2AE
  8
TEAM-NET
 10
105.001925
 20
0.0
 30
837.632548
 11
105.001925
 21
-20.0
 31
837.632548
  0
LINE
  5
2AF
  8
TEAM-NET
 10
-104.998075
 20
0.0
 30
837.632548
 11
-104.998075
 21
-20.0
 31
837.632548
  0
LINE
  5
2B0
  8
TEAM-NET
 10
-124.998075
 20
0.0
 30
837.632548
 11
-124.998075
 21
-20.0
 31
837.632548
  0
ARC
  5
2B1
  8
TEAM-NET
 10
117.0
 20
847.132548
 30
1.181801
 40
3.0
210
-1.0
220
0.0
230
0.0
 50
0.0
 51
90.0
  0
ARC
  5
2B2
  8
TEAM-NET
 10
117.0
 20
847.132548
 30
1.181801
 40
3.0
210
-1.0
220
0.0
230
0.0
 50
0.0
 51
90.0
  0
TEXT
  5
2B3
  8
TEAM-TXT
 10
-134.818938
 20
-292.72554
 30
850.0
 40
30.0
  1
team 221071
 41
0.8
 51
15.0
  7
TEAM
  0
LINE
  5
2B6
  8
TEAM-NET
 10
-214.998075
 20
-350.0
 30
882.632548
 11
215.001925
 21
-350.0
 31
882.632548
  0
LINE
  5
2B7
  8
TEAM-NET
 10
-214.998075
 20
-350.0
 30
882.632548
 11
215.001925
 21
-350.0
 31
882.632548
210
0.0
220
-1.0
230
0.0
  0
LINE
  5
2B8
  8
TEAM-NET
 10
17.501925
 20
-60.0
 30
889.632548
 11
17.501925
 21
-60.0
 31
862.632548
  0
LINE
  5
2B9
  8
TEAM-NET
 10
-17.498075
 20
-60.0
 30
889.632548
 11
-17.498075
 21
-60.0
 31
862.632548
  0
ARC
  5
2BA
  8
TEAM-NET
 10
1.181801
 20
862.632548
 30
-117.0
 40
12.5
210
0.0
220
1.0
230
0.0
 50
0.0
 51
90.0
  0
ARC
  5
2BB
  8
TEAM-NET
 10
-1.181801
 20
862.632548
 30
120.0
 40
15.5
210
0.0
220
-1.0
230
0.0
 50
360.0
 51
90.0
  0
ARC
  5
2BC
  8
TEAM-NET
 10
1.181801
 20
862.632548
 30
-117.0
 40
12.5
210
0.0
220
1.0
230
0.0
 50
90.0
 51
180.0
  0
ARC
  5
2BD
  8
TEAM-NET
 10
1.181801
 20
862.632548
 30
-117.0
 40
12.5
210
0.0
220
1.0
230
0.0
 50
90.0
 51
180.0
  0
ARC
  5
2BE
  8
TEAM-NET
 10
1.181801
 20
862.632548
 30
-117.0
 40
12.5
210
0.0
220
1.0
230
0.0
 50
0.0
 51
90.0
  0
LINE
  5
2BF
  8
TEAM-NET
 10
17.501925
 20
-60.0
 30
889.632548
 11
17.501925
 21
-60.0
 31
862.632548
  0
LINE
  5
2C0
  8
TEAM-NET
 10
-17.498075
 20
-60.0
 30
889.632548
 11
-17.498075
 21
-60.0
 31
862.632548
  0
ARC
  5
2C1
  8
TEAM-NET
 10
-1.181801
 20
862.632548
 30
120.0
 40
15.5
210
0.0
220
-1.0
230
0.0
 50
360.0
 51
90.0
  0
LINE
  5
2C2
  8
TEAM-NET
 10
-188.998075
 20
-95.0
 30
862.632548
 11
-188.998075
 21
-20.0
 31
862.632548
210
1.0
220
0.0
230
0.0
  0
LINE
  5
2C3
  8
TEAM-NET
 10
-188.998075
 20
-95.0
 30
862.632548
 11
-188.998075
 21
-20.0
 31
862.632548
210
0.0
220
0.0
230
-1.0
  0
LINE
  5
2C4
  8
TEAM-NET
 10
-188.998075
 20
-20.0
 30
862.632548
 11
189.001925
 21
-20.0
 31
862.632548
210
0.0
220
0.0
230
-1.0
  0
LINE
  5
2C5
  8
TEAM-NET
 10
189.001925
 20
-95.0
 30
862.632548
 11
-188.998075
 21
-95.0
 31
862.632548
210
0.0
220
0.0
230
-1.0
  0
LINE
  5
2C6
  8
TEAM-NET
 10
-188.998075
 20
-20.0
 30
862.632548
 11
189.001925
 21
-20.0
 31
862.632548
210
0.0
220
-1.0
230
0.0
  0
LINE
  5
2C7
  8
TEAM-NET
 10
189.001925
 20
-95.0
 30
862.632548
 11
-188.998075
 21
-95.0
 31
862.632548
210
0.0
220
1.0
230
0.0
  0
LINE
  5
2C8
  8
TEAM-NET
 10
189.001925
 20
-20.0
 30
862.632548
 11
189.001925
 21
-95.0
 31
862.632548
210
-1.0
220
0.0
230
0.0
  0
LINE
  5
2C9
  8
TEAM-NET
 10
189.001925
 20
-20.0
 30
862.632548
 11
189.001925
 21
-95.0
 31
862.632548
210
0.0
220
0.0
230
-1.0
  0
LINE
  5
2CA
  8
TEAM-NET
 10
11.318199
 20
-117.0
 30
862.632548
 11
11.318199
 21
-105.0
 31
862.632548
  0
LINE
  5
2CB
  8
TEAM-NET
 10
-13.681801
 20
-117.0
 30
862.632548
 11
-13.681801
 21
-105.0
 31
862.632548
  0
ARC
  5
2CC
  8
TEAM-NET
 10
-0.001925
 20
-60.0
 30
-862.632548
 40
17.5
210
0.0
220
0.0
230
-1.0
 50
180.0
 51
0.0
  0
ARC
  5
2CD
  8
TEAM-NET
 10
-0.001925
 20
-60.0
 30
-862.632548
 40
17.5
210
0.0
220
0.0
230
-1.0
 50
0.0
 51
180.0
  0
ARC
  5
2CE
  8
TEAM-NET
 10
0.001925
 20
-60.0
 30
862.632548
 40
17.5
 50
180.0
 51
0.0
  0
LINE
  5
2CF
  8
TEAM-NET
 10
11.318199
 20
-117.0
 30
862.632548
 11
11.318199
 21
-105.0
 31
862.632548
  0
LINE
  5
2D0
  8
TEAM-NET
 10
-13.681801
 20
-117.0
 30
862.632548
 11
-13.681801
 21
-105.0
 31
862.632548
  0
ARC
  5
2D1
  8
TEAM-NET
 10
0.001925
 20
-60.0
 30
862.632548
 40
17.5
 50
360.0
 51
180.0
  0
ARC
  5
2D2
  8
TEAM-NET
 10
-0.001925
 20
-60.0
 30
-889.632548
 40
17.5
210
0.0
220
0.0
230
-1.0
 50
180.0
 51
0.0
  0
ARC
  5
2D3
  8
TEAM-NET
 10
-0.001925
 20
-60.0
 30
-889.632548
 40
17.5
210
0.0
220
0.0
230
-1.0
 50
0.0
 51
180.0
  0
ARC
  5
2D4
  8
TEAM-NET
 10
-0.001925
 20
-60.0
 30
-889.632548
 40
17.5
210
0.0
220
0.0
230
-1.0
 50
180.0
 51
0.0
  0
ARC
  5
2D5
  8
TEAM-NET
 10
-0.001925
 20
-60.0
 30
-889.632548
 40
17.5
210
0.0
220
0.0
230
-1.0
 50
0.0
 51
180.0
  0
LINE
  5
2D6
  8
TEAM-NET
 10
-184.998075
 20
-300.0
 30
887.632548
 11
-184.998075
 21
-130.0
 31
887.632548
210
1.0
220
0.0
230
0.0
  0
LINE
  5
2D7
  8
TEAM-NET
 10
-184.998075
 20
-300.0
 30
887.632548
 11
-184.998075
 21
-130.0
 31
887.632548
  0
ARC
  5
2D8
  8
TEAM-NET
 10
174.998075
 20
-300.0
 30
-887.632548
 40
10.0
210
0.0
220
0.0
230
-1.0
 50
270.0
 51
0.0
  0
ARC
  5
2D9
  8
TEAM-NET
 10
174.998075
 20
-300.0
 30
-887.632548
 40
10.0
210
0.0
220
0.0
230
-1.0
 50
270.0
 51
0.0
  0
ARC
  5
2DA
  8
TEAM-NET
 10
174.998075
 20
-130.0
 30
-887.632548
 40
10.0
210
0.0
220
0.0
230
-1.0
 50
0.0
 51
90.0
  0
ARC
  5
2DB
  8
TEAM-NET
 10
174.998075
 20
-130.0
 30
-887.632548
 40
10.0
210
0.0
220
0.0
230
-1.0
 50
0.0
 51
90.0
  0
LINE
  5
2DC
  8
TEAM-NET
 10
-174.998075
 20
-120.0
 30
887.632548
 11
175.001925
 21
-120.0
 31
887.632548
  0
LINE
  5
2DD
  8
TEAM-NET
 10
-174.998075
 20
-120.0
 30
887.632548
 11
175.001925
 21
-120.0
 31
887.632548
210
0.0
220
-1.0
230
0.0
  0
LINE
  5
2DE
  8
TEAM-NET
 10
175.001925
 20
-310.0
 30
887.632548
 11
-174.998075
 21
-310.0
 31
887.632548
  0
LINE
  5
2DF
  8
TEAM-NET
 10
175.001925
 20
-310.0
 30
887.632548
 11
-174.998075
 21
-310.0
 31
887.632548
210
0.0
220
1.0
230
0.0
  0
LINE
  5
2E0
  8
TEAM-NET
 10
185.001925
 20
-130.0
 30
887.632548
 11
185.001925
 21
-300.0
 31
887.632548
210
-1.0
220
0.0
230
0.0
  0
LINE
  5
2E1
  8
TEAM-NET
 10
185.001925
 20
-130.0
 30
887.632548
 11
185.001925
 21
-300.0
 31
887.632548
  0
ARC
  5
2E2
  8
TEAM-NET
 10
-175.001925
 20
-300.0
 30
-887.632548
 40
10.0
210
0.0
220
0.0
230
-1.0
 50
180.0
 51
270.0
  0
ARC
  5
2E3
  8
TEAM-NET
 10
-175.001925
 20
-300.0
 30
-887.632548
 40
10.0
210
0.0
220
0.0
230
-1.0
 50
180.0
 51
270.0
  0
ARC
  5
2E4
  8
TEAM-NET
 10
-175.001925
 20
-130.0
 30
-887.632548
 40
10.0
210
0.0
220
0.0
230
-1.0
 50
90.0
 51
180.0
  0
ARC
  5
2E5
  8
TEAM-NET
 10
-175.001925
 20
-130.0
 30
-887.632548
 40
10.0
210
0.0
220
0.0
230
-1.0
 50
90.0
 51
180.0
  0
LINE
  5
2E6
  8
TEAM-NET
 10
-224.998075
 20
0.0
 30
882.632548
 11
-224.998075
 21
-340.0
 31
882.632548
210
-1.0
220
0.0
230
0.0
  0
LINE
  5
2E7
  8
TEAM-NET
 10
-224.998075
 20
0.0
 30
882.632548
 11
-224.998075
 21
-340.0
 31
882.632548
  0
ARC
  5
2E8
  8
TEAM-NET
 10
-214.998075
 20
-340.0
 30
882.632548
 40
10.0
 50
180.0
 51
270.0
  0
ARC
  5
2E9
  8
TEAM-NET
 10
-214.998075
 20
-340.0
 30
882.632548
 40
10.0
 50
180.0
 51
270.0
  0
ARC
  5
2EA
  8
TEAM-NET
 10
-117.0
 20
878.132548
 30
-1.181801
 40
3.0
210
1.0
220
0.0
230
0.0
 50
180.0
 51
270.0
  0
ARC
  5
2EB
  8
TEAM-NET
 10
-117.0
 20
878.132548
 30
-1.181801
 40
3.0
210
1.0
220
0.0
230
0.0
 50
180.0
 51
270.0
  0
LINE
  5
2EC
  8
TEAM-NET
 10
225.001925
 20
-340.0
 30
882.632548
 11
225.001925
 21
0.0
 31
882.632548
210
1.0
220
0.0
230
0.0
  0
LINE
  5
2ED
  8
TEAM-NET
 10
225.001925
 20
-340.0
 30
882.632548
 11
225.001925
 21
0.0
 31
882.632548
  0
ARC
  5
2EE
  8
TEAM-NET
 10
215.001925
 20
-340.0
 30
882.632548
 40
10.0
 50
270.0
 51
0.0
  0
ARC
  5
2EF
  8
TEAM-NET
 10
215.001925
 20
-340.0
 30
882.632548
 40
10.0
 50
270.0
 51
0.0
  0
ARC
  5
2F0
  8
TEAM-NET
 10
-0.337306
 20
904.123408
 30
-306.357237
 40
14.0
210
0.007222
220
-0.865995
230
-0.5
 50
270.0
 51
90.0
1001
ACAD
1000
R13OBJECT
1002
{
1005
25
1002
}
  0
ARC
  5
2F1
  8
TEAM-NET
 10
-0.337306
 20
904.123408
 30
-306.357237
 40
14.0
210
0.007222
220
-0.865995
230
-0.5
 50
90.0
 51
270.0
1001
ACAD
1000
R13OBJECT
1002
{
1005
28
1002
}
  0
ARC
  5
2F2
  8
TEAM-NET
 10
-0.337306
 20
904.123408
 30
-306.357237
 40
14.0
210
0.007222
220
-0.865995
230
-0.5
 50
90.0
 51
270.0
1001
ACAD
1000
R13OBJECT
1002
{
1005
2F5
1002
}
  0
ARC
  5
2F3
  8
TEAM-NET
 10
-0.337306
 20
904.123408
 30
-306.357237
 40
14.0
210
0.007222
220
-0.865995
230
-0.5
 50
270.0
 51
90.0
1001
ACAD
1000
R13OBJECT
1002
{
1005
2F7
1002
}
  0
ARC
  5
2F4
  8
TEAM-NET
 10
-169.748554
 20
906.727595
 30
-0.337306
 40
20.0
210
0.999965
220
0.008339
230
0.0
 50
120.0
 51
174.784091
1001
ACAD
1000
R13OBJECT
1002
{
1005
2F5
1002
}
  0
ARC
  5
2F5
  8
TEAM-NET
 10
-169.748554
 20
906.727595
 30
-0.337306
 40
48.0
210
0.999965
220
0.008339
230
0.0
 50
120.0
 51
177.508094
  0
ARC
  5
2F6
  8
TEAM-NET
 10
-169.748554
 20
906.727595
 30
-0.337306
 40
20.0
210
0.999965
220
0.008339
230
0.0
 50
120.0
 51
174.784091
1001
ACAD
1000
R13OBJECT
1002
{
1005
2F7
1002
}
  0
ARC
  5
2F7
  8
TEAM-NET
 10
-169.748554
 20
906.727595
 30
-0.337306
 40
48.0
210
0.999965
220
0.008339
230
0.0
 50
120.0
 51
177.508094
  0
LINE
  5
2F8
  8
TEAM-NET
 10
-214.998075
 20
0.0
 30
892.632548
 11
215.001925
 21
0.0
 31
892.632548
  0
LINE
  5
2F9
  8
TEAM-NET
 10
-214.998075
 20
0.0
 30
892.632548
 11
215.001925
 21
0.0
 31
892.632548
210
0.0
220
1.0
230
0.0
  0
LINE
  5
2FA
  8
TEAM-NET
 10
215.001925
 20
-340.0
 30
892.632548
 11
-214.998075
 21
-340.0
 31
892.632548
  0
LINE
  5
2FB
  8
TEAM-NET
 10
215.001925
 20
-340.0
 30
892.632548
 11
-214.998075
 21
-340.0
 31
892.632548
  0
ARC
  5
2FC
  8
TEAM-NET
 10
175.001925
 20
-300.0
 30
892.632548
 40
15.0
 50
270.0
 51
0.0
  0
ARC
  5
2FD
  8
TEAM-NET
 10
175.001925
 20
-300.0
 30
892.632548
 40
15.0
 50
270.0
 51
0.0
  0
ARC
  5
2FE
  8
TEAM-NET
 10
175.001925
 20
-130.0
 30
892.632548
 40
15.0
 50
0.0
 51
90.0
  0
ARC
  5
2FF
  8
TEAM-NET
 10
175.001925
 20
-130.0
 30
892.632548
 40
15.0
 50
0.0
 51
90.0
  0
ARC
  5
300
  8
TEAM-NET
 10
191.657456
 20
908.727595
 30
0.337306
 40
2.0
210
-0.999965
220
-0.008339
230
0.0
 50
185.215909
 51
270.0
  0
LINE
  5
301
  8
TEAM-NET
 10
-0.472611
 20
-193.598562
 30
903.481779
 11
-0.472611
 21
-193.598562
 31
913.481779
1001
ACAD
1000
R13OBJECT
1002
{
1005
303
1002
}
  0
LINE
  5
302
  8
TEAM-NET
 10
11.117592
 20
-201.702091
 30
913.481779
 11
11.117592
 21
-201.702091
 31
903.481779
1001
ACAD
1000
R13OBJECT
1002
{
1005
303
1002
}
  0
LINE
  5
303
  8
TEAM-NET
 10
-8.576141
 20
-205.188765
 30
913.481779
 11
-8.576141
 21
-205.188765
 31
903.481779
  0
LINE
  5
304
  8
TEAM-NET
 10
9.148218
 20
-202.050759
 30
903.481779
 11
9.148218
 21
-202.050759
 31
913.481779
1001
ACAD
1000
R13OBJECT
1002
{
1005
305
1002
}
  0
LINE
  5
305
  8
TEAM-NET
 10
-6.606768
 20
-204.840097
 30
903.481779
 11
-6.606768
 21
-204.840097
 31
913.481779
  0
LINE
  5
306
  8
TEAM-NET
 10
9.148218
 20
-202.050759
 30
903.481779
 11
9.148218
 21
-202.050759
 31
913.481779
1001
ACAD
1000
R13OBJECT
1002
{
1005
307
1002
}
  0
LINE
  5
307
  8
TEAM-NET
 10
-6.606768
 20
-204.840097
 30
903.481779
 11
-6.606768
 21
-204.840097
 31
913.481779
  0
LINE
  5
308
  8
TEAM-NET
 10
3.014062
 20
-213.292294
 30
903.481779
 11
3.014062
 21
-213.292294
 31
913.481779
1001
ACAD
1000
R13OBJECT
1002
{
1005
30A
1002
}
  0
LINE
  5
309
  8
TEAM-NET
 10
11.117592
 20
-201.702091
 30
913.481779
 11
11.117592
 21
-201.702091
 31
903.481779
1001
ACAD
1000
R13OBJECT
1002
{
1005
30A
1002
}
  0
LINE
  5
30A
  8
TEAM-NET
 10
-8.576141
 20
-205.188765
 30
913.481779
 11
-8.576141
 21
-205.188765
 31
903.481779
  0
LINE
  5
30B
  8
TEAM-NET
 10
4.185933
 20
-83.632479
 30
902.632548
 11
4.360266
 21
-84.617166
 31
901.632548
1001
ACAD
1000
R13OBJECT
1002
{
1005
30F
1002
}
  0
ARC
  5
30C
  8
TEAM-NET
 10
-0.001925
 20
-60.0
 30
-902.632548
 40
24.0
210
0.0
220
0.0
230
-1.0
 50
169.960116
 51
349.960116
1001
ACAD
1000
R13OBJECT
1002
{
1005
30F
1002
}
  0
LINE
  5
30D
  8
TEAM-NET
 10
24.619091
 20
-55.641658
 30
901.632548
 11
23.634404
 21
-55.815992
 31
902.632548
1001
ACAD
1000
R13OBJECT
1002
{
1005
30F
1002
}
  0
ARC
  5
30E
  8
TEAM-NET
 10
0.001925
 20
-60.0
 30
901.632548
 40
25.0
 50
190.039884
 51
10.039884
1001
ACAD
1000
R13OBJECT
1002
{
1005
30F
1002
}
  0
LINE
  5
30F
  8
TEAM-NET
 10
-24.615241
 20
-64.358342
 30
901.632548
 11
-23.630555
 21
-64.184008
 31
902.632548
  0
LINE
  5
310
  8
TEAM-NET
 10
-4.182083
 20
-36.367521
 30
902.632548
 11
-4.356417
 21
-35.382834
 31
901.632548
1001
ACAD
1000
R13OBJECT
1002
{
1005
314
1002
}
  0
ARC
  5
311
  8
TEAM-NET
 10
0.001925
 20
-60.0
 30
901.632548
 40
25.0
 50
10.039884
 51
190.039884
1001
ACAD
1000
R13OBJECT
1002
{
1005
314
1002
}
  0
LINE
  5
312
  8
TEAM-NET
 10
24.619091
 20
-55.641658
 30
901.632548
 11
23.634404
 21
-55.815992
 31
902.632548
1001
ACAD
1000
R13OBJECT
1002
{
1005
314
1002
}
  0
ARC
  5
313
  8
TEAM-NET
 10
-0.001925
 20
-60.0
 30
-902.632548
 40
24.0
210
0.0
220
0.0
230
-1.0
 50
349.960116
 51
169.960116
1001
ACAD
1000
R13OBJECT
1002
{
1005
314
1002
}
  0
LINE
  5
314
  8
TEAM-NET
 10
-24.615241
 20
-64.358342
 30
901.632548
 11
-23.630555
 21
-64.184008
 31
902.632548
  0
LINE
  5
315
  8
TEAM-NET
 10
-214.998075
 20
-340.0
 30
892.632548
 11
-214.998075
 21
0.0
 31
892.632548
  0
LINE
  5
316
  8
TEAM-NET
 10
-214.998075
 20
-340.0
 30
892.632548
 11
-214.998075
 21
0.0
 31
892.632548
  0
LINE
  5
317
  8
TEAM-NET
 10
-189.998075
 20
-130.0
 30
892.632548
 11
-189.998075
 21
-300.0
 31
892.632548
  0
LINE
  5
318
  8
TEAM-NET
 10
-189.998075
 20
-130.0
 30
892.632548
 11
-189.998075
 21
-300.0
 31
892.632548
  0
ARC
  5
319
  8
TEAM-NET
 10
-174.998075
 20
-300.0
 30
892.632548
 40
15.0
 50
180.0
 51
270.0
  0
ARC
  5
31A
  8
TEAM-NET
 10
-174.998075
 20
-300.0
 30
892.632548
 40
15.0
 50
180.0
 51
270.0
  0
ARC
  5
31B
  8
TEAM-NET
 10
-174.998075
 20
-130.0
 30
892.632548
 40
15.0
 50
90.0
 51
180.0
  0
ARC
  5
31C
  8
TEAM-NET
 10
-174.998075
 20
-130.0
 30
892.632548
 40
15.0
 50
90.0
 51
180.0
  0
LINE
  5
31D
  8
TEAM-NET
 10
175.001925
 20
-115.0
 30
892.632548
 11
-174.998075
 21
-115.0
 31
892.632548
  0
LINE
  5
31E
  8
TEAM-NET
 10
175.001925
 20
-115.0
 30
892.632548
 11
-174.998075
 21
-115.0
 31
892.632548
  0
LINE
  5
31F
  8
TEAM-NET
 10
-174.998075
 20
-315.0
 30
892.632548
 11
175.001925
 21
-315.0
 31
892.632548
  0
LINE
  5
320
  8
TEAM-NET
 10
-174.998075
 20
-315.0
 30
892.632548
 11
175.001925
 21
-315.0
 31
892.632548
  0
LINE
  5
321
  8
TEAM-NET
 10
190.001925
 20
-300.0
 30
892.632548
 11
190.001925
 21
-130.0
 31
892.632548
  0
LINE
  5
322
  8
TEAM-NET
 10
190.001925
 20
-300.0
 30
892.632548
 11
190.001925
 21
-130.0
 31
892.632548
  0
ARC
  5
323
  8
TEAM-NET
 10
0.001925
 20
-60.0
 30
892.632548
 40
20.5
 50
180.0
 51
0.0
  0
ARC
  5
324
  8
TEAM-NET
 10
0.001925
 20
-60.0
 30
892.632548
 40
20.5
 50
360.0
 51
180.0
  0
ARC
  5
325
  8
TEAM-NET
 10
0.001925
 20
-60.0
 30
892.632548
 40
20.5
 50
180.0
 51
0.0
  0
ARC
  5
326
  8
TEAM-NET
 10
0.001925
 20
-60.0
 30
892.632548
 40
20.5
 50
360.0
 51
180.0
  0
LINE
  5
327
  8
TEAM-NET
 10
-4.356417
 20
-35.382834
 30
892.632548
 11
-4.356417
 21
-35.382834
 31
901.632548
1001
ACAD
1000
R13OBJECT
1002
{
1005
32B
1002
}
  0
ARC
  5
328
  8
TEAM-NET
 10
-0.001925
 20
-60.0
 30
-892.632548
 40
25.0
210
0.0
220
0.0
230
-1.0
 50
349.960116
 51
169.960116
1001
ACAD
1000
R13OBJECT
1002
{
1005
32B
1002
}
  0
LINE
  5
329
  8
TEAM-NET
 10
24.619091
 20
-55.641658
 30
901.632548
 11
24.619091
 21
-55.641658
 31
892.632548
1001
ACAD
1000
R13OBJECT
1002
{
1005
32B
1002
}
  0
ARC
  5
32A
  8
TEAM-NET
 10
0.001925
 20
-60.0
 30
901.632548
 40
25.0
 50
10.039884
 51
190.039884
1001
ACAD
1000
R13OBJECT
1002
{
1005
32B
1002
}
  0
LINE
  5
32B
  8
TEAM-NET
 10
-24.615241
 20
-64.358342
 30
901.632548
 11
-24.615241
 21
-64.358342
 31
892.632548
  0
LINE
  5
32C
  8
TEAM-NET
 10
4.360266
 20
-84.617166
 30
892.632548
 11
4.360266
 21
-84.617166
 31
901.632548
1001
ACAD
1000
R13OBJECT
1002
{
1005
330
1002
}
  0
ARC
  5
32D
  8
TEAM-NET
 10
0.001925
 20
-60.0
 30
901.632548
 40
25.0
 50
190.039884
 51
10.039884
1001
ACAD
1000
R13OBJECT
1002
{
1005
330
1002
}
  0
LINE
  5
32E
  8
TEAM-NET
 10
24.619091
 20
-55.641658
 30
901.632548
 11
24.619091
 21
-55.641658
 31
892.632548
1001
ACAD
1000
R13OBJECT
1002
{
1005
330
1002
}
  0
ARC
  5
32F
  8
TEAM-NET
 10
-0.001925
 20
-60.0
 30
-892.632548
 40
25.0
210
0.0
220
0.0
230
-1.0
 50
169.960116
 51
349.960116
1001
ACAD
1000
R13OBJECT
1002
{
1005
330
1002
}
  0
LINE
  5
330
  8
TEAM-NET
 10
-24.615241
 20
-64.358342
 30
901.632548
 11
-24.615241
 21
-64.358342
 31
892.632548
  0
ARC
  5
331
  8
TEAM-NET
 10
-0.001925
 20
-60.0
 30
-892.632548
 40
25.0
210
0.0
220
0.0
230
-1.0
 50
349.960116
 51
169.960116
1001
ACAD
1000
R13OBJECT
1002
{
1005
332
1002
}
  0
ARC
  5
332
  8
TEAM-NET
 10
-0.001925
 20
-60.0
 30
-892.632548
 40
25.0
210
0.0
220
0.0
230
-1.0
 50
169.960116
 51
349.960116
  0
ARC
  5
333
  8
TEAM-NET
 10
-0.001925
 20
-60.0
 30
-902.632548
 40
24.0
210
0.0
220
0.0
230
-1.0
 50
349.960116
 51
169.960116
1001
ACAD
1000
R13OBJECT
1002
{
1005
336
1002
}
  0
ARC
  5
334
  8
TEAM-NET
 10
-0.001925
 20
-60.0
 30
-902.632548
 40
24.0
210
0.0
220
0.0
230
-1.0
 50
169.960116
 51
349.960116
1001
ACAD
1000
R13OBJECT
1002
{
1005
336
1002
}
  0
ARC
  5
335
  8
TEAM-NET
 10
-0.001925
 20
-60.0
 30
-902.632548
 40
23.0
210
0.0
220
0.0
230
-1.0
 50
349.960116
 51
169.960116
1001
ACAD
1000
R13OBJECT
1002
{
1005
336
1002
}
  0
ARC
  5
336
  8
TEAM-NET
 10
-0.001925
 20
-60.0
 30
-902.632548
 40
23.0
210
0.0
220
0.0
230
-1.0
 50
169.960116
 51
349.960116
  0
POLYLINE
  5
337
  8
TEAM-NET
 66
     1
 10
0.0
 20
0.0
 30
0.0
 70
     9
  0
VERTEX
  5
338
  8
TEAM-NET
 10
1.26089
 20
-191.653567
 30
906.727595
 70
    32
  0
VERTEX
  5
339
  8
TEAM-NET
 10
-1.411082
 20
-191.9788
 30
906.727595
 70
    32
  0
VERTEX
  5
33A
  8
TEAM-NET
 10
-2.703013
 20
-192.365254
 30
906.727595
 70
    32
  0
VERTEX
  5
33B
  8
TEAM-NET
 10
-3.93803
 20
-192.890945
 30
906.727595
 70
    32
  0
VERTEX
  5
33C
  8
TEAM-NET
 10
-6.205525
 20
-194.349124
 30
906.727595
 70
    32
  0
VERTEX
  5
33D
  8
TEAM-NET
 10
-8.084289
 20
-196.26733
 30
906.727595
 70
    32
  0
VERTEX
  5
33E
  8
TEAM-NET
 10
-9.084289
 20
-197.765565
 30
906.727595
 70
    32
  0
VERTEX
  5
33F
  8
TEAM-NET
 10
-9.845979
 20
-199.38743
 30
906.727595
 70
    32
  0
VERTEX
  5
340
  8
TEAM-NET
 10
-10.255411
 20
-200.670134
 30
906.727595
 70
    32
  0
VERTEX
  5
341
  8
TEAM-NET
 10
-10.360095
 20
-201.108774
 30
906.727595
 70
    32
  0
VERTEX
  5
342
  8
TEAM-NET
 10
-10.612441
 20
-202.889783
 30
906.727595
 70
    32
  0
VERTEX
  5
343
  8
TEAM-NET
 10
-10.597545
 20
-204.680022
 30
906.727595
 70
    32
  0
VERTEX
  5
344
  8
TEAM-NET
 10
-10.315113
 20
-206.45854
 30
906.727595
 70
    32
  0
VERTEX
  5
345
  8
TEAM-NET
 10
-9.980976
 20
-207.6095
 30
906.727595
 70
    32
  0
VERTEX
  5
346
  8
TEAM-NET
 10
-9.536584
 20
-208.716466
 30
906.727595
 70
    32
  0
VERTEX
  5
347
  8
TEAM-NET
 10
-8.981629
 20
-209.77892
 30
906.727595
 70
    32
  0
VERTEX
  5
348
  8
TEAM-NET
 10
-8.366192
 20
-210.722213
 30
906.727595
 70
    32
  0
VERTEX
  5
349
  8
TEAM-NET
 10
-7.955714
 20
-211.258565
 30
906.727595
 70
    32
  0
VERTEX
  5
34A
  8
TEAM-NET
 10
-6.727787
 20
-212.561208
 30
906.727595
 70
    32
  0
VERTEX
  5
34B
  8
TEAM-NET
 10
-5.312754
 20
-213.671597
 30
906.727595
 70
    32
  0
VERTEX
  5
34C
  8
TEAM-NET
 10
-3.74875
 20
-214.557209
 30
906.727595
 70
    32
  0
VERTEX
  5
34D
  8
TEAM-NET
 10
-2.926083
 20
-214.907916
 30
906.727595
 70
    32
  0
VERTEX
  5
34E
  8
TEAM-NET
 10
-2.07571
 20
-215.197531
 30
906.727595
 70
    32
  0
VERTEX
  5
34F
  8
TEAM-NET
 10
-0.316752
 20
-215.582759
 30
906.727595
 70
    32
  0
VERTEX
  5
350
  8
TEAM-NET
 10
0.577094
 20
-215.675093
 30
906.727595
 70
    32
  0
VERTEX
  5
351
  8
TEAM-NET
 10
1.471133
 20
-215.700277
 30
906.727595
 70
    32
  0
VERTEX
  5
352
  8
TEAM-NET
 10
3.261641
 20
-215.549381
 30
906.727595
 70
    32
  0
VERTEX
  5
353
  8
TEAM-NET
 10
5.011382
 20
-215.131572
 30
906.727595
 70
    32
  0
VERTEX
  5
354
  8
TEAM-NET
 10
6.67112
 20
-214.460928
 30
906.727595
 70
    32
  0
VERTEX
  5
355
  8
TEAM-NET
 10
8.221372
 20
-213.544614
 30
906.727595
 70
    32
  0
VERTEX
  5
356
  8
TEAM-NET
 10
9.612013
 20
-212.411055
 30
906.727595
 70
    32
  0
VERTEX
  5
357
  8
TEAM-NET
 10
10.238278
 20
-211.771417
 30
906.727595
 70
    32
  0
VERTEX
  5
358
  8
TEAM-NET
 10
10.818111
 20
-211.08309
 30
906.727595
 70
    32
  0
VERTEX
  5
359
  8
TEAM-NET
 10
11.218703
 20
-210.53887
 30
906.727595
 70
    32
  0
VERTEX
  5
35A
  8
TEAM-NET
 10
11.816111
 20
-209.584481
 30
906.727595
 70
    32
  0
VERTEX
  5
35B
  8
TEAM-NET
 10
12.575372
 20
-207.963391
 30
906.727595
 70
    32
  0
VERTEX
  5
35C
  8
TEAM-NET
 10
13.087373
 20
-206.23908
 30
906.727595
 70
    32
  0
VERTEX
  5
35D
  8
TEAM-NET
 10
13.336359
 20
-204.459279
 30
906.727595
 70
    32
  0
VERTEX
  5
35E
  8
TEAM-NET
 10
13.36076
 20
-203.78904
 30
906.727595
 70
    32
  0
VERTEX
  5
35F
  8
TEAM-NET
 10
13.318233
 20
-202.668122
 30
906.727595
 70
    32
  0
VERTEX
  5
360
  8
TEAM-NET
 10
13.032236
 20
-200.889924
 30
906.727595
 70
    32
  0
VERTEX
  5
361
  8
TEAM-NET
 10
12.487792
 20
-199.182432
 30
906.727595
 70
    32
  0
VERTEX
  5
362
  8
TEAM-NET
 10
12.219328
 20
-198.566395
 30
906.727595
 70
    32
  0
VERTEX
  5
363
  8
TEAM-NET
 10
12.020578
 20
-198.16276
 30
906.727595
 70
    32
  0
VERTEX
  5
364
  8
TEAM-NET
 10
11.694269
 20
-197.571252
 30
906.727595
 70
    32
  0
VERTEX
  5
365
  8
TEAM-NET
 10
10.667779
 20
-196.093371
 30
906.727595
 70
    32
  0
VERTEX
  5
366
  8
TEAM-NET
 10
9.764988
 20
-195.099947
 30
906.727595
 70
    32
  0
VERTEX
  5
367
  8
TEAM-NET
 10
8.752559
 20
-194.20951
 30
906.727595
 70
    32
  0
VERTEX
  5
368
  8
TEAM-NET
 10
7.92892
 20
-193.617802
 30
906.727595
 70
    32
  0
VERTEX
  5
369
  8
TEAM-NET
 10
6.461209
 20
-192.795599
 30
906.727595
 70
    32
  0
VERTEX
  5
36A
  8
TEAM-NET
 10
5.847017
 20
-192.526851
 30
906.727595
 70
    32
  0
VERTEX
  5
36B
  8
TEAM-NET
 10
3.925346
 20
-191.931571
 30
906.727595
 70
    32
  0
VERTEX
  5
36C
  8
TEAM-NET
 10
3.761535
 20
-191.896808
 30
906.727595
 70
    32
  0
VERTEX
  5
36D
  8
TEAM-NET
 10
3.266724
 20
-191.806145
 30
906.727595
 70
    32
  0
VERTEX
  5
36E
  8
TEAM-NET
 10
1.260936
 20
-191.653567
 30
906.727595
 70
    32
  0
SEQEND
  5
36F
  8
TEAM-NET
  0
ARC
  5
370
  8
TEAM-NET
 10
-1.270725
 20
-203.445428
 30
-903.481779
 40
10.0
210
0.0
220
0.0
230
-1.0
 50
349.960116
 51
169.960116
1001
ACAD
1000
R13OBJECT
1002
{
1005
373
1002
}
  0
ARC
  5
371
  8
TEAM-NET
 10
-1.270725
 20
-203.445428
 30
-903.481779
 40
10.0
210
0.0
220
0.0
230
-1.0
 50
169.960116
 51
349.960116
1001
ACAD
1000
R13OBJECT
1002
{
1005
373
1002
}
  0
ARC
  5
372
  8
TEAM-NET
 10
1.270725
 20
-203.445428
 30
903.481779
 40
8.0
 50
190.039884
 51
10.039884
1001
ACAD
1000
R13OBJECT
1002
{
1005
373
1002
}
  0
ARC
  5
373
  8
TEAM-NET
 10
1.270725
 20
-203.445428
 30
903.481779
 40
8.0
 50
10.039884
 51
190.039884
  0
ARC
  5
374
  8
TEAM-NET
 10
-0.001925
 20
-60.0
 30
-902.632548
 40
23.0
210
0.0
220
0.0
230
-1.0
 50
349.960116
 51
169.960116
1001
ACAD
1000
R13OBJECT
1002
{
1005
2B
1002
}
  0
ARC
  5
375
  8
TEAM-NET
 10
-0.001925
 20
-60.0
 30
-902.632548
 40
23.0
210
0.0
220
0.0
230
-1.0
 50
169.960116
 51
349.960116
1001
ACAD
1000
R13OBJECT
1002
{
1005
2E
1002
}
  0
ARC
  5
376
  8
TEAM-NET
 10
-1.361715
 20
-203.744283
 30
-906.727595
 40
14.0
210
0.0
220
-0.0
230
-1.0
 50
266.724354
 51
92.320084
1001
ACAD
1000
R13OBJECT
1002
{
1005
2F5
1002
}
  0
ARC
  5
377
  8
TEAM-NET
 10
0.79468
 20
-135.746647
 30
906.727595
 40
14.0
 50
87.679916
 51
273.275646
1001
ACAD
1000
R13OBJECT
1002
{
1005
2F5
1002
}
  0
ARC
  5
378
  8
TEAM-NET
 10
-1.361715
 20
-203.744283
 30
-906.727595
 40
14.0
210
-0.0
220
-0.0
230
-1.0
 50
86.724354
 51
272.320084
1001
ACAD
1000
R13OBJECT
1002
{
1005
2F7
1002
}
  0
ARC
  5
379
  8
TEAM-NET
 10
0.79468
 20
-135.746647
 30
906.727595
 40
14.0
 50
267.679916
 51
93.275646
1001
ACAD
1000
R13OBJECT
1002
{
1005
2F7
1002
}
  0
POLYLINE
  5
37A
  8
TEAM-NET
 66
     1
 10
0.0
 20
0.0
 30
0.0
 70
     9
1001
ACAD
1000
R13OBJECT
1002
{
1005
300
1002
}
  0
VERTEX
  5
37B
  8
TEAM-NET
 10
1.26089
 20
-191.653567
 30
906.727595
 70
    32
  0
VERTEX
  5
37C
  8
TEAM-NET
 10
-1.411082
 20
-191.9788
 30
906.727595
 70
    32
  0
VERTEX
  5
37D
  8
TEAM-NET
 10
-2.703013
 20
-192.365254
 30
906.727595
 70
    32
  0
VERTEX
  5
37E
  8
TEAM-NET
 10
-3.93803
 20
-192.890945
 30
906.727595
 70
    32
  0
VERTEX
  5
37F
  8
TEAM-NET
 10
-6.205525
 20
-194.349124
 30
906.727595
 70
    32
  0
VERTEX
  5
380
  8
TEAM-NET
 10
-8.084289
 20
-196.26733
 30
906.727595
 70
    32
  0
VERTEX
  5
381
  8
TEAM-NET
 10
-9.084289
 20
-197.765565
 30
906.727595
 70
    32
  0
VERTEX
  5
382
  8
TEAM-NET
 10
-9.845979
 20
-199.38743
 30
906.727595
 70
    32
  0
VERTEX
  5
383
  8
TEAM-NET
 10
-10.255411
 20
-200.670134
 30
906.727595
 70
    32
  0
VERTEX
  5
384
  8
TEAM-NET
 10
-10.360095
 20
-201.108774
 30
906.727595
 70
    32
  0
VERTEX
  5
385
  8
TEAM-NET
 10
-10.612441
 20
-202.889783
 30
906.727595
 70
    32
  0
VERTEX
  5
386
  8
TEAM-NET
 10
-10.597545
 20
-204.680022
 30
906.727595
 70
    32
  0
VERTEX
  5
387
  8
TEAM-NET
 10
-10.315113
 20
-206.45854
 30
906.727595
 70
    32
  0
VERTEX
  5
388
  8
TEAM-NET
 10
-9.980976
 20
-207.6095
 30
906.727595
 70
    32
  0
VERTEX
  5
389
  8
TEAM-NET
 10
-9.536584
 20
-208.716466
 30
906.727595
 70
    32
  0
VERTEX
  5
38A
  8
TEAM-NET
 10
-8.981629
 20
-209.77892
 30
906.727595
 70
    32
  0
VERTEX
  5
38B
  8
TEAM-NET
 10
-8.366192
 20
-210.722213
 30
906.727595
 70
    32
  0
VERTEX
  5
38C
  8
TEAM-NET
 10
-7.955714
 20
-211.258565
 30
906.727595
 70
    32
  0
VERTEX
  5
38D
  8
TEAM-NET
 10
-6.727787
 20
-212.561208
 30
906.727595
 70
    32
  0
VERTEX
  5
38E
  8
TEAM-NET
 10
-5.312754
 20
-213.671597
 30
906.727595
 70
    32
  0
VERTEX
  5
38F
  8
TEAM-NET
 10
-3.74875
 20
-214.557209
 30
906.727595
 70
    32
  0
VERTEX
  5
390
  8
TEAM-NET
 10
-2.926083
 20
-214.907916
 30
906.727595
 70
    32
  0
VERTEX
  5
391
  8
TEAM-NET
 10
-2.07571
 20
-215.197531
 30
906.727595
 70
    32
  0
VERTEX
  5
392
  8
TEAM-NET
 10
-0.316752
 20
-215.582759
 30
906.727595
 70
    32
  0
VERTEX
  5
393
  8
TEAM-NET
 10
0.577094
 20
-215.675093
 30
906.727595
 70
    32
  0
VERTEX
  5
394
  8
TEAM-NET
 10
1.471133
 20
-215.700277
 30
906.727595
 70
    32
  0
VERTEX
  5
395
  8
TEAM-NET
 10
3.261641
 20
-215.549381
 30
906.727595
 70
    32
  0
VERTEX
  5
396
  8
TEAM-NET
 10
5.011382
 20
-215.131572
 30
906.727595
 70
    32
  0
VERTEX
  5
397
  8
TEAM-NET
 10
6.67112
 20
-214.460928
 30
906.727595
 70
    32
  0
VERTEX
  5
398
  8
TEAM-NET
 10
8.221372
 20
-213.544614
 30
906.727595
 70
    32
  0
VERTEX
  5
399
  8
TEAM-NET
 10
9.612013
 20
-212.411055
 30
906.727595
 70
    32
  0
VERTEX
  5
39A
  8
TEAM-NET
 10
10.238278
 20
-211.771417
 30
906.727595
 70
    32
  0
VERTEX
  5
39B
  8
TEAM-NET
 10
10.818111
 20
-211.08309
 30
906.727595
 70
    32
  0
VERTEX
  5
39C
  8
TEAM-NET
 10
11.218703
 20
-210.53887
 30
906.727595
 70
    32
  0
VERTEX
  5
39D
  8
TEAM-NET
 10
11.816111
 20
-209.584481
 30
906.727595
 70
    32
  0
VERTEX
  5
39E
  8
TEAM-NET
 10
12.575372
 20
-207.963391
 30
906.727595
 70
    32
  0
VERTEX
  5
39F
  8
TEAM-NET
 10
13.087373
 20
-206.23908
 30
906.727595
 70
    32
  0
VERTEX
  5
3A0
  8
TEAM-NET
 10
13.336359
 20
-204.459279
 30
906.727595
 70
    32
  0
VERTEX
  5
3A1
  8
TEAM-NET
 10
13.36076
 20
-203.78904
 30
906.727595
 70
    32
  0
VERTEX
  5
3A2
  8
TEAM-NET
 10
13.318233
 20
-202.668122
 30
906.727595
 70
    32
  0
VERTEX
  5
3A3
  8
TEAM-NET
 10
13.032236
 20
-200.889924
 30
906.727595
 70
    32
  0
VERTEX
  5
3A4
  8
TEAM-NET
 10
12.487792
 20
-199.182432
 30
906.727595
 70
    32
  0
VERTEX
  5
3A5
  8
TEAM-NET
 10
12.219328
 20
-198.566395
 30
906.727595
 70
    32
  0
VERTEX
  5
3A6
  8
TEAM-NET
 10
12.020578
 20
-198.16276
 30
906.727595
 70
    32
  0
VERTEX
  5
3A7
  8
TEAM-NET
 10
11.694269
 20
-197.571252
 30
906.727595
 70
    32
  0
VERTEX
  5
3A8
  8
TEAM-NET
 10
10.667779
 20
-196.093371
 30
906.727595
 70
    32
  0
VERTEX
  5
3A9
  8
TEAM-NET
 10
9.764988
 20
-195.099947
 30
906.727595
 70
    32
  0
VERTEX
  5
3AA
  8
TEAM-NET
 10
8.752559
 20
-194.20951
 30
906.727595
 70
    32
  0
VERTEX
  5
3AB
  8
TEAM-NET
 10
7.92892
 20
-193.617802
 30
906.727595
 70
    32
  0
VERTEX
  5
3AC
  8
TEAM-NET
 10
6.461209
 20
-192.795599
 30
906.727595
 70
    32
  0
VERTEX
  5
3AD
  8
TEAM-NET
 10
5.847017
 20
-192.526851
 30
906.727595
 70
    32
  0
VERTEX
  5
3AE
  8
TEAM-NET
 10
3.925346
 20
-191.931571
 30
906.727595
 70
    32
  0
VERTEX
  5
3AF
  8
TEAM-NET
 10
3.761535
 20
-191.896808
 30
906.727595
 70
    32
  0
VERTEX
  5
3B0
  8
TEAM-NET
 10
3.266724
 20
-191.806145
 30
906.727595
 70
    32
  0
VERTEX
  5
3B1
  8
TEAM-NET
 10
1.260936
 20
-191.653567
 30
906.727595
 70
    32
  0
SEQEND
  5
3B2
  8
TEAM-NET
  0
ARC
  5
3B3
  8
TEAM-NET
 10
-1.270725
 20
-203.445428
 30
-903.481779
 40
10.0
210
0.0
220
0.0
230
-1.0
 50
349.960116
 51
169.960116
1001
ACAD
1000
R13OBJECT
1002
{
1005
303
1002
}
  0
ARC
  5
3B4
  8
TEAM-NET
 10
1.270725
 20
-203.445428
 30
903.481779
 40
8.0
 50
10.039884
 51
190.039884
1001
ACAD
1000
R13OBJECT
1002
{
1005
305
1002
}
  0
ARC
  5
3B5
  8
TEAM-NET
 10
1.270725
 20
-203.445428
 30
903.481779
 40
8.0
 50
190.039884
 51
10.039884
1001
ACAD
1000
R13OBJECT
1002
{
1005
307
1002
}
  0
ARC
  5
3B6
  8
TEAM-NET
 10
-1.270725
 20
-203.445428
 30
-903.481779
 40
10.0
210
0.0
220
0.0
230
-1.0
 50
169.960116
 51
349.960116
1001
ACAD
1000
R13OBJECT
1002
{
1005
30A
1002
}
  0
ARC
  5
3B7
  8
TEAM-NET
 10
-1.270725
 20
-203.445428
 30
-913.481779
 40
10.0
210
0.0
220
0.0
230
-1.0
 50
349.960116
 51
169.960116
1001
ACAD
1000
R13OBJECT
1002
{
1005
3BA
1002
}
  0
ARC
  5
3B8
  8
TEAM-NET
 10
-1.270725
 20
-203.445428
 30
-913.481779
 40
10.0
210
0.0
220
0.0
230
-1.0
 50
169.960116
 51
349.960116
1001
ACAD
1000
R13OBJECT
1002
{
1005
3BA
1002
}
  0
ARC
  5
3B9
  8
TEAM-NET
 10
-1.270725
 20
-203.445428
 30
-913.481779
 40
8.0
210
0.0
220
0.0
230
-1.0
 50
349.960116
 51
169.960116
1001
ACAD
1000
R13OBJECT
1002
{
1005
3BA
1002
}
  0
ARC
  5
3BA
  8
TEAM-NET
 10
-1.270725
 20
-203.445428
 30
-913.481779
 40
8.0
210
0.0
220
0.0
230
-1.0
 50
169.960116
 51
349.960116
  0
ARC
  5
3BB
  8
TEAM-NET
 10
-1.270725
 20
-203.445428
 30
-913.481779
 40
10.0
210
0.0
220
0.0
230
-1.0
 50
349.960116
 51
169.960116
1001
ACAD
1000
R13OBJECT
1002
{
1005
303
1002
}
  0
ARC
  5
3BC
  8
TEAM-NET
 10
-1.270725
 20
-203.445428
 30
-913.481779
 40
8.0
210
0.0
220
0.0
230
-1.0
 50
349.960116
 51
169.960116
1001
ACAD
1000
R13OBJECT
1002
{
1005
305
1002
}
  0
ARC
  5
3BD
  8
TEAM-NET
 10
-1.270725
 20
-203.445428
 30
-913.481779
 40
8.0
210
0.0
220
0.0
230
-1.0
 50
169.960116
 51
349.960116
1001
ACAD
1000
R13OBJECT
1002
{
1005
307
1002
}
  0
ARC
  5
3BE
  8
TEAM-NET
 10
-1.270725
 20
-203.445428
 30
-913.481779
 40
10.0
210
0.0
220
0.0
230
-1.0
 50
169.960116
 51
349.960116
1001
ACAD
1000
R13OBJECT
1002
{
1005
30A
1002
}
  0
POLYLINE
  5
3BF
  8
TEAM-NET
 66
     1
 10
0.0
 20
0.0
 30
0.0
 70
     8
1001
ACAD
1000
R13OBJECT
1002
{
1005
2F5
1002
}
  0
VERTEX
  5
3C0
  8
TEAM-NET
 10
1.478079
 20
-217.698401
 30
908.814551
 70
    32
  0
VERTEX
  5
3C1
  8
TEAM-NET
 10
0.446369
 20
-217.668927
 30
908.814376
 70
    32
  0
VERTEX
  5
3C2
  8
TEAM-NET
 10
-0.596451
 20
-217.561227
 30
908.81384
 70
    32
  0
VERTEX
  5
3C3
  8
TEAM-NET
 10
-2.648568
 20
-217.111891
 30
908.811669
 70
    32
  0
VERTEX
  5
3C4
  8
TEAM-NET
 10
-3.64067
 20
-216.774078
 30
908.810034
 70
    32
  0
VERTEX
  5
3C5
  8
TEAM-NET
 10
-4.600447
 20
-216.365009
 30
908.808034
 70
    32
  0
VERTEX
  5
3C6
  8
TEAM-NET
 10
-6.425117
 20
-215.332029
 30
908.802865
 70
    32
  0
VERTEX
  5
3C7
  8
TEAM-NET
 10
-8.075986
 20
-214.036886
 30
908.796105
 70
    32
  0
VERTEX
  5
3C8
  8
TEAM-NET
 10
-9.508564
 20
-212.517534
 30
908.787734
 70
    32
  0
VERTEX
  5
3C9
  8
TEAM-NET
 10
-9.987454
 20
-211.891965
 30
908.784137
 70
    32
  0
VERTEX
  5
3CA
  8
TEAM-NET
 10
-10.70546
 20
-210.791781
 30
908.777582
 70
    32
  0
VERTEX
  5
3CB
  8
TEAM-NET
 10
-11.352905
 20
-209.552645
 30
908.769826
 70
    32
  0
VERTEX
  5
3CC
  8
TEAM-NET
 10
-11.871359
 20
-208.261631
 30
908.761289
 70
    32
  0
VERTEX
  5
3CD
  8
TEAM-NET
 10
-12.261181
 20
-206.91935
 30
908.751878
 70
    32
  0
VERTEX
  5
3CE
  8
TEAM-NET
 10
-12.590677
 20
-204.845294
 30
908.736128
 70
    32
  0
VERTEX
  5
3CF
  8
TEAM-NET
 10
-12.608047
 20
-202.757716
 30
908.718594
 70
    32
  0
VERTEX
  5
3D0
  8
TEAM-NET
 10
-12.313634
 20
-200.681079
 30
908.699196
 70
    32
  0
VERTEX
  5
3D1
  8
TEAM-NET
 10
-12.1915
 20
-200.169662
 30
908.694081
 70
    32
  0
VERTEX
  5
3D2
  8
TEAM-NET
 10
-11.71382
 20
-198.674222
 30
908.678271
 70
    32
  0
VERTEX
  5
3D3
  8
TEAM-NET
 10
-10.825169
 20
-196.783579
 30
908.656251
 70
    32
  0
VERTEX
  5
3D4
  8
TEAM-NET
 10
-9.658488
 20
-195.037307
 30
908.633579
 70
    32
  0
VERTEX
  5
3D5
  8
TEAM-NET
 10
-7.466575
 20
-192.801987
 30
908.600662
 70
    32
  0
VERTEX
  5
3D6
  8
TEAM-NET
 10
-4.821145
 20
-191.10317
 30
908.572198
 70
    32
  0
VERTEX
  5
3D7
  8
TEAM-NET
 10
-3.380284
 20
-190.490833
 30
908.561129
 70
    32
  0
VERTEX
  5
3D8
  8
TEAM-NET
 10
-1.873024
 20
-190.040718
 30
908.552744
 70
    32
  0
VERTEX
  5
3D9
  8
TEAM-NET
 10
1.244281
 20
-189.661912
 30
908.545773
 70
    32
  0
SEQEND
  5
3DA
  8
TEAM-NET
  0
POLYLINE
  5
3DB
  8
TEAM-NET
 66
     1
 10
0.0
 20
0.0
 30
0.0
 70
     8
1001
ACAD
1000
R13OBJECT
1002
{
1005
2F7
1002
}
  0
VERTEX
  5
3DC
  8
TEAM-NET
 10
1.244336
 20
-189.661912
 30
908.545773
 70
    32
  0
VERTEX
  5
3DD
  8
TEAM-NET
 10
3.584418
 20
-189.839563
 30
908.549693
 70
    32
  0
VERTEX
  5
3DE
  8
TEAM-NET
 10
4.161696
 20
-189.945141
 30
908.551861
 70
    32
  0
VERTEX
  5
3DF
  8
TEAM-NET
 10
4.352808
 20
-189.985623
 30
908.552683
 70
    32
  0
VERTEX
  5
3E0
  8
TEAM-NET
 10
6.594748
 20
-190.678917
 30
908.566192
 70
    32
  0
VERTEX
  5
3E1
  8
TEAM-NET
 10
7.311301
 20
-190.991948
 30
908.572015
 70
    32
  0
VERTEX
  5
3E2
  8
TEAM-NET
 10
9.023618
 20
-191.949745
 30
908.588943
 70
    32
  0
VERTEX
  5
3E3
  8
TEAM-NET
 10
9.984522
 20
-192.639126
 30
908.600385
 70
    32
  0
VERTEX
  5
3E4
  8
TEAM-NET
 10
11.16568
 20
-193.676674
 30
908.616563
 70
    32
  0
VERTEX
  5
3E5
  8
TEAM-NET
 10
12.218924
 20
-194.834377
 30
908.633296
 70
    32
  0
VERTEX
  5
3E6
  8
TEAM-NET
 10
13.416482
 20
-196.556903
 30
908.655949
 70
    32
  0
VERTEX
  5
3E7
  8
TEAM-NET
 10
13.797171
 20
-197.246401
 30
908.664347
 70
    32
  0
VERTEX
  5
3E8
  8
TEAM-NET
 10
14.029043
 20
-197.716922
 30
908.66988
 70
    32
  0
VERTEX
  5
3E9
  8
TEAM-NET
 10
14.342246
 20
-198.435074
 30
908.678029
 70
    32
  0
VERTEX
  5
3EA
  8
TEAM-NET
 10
14.977419
 20
-200.425772
 30
908.698922
 70
    32
  0
VERTEX
  5
3EB
  8
TEAM-NET
 10
15.311073
 20
-202.499125
 30
908.718367
 70
    32
  0
VERTEX
  5
3EC
  8
TEAM-NET
 10
15.360682
 20
-203.806195
 30
908.729576
 70
    32
  0
VERTEX
  5
3ED
  8
TEAM-NET
 10
15.332211
 20
-204.587772
 30
908.735932
 70
    32
  0
VERTEX
  5
3EE
  8
TEAM-NET
 10
15.04172
 20
-206.663324
 30
908.751672
 70
    32
  0
VERTEX
  5
3EF
  8
TEAM-NET
 10
14.44438
 20
-208.674281
 30
908.765517
 70
    32
  0
VERTEX
  5
3F0
  8
TEAM-NET
 10
13.55857
 20
-210.564943
 30
908.777433
 70
    32
  0
VERTEX
  5
3F1
  8
TEAM-NET
 10
12.86159
 20
-211.678071
 30
908.784002
 70
    32
  0
VERTEX
  5
3F2
  8
TEAM-NET
 10
12.394232
 20
-212.31282
 30
908.787609
 70
    32
  0
VERTEX
  5
3F3
  8
TEAM-NET
 10
11.717758
 20
-213.115656
 30
908.792036
 70
    32
  0
VERTEX
  5
3F4
  8
TEAM-NET
 10
10.987115
 20
-213.861712
 30
908.796019
 70
    32
  0
VERTEX
  5
3F5
  8
TEAM-NET
 10
9.364697
 20
-215.183885
 30
908.802782
 70
    32
  0
VERTEX
  5
3F6
  8
TEAM-NET
 10
7.556068
 20
-216.252684
 30
908.807981
 70
    32
  0
VERTEX
  5
3F7
  8
TEAM-NET
 10
5.619706
 20
-217.03494
 30
908.811632
 70
    32
  0
VERTEX
  5
3F8
  8
TEAM-NET
 10
3.57834
 20
-217.522287
 30
908.813821
 70
    32
  0
VERTEX
  5
3F9
  8
TEAM-NET
 10
1.489413
 20
-217.698301
 30
908.814551
 70
    32
  0
VERTEX
  5
3FA
  8
TEAM-NET
 10
1.478088
 20
-217.698401
 30
908.814551
 70
    32
  0
SEQEND
  5
3FB
  8
TEAM-NET
  0
POLYLINE
  5
3FC
  8
TEAM-NET
 66
     1
 10
0.0
 20
0.0
 30
0.0
 70
     8
1001
ACAD
1000
R13OBJECT
1002
{
1005
300
1002
}
  0
VERTEX
  5
3FD
  8
TEAM-NET
 10
1.478079
 20
-217.698401
 30
908.814551
 70
    32
  0
VERTEX
  5
3FE
  8
TEAM-NET
 10
0.446369
 20
-217.668927
 30
908.814376
 70
    32
  0
VERTEX
  5
3FF
  8
TEAM-NET
 10
-0.596451
 20
-217.561227
 30
908.81384
 70
    32
  0
VERTEX
  5
400
  8
TEAM-NET
 10
-2.648568
 20
-217.111891
 30
908.811669
 70
    32
  0
VERTEX
  5
401
  8
TEAM-NET
 10
-3.64067
 20
-216.774078
 30
908.810034
 70
    32
  0
VERTEX
  5
402
  8
TEAM-NET
 10
-4.600447
 20
-216.365009
 30
908.808034
 70
    32
  0
VERTEX
  5
403
  8
TEAM-NET
 10
-6.425117
 20
-215.332029
 30
908.802865
 70
    32
  0
VERTEX
  5
404
  8
TEAM-NET
 10
-8.075986
 20
-214.036886
 30
908.796105
 70
    32
  0
VERTEX
  5
405
  8
TEAM-NET
 10
-9.508564
 20
-212.517534
 30
908.787734
 70
    32
  0
VERTEX
  5
406
  8
TEAM-NET
 10
-9.987454
 20
-211.891965
 30
908.784137
 70
    32
  0
VERTEX
  5
407
  8
TEAM-NET
 10
-10.70546
 20
-210.791781
 30
908.777582
 70
    32
  0
VERTEX
  5
408
  8
TEAM-NET
 10
-11.352905
 20
-209.552645
 30
908.769826
 70
    32
  0
VERTEX
  5
409
  8
TEAM-NET
 10
-11.871359
 20
-208.261631
 30
908.761289
 70
    32
  0
VERTEX
  5
40A
  8
TEAM-NET
 10
-12.261181
 20
-206.91935
 30
908.751878
 70
    32
  0
VERTEX
  5
40B
  8
TEAM-NET
 10
-12.590677
 20
-204.845294
 30
908.736128
 70
    32
  0
VERTEX
  5
40C
  8
TEAM-NET
 10
-12.608047
 20
-202.757716
 30
908.718594
 70
    32
  0
VERTEX
  5
40D
  8
TEAM-NET
 10
-12.313634
 20
-200.681079
 30
908.699196
 70
    32
  0
VERTEX
  5
40E
  8
TEAM-NET
 10
-12.1915
 20
-200.169662
 30
908.694081
 70
    32
  0
VERTEX
  5
40F
  8
TEAM-NET
 10
-11.71382
 20
-198.674222
 30
908.678271
 70
    32
  0
VERTEX
  5
410
  8
TEAM-NET
 10
-10.825169
 20
-196.783579
 30
908.656251
 70
    32
  0
VERTEX
  5
411
  8
TEAM-NET
 10
-9.658488
 20
-195.037307
 30
908.633579
 70
    32
  0
VERTEX
  5
412
  8
TEAM-NET
 10
-7.466575
 20
-192.801987
 30
908.600662
 70
    32
  0
VERTEX
  5
413
  8
TEAM-NET
 10
-4.821145
 20
-191.10317
 30
908.572198
 70
    32
  0
VERTEX
  5
414
  8
TEAM-NET
 10
-3.380284
 20
-190.490833
 30
908.561129
 70
    32
  0
VERTEX
  5
415
  8
TEAM-NET
 10
-1.873024
 20
-190.040718
 30
908.552744
 70
    32
  0
VERTEX
  5
416
  8
TEAM-NET
 10
1.244281
 20
-189.661912
 30
908.545773
 70
    32
  0
SEQEND
  5
417
  8
TEAM-NET
  0
POLYLINE
  5
418
  8
TEAM-NET
 66
     1
 10
0.0
 20
0.0
 30
0.0
 70
     8
1001
ACAD
1000
R13OBJECT
1002
{
1005
300
1002
}
  0
VERTEX
  5
419
  8
TEAM-NET
 10
1.244336
 20
-189.661912
 30
908.545773
 70
    32
  0
VERTEX
  5
41A
  8
TEAM-NET
 10
3.584418
 20
-189.839563
 30
908.549693
 70
    32
  0
VERTEX
  5
41B
  8
TEAM-NET
 10
4.161696
 20
-189.945141
 30
908.551861
 70
    32
  0
VERTEX
  5
41C
  8
TEAM-NET
 10
4.352808
 20
-189.985623
 30
908.552683
 70
    32
  0
VERTEX
  5
41D
  8
TEAM-NET
 10
6.594748
 20
-190.678917
 30
908.566192
 70
    32
  0
VERTEX
  5
41E
  8
TEAM-NET
 10
7.311301
 20
-190.991948
 30
908.572015
 70
    32
  0
VERTEX
  5
41F
  8
TEAM-NET
 10
9.023618
 20
-191.949745
 30
908.588943
 70
    32
  0
VERTEX
  5
420
  8
TEAM-NET
 10
9.984522
 20
-192.639126
 30
908.600385
 70
    32
  0
VERTEX
  5
421
  8
TEAM-NET
 10
11.16568
 20
-193.676674
 30
908.616563
 70
    32
  0
VERTEX
  5
422
  8
TEAM-NET
 10
12.218924
 20
-194.834377
 30
908.633296
 70
    32
  0
VERTEX
  5
423
  8
TEAM-NET
 10
13.416482
 20
-196.556903
 30
908.655949
 70
    32
  0
VERTEX
  5
424
  8
TEAM-NET
 10
13.797171
 20
-197.246401
 30
908.664347
 70
    32
  0
VERTEX
  5
425
  8
TEAM-NET
 10
14.029043
 20
-197.716922
 30
908.66988
 70
    32
  0
VERTEX
  5
426
  8
TEAM-NET
 10
14.342246
 20
-198.435074
 30
908.678029
 70
    32
  0
VERTEX
  5
427
  8
TEAM-NET
 10
14.977419
 20
-200.425772
 30
908.698922
 70
    32
  0
VERTEX
  5
428
  8
TEAM-NET
 10
15.311073
 20
-202.499125
 30
908.718367
 70
    32
  0
VERTEX
  5
429
  8
TEAM-NET
 10
15.360682
 20
-203.806195
 30
908.729576
 70
    32
  0
VERTEX
  5
42A
  8
TEAM-NET
 10
15.332211
 20
-204.587772
 30
908.735932
 70
    32
  0
VERTEX
  5
42B
  8
TEAM-NET
 10
15.04172
 20
-206.663324
 30
908.751672
 70
    32
  0
VERTEX
  5
42C
  8
TEAM-NET
 10
14.44438
 20
-208.674281
 30
908.765517
 70
    32
  0
VERTEX
  5
42D
  8
TEAM-NET
 10
13.55857
 20
-210.564943
 30
908.777433
 70
    32
  0
VERTEX
  5
42E
  8
TEAM-NET
 10
12.86159
 20
-211.678071
 30
908.784002
 70
    32
  0
VERTEX
  5
42F
  8
TEAM-NET
 10
12.394232
 20
-212.31282
 30
908.787609
 70
    32
  0
VERTEX
  5
430
  8
TEAM-NET
 10
11.717758
 20
-213.115656
 30
908.792036
 70
    32
  0
VERTEX
  5
431
  8
TEAM-NET
 10
10.987115
 20
-213.861712
 30
908.796019
 70
    32
  0
VERTEX
  5
432
  8
TEAM-NET
 10
9.364697
 20
-215.183885
 30
908.802782
 70
    32
  0
VERTEX
  5
433
  8
TEAM-NET
 10
7.556068
 20
-216.252684
 30
908.807981
 70
    32
  0
VERTEX
  5
434
  8
TEAM-NET
 10
5.619706
 20
-217.03494
 30
908.811632
 70
    32
  0
VERTEX
  5
435
  8
TEAM-NET
 10
3.57834
 20
-217.522287
 30
908.813821
 70
    32
  0
VERTEX
  5
436
  8
TEAM-NET
 10
1.489413
 20
-217.698301
 30
908.814551
 70
    32
  0
VERTEX
  5
437
  8
TEAM-NET
 10
1.478088
 20
-217.698401
 30
908.814551
 70
    32
  0
SEQEND
  5
438
  8
TEAM-NET
  0
LINE
  5
439
  8
TEAM-NET
 10
215.001925
 20
0.0
 30
892.632548
 11
215.001925
 21
-340.0
 31
892.632548
  0
LINE
  5
43A
  8
TEAM-NET
 10
215.001925
 20
0.0
 30
892.632548
 11
215.001925
 21
-340.0
 31
892.632548
  0
ARC
  5
43B
  8
TEAM-NET
 10
-0.337306
 20
940.727595
 30
169.748554
 40
14.0
210
0.008339
220
-0.999965
230
0.0
 50
87.202135
 51
272.797865
1001
ACAD
1000
R13OBJECT
1002
{
1005
2F5
1002
}
  0
ARC
  5
43C
  8
TEAM-NET
 10
-0.337306
 20
940.727595
 30
169.748554
 40
14.0
210
0.008339
220
-0.999965
230
0.0
 50
267.202135
 51
92.797865
1001
ACAD
1000
R13OBJECT
1002
{
1005
2F7
1002
}
  0
LINE
  5
43D
  8
TEAM-NET
 10
0.137468
 20
-56.935323
 30
1031.327903
 11
0.209684
 21
-65.595275
 31
1026.327903
1001
ACAD
1000
R13OBJECT
1002
{
1005
44D
1002
}
  0
LINE
  5
43E
  8
TEAM-NET
 10
0.137468
 20
-56.935323
 30
1031.327903
 11
0.209684
 21
-65.595275
 31
1026.327903
1001
ACAD
1000
R13OBJECT
1002
{
1005
44E
1002
}
  0
ARC
  5
43F
  8
TEAM-NET
 10
-0.337306
 20
904.123408
 30
-466.357237
 40
17.5
210
0.007222
220
-0.865995
230
-0.5
 50
270.0
 51
90.0
1001
ACAD
1000
R13OBJECT
1002
{
1005
440
1002
}
  0
ARC
  5
440
  8
TEAM-NET
 10
-0.337306
 20
904.123408
 30
-466.357237
 40
17.5
210
0.007222
220
-0.865995
230
-0.5
 50
90.0
 51
270.0
  0
ARC
  5
441
  8
TEAM-NET
 10
-0.337306
 20
904.123408
 30
-466.357237
 40
17.5
210
0.007222
220
-0.865995
230
-0.5
 50
270.0
 51
90.0
1001
ACAD
1000
R13OBJECT
1002
{
1005
44D
1002
}
  0
ARC
  5
442
  8
TEAM-NET
 10
-0.337306
 20
904.123408
 30
-466.357237
 40
17.5
210
0.007222
220
-0.865995
230
-0.5
 50
90.0
 51
270.0
1001
ACAD
1000
R13OBJECT
1002
{
1005
44E
1002
}
  0
LINE
  5
443
  8
TEAM-NET
 10
-3.920583
 20
-37.844551
 30
1022.632548
 11
-3.920583
 21
-37.844551
 31
1060.632548
1001
ACAD
1000
R13OBJECT
1002
{
1005
445
1002
}
  0
LINE
  5
444
  8
TEAM-NET
 10
22.157374
 20
-56.077493
 30
1060.632548
 11
22.157374
 21
-56.077493
 31
1022.632548
1001
ACAD
1000
R13OBJECT
1002
{
1005
445
1002
}
  0
LINE
  5
445
  8
TEAM-NET
 10
-22.153525
 20
-63.922507
 30
1060.632548
 11
-22.153525
 21
-63.922507
 31
1022.632548
  0
LINE
  5
446
  8
TEAM-NET
 10
3.924432
 20
-82.155449
 30
1022.632548
 11
3.924432
 21
-82.155449
 31
1060.632548
1001
ACAD
1000
R13OBJECT
1002
{
1005
448
1002
}
  0
LINE
  5
447
  8
TEAM-NET
 10
22.157374
 20
-56.077493
 30
1060.632548
 11
22.157374
 21
-56.077493
 31
1022.632548
1001
ACAD
1000
R13OBJECT
1002
{
1005
448
1002
}
  0
LINE
  5
448
  8
TEAM-NET
 10
-22.153525
 20
-63.922507
 30
1060.632548
 11
-22.153525
 21
-63.922507
 31
1022.632548
  0
ARC
  5
449
  8
TEAM-NET
 10
0.337306
 20
904.123408
 30
456.357237
 40
17.5
210
-0.007222
220
0.865995
230
0.5
 50
90.0
 51
270.0
1001
ACAD
1000
R13OBJECT
1002
{
1005
25
1002
}
  0
ARC
  5
44A
  8
TEAM-NET
 10
0.337306
 20
904.123408
 30
456.357237
 40
17.5
210
-0.007222
220
0.865995
230
0.5
 50
270.0
 51
90.0
1001
ACAD
1000
R13OBJECT
1002
{
1005
28
1002
}
  0
ARC
  5
44B
  8
TEAM-NET
 10
0.337306
 20
904.123408
 30
456.357237
 40
17.5
210
-0.007222
220
0.865995
230
0.5
 50
90.0
 51
270.0
1001
ACAD
1000
R13OBJECT
1002
{
1005
44D
1002
}
  0
ARC
  5
44C
  8
TEAM-NET
 10
0.337306
 20
904.123408
 30
456.357237
 40
17.5
210
-0.007222
220
0.865995
230
0.5
 50
270.0
 51
90.0
1001
ACAD
1000
R13OBJECT
1002
{
1005
44E
1002
}
  0
LINE
  5
44D
  8
TEAM-NET
 10
-0.00846
 20
-39.435931
 30
1001.017014
 11
0.063756
 21
-48.095884
 31
996.017014
  0
LINE
  5
44E
  8
TEAM-NET
 10
-0.00846
 20
-39.435931
 30
1001.017014
 11
0.063756
 21
-48.095884
 31
996.017014
  0
ARC
  5
44F
  8
TEAM-NET
 10
-0.001925
 20
-60.0
 30
-1022.632548
 40
23.0
210
0.0
220
0.0
230
-1.0
 50
349.960116
 51
169.960116
1001
ACAD
1000
R13OBJECT
1002
{
1005
452
1002
}
  0
ARC
  5
450
  8
TEAM-NET
 10
-0.001925
 20
-60.0
 30
-1022.632548
 40
23.0
210
0.0
220
0.0
230
-1.0
 50
169.960116
 51
349.960116
1001
ACAD
1000
R13OBJECT
1002
{
1005
452
1002
}
  0
ARC
  5
451
  8
TEAM-NET
 10
-0.001925
 20
-60.0
 30
-1022.632548
 40
22.5
210
0.0
220
0.0
230
-1.0
 50
349.960116
 51
169.960116
1001
ACAD
1000
R13OBJECT
1002
{
1005
452
1002
}
  0
ARC
  5
452
  8
TEAM-NET
 10
-0.001925
 20
-60.0
 30
-1022.632548
 40
22.5
210
0.0
220
0.0
230
-1.0
 50
169.960116
 51
349.960116
  0
ARC
  5
453
  8
TEAM-NET
 10
-0.001925
 20
-60.0
 30
-1022.632548
 40
22.5
210
0.0
220
0.0
230
-1.0
 50
349.960116
 51
169.960116
1001
ACAD
1000
R13OBJECT
1002
{
1005
445
1002
}
  0
ARC
  5
454
  8
TEAM-NET
 10
-0.001925
 20
-60.0
 30
-1022.632548
 40
22.5
210
0.0
220
0.0
230
-1.0
 50
169.960116
 51
349.960116
1001
ACAD
1000
R13OBJECT
1002
{
1005
448
1002
}
  0
ARC
  5
455
  8
TEAM-NET
 10
-0.001925
 20
-60.0
 30
-1022.632548
 40
23.0
210
0.0
220
0.0
230
-1.0
 50
349.960116
 51
169.960116
1001
ACAD
1000
R13OBJECT
1002
{
1005
2B
1002
}
  0
ARC
  5
456
  8
TEAM-NET
 10
-0.001925
 20
-60.0
 30
-1022.632548
 40
23.0
210
0.0
220
0.0
230
-1.0
 50
169.960116
 51
349.960116
1001
ACAD
1000
R13OBJECT
1002
{
1005
2E
1002
}
  0
LINE
  5
457
  8
TEAM-NET
 10
17.636112
 20
-56.699651
 30
1011.172458
 11
17.563896
 21
-48.039699
 31
1016.172458
1001
ACAD
1000
R13OBJECT
1002
{
1005
44D
1002
}
  0
LINE
  5
458
  8
TEAM-NET
 10
-17.362672
 20
-56.991508
 30
1011.172458
 11
-17.434887
 21
-48.331555
 31
1016.172458
1001
ACAD
1000
R13OBJECT
1002
{
1005
44E
1002
}
  0
ARC
  5
459
  8
TEAM-NET
 10
-79.581534
 20
1060.632548
 30
-10.458124
 40
2.0
210
0.984687
220
0.174334
230
0.0
 50
90.0
 51
180.0
1001
ACAD
1000
R13OBJECT
1002
{
1005
45B
1002
}
  0
ARC
  5
45A
  8
TEAM-NET
 10
10.041876
 20
1060.632548
 30
59.081534
 40
2.0
210
0.174334
220
-0.984687
230
0.0
 50
360.0
 51
90.0
1001
ACAD
1000
R13OBJECT
1002
{
1005
45B
1002
}
  0
ARC
  5
45B
  8
TEAM-NET
 10
30.958124
 20
1060.632548
 30
-59.081534
 40
2.0
210
-0.174334
220
0.984687
230
0.0
 50
0.0
 51
90.0
  0
ARC
  5
45C
  8
TEAM-NET
 10
38.581534
 20
1060.632548
 30
10.458124
 40
2.0
210
-0.984687
220
-0.174334
230
0.0
 50
90.0
 51
180.0
1001
ACAD
1000
R13OBJECT
1002
{
1005
45E
1002
}
  0
ARC
  5
45D
  8
TEAM-NET
 10
10.041876
 20
1060.632548
 30
59.081534
 40
2.0
210
0.174334
220
-0.984687
230
0.0
 50
360.0
 51
90.0
1001
ACAD
1000
R13OBJECT
1002
{
1005
45E
1002
}
  0
ARC
  5
45E
  8
TEAM-NET
 10
30.958124
 20
1060.632548
 30
-59.081534
 40
2.0
210
-0.174334
220
0.984687
230
0.0
 50
0.0
 51
90.0
  0
ARC
  5
45F
  8
TEAM-NET
 10
0.001925
 20
-60.0
 30
1060.632548
 40
22.5
 50
190.039884
 51
10.039884
1001
ACAD
1000
R13OBJECT
1002
{
1005
45B
1002
}
  0
ARC
  5
460
  8
TEAM-NET
 10
0.001925
 20
-60.0
 30
1060.632548
 40
22.5
 50
10.039884
 51
190.039884
1001
ACAD
1000
R13OBJECT
1002
{
1005
45E
1002
}
  0
ARC
  5
461
  8
TEAM-NET
 10
0.001925
 20
-60.0
 30
1060.632548
 40
22.5
 50
10.039884
 51
190.039884
1001
ACAD
1000
R13OBJECT
1002
{
1005
445
1002
}
  0
ARC
  5
462
  8
TEAM-NET
 10
0.001925
 20
-60.0
 30
1060.632548
 40
22.5
 50
190.039884
 51
10.039884
1001
ACAD
1000
R13OBJECT
1002
{
1005
448
1002
}
  0
ARC
  5
463
  8
TEAM-NET
 10
-0.001925
 20
-60.0
 30
-1062.046761
 40
21.914214
210
0.0
220
0.0
230
-1.0
 50
169.960116
 51
349.960116
1001
ACAD
1000
R13OBJECT
1002
{
1005
45B
1002
}
  0
ARC
  5
464
  8
TEAM-NET
 10
-0.001925
 20
-60.0
 30
-1062.632548
 40
20.5
210
0.0
220
0.0
230
-1.0
 50
169.960116
 51
349.960116
1001
ACAD
1000
R13OBJECT
1002
{
1005
45B
1002
}
  0
ARC
  5
465
  8
TEAM-NET
 10
-0.001925
 20
-60.0
 30
-1062.046761
 40
21.914214
210
0.0
220
0.0
230
-1.0
 50
349.960116
 51
169.960116
1001
ACAD
1000
R13OBJECT
1002
{
1005
45E
1002
}
  0
ARC
  5
466
  8
TEAM-NET
 10
-0.001925
 20
-60.0
 30
-1062.632548
 40
20.5
210
0.0
220
0.0
230
-1.0
 50
349.960116
 51
169.960116
1001
ACAD
1000
R13OBJECT
1002
{
1005
45E
1002
}
  0
ARC
  5
467
  8
TEAM-NET
 10
-0.001925
 20
-60.0
 30
-1062.632548
 40
20.5
210
0.0
220
0.0
230
-1.0
 50
349.960116
 51
169.960116
1001
ACAD
1000
R13OBJECT
1002
{
1005
468
1002
}
  0
ARC
  5
468
  8
TEAM-NET
 10
-0.001925
 20
-60.0
 30
-1062.632548
 40
20.5
210
0.0
220
0.0
230
-1.0
 50
169.960116
 51
349.960116
  0
LINE
  5
469
  8
TEAM-NET
 10
8.103229
 20
-155.355793
 30
1062.632548
 11
17.561118
 21
-60.776905
 31
1062.632548
1001
ACAD
1000
R13OBJECT
1002
{
1005
47F
1002
}
  0
POLYLINE
  5
46A
  8
TEAM-NET
 66
     1
 10
0.0
 20
0.0
 30
0.0
 70
     8
1001
ACAD
1000
R13OBJECT
1002
{
1005
47F
1002
}
  0
VERTEX
  5
46B
  8
TEAM-NET
 10
17.561118
 20
-60.776905
 30
1062.632548
 70
    32
  0
VERTEX
  5
46C
  8
TEAM-NET
 10
17.403181
 20
-59.135974
 30
1062.632548
 70
    32
  0
VERTEX
  5
46D
  8
TEAM-NET
 10
16.604032
 20
-57.61231
 30
1062.632548
 70
    32
  0
VERTEX
  5
46E
  8
TEAM-NET
 10
15.115505
 20
-56.328154
 30
1062.632548
 70
    32
  0
VERTEX
  5
46F
  8
TEAM-NET
 10
13.311156
 20
-55.601061
 30
1062.632548
 70
    32
  0
VERTEX
  5
470
  8
TEAM-NET
 10
11.205463
 20
-55.355793
 30
1062.632548
 70
    32
  0
SEQEND
  5
471
  8
TEAM-NET
  0
LINE
  5
472
  8
TEAM-NET
 10
11.205463
 20
-55.355793
 30
1062.632548
 11
-9.999004
 21
-55.355793
 31
1062.632548
1001
ACAD
1000
R13OBJECT
1002
{
1005
47F
1002
}
  0
POLYLINE
  5
473
  8
TEAM-NET
 66
     1
 10
0.0
 20
0.0
 30
0.0
 70
     8
1001
ACAD
1000
R13OBJECT
1002
{
1005
47F
1002
}
  0
VERTEX
  5
474
  8
TEAM-NET
 10
-9.999004
 20
-55.355793
 30
1062.632548
 70
    32
  0
VERTEX
  5
475
  8
TEAM-NET
 10
-11.68776
 20
-55.50944
 30
1062.632548
 70
    32
  0
VERTEX
  5
476
  8
TEAM-NET
 10
-13.071877
 20
-55.914548
 30
1062.632548
 70
    32
  0
VERTEX
  5
477
  8
TEAM-NET
 10
-14.989118
 20
-57.156176
 30
1062.632548
 70
    32
  0
VERTEX
  5
478
  8
TEAM-NET
 10
-16.041428
 20
-58.700908
 30
1062.632548
 70
    32
  0
VERTEX
  5
479
  8
TEAM-NET
 10
-16.328591
 20
-59.726223
 30
1062.632548
 70
    32
  0
VERTEX
  5
47A
  8
TEAM-NET
 10
-16.354659
 20
-60.776905
 30
1062.632548
 70
    32
  0
SEQEND
  5
47B
  8
TEAM-NET
  0
LINE
  5
47C
  8
TEAM-NET
 10
-6.896771
 20
-155.355793
 30
1062.632548
 11
-16.354659
 21
-60.776905
 31
1062.632548
1001
ACAD
1000
R13OBJECT
1002
{
1005
47F
1002
}
  0
ARC
  5
47D
  8
TEAM-NET
 10
-3.291219
 20
-149.355793
 30
1062.632548
 40
7.0
 50
238.997281
 51
270.0
1001
ACAD
1000
R13OBJECT
1002
{
1005
47F
1002
}
  0
LINE
  5
47E
  8
TEAM-NET
 10
4.497678
 20
-156.355793
 30
1062.632548
 11
-3.291219
 21
-156.355793
 31
1062.632548
1001
ACAD
1000
R13OBJECT
1002
{
1005
47F
1002
}
  0
ARC
  5
47F
  8
TEAM-NET
 10
4.497678
 20
-149.355793
 30
1062.632548
 40
7.0
 50
270.0
 51
301.002719
  0
ARC
  5
480
  8
TEAM-NET
 10
-0.603229
 20
1062.632548
 30
-156.355793
 40
3.894449
210
0.0
220
1.0
230
0.0
 50
90.0
 51
180.0
1001
ACAD
1000
R13OBJECT
1002
{
1005
485
1002
}
  0
ARC
  5
481
  8
TEAM-NET
 10
-0.603229
 20
1062.632548
 30
-156.355793
 40
3.894449
210
0.0
220
1.0
230
0.0
 50
360.0
 51
90.0
1001
ACAD
1000
R13OBJECT
1002
{
1005
485
1002
}
  0
ARC
  5
482
  8
TEAM-NET
 10
-3.291219
 20
-149.355793
 30
1062.632548
 40
7.0
 50
238.997281
 51
270.0
1001
ACAD
1000
R13OBJECT
1002
{
1005
485
1002
}
  0
ARC
  5
483
  8
TEAM-NET
 10
-0.603229
 20
1062.632548
 30
-155.355793
 40
7.5
210
0.0
220
1.0
230
0.0
 50
0.0
 51
90.0
1001
ACAD
1000
R13OBJECT
1002
{
1005
485
1002
}
  0
ARC
  5
484
  8
TEAM-NET
 10
-0.603229
 20
1062.632548
 30
-155.355793
 40
7.5
210
0.0
220
1.0
230
0.0
 50
90.0
 51
180.0
1001
ACAD
1000
R13OBJECT
1002
{
1005
485
1002
}
  0
ARC
  5
485
  8
TEAM-NET
 10
4.497678
 20
-149.355793
 30
1062.632548
 40
7.0
 50
270.0
 51
301.002719
  0
LINE
  5
486
  8
TEAM-NET
 10
4.497678
 20
-156.355793
 30
1062.632548
 11
-3.291219
 21
-156.355793
 31
1062.632548
1001
ACAD
1000
R13OBJECT
1002
{
1005
488
1002
}
  0
ARC
  5
487
  8
TEAM-NET
 10
-0.603229
 20
1062.632548
 30
-156.355793
 40
3.894449
210
0.0
220
1.0
230
0.0
 50
360.0
 51
90.0
1001
ACAD
1000
R13OBJECT
1002
{
1005
488
1002
}
  0
ARC
  5
488
  8
TEAM-NET
 10
-0.603229
 20
1062.632548
 30
-156.355793
 40
3.894449
210
0.0
220
1.0
230
0.0
 50
90.0
 51
180.0
  0
POLYLINE
  5
489
  8
TEAM-NET
 66
     1
 10
0.0
 20
0.0
 30
0.0
 70
     8
1001
ACAD
1000
R13OBJECT
1002
{
1005
4A6
1002
}
  0
VERTEX
  5
48A
  8
TEAM-NET
 10
-16.354659
 20
-60.776905
 30
1062.632548
 70
    32
  0
VERTEX
  5
48B
  8
TEAM-NET
 10
-14.661196
 20
-60.696373
 30
1064.938721
 70
    32
  0
VERTEX
  5
48C
  8
TEAM-NET
 10
-12.64079
 20
-60.625008
 30
1066.990872
 70
    32
  0
VERTEX
  5
48D
  8
TEAM-NET
 10
-10.332124
 20
-60.564409
 30
1068.740003
 70
    32
  0
VERTEX
  5
48E
  8
TEAM-NET
 10
-7.797719
 20
-60.516197
 30
1070.136077
 70
    32
  0
VERTEX
  5
48F
  8
TEAM-NET
 10
-6.017459
 20
-60.491444
 30
1070.854428
 70
    32
  0
VERTEX
  5
490
  8
TEAM-NET
 10
-2.270155
 20
-60.459962
 30
1071.769677
 70
    32
  0
VERTEX
  5
491
  8
TEAM-NET
 10
-0.351245
 20
-60.45366
 30
1071.953093
 70
    32
  0
VERTEX
  5
492
  8
TEAM-NET
 10
1.567082
 20
-60.453674
 30
1071.952693
 70
    32
  0
VERTEX
  5
493
  8
TEAM-NET
 10
3.486228
 20
-60.460015
 30
1071.768133
 70
    32
  0
VERTEX
  5
494
  8
TEAM-NET
 10
6.315769
 20
-60.481364
 30
1071.147276
 70
    32
  0
VERTEX
  5
495
  8
TEAM-NET
 10
7.684626
 20
-60.497195
 30
1070.687435
 70
    32
  0
VERTEX
  5
496
  8
TEAM-NET
 10
9.012481
 20
-60.516322
 30
1070.132439
 70
    32
  0
VERTEX
  5
497
  8
TEAM-NET
 10
11.546515
 20
-60.564586
 30
1068.734893
 70
    32
  0
VERTEX
  5
498
  8
TEAM-NET
 10
13.85421
 20
-60.62522
 30
1066.984781
 70
    32
  0
VERTEX
  5
499
  8
TEAM-NET
 10
15.873748
 20
-60.696621
 30
1064.931582
 70
    32
  0
VERTEX
  5
49A
  8
TEAM-NET
 10
17.561118
 20
-60.776905
 30
1062.632548
 70
    32
  0
SEQEND
  5
49B
  8
TEAM-NET
  0
POLYLINE
  5
49C
  8
TEAM-NET
 66
     1
 10
0.0
 20
0.0
 30
0.0
 70
     8
1001
ACAD
1000
R13OBJECT
1002
{
1005
4A6
1002
}
  0
VERTEX
  5
49D
  8
TEAM-NET
 10
-9.999004
 20
-55.355793
 30
1062.632548
 70
    32
  0
VERTEX
  5
49E
  8
TEAM-NET
 10
-11.68776
 20
-55.50944
 30
1062.632548
 70
    32
  0
VERTEX
  5
49F
  8
TEAM-NET
 10
-13.071877
 20
-55.914548
 30
1062.632548
 70
    32
  0
VERTEX
  5
4A0
  8
TEAM-NET
 10
-14.989118
 20
-57.156176
 30
1062.632548
 70
    32
  0
VERTEX
  5
4A1
  8
TEAM-NET
 10
-16.041428
 20
-58.700908
 30
1062.632548
 70
    32
  0
VERTEX
  5
4A2
  8
TEAM-NET
 10
-16.328591
 20
-59.726223
 30
1062.632548
 70
    32
  0
VERTEX
  5
4A3
  8
TEAM-NET
 10
-16.354659
 20
-60.776905
 30
1062.632548
 70
    32
  0
SEQEND
  5
4A4
  8
TEAM-NET
  0
POLYLINE
  5
4A5
  8
TEAM-NET
 66
     1
 10
0.0
 20
0.0
 30
55.355793
 70
   128
210
-0.0
220
-1.0
230
-0.0
1001
ACAD
1000
R13OBJECT
1002
{
1005
E034780700000000
1002
}
  0
VERTEX
  5
855
  8
TEAM-NET
 10
11.205545
 20
1062.63263
 30
55.355793
  0
VERTEX
  5
856
  8
TEAM-NET
 10
10.561597
 20
1063.23163
 30
55.355793
  0
VERTEX
  5
857
  8
TEAM-NET
 10
8.827375
 20
1064.544088
 30
55.355793
  0
VERTEX
  5
858
  8
TEAM-NET
 10
6.923243
 20
1065.592698
 30
55.355793
  0
VERTEX
  5
859
  8
TEAM-NET
 10
5.925418
 20
1066.009282
 30
55.355793
  0
VERTEX
  5
85A
  8
TEAM-NET
 10
4.896725
 20
1066.354515
 30
55.355793
  0
VERTEX
  5
85B
  8
TEAM-NET
 10
2.770148
 20
1066.820747
 30
55.355793
  0
VERTEX
  5
85C
  8
TEAM-NET
 10
1.327689
 20
1066.959367
 30
55.355793
  0
VERTEX
  5
85D
  8
TEAM-NET
 10
-0.114182
 20
1066.959668
 30
55.355793
  0
VERTEX
  5
85E
  8
TEAM-NET
 10
-1.556465
 20
1066.821907
 30
55.355793
  0
VERTEX
  5
85F
  8
TEAM-NET
 10
-4.372745
 20
1066.134646
 30
55.355793
  0
VERTEX
  5
860
  8
TEAM-NET
 10
-5.710544
 20
1065.595428
 30
55.355793
  0
VERTEX
  5
861
  8
TEAM-NET
 10
-7.614955
 20
1064.547921
 30
55.355793
  0
VERTEX
  5
862
  8
TEAM-NET
 10
-9.349906
 20
1063.236197
 30
55.355793
  0
VERTEX
  5
863
  8
TEAM-NET
 10
-9.999082
 20
1062.632626
 30
55.355793
  0
SEQEND
  5
864
  8
TEAM-NET
  0
POLYLINE
  5
4A6
  8
TEAM-NET
 66
     1
 10
0.0
 20
0.0
 30
0.0
 70
     8
  0
VERTEX
  5
4A7
  8
TEAM-NET
 10
17.561118
 20
-60.776905
 30
1062.632548
 70
    32
  0
VERTEX
  5
4A8
  8
TEAM-NET
 10
17.403181
 20
-59.135974
 30
1062.632548
 70
    32
  0
VERTEX
  5
4A9
  8
TEAM-NET
 10
16.604032
 20
-57.61231
 30
1062.632548
 70
    32
  0
VERTEX
  5
4AA
  8
TEAM-NET
 10
15.115505
 20
-56.328154
 30
1062.632548
 70
    32
  0
VERTEX
  5
4AB
  8
TEAM-NET
 10
13.311156
 20
-55.601061
 30
1062.632548
 70
    32
  0
VERTEX
  5
4AC
  8
TEAM-NET
 10
11.205463
 20
-55.355793
 30
1062.632548
 70
    32
  0
SEQEND
  5
4AD
  8
TEAM-NET
  0
LINE
  5
4AE
  8
TEAM-NET
 10
8.103229
 20
-155.355793
 30
1062.632548
 11
17.561118
 21
-60.776905
 31
1062.632548
1001
ACAD
1000
R13OBJECT
1002
{
1005
4B2
1002
}
  0
ARC
  5
4AF
  8
TEAM-NET
 10
-0.603229
 20
1062.632548
 30
-155.355793
 40
7.5
210
0.0
220
1.0
230
0.0
 50
90.0
 51
180.0
1001
ACAD
1000
R13OBJECT
1002
{
1005
4B2
1002
}
  0
ARC
  5
4B0
  8
TEAM-NET
 10
-0.603229
 20
1062.632548
 30
-155.355793
 40
7.5
210
0.0
220
1.0
230
0.0
 50
0.0
 51
90.0
1001
ACAD
1000
R13OBJECT
1002
{
1005
4B2
1002
}
  0
LINE
  5
4B1
  8
TEAM-NET
 10
-6.896771
 20
-155.355793
 30
1062.632548
 11
-16.354659
 21
-60.776905
 31
1062.632548
1001
ACAD
1000
R13OBJECT
1002
{
1005
4B2
1002
}
  0
POLYLINE
  5
4B2
  8
TEAM-NET
 66
     1
 10
0.0
 20
0.0
 30
0.0
 70
     8
  0
VERTEX
  5
4B3
  8
TEAM-NET
 10
-16.354659
 20
-60.776905
 30
1062.632548
 70
    32
  0
VERTEX
  5
4B4
  8
TEAM-NET
 10
-14.661196
 20
-60.696373
 30
1064.938721
 70
    32
  0
VERTEX
  5
4B5
  8
TEAM-NET
 10
-12.64079
 20
-60.625008
 30
1066.990872
 70
    32
  0
VERTEX
  5
4B6
  8
TEAM-NET
 10
-10.332124
 20
-60.564409
 30
1068.740003
 70
    32
  0
VERTEX
  5
4B7
  8
TEAM-NET
 10
-7.797719
 20
-60.516197
 30
1070.136077
 70
    32
  0
VERTEX
  5
4B8
  8
TEAM-NET
 10
-6.017459
 20
-60.491444
 30
1070.854428
 70
    32
  0
VERTEX
  5
4B9
  8
TEAM-NET
 10
-2.270155
 20
-60.459962
 30
1071.769677
 70
    32
  0
VERTEX
  5
4BA
  8
TEAM-NET
 10
-0.351245
 20
-60.45366
 30
1071.953093
 70
    32
  0
VERTEX
  5
4BB
  8
TEAM-NET
 10
1.567082
 20
-60.453674
 30
1071.952693
 70
    32
  0
VERTEX
  5
4BC
  8
TEAM-NET
 10
3.486228
 20
-60.460015
 30
1071.768133
 70
    32
  0
VERTEX
  5
4BD
  8
TEAM-NET
 10
6.315769
 20
-60.481364
 30
1071.147276
 70
    32
  0
VERTEX
  5
4BE
  8
TEAM-NET
 10
7.684626
 20
-60.497195
 30
1070.687435
 70
    32
  0
VERTEX
  5
4BF
  8
TEAM-NET
 10
9.012481
 20
-60.516322
 30
1070.132439
 70
    32
  0
VERTEX
  5
4C0
  8
TEAM-NET
 10
11.546515
 20
-60.564586
 30
1068.734893
 70
    32
  0
VERTEX
  5
4C1
  8
TEAM-NET
 10
13.85421
 20
-60.62522
 30
1066.984781
 70
    32
  0
VERTEX
  5
4C2
  8
TEAM-NET
 10
15.873748
 20
-60.696621
 30
1064.931582
 70
    32
  0
VERTEX
  5
4C3
  8
TEAM-NET
 10
17.561118
 20
-60.776905
 30
1062.632548
 70
    32
  0
SEQEND
  5
4C4
  8
TEAM-NET
  0
LINE
  5
4C5
  8
TEAM-NET
 10
11.205463
 20
-55.355793
 30
1062.632548
 11
-9.999004
 21
-55.355793
 31
1062.632548
1001
ACAD
1000
R13OBJECT
1002
{
1005
4C6
1002
}
  0
POLYLINE
  5
4C6
  8
TEAM-NET
 66
     1
 10
0.0
 20
0.0
 30
55.355793
 70
   128
210
-0.0
220
-1.0
230
-0.0
  0
VERTEX
  5
865
  8
TEAM-NET
 10
11.205545
 20
1062.63263
 30
55.355793
  0
VERTEX
  5
866
  8
TEAM-NET
 10
10.561597
 20
1063.23163
 30
55.355793
  0
VERTEX
  5
867
  8
TEAM-NET
 10
8.827375
 20
1064.544088
 30
55.355793
  0
VERTEX
  5
868
  8
TEAM-NET
 10
6.923243
 20
1065.592698
 30
55.355793
  0
VERTEX
  5
869
  8
TEAM-NET
 10
5.925418
 20
1066.009282
 30
55.355793
  0
VERTEX
  5
86A
  8
TEAM-NET
 10
4.896725
 20
1066.354515
 30
55.355793
  0
VERTEX
  5
86B
  8
TEAM-NET
 10
2.770148
 20
1066.820747
 30
55.355793
  0
VERTEX
  5
86C
  8
TEAM-NET
 10
1.327689
 20
1066.959367
 30
55.355793
  0
VERTEX
  5
86D
  8
TEAM-NET
 10
-0.114182
 20
1066.959668
 30
55.355793
  0
VERTEX
  5
86E
  8
TEAM-NET
 10
-1.556465
 20
1066.821907
 30
55.355793
  0
VERTEX
  5
86F
  8
TEAM-NET
 10
-4.372745
 20
1066.134646
 30
55.355793
  0
VERTEX
  5
870
  8
TEAM-NET
 10
-5.710544
 20
1065.595428
 30
55.355793
  0
VERTEX
  5
871
  8
TEAM-NET
 10
-7.614955
 20
1064.547921
 30
55.355793
  0
VERTEX
  5
872
  8
TEAM-NET
 10
-9.349906
 20
1063.236197
 30
55.355793
  0
VERTEX
  5
873
  8
TEAM-NET
 10
-9.999082
 20
1062.632626
 30
55.355793
  0
SEQEND
  5
874
  8
TEAM-NET
  0
ENDSEC
  0
EOF
