  0
SECTION
  2
HEADER
  9
$ACADVER
  1
AC1009
  9
$INSBASE
 10
0.0
 20
0.0
 30
0.0
  9
$EXTMIN
 10
-279.859542
 20
-418.358162
 30
-0.030679
  9
$EXTMAX
 10
279.859544
 20
13.551956
 30
1005.557958
  9
$LIMMIN
 10
-279.859542
 20
-418.358162
  9
$LIMMAX
 10
279.859544
 20
13.551956
  9
$ORTHOMODE
 70
     1
  9
$REGENMODE
 70
     1
  9
$FILLMODE
 70
     1
  9
$QTEXTMODE
 70
     0
  9
$MIRRTEXT
 70
     0
  9
$DRAGMODE
 70
     2
  9
$LTSCALE
 40
25.0
  9
$OSMODE
 70
     0
  9
$ATTMODE
 70
     1
  9
$TEXTSIZE
 40
200.0
  9
$TRACEWID
 40
1.0
  9
$TEXTSTYLE
  7
STANDARD
  9
$CLAYER
  8
TEAM-MAS
  9
$CELTYPE
  6
BYLAYER
  9
$CECOLOR
 62
   256
  9
$DIMSCALE
 40
0.0
  9
$DIMASZ
 40
20.0
  9
$DIMEXO
 40
10.0
  9
$DIMDLI
 40
1.0
  9
$DIMRND
 40
0.0
  9
$DIMDLE
 40
0.0
  9
$DIMEXE
 40
1.0
  9
$DIMTP
 40
0.0
  9
$DIMTM
 40
0.0
  9
$DIMTXT
 40
35.0
  9
$DIMCEN
 40
1.0
  9
$DIMTSZ
 40
0.0
  9
$DIMTOL
 70
     0
  9
$DIMLIM
 70
     0
  9
$DIMTIH
 70
     0
  9
$DIMTOH
 70
     0
  9
$DIMSE1
 70
     0
  9
$DIMSE2
 70
     0
  9
$DIMTAD
 70
     0
  9
$DIMZIN
 70
     0
  9
$DIMBLK
  1

  9
$DIMASO
 70
     1
  9
$DIMSHO
 70
     0
  9
$DIMPOST
  1

  9
$DIMAPOST
  1

  9
$DIMALT
 70
     0
  9
$DIMALTD
 70
     2
  9
$DIMALTF
 40
25.4
  9
$DIMLFAC
 40
1.0
  9
$DIMTOFL
 70
     0
  9
$DIMTVP
 40
0.0
  9
$DIMTIX
 70
     0
  9
$DIMSOXD
 70
     0
  9
$DIMSAH
 70
     0
  9
$DIMBLK1
  1

  9
$DIMBLK2
  1

  9
$DIMSTYLE
  2
TEAM
  9
$DIMCLRD
 70
     9
  9
$DIMCLRE
 70
     9
  9
$DIMCLRT
 70
    11
  9
$DIMTFAC
 40
1.0
  9
$DIMGAP
 40
15.0
  9
$LUNITS
 70
     2
  9
$LUPREC
 70
     1
  9
$SKETCHINC
 40
1.0
  9
$FILLETRAD
 40
10.0
  9
$AUNITS
 70
     0
  9
$AUPREC
 70
     0
  9
$MENU
  1
ROPLANS
  9
$ELEVATION
 40
0.0
  9
$PELEVATION
 40
0.0
  9
$THICKNESS
 40
0.0
  9
$LIMCHECK
 70
     0
  9
$BLIPMODE
 70
     1
  9
$CHAMFERA
 40
0.0
  9
$CHAMFERB
 40
0.0
  9
$SKPOLY
 70
     0
  9
$TDCREATE
 40
2450392.957851
  9
$TDUPDATE
 40
2455538.902851
  9
$TDINDWG
 40
2.437341
  9
$TDUSRTIMER
 40
2.437341
  9
$USRTIMER
 70
     1
  9
$ANGBASE
 50
0.0
  9
$ANGDIR
 70
     0
  9
$PDMODE
 70
     0
  9
$PDSIZE
 40
0.0
  9
$PLINEWID
 40
0.0
  9
$COORDS
 70
     2
  9
$SPLFRAME
 70
     0
  9
$SPLINETYPE
 70
     6
  9
$SPLINESEGS
 70
     8
  9
$ATTDIA
 70
     0
  9
$ATTREQ
 70
     0
  9
$HANDLING
 70
     1
  9
$HANDSEED
  5
B62
  9
$SURFTAB1
 70
    36
  9
$SURFTAB2
 70
    36
  9
$SURFTYPE
 70
     6
  9
$SURFU
 70
     6
  9
$SURFV
 70
     6
  9
$UCSNAME
  2

  9
$UCSORG
 10
0.0
 20
0.0
 30
0.0
  9
$UCSXDIR
 10
1.0
 20
0.0
 30
0.0
  9
$UCSYDIR
 10
0.0
 20
1.0
 30
0.0
  9
$PUCSNAME
  2

  9
$PUCSORG
 10
0.0
 20
0.0
 30
0.0
  9
$PUCSXDIR
 10
1.0
 20
0.0
 30
0.0
  9
$PUCSYDIR
 10
0.0
 20
1.0
 30
0.0
  9
$USERI1
 70
     0
  9
$USERI2
 70
     0
  9
$USERI3
 70
     0
  9
$USERI4
 70
     0
  9
$USERI5
 70
     0
  9
$USERR1
 40
0.0
  9
$USERR2
 40
0.0
  9
$USERR3
 40
0.0
  9
$USERR4
 40
0.0
  9
$USERR5
 40
0.0
  9
$WORLDVIEW
 70
     1
  9
$SHADEDGE
 70
     0
  9
$SHADEDIF
 70
    70
  9
$TILEMODE
 70
     1
  9
$MAXACTVP
 70
    16
  9
$PLIMCHECK
 70
     0
  9
$PEXTMIN
 10
-0.805942
 20
0.005011
 30
0.0
  9
$PEXTMAX
 10
20.250094
 20
11.356329
 30
0.0
  9
$PLIMMIN
 10
0.0
 20
0.0
  9
$PLIMMAX
 10
12.0
 20
9.0
  9
$UNITMODE
 70
     0
  9
$VISRETAIN
 70
     0
  9
$PLINEGEN
 70
     0
  9
$PSLTSCALE
 70
     0
  0
ENDSEC
  0
SECTION
  2
TABLES
  0
TABLE
  2
VPORT
 70
     2
  0
VPORT
  2
*ACTIVE
 70
     0
 10
0.0
 20
0.0
 11
1.0
 21
1.0
 12
0.000001
 22
-202.403103
 13
0.0
 23
0.0
 14
1.0
 24
1.0
 15
50.0
 25
50.0
 16
0.0
 26
0.0
 36
1.0
 17
0.0
 27
0.0
 37
0.0
 40
434.562585
 41
1.865779
 42
50.0
 43
0.0
 44
0.0
 50
0.0
 51
0.0
 71
     0
 72
   100
 73
     1
 74
     1
 75
     0
 76
     0
 77
     0
 78
     0
  0
ENDTAB
  0
TABLE
  2
LTYPE
 70
     1
  0
LTYPE
  2
CONTINUOUS
 70
     0
  3
Solid Line
 72
    65
 73
     0
 40
0.0
  0
ENDTAB
  0
TABLE
  2
LAYER
 70
     5
  0
LAYER
  2
0
 70
     0
 62
     7
  6
CONTINUOUS
  0
LAYER
  2
TEAM-MAS
 70
     0
 62
     9
  6
CONTINUOUS
  0
LAYER
  2
TEAM-TXT
 70
     0
 62
    11
  6
CONTINUOUS
  0
LAYER
  2
TEAM-NET
 70
     0
 62
    15
  6
CONTINUOUS
  0
LAYER
  2
TEAM-INSP
 70
     0
 62
     5
  6
CONTINUOUS
  0
ENDTAB
  0
TABLE
  2
STYLE
 70
     2
  0
STYLE
  2
STANDARD
 70
     0
 40
0.0
 41
1.0
 50
0.0
 71
     0
 42
200.0
  3
txt
  4

  0
STYLE
  2
TEAM
 70
     0
 40
0.0
 41
0.8
 50
15.0
 71
     0
 42
7.0
  3
ROMANS.shx
  4

  0
ENDTAB
  0
TABLE
  2
VIEW
 70
     0
  0
ENDTAB
  0
TABLE
  2
UCS
 70
     0
  0
ENDTAB
  0
TABLE
  2
APPID
 70
     1
  0
APPID
  2
ACAD
 70
     0
  0
ENDTAB
  0
TABLE
  2
DIMSTYLE
 70
     1
  0
DIMSTYLE
  2
TEAM
 70
     0
  3

  4

  5

  6

  7

 40
0.0
 41
20.0
 42
10.0
 43
1.0
 44
1.0
 45
0.0
 46
0.0
 47
0.0
 48
0.0
140
35.0
141
1.0
142
0.0
143
25.4
144
1.0
145
0.0
146
1.0
147
15.0
 71
     0
 72
     0
 73
     0
 74
     0
 75
     0
 76
     0
 77
     0
 78
     0
170
     0
171
     2
172
     0
173
     0
174
     0
175
     0
176
     9
177
     9
178
    11
  0
ENDTAB
  0
ENDSEC
  0
SECTION
  2
BLOCKS
  0
BLOCK
  8
0
  2
$MODEL_SPACE
 70
     0
 10
0.0
 20
0.0
 30
0.0
  3
$MODEL_SPACE
  1

  0
ENDBLK
  5
86E
  8
0
  0
BLOCK
 67
     1
  8
0
  2
$PAPER_SPACE
 70
     0
 10
0.0
 20
0.0
 30
0.0
  3
$PAPER_SPACE
  1

  0
ENDBLK
  5
86C
 67
     1
  8
0
  0
ENDSEC
  0
SECTION
  2
ENTITIES
  0
CIRCLE
  5
20
  8
TEAM-INSP
 10
0.0
 20
0.0
 30
0.0
 40
10.0
  0
ARC
  5
22
  8
TEAM-NET
 10
-357.919112
 20
809.757281
 30
26.0
 40
50.0
210
1.0
220
0.0
230
0.0
 50
180.0
 51
206.40954
  0
ARC
  5
24
  8
TEAM-NET
 10
357.919112
 20
809.757281
 30
-30.0
 40
46.0
210
-1.0
220
0.0
230
0.0
 50
333.59046
 51
0.0
  0
ARC
  5
25
  8
TEAM-NET
 10
357.919112
 20
809.757281
 30
26.0
 40
50.0
210
-1.0
220
0.0
230
0.0
 50
333.59046
 51
0.0
  0
ARC
  5
26
  8
TEAM-NET
 10
-357.919112
 20
809.757281
 30
26.0
 40
50.0
210
1.0
220
0.0
230
0.0
 50
180.0
 51
206.40954
  0
ARC
  5
27
  8
TEAM-NET
 10
-357.919112
 20
809.757281
 30
-30.0
 40
46.0
210
1.0
220
0.0
230
0.0
 50
180.0
 51
206.40954
  0
ARC
  5
28
  8
TEAM-NET
 10
357.919112
 20
809.757281
 30
26.0
 40
50.0
210
-1.0
220
0.0
230
0.0
 50
333.59046
 51
0.0
  0
ARC
  5
29
  8
TEAM-NET
 10
-158.0
 20
850.0
 30
99.919112
 40
62.0
210
0.0
220
-1.0
230
0.0
 50
180.0
 51
270.0
  0
ARC
  5
2A
  8
TEAM-NET
 10
158.0
 20
850.0
 30
99.919112
 40
62.0
210
0.0
220
-1.0
230
0.0
 50
270.0
 51
0.0
  0
ARC
  5
2B
  8
TEAM-NET
 10
357.919112
 20
809.757281
 30
30.0
 40
46.0
210
-1.0
220
0.0
230
0.0
 50
333.59046
 51
0.0
  0
ARC
  5
2C
  8
TEAM-NET
 10
264.919112
 20
833.0
 30
30.0
 40
128.0
210
-1.0
220
0.0
230
0.0
 50
270.0
 51
358.657007
  0
ARC
  5
2D
  8
TEAM-NET
 10
264.919112
 20
833.0
 30
-33.0
 40
125.0
210
-1.0
220
0.0
230
0.0
 50
270.0
 51
358.657007
  0
ARC
  5
2E
  8
TEAM-NET
 10
-264.919112
 20
833.0
 30
30.0
 40
128.0
210
1.0
220
0.0
230
0.0
 50
181.342993
 51
270.0
  0
ARC
  5
2F
  8
TEAM-NET
 10
264.919112
 20
833.0
 30
30.0
 40
128.0
210
-1.0
220
0.0
230
0.0
 50
270.0
 51
358.657007
  0
ARC
  5
30
  8
TEAM-NET
 10
-264.919112
 20
833.0
 30
-33.0
 40
125.0
210
1.0
220
0.0
230
0.0
 50
181.342993
 51
270.0
  0
ARC
  5
31
  8
TEAM-NET
 10
-264.919112
 20
833.0
 30
30.0
 40
128.0
210
1.0
220
0.0
230
0.0
 50
181.342993
 51
270.0
  0
ARC
  5
32
  8
TEAM-NET
 10
-357.919112
 20
809.757281
 30
30.0
 40
46.0
210
1.0
220
0.0
230
0.0
 50
180.0
 51
206.40954
  0
POLYLINE
  5
33
  8
TEAM-NET
 66
     1
 10
0.0
 20
0.0
 30
-16.014589
 70
   128
210
0.872506
220
0.488603
230
-0.0
  0
VERTEX
  5
874
  8
TEAM-NET
 10
-437.888091
 20
830.070313
 30
-16.014589
  0
VERTEX
  5
875
  8
TEAM-NET
 10
-436.780938
 20
817.217641
 30
-16.014589
  0
VERTEX
  5
876
  8
TEAM-NET
 10
-434.162783
 20
804.532766
 30
-16.014589
  0
VERTEX
  5
877
  8
TEAM-NET
 10
-430.061461
 20
792.150554
 30
-16.014589
  0
VERTEX
  5
878
  8
TEAM-NET
 10
-424.520578
 20
780.202652
 30
-16.014589
  0
VERTEX
  5
879
  8
TEAM-NET
 10
-417.599043
 20
768.816089
 30
-16.014589
  0
VERTEX
  5
87A
  8
TEAM-NET
 10
-409.370446
 20
758.111926
 30
-16.014589
  0
VERTEX
  5
87B
  8
TEAM-NET
 10
-399.922274
 20
748.20397
 30
-16.014589
  0
VERTEX
  5
87C
  8
TEAM-NET
 10
-389.354979
 20
739.197562
 30
-16.014589
  0
VERTEX
  5
87D
  8
TEAM-NET
 10
-377.780911
 20
731.188457
 30
-16.014589
  0
VERTEX
  5
87E
  8
TEAM-NET
 10
-365.323127
 20
724.261808
 30
-16.014589
  0
VERTEX
  5
87F
  8
TEAM-NET
 10
-352.114076
 20
718.491258
 30
-16.014589
  0
VERTEX
  5
880
  8
TEAM-NET
 10
-338.294196
 20
713.938161
 30
-16.014589
  0
VERTEX
  5
881
  8
TEAM-NET
 10
-324.010421
 20
710.650924
 30
-16.014589
  0
VERTEX
  5
882
  8
TEAM-NET
 10
-309.414614
 20
708.664497
 30
-16.014589
  0
VERTEX
  5
883
  8
TEAM-NET
 10
-294.661957
 20
708.0
 30
-16.014589
  0
SEQEND
  5
884
  8
TEAM-NET
  0
ARC
  5
34
  8
TEAM-NET
 10
264.919112
 20
833.0
 30
-33.0
 40
125.0
210
-1.0
220
0.0
230
0.0
 50
270.0
 51
358.657007
  0
ARC
  5
35
  8
TEAM-NET
 10
-264.919112
 20
833.0
 30
-33.0
 40
125.0
210
1.0
220
0.0
230
0.0
 50
181.342993
 51
270.0
  0
POLYLINE
  5
36
  8
TEAM-NET
 66
     1
 10
0.0
 20
0.0
 30
-16.014589
 70
   128
210
-0.872506
220
0.488603
230
0.0
  0
VERTEX
  5
885
  8
TEAM-NET
 10
294.661957
 20
708.0
 30
-16.014589
  0
VERTEX
  5
886
  8
TEAM-NET
 10
309.414614
 20
708.664497
 30
-16.014589
  0
VERTEX
  5
887
  8
TEAM-NET
 10
324.010421
 20
710.650924
 30
-16.014589
  0
VERTEX
  5
888
  8
TEAM-NET
 10
338.294196
 20
713.938161
 30
-16.014589
  0
VERTEX
  5
889
  8
TEAM-NET
 10
352.114076
 20
718.491258
 30
-16.014589
  0
VERTEX
  5
88A
  8
TEAM-NET
 10
365.323127
 20
724.261808
 30
-16.014589
  0
VERTEX
  5
88B
  8
TEAM-NET
 10
377.780911
 20
731.188457
 30
-16.014589
  0
VERTEX
  5
88C
  8
TEAM-NET
 10
389.354979
 20
739.197562
 30
-16.014589
  0
VERTEX
  5
88D
  8
TEAM-NET
 10
399.922274
 20
748.20397
 30
-16.014589
  0
VERTEX
  5
88E
  8
TEAM-NET
 10
409.370446
 20
758.111926
 30
-16.014589
  0
VERTEX
  5
88F
  8
TEAM-NET
 10
417.599043
 20
768.816089
 30
-16.014589
  0
VERTEX
  5
890
  8
TEAM-NET
 10
424.520578
 20
780.202652
 30
-16.014589
  0
VERTEX
  5
891
  8
TEAM-NET
 10
430.061461
 20
792.150554
 30
-16.014589
  0
VERTEX
  5
892
  8
TEAM-NET
 10
434.162783
 20
804.532766
 30
-16.014589
  0
VERTEX
  5
893
  8
TEAM-NET
 10
436.780938
 20
817.217641
 30
-16.014589
  0
VERTEX
  5
894
  8
TEAM-NET
 10
437.888091
 20
830.070313
 30
-16.014589
  0
SEQEND
  5
895
  8
TEAM-NET
  0
ARC
  5
37
  8
TEAM-NET
 10
130.0
 20
833.0
 30
78.448925
 40
95.0
210
0.0
220
-1.0
230
0.0
 50
270.0
 51
358.190359
  0
ARC
  5
38
  8
TEAM-NET
 10
-130.0
 20
833.0
 30
-108.448925
 40
125.0
210
0.0
220
1.0
230
0.0
 50
181.342993
 51
270.0
  0
ARC
  5
39
  8
TEAM-NET
 10
130.0
 20
833.0
 30
-108.448925
 40
125.0
210
0.0
220
1.0
230
0.0
 50
270.0
 51
358.657007
  0
ARC
  5
3A
  8
TEAM-NET
 10
-130.0
 20
833.0
 30
78.448925
 40
95.0
210
0.0
220
-1.0
230
0.0
 50
181.809641
 51
270.0
  0
ARC
  5
3B
  8
TEAM-NET
 10
-130.0
 20
833.0
 30
-108.448925
 40
125.0
210
0.0
220
1.0
230
0.0
 50
181.342993
 51
270.0
  0
POLYLINE
  5
3C
  8
TEAM-NET
 66
     1
 10
0.0
 20
0.0
 30
167.625081
 70
   128
210
-0.488603
220
-0.872506
230
-0.0
  0
VERTEX
  5
896
  8
TEAM-NET
 10
242.866153
 20
708.0
 30
167.625081
  0
VERTEX
  5
897
  8
TEAM-NET
 10
257.61881
 20
708.664497
 30
167.625081
  0
VERTEX
  5
898
  8
TEAM-NET
 10
272.214617
 20
710.650924
 30
167.625081
  0
VERTEX
  5
899
  8
TEAM-NET
 10
286.498392
 20
713.938161
 30
167.625081
  0
VERTEX
  5
89A
  8
TEAM-NET
 10
300.318271
 20
718.491258
 30
167.625081
  0
VERTEX
  5
89B
  8
TEAM-NET
 10
313.527322
 20
724.261808
 30
167.625081
  0
VERTEX
  5
89C
  8
TEAM-NET
 10
325.985107
 20
731.188457
 30
167.625081
  0
VERTEX
  5
89D
  8
TEAM-NET
 10
337.559174
 20
739.197562
 30
167.625081
  0
VERTEX
  5
89E
  8
TEAM-NET
 10
348.12647
 20
748.20397
 30
167.625081
  0
VERTEX
  5
89F
  8
TEAM-NET
 10
357.574642
 20
758.111926
 30
167.625081
  0
VERTEX
  5
8A0
  8
TEAM-NET
 10
365.803238
 20
768.816089
 30
167.625081
  0
VERTEX
  5
8A1
  8
TEAM-NET
 10
372.724773
 20
780.202652
 30
167.625081
  0
VERTEX
  5
8A2
  8
TEAM-NET
 10
378.265657
 20
792.150554
 30
167.625081
  0
VERTEX
  5
8A3
  8
TEAM-NET
 10
382.366979
 20
804.532766
 30
167.625081
  0
VERTEX
  5
8A4
  8
TEAM-NET
 10
384.985134
 20
817.217641
 30
167.625081
  0
VERTEX
  5
8A5
  8
TEAM-NET
 10
386.092286
 20
830.070313
 30
167.625081
  0
SEQEND
  5
8A6
  8
TEAM-NET
  0
ARC
  5
3D
  8
TEAM-NET
 10
158.0
 20
850.0
 30
119.919112
 40
82.0
210
0.0
220
-1.0
230
0.0
 50
270.0
 51
0.0
  0
ARC
  5
3E
  8
TEAM-NET
 10
-158.0
 20
850.0
 30
-99.919112
 40
62.0
210
0.0
220
1.0
230
0.0
 50
180.0
 51
270.0
  0
ARC
  5
3F
  8
TEAM-NET
 10
158.0
 20
850.0
 30
-99.919112
 40
62.0
210
0.0
220
1.0
230
0.0
 50
270.0
 51
0.0
  0
ARC
  5
40
  8
TEAM-NET
 10
-158.0
 20
850.0
 30
119.919112
 40
82.0
210
0.0
220
-1.0
230
0.0
 50
180.0
 51
270.0
  0
POLYLINE
  5
41
  8
TEAM-NET
 66
     1
 10
0.0
 20
0.0
 30
6.096398
 70
   128
210
-0.867591
220
-0.497278
230
-0.0
  0
VERTEX
  5
8A7
  8
TEAM-NET
 10
328.366029
 20
768.0
 30
6.096398
  0
VERTEX
  5
8A8
  8
TEAM-NET
 10
340.702654
 20
768.701521
 30
6.096398
  0
VERTEX
  5
8A9
  8
TEAM-NET
 10
352.828195
 20
770.794082
 30
6.096398
  0
VERTEX
  5
8AA
  8
TEAM-NET
 10
364.535181
 20
774.241878
 30
6.096398
  0
VERTEX
  5
8AB
  8
TEAM-NET
 10
375.623304
 20
778.985917
 30
6.096398
  0
VERTEX
  5
8AC
  8
TEAM-NET
 10
385.902841
 20
784.945026
 30
6.096398
  0
VERTEX
  5
8AD
  8
TEAM-NET
 10
395.197908
 20
792.017244
 30
6.096398
  0
VERTEX
  5
8AE
  8
TEAM-NET
 10
403.349463
 20
800.081563
 30
6.096398
  0
VERTEX
  5
8AF
  8
TEAM-NET
 10
410.21803
 20
809.0
 30
6.096398
  0
VERTEX
  5
8B0
  8
TEAM-NET
 10
415.686087
 20
818.619959
 30
6.096398
  0
VERTEX
  5
8B1
  8
TEAM-NET
 10
419.660073
 20
828.776838
 30
6.096398
  0
VERTEX
  5
8B2
  8
TEAM-NET
 10
422.071993
 20
839.296852
 30
6.096398
  0
VERTEX
  5
8B3
  8
TEAM-NET
 10
422.880579
 20
850.0
 30
6.096398
  0
SEQEND
  5
8B4
  8
TEAM-NET
  0
POLYLINE
  5
42
  8
TEAM-NET
 66
     1
 10
0.0
 20
0.0
 30
-171.226201
 70
   128
210
0.497278
220
0.867591
230
-0.0
  0
VERTEX
  5
8B5
  8
TEAM-NET
 10
-374.769796
 20
850.0
 30
-171.226201
  0
VERTEX
  5
8B6
  8
TEAM-NET
 10
-373.961211
 20
839.296852
 30
-171.226201
  0
VERTEX
  5
8B7
  8
TEAM-NET
 10
-371.549291
 20
828.776838
 30
-171.226201
  0
VERTEX
  5
8B8
  8
TEAM-NET
 10
-367.575304
 20
818.619959
 30
-171.226201
  0
VERTEX
  5
8B9
  8
TEAM-NET
 10
-362.107247
 20
809.0
 30
-171.226201
  0
VERTEX
  5
8BA
  8
TEAM-NET
 10
-355.23868
 20
800.081563
 30
-171.226201
  0
VERTEX
  5
8BB
  8
TEAM-NET
 10
-347.087125
 20
792.017244
 30
-171.226201
  0
VERTEX
  5
8BC
  8
TEAM-NET
 10
-337.792059
 20
784.945026
 30
-171.226201
  0
VERTEX
  5
8BD
  8
TEAM-NET
 10
-327.512521
 20
778.985917
 30
-171.226201
  0
VERTEX
  5
8BE
  8
TEAM-NET
 10
-316.424399
 20
774.241878
 30
-171.226201
  0
VERTEX
  5
8BF
  8
TEAM-NET
 10
-304.717412
 20
770.794082
 30
-171.226201
  0
VERTEX
  5
8C0
  8
TEAM-NET
 10
-292.591871
 20
768.701521
 30
-171.226201
  0
VERTEX
  5
8C1
  8
TEAM-NET
 10
-280.255247
 20
768.0
 30
-171.226201
  0
SEQEND
  5
8C2
  8
TEAM-NET
  0
POLYLINE
  5
43
  8
TEAM-NET
 66
     1
 10
0.0
 20
0.0
 30
-171.226201
 70
   128
210
-0.497278
220
0.867591
230
0.0
  0
VERTEX
  5
8C3
  8
TEAM-NET
 10
280.255247
 20
768.0
 30
-171.226201
  0
VERTEX
  5
8C4
  8
TEAM-NET
 10
292.591871
 20
768.701521
 30
-171.226201
  0
VERTEX
  5
8C5
  8
TEAM-NET
 10
304.717412
 20
770.794082
 30
-171.226201
  0
VERTEX
  5
8C6
  8
TEAM-NET
 10
316.424399
 20
774.241878
 30
-171.226201
  0
VERTEX
  5
8C7
  8
TEAM-NET
 10
327.512521
 20
778.985917
 30
-171.226201
  0
VERTEX
  5
8C8
  8
TEAM-NET
 10
337.792059
 20
784.945026
 30
-171.226201
  0
VERTEX
  5
8C9
  8
TEAM-NET
 10
347.087125
 20
792.017244
 30
-171.226201
  0
VERTEX
  5
8CA
  8
TEAM-NET
 10
355.23868
 20
800.081563
 30
-171.226201
  0
VERTEX
  5
8CB
  8
TEAM-NET
 10
362.107247
 20
809.0
 30
-171.226201
  0
VERTEX
  5
8CC
  8
TEAM-NET
 10
367.575304
 20
818.619959
 30
-171.226201
  0
VERTEX
  5
8CD
  8
TEAM-NET
 10
371.549291
 20
828.776838
 30
-171.226201
  0
VERTEX
  5
8CE
  8
TEAM-NET
 10
373.961211
 20
839.296852
 30
-171.226201
  0
VERTEX
  5
8CF
  8
TEAM-NET
 10
374.769796
 20
850.0
 30
-171.226201
  0
SEQEND
  5
8D0
  8
TEAM-NET
  0
POLYLINE
  5
44
  8
TEAM-NET
 66
     1
 10
0.0
 20
0.0
 30
6.096398
 70
   128
210
0.867591
220
-0.497278
230
-0.0
  0
VERTEX
  5
8D1
  8
TEAM-NET
 10
-422.880579
 20
850.0
 30
6.096398
  0
VERTEX
  5
8D2
  8
TEAM-NET
 10
-422.071993
 20
839.296852
 30
6.096398
  0
VERTEX
  5
8D3
  8
TEAM-NET
 10
-419.660073
 20
828.776838
 30
6.096398
  0
VERTEX
  5
8D4
  8
TEAM-NET
 10
-415.686087
 20
818.619959
 30
6.096398
  0
VERTEX
  5
8D5
  8
TEAM-NET
 10
-410.21803
 20
809.0
 30
6.096398
  0
VERTEX
  5
8D6
  8
TEAM-NET
 10
-403.349463
 20
800.081563
 30
6.096398
  0
VERTEX
  5
8D7
  8
TEAM-NET
 10
-395.197908
 20
792.017244
 30
6.096398
  0
VERTEX
  5
8D8
  8
TEAM-NET
 10
-385.902841
 20
784.945026
 30
6.096398
  0
VERTEX
  5
8D9
  8
TEAM-NET
 10
-375.623304
 20
778.985917
 30
6.096398
  0
VERTEX
  5
8DA
  8
TEAM-NET
 10
-364.535181
 20
774.241878
 30
6.096398
  0
VERTEX
  5
8DB
  8
TEAM-NET
 10
-352.828195
 20
770.794082
 30
6.096398
  0
VERTEX
  5
8DC
  8
TEAM-NET
 10
-340.702654
 20
768.701521
 30
6.096398
  0
VERTEX
  5
8DD
  8
TEAM-NET
 10
-328.366029
 20
768.0
 30
6.096398
  0
SEQEND
  5
8DE
  8
TEAM-NET
  0
POLYLINE
  5
45
  8
TEAM-NET
 66
     1
 10
0.0
 20
0.0
 30
6.096398
 70
   128
210
0.867591
220
-0.497278
230
-0.0
  0
VERTEX
  5
8DF
  8
TEAM-NET
 10
-422.880579
 20
850.0
 30
6.096398
  0
VERTEX
  5
8E0
  8
TEAM-NET
 10
-422.071993
 20
839.296852
 30
6.096398
  0
VERTEX
  5
8E1
  8
TEAM-NET
 10
-419.660073
 20
828.776838
 30
6.096398
  0
VERTEX
  5
8E2
  8
TEAM-NET
 10
-415.686087
 20
818.619959
 30
6.096398
  0
VERTEX
  5
8E3
  8
TEAM-NET
 10
-410.21803
 20
809.0
 30
6.096398
  0
VERTEX
  5
8E4
  8
TEAM-NET
 10
-403.349463
 20
800.081563
 30
6.096398
  0
VERTEX
  5
8E5
  8
TEAM-NET
 10
-395.197908
 20
792.017244
 30
6.096398
  0
VERTEX
  5
8E6
  8
TEAM-NET
 10
-385.902841
 20
784.945026
 30
6.096398
  0
VERTEX
  5
8E7
  8
TEAM-NET
 10
-375.623304
 20
778.985917
 30
6.096398
  0
VERTEX
  5
8E8
  8
TEAM-NET
 10
-364.535181
 20
774.241878
 30
6.096398
  0
VERTEX
  5
8E9
  8
TEAM-NET
 10
-352.828195
 20
770.794082
 30
6.096398
  0
VERTEX
  5
8EA
  8
TEAM-NET
 10
-340.702654
 20
768.701521
 30
6.096398
  0
VERTEX
  5
8EB
  8
TEAM-NET
 10
-328.366029
 20
768.0
 30
6.096398
  0
SEQEND
  5
8EC
  8
TEAM-NET
  0
POLYLINE
  5
46
  8
TEAM-NET
 66
     1
 10
0.0
 20
0.0
 30
6.096398
 70
   128
210
-0.867591
220
-0.497278
230
-0.0
  0
VERTEX
  5
8ED
  8
TEAM-NET
 10
328.366029
 20
768.0
 30
6.096398
  0
VERTEX
  5
8EE
  8
TEAM-NET
 10
340.702654
 20
768.701521
 30
6.096398
  0
VERTEX
  5
8EF
  8
TEAM-NET
 10
352.828195
 20
770.794082
 30
6.096398
  0
VERTEX
  5
8F0
  8
TEAM-NET
 10
364.535181
 20
774.241878
 30
6.096398
  0
VERTEX
  5
8F1
  8
TEAM-NET
 10
375.623304
 20
778.985917
 30
6.096398
  0
VERTEX
  5
8F2
  8
TEAM-NET
 10
385.902841
 20
784.945026
 30
6.096398
  0
VERTEX
  5
8F3
  8
TEAM-NET
 10
395.197908
 20
792.017244
 30
6.096398
  0
VERTEX
  5
8F4
  8
TEAM-NET
 10
403.349463
 20
800.081563
 30
6.096398
  0
VERTEX
  5
8F5
  8
TEAM-NET
 10
410.21803
 20
809.0
 30
6.096398
  0
VERTEX
  5
8F6
  8
TEAM-NET
 10
415.686087
 20
818.619959
 30
6.096398
  0
VERTEX
  5
8F7
  8
TEAM-NET
 10
419.660073
 20
828.776838
 30
6.096398
  0
VERTEX
  5
8F8
  8
TEAM-NET
 10
422.071993
 20
839.296852
 30
6.096398
  0
VERTEX
  5
8F9
  8
TEAM-NET
 10
422.880579
 20
850.0
 30
6.096398
  0
SEQEND
  5
8FA
  8
TEAM-NET
  0
ARC
  5
47
  8
TEAM-NET
 10
158.0
 20
850.0
 30
119.919112
 40
82.0
210
0.0
220
-1.0
230
0.0
 50
270.0
 51
0.0
  0
POLYLINE
  5
48
  8
TEAM-NET
 66
     1
 10
0.0
 20
0.0
 30
-171.226201
 70
   128
210
0.497278
220
0.867591
230
-0.0
  0
VERTEX
  5
8FB
  8
TEAM-NET
 10
-374.769796
 20
850.0
 30
-171.226201
  0
VERTEX
  5
8FC
  8
TEAM-NET
 10
-373.961211
 20
839.296852
 30
-171.226201
  0
VERTEX
  5
8FD
  8
TEAM-NET
 10
-371.549291
 20
828.776838
 30
-171.226201
  0
VERTEX
  5
8FE
  8
TEAM-NET
 10
-367.575304
 20
818.619959
 30
-171.226201
  0
VERTEX
  5
8FF
  8
TEAM-NET
 10
-362.107247
 20
809.0
 30
-171.226201
  0
VERTEX
  5
900
  8
TEAM-NET
 10
-355.23868
 20
800.081563
 30
-171.226201
  0
VERTEX
  5
901
  8
TEAM-NET
 10
-347.087125
 20
792.017244
 30
-171.226201
  0
VERTEX
  5
902
  8
TEAM-NET
 10
-337.792059
 20
784.945026
 30
-171.226201
  0
VERTEX
  5
903
  8
TEAM-NET
 10
-327.512521
 20
778.985917
 30
-171.226201
  0
VERTEX
  5
904
  8
TEAM-NET
 10
-316.424399
 20
774.241878
 30
-171.226201
  0
VERTEX
  5
905
  8
TEAM-NET
 10
-304.717412
 20
770.794082
 30
-171.226201
  0
VERTEX
  5
906
  8
TEAM-NET
 10
-292.591871
 20
768.701521
 30
-171.226201
  0
VERTEX
  5
907
  8
TEAM-NET
 10
-280.255247
 20
768.0
 30
-171.226201
  0
SEQEND
  5
908
  8
TEAM-NET
  0
POLYLINE
  5
49
  8
TEAM-NET
 66
     1
 10
0.0
 20
0.0
 30
-16.014589
 70
   128
210
-0.872506
220
0.488603
230
0.0
  0
VERTEX
  5
909
  8
TEAM-NET
 10
294.661957
 20
708.0
 30
-16.014589
  0
VERTEX
  5
90A
  8
TEAM-NET
 10
309.414614
 20
708.664497
 30
-16.014589
  0
VERTEX
  5
90B
  8
TEAM-NET
 10
324.010421
 20
710.650924
 30
-16.014589
  0
VERTEX
  5
90C
  8
TEAM-NET
 10
338.294196
 20
713.938161
 30
-16.014589
  0
VERTEX
  5
90D
  8
TEAM-NET
 10
352.114076
 20
718.491258
 30
-16.014589
  0
VERTEX
  5
90E
  8
TEAM-NET
 10
365.323127
 20
724.261808
 30
-16.014589
  0
VERTEX
  5
90F
  8
TEAM-NET
 10
377.780911
 20
731.188457
 30
-16.014589
  0
VERTEX
  5
910
  8
TEAM-NET
 10
389.354979
 20
739.197562
 30
-16.014589
  0
VERTEX
  5
911
  8
TEAM-NET
 10
399.922274
 20
748.20397
 30
-16.014589
  0
VERTEX
  5
912
  8
TEAM-NET
 10
409.370446
 20
758.111926
 30
-16.014589
  0
VERTEX
  5
913
  8
TEAM-NET
 10
417.599043
 20
768.816089
 30
-16.014589
  0
VERTEX
  5
914
  8
TEAM-NET
 10
424.520578
 20
780.202652
 30
-16.014589
  0
VERTEX
  5
915
  8
TEAM-NET
 10
430.061461
 20
792.150554
 30
-16.014589
  0
VERTEX
  5
916
  8
TEAM-NET
 10
434.162783
 20
804.532766
 30
-16.014589
  0
VERTEX
  5
917
  8
TEAM-NET
 10
436.780938
 20
817.217641
 30
-16.014589
  0
VERTEX
  5
918
  8
TEAM-NET
 10
437.888091
 20
830.070313
 30
-16.014589
  0
SEQEND
  5
919
  8
TEAM-NET
  0
POLYLINE
  5
4A
  8
TEAM-NET
 66
     1
 10
0.0
 20
0.0
 30
167.625081
 70
   128
210
0.488603
220
-0.872506
230
-0.0
  0
VERTEX
  5
91A
  8
TEAM-NET
 10
-386.092286
 20
830.070313
 30
167.625081
  0
VERTEX
  5
91B
  8
TEAM-NET
 10
-384.985134
 20
817.217641
 30
167.625081
  0
VERTEX
  5
91C
  8
TEAM-NET
 10
-382.366979
 20
804.532766
 30
167.625081
  0
VERTEX
  5
91D
  8
TEAM-NET
 10
-378.265657
 20
792.150554
 30
167.625081
  0
VERTEX
  5
91E
  8
TEAM-NET
 10
-372.724773
 20
780.202652
 30
167.625081
  0
VERTEX
  5
91F
  8
TEAM-NET
 10
-365.803238
 20
768.816089
 30
167.625081
  0
VERTEX
  5
920
  8
TEAM-NET
 10
-357.574642
 20
758.111926
 30
167.625081
  0
VERTEX
  5
921
  8
TEAM-NET
 10
-348.12647
 20
748.20397
 30
167.625081
  0
VERTEX
  5
922
  8
TEAM-NET
 10
-337.559174
 20
739.197562
 30
167.625081
  0
VERTEX
  5
923
  8
TEAM-NET
 10
-325.985107
 20
731.188457
 30
167.625081
  0
VERTEX
  5
924
  8
TEAM-NET
 10
-313.527322
 20
724.261808
 30
167.625081
  0
VERTEX
  5
925
  8
TEAM-NET
 10
-300.318271
 20
718.491258
 30
167.625081
  0
VERTEX
  5
926
  8
TEAM-NET
 10
-286.498392
 20
713.938161
 30
167.625081
  0
VERTEX
  5
927
  8
TEAM-NET
 10
-272.214617
 20
710.650924
 30
167.625081
  0
VERTEX
  5
928
  8
TEAM-NET
 10
-257.61881
 20
708.664497
 30
167.625081
  0
VERTEX
  5
929
  8
TEAM-NET
 10
-242.866153
 20
708.0
 30
167.625081
  0
SEQEND
  5
92A
  8
TEAM-NET
  0
POLYLINE
  5
4B
  8
TEAM-NET
 66
     1
 10
0.0
 20
0.0
 30
167.625081
 70
   128
210
-0.488603
220
-0.872506
230
-0.0
  0
VERTEX
  5
92B
  8
TEAM-NET
 10
242.866153
 20
708.0
 30
167.625081
  0
VERTEX
  5
92C
  8
TEAM-NET
 10
257.61881
 20
708.664497
 30
167.625081
  0
VERTEX
  5
92D
  8
TEAM-NET
 10
272.214617
 20
710.650924
 30
167.625081
  0
VERTEX
  5
92E
  8
TEAM-NET
 10
286.498392
 20
713.938161
 30
167.625081
  0
VERTEX
  5
92F
  8
TEAM-NET
 10
300.318271
 20
718.491258
 30
167.625081
  0
VERTEX
  5
930
  8
TEAM-NET
 10
313.527322
 20
724.261808
 30
167.625081
  0
VERTEX
  5
931
  8
TEAM-NET
 10
325.985107
 20
731.188457
 30
167.625081
  0
VERTEX
  5
932
  8
TEAM-NET
 10
337.559174
 20
739.197562
 30
167.625081
  0
VERTEX
  5
933
  8
TEAM-NET
 10
348.12647
 20
748.20397
 30
167.625081
  0
VERTEX
  5
934
  8
TEAM-NET
 10
357.574642
 20
758.111926
 30
167.625081
  0
VERTEX
  5
935
  8
TEAM-NET
 10
365.803238
 20
768.816089
 30
167.625081
  0
VERTEX
  5
936
  8
TEAM-NET
 10
372.724773
 20
780.202652
 30
167.625081
  0
VERTEX
  5
937
  8
TEAM-NET
 10
378.265657
 20
792.150554
 30
167.625081
  0
VERTEX
  5
938
  8
TEAM-NET
 10
382.366979
 20
804.532766
 30
167.625081
  0
VERTEX
  5
939
  8
TEAM-NET
 10
384.985134
 20
817.217641
 30
167.625081
  0
VERTEX
  5
93A
  8
TEAM-NET
 10
386.092286
 20
830.070313
 30
167.625081
  0
SEQEND
  5
93B
  8
TEAM-NET
  0
POLYLINE
  5
4C
  8
TEAM-NET
 66
     1
 10
0.0
 20
0.0
 30
-16.014589
 70
   128
210
0.872506
220
0.488603
230
-0.0
  0
VERTEX
  5
93C
  8
TEAM-NET
 10
-437.888091
 20
830.070313
 30
-16.014589
  0
VERTEX
  5
93D
  8
TEAM-NET
 10
-436.780938
 20
817.217641
 30
-16.014589
  0
VERTEX
  5
93E
  8
TEAM-NET
 10
-434.162783
 20
804.532766
 30
-16.014589
  0
VERTEX
  5
93F
  8
TEAM-NET
 10
-430.061461
 20
792.150554
 30
-16.014589
  0
VERTEX
  5
940
  8
TEAM-NET
 10
-424.520578
 20
780.202652
 30
-16.014589
  0
VERTEX
  5
941
  8
TEAM-NET
 10
-417.599043
 20
768.816089
 30
-16.014589
  0
VERTEX
  5
942
  8
TEAM-NET
 10
-409.370446
 20
758.111926
 30
-16.014589
  0
VERTEX
  5
943
  8
TEAM-NET
 10
-399.922274
 20
748.20397
 30
-16.014589
  0
VERTEX
  5
944
  8
TEAM-NET
 10
-389.354979
 20
739.197562
 30
-16.014589
  0
VERTEX
  5
945
  8
TEAM-NET
 10
-377.780911
 20
731.188457
 30
-16.014589
  0
VERTEX
  5
946
  8
TEAM-NET
 10
-365.323127
 20
724.261808
 30
-16.014589
  0
VERTEX
  5
947
  8
TEAM-NET
 10
-352.114076
 20
718.491258
 30
-16.014589
  0
VERTEX
  5
948
  8
TEAM-NET
 10
-338.294196
 20
713.938161
 30
-16.014589
  0
VERTEX
  5
949
  8
TEAM-NET
 10
-324.010421
 20
710.650924
 30
-16.014589
  0
VERTEX
  5
94A
  8
TEAM-NET
 10
-309.414614
 20
708.664497
 30
-16.014589
  0
VERTEX
  5
94B
  8
TEAM-NET
 10
-294.661957
 20
708.0
 30
-16.014589
  0
SEQEND
  5
94C
  8
TEAM-NET
  0
ARC
  5
4D
  8
TEAM-NET
 10
130.0
 20
833.0
 30
-78.448925
 40
95.0
210
0.0
220
1.0
230
0.0
 50
270.0
 51
358.190359
  0
ARC
  5
4E
  8
TEAM-NET
 10
-130.0
 20
833.0
 30
-78.448925
 40
95.0
210
0.0
220
1.0
230
0.0
 50
181.809641
 51
270.0
  0
POLYLINE
  5
4F
  8
TEAM-NET
 66
     1
 10
0.0
 20
0.0
 30
167.625081
 70
   128
210
0.488603
220
-0.872506
230
-0.0
  0
VERTEX
  5
94D
  8
TEAM-NET
 10
-386.092286
 20
830.070313
 30
167.625081
  0
VERTEX
  5
94E
  8
TEAM-NET
 10
-384.985134
 20
817.217641
 30
167.625081
  0
VERTEX
  5
94F
  8
TEAM-NET
 10
-382.366979
 20
804.532766
 30
167.625081
  0
VERTEX
  5
950
  8
TEAM-NET
 10
-378.265657
 20
792.150554
 30
167.625081
  0
VERTEX
  5
951
  8
TEAM-NET
 10
-372.724773
 20
780.202652
 30
167.625081
  0
VERTEX
  5
952
  8
TEAM-NET
 10
-365.803238
 20
768.816089
 30
167.625081
  0
VERTEX
  5
953
  8
TEAM-NET
 10
-357.574642
 20
758.111926
 30
167.625081
  0
VERTEX
  5
954
  8
TEAM-NET
 10
-348.12647
 20
748.20397
 30
167.625081
  0
VERTEX
  5
955
  8
TEAM-NET
 10
-337.559174
 20
739.197562
 30
167.625081
  0
VERTEX
  5
956
  8
TEAM-NET
 10
-325.985107
 20
731.188457
 30
167.625081
  0
VERTEX
  5
957
  8
TEAM-NET
 10
-313.527322
 20
724.261808
 30
167.625081
  0
VERTEX
  5
958
  8
TEAM-NET
 10
-300.318271
 20
718.491258
 30
167.625081
  0
VERTEX
  5
959
  8
TEAM-NET
 10
-286.498392
 20
713.938161
 30
167.625081
  0
VERTEX
  5
95A
  8
TEAM-NET
 10
-272.214617
 20
710.650924
 30
167.625081
  0
VERTEX
  5
95B
  8
TEAM-NET
 10
-257.61881
 20
708.664497
 30
167.625081
  0
VERTEX
  5
95C
  8
TEAM-NET
 10
-242.866153
 20
708.0
 30
167.625081
  0
SEQEND
  5
95D
  8
TEAM-NET
  0
ARC
  5
50
  8
TEAM-NET
 10
130.0
 20
833.0
 30
-108.448925
 40
125.0
210
0.0
220
1.0
230
0.0
 50
270.0
 51
358.657007
  0
ARC
  5
51
  8
TEAM-NET
 10
-158.0
 20
850.0
 30
119.919112
 40
82.0
210
0.0
220
-1.0
230
0.0
 50
180.0
 51
270.0
  0
POLYLINE
  5
52
  8
TEAM-NET
 66
     1
 10
0.0
 20
0.0
 30
-171.226201
 70
   128
210
-0.497278
220
0.867591
230
0.0
  0
VERTEX
  5
95E
  8
TEAM-NET
 10
280.255247
 20
768.0
 30
-171.226201
  0
VERTEX
  5
95F
  8
TEAM-NET
 10
292.591871
 20
768.701521
 30
-171.226201
  0
VERTEX
  5
960
  8
TEAM-NET
 10
304.717412
 20
770.794082
 30
-171.226201
  0
VERTEX
  5
961
  8
TEAM-NET
 10
316.424399
 20
774.241878
 30
-171.226201
  0
VERTEX
  5
962
  8
TEAM-NET
 10
327.512521
 20
778.985917
 30
-171.226201
  0
VERTEX
  5
963
  8
TEAM-NET
 10
337.792059
 20
784.945026
 30
-171.226201
  0
VERTEX
  5
964
  8
TEAM-NET
 10
347.087125
 20
792.017244
 30
-171.226201
  0
VERTEX
  5
965
  8
TEAM-NET
 10
355.23868
 20
800.081563
 30
-171.226201
  0
VERTEX
  5
966
  8
TEAM-NET
 10
362.107247
 20
809.0
 30
-171.226201
  0
VERTEX
  5
967
  8
TEAM-NET
 10
367.575304
 20
818.619959
 30
-171.226201
  0
VERTEX
  5
968
  8
TEAM-NET
 10
371.549291
 20
828.776838
 30
-171.226201
  0
VERTEX
  5
969
  8
TEAM-NET
 10
373.961211
 20
839.296852
 30
-171.226201
  0
VERTEX
  5
96A
  8
TEAM-NET
 10
374.769796
 20
850.0
 30
-171.226201
  0
SEQEND
  5
96B
  8
TEAM-NET
  0
LINE
  5
53
  8
TEAM-NET
 10
-37.5
 20
-174.919112
 30
678.0
 11
-37.5
 21
-174.919112
 31
704.0
  0
LINE
  5
54
  8
TEAM-NET
 10
37.5
 20
-174.919112
 30
678.0
 11
37.5
 21
-174.919112
 31
704.0
  0
LINE
  5
55
  8
TEAM-NET
 10
30.0
 20
-198.397826
 30
704.0
 11
30.0
 21
-198.397826
 31
689.649417
  0
LINE
  5
56
  8
TEAM-NET
 10
30.555556
 20
-196.658662
 30
689.649417
 11
30.555556
 21
-196.658662
 31
704.0
  0
LINE
  5
57
  8
TEAM-NET
 10
-30.0
 20
-198.397826
 30
689.649417
 11
-30.0
 21
-198.397826
 31
704.0
  0
LINE
  5
58
  8
TEAM-NET
 10
-30.555556
 20
-196.658662
 30
704.0
 11
-30.555556
 21
-196.658662
 31
689.649417
  0
LINE
  5
59
  8
TEAM-NET
 10
-30.555556
 20
-196.658662
 30
704.0
 11
-30.555556
 21
-196.658662
 31
689.649417
  0
LINE
  5
5A
  8
TEAM-NET
 10
-37.5
 20
-174.919112
 30
678.0
 11
-37.5
 21
-174.919112
 31
704.0
  0
LINE
  5
5B
  8
TEAM-NET
 10
30.555556
 20
-196.658662
 30
689.649417
 11
30.555556
 21
-196.658662
 31
704.0
  0
LINE
  5
5C
  8
TEAM-NET
 10
37.5
 20
-174.919112
 30
678.0
 11
37.5
 21
-174.919112
 31
704.0
  0
LINE
  5
5D
  8
TEAM-NET
 10
26.0
 20
-174.919112
 30
760.267949
 11
26.0
 21
-174.919112
 31
678.0
  0
LINE
  5
5E
  8
TEAM-NET
 10
-26.0
 20
-174.919112
 30
760.267949
 11
-26.0
 21
-174.919112
 31
678.0
  0
LINE
  5
5F
  8
TEAM-NET
 10
26.0
 20
-174.919112
 30
760.267949
 11
26.0
 21
-174.919112
 31
678.0
  0
LINE
  5
60
  8
TEAM-NET
 10
-26.0
 20
-174.919112
 30
760.267949
 11
-26.0
 21
-174.919112
 31
678.0
  0
ARC
  5
61
  8
TEAM-NET
 10
-108.448925
 20
738.0
 30
130.0
 40
30.0
210
1.0
220
0.0
230
0.0
 50
270.0
 51
0.0
  0
ARC
  5
62
  8
TEAM-NET
 10
-108.448925
 20
738.0
 30
-130.0
 40
30.0
210
1.0
220
0.0
230
0.0
 50
270.0
 51
0.0
  0
LINE
  5
63
  8
TEAM-NET
 10
-30.0
 20
-198.397826
 30
689.649417
 11
-30.0
 21
-198.397826
 31
704.0
210
-1.0
220
0.0
230
0.0
  0
ARC
  5
64
  8
TEAM-NET
 10
238.362491
 20
869.130518
 30
30.0
 40
179.487704
210
-1.0
220
0.0
230
0.0
 50
270.491462
 51
333.59046
  0
LINE
  5
65
  8
TEAM-NET
 10
30.0
 20
-198.397826
 30
704.0
 11
30.0
 21
-198.397826
 31
689.649417
210
1.0
220
0.0
230
0.0
  0
ARC
  5
66
  8
TEAM-NET
 10
-238.362491
 20
869.130518
 30
30.0
 40
179.487704
210
1.0
220
0.0
230
0.0
 50
206.40954
 51
269.508538
  0
ARC
  5
67
  8
TEAM-NET
 10
-238.362491
 20
869.130518
 30
26.0
 40
183.487704
210
1.0
220
0.0
230
0.0
 50
206.40954
 51
269.513924
  0
ARC
  5
68
  8
TEAM-NET
 10
238.362491
 20
869.130518
 30
-30.0
 40
179.487704
210
-1.0
220
0.0
230
0.0
 50
270.491462
 51
333.59046
  0
ARC
  5
69
  8
TEAM-NET
 10
238.362491
 20
869.130518
 30
26.0
 40
183.487704
210
-1.0
220
0.0
230
0.0
 50
270.486076
 51
333.59046
  0
ARC
  5
6A
  8
TEAM-NET
 10
-238.362491
 20
869.130518
 30
26.0
 40
183.487704
210
1.0
220
0.0
230
0.0
 50
206.40954
 51
269.513924
  0
ARC
  5
6B
  8
TEAM-NET
 10
-238.362491
 20
869.130518
 30
-30.0
 40
179.487704
210
1.0
220
0.0
230
0.0
 50
206.40954
 51
269.508538
  0
ARC
  5
6C
  8
TEAM-NET
 10
238.362491
 20
869.130518
 30
26.0
 40
183.487704
210
-1.0
220
0.0
230
0.0
 50
270.486076
 51
333.59046
  0
ARC
  5
6D
  8
TEAM-NET
 10
-108.448925
 20
738.0
 30
130.0
 40
30.0
210
1.0
220
0.0
230
0.0
 50
270.0
 51
0.0
  0
ARC
  5
6E
  8
TEAM-NET
 10
-108.448925
 20
738.0
 30
-130.0
 40
30.0
210
1.0
220
0.0
230
0.0
 50
270.0
 51
0.0
  0
ARC
  5
6F
  8
TEAM-NET
 10
0.0
 20
-174.919112
 30
-678.0
 40
26.0
210
0.0
220
0.0
230
-1.0
 50
360.0
 51
180.0
  0
ARC
  5
70
  8
TEAM-NET
 10
0.0
 20
-174.919112
 30
-678.0
 40
26.0
210
0.0
220
0.0
230
-1.0
 50
180.0
 51
0.0
  0
ARC
  5
71
  8
TEAM-NET
 10
0.0
 20
-174.919112
 30
-678.0
 40
37.5
210
0.0
220
0.0
230
-1.0
 50
360.0
 51
180.0
  0
ARC
  5
72
  8
TEAM-NET
 10
0.0
 20
-174.919112
 30
-678.0
 40
37.5
210
0.0
220
0.0
230
-1.0
 50
180.0
 51
0.0
  0
ARC
  5
73
  8
TEAM-NET
 10
0.0
 20
-174.919112
 30
678.0
 40
37.5
 50
0.0
 51
180.0
  0
ARC
  5
74
  8
TEAM-NET
 10
0.0
 20
-174.919112
 30
678.0
 40
37.5
 50
180.0
 51
0.0
  0
ARC
  5
75
  8
TEAM-NET
 10
0.0
 20
-174.919112
 30
678.0
 40
26.0
 50
180.0
 51
0.0
  0
ARC
  5
76
  8
TEAM-NET
 10
0.0
 20
-174.919112
 30
678.0
 40
26.0
 50
0.0
 51
180.0
  0
ARC
  5
77
  8
TEAM-NET
 10
174.614911
 20
682.649417
 30
112.293751
 40
3.0
210
-0.766725
220
-0.641975
230
0.0
 50
90.0
 51
180.0
  0
POLYLINE
  5
78
  8
TEAM-NET
 66
     1
 10
0.0
 20
0.0
 30
0.0
 70
     8
  0
VERTEX
  5
501
  8
TEAM-NET
 10
24.074074
 20
-203.671312
 30
682.649417
 70
    32
  0
VERTEX
  5
502
  8
TEAM-NET
 10
26.372661
 20
-201.57871
 30
683.104245
 70
    32
  0
VERTEX
  5
503
  8
TEAM-NET
 10
28.357497
 20
-199.456917
 30
684.395726
 70
    32
  0
VERTEX
  5
504
  8
TEAM-NET
 10
29.882712
 20
-197.574645
 30
686.543658
 70
    32
  0
VERTEX
  5
505
  8
TEAM-NET
 10
30.371168
 20
-196.915523
 30
687.991335
 70
    32
  0
VERTEX
  5
506
  8
TEAM-NET
 10
30.555556
 20
-196.658662
 30
689.649417
 70
    32
  0
SEQEND
  5
507
  8
TEAM-NET
  0
POLYLINE
  5
79
  8
TEAM-NET
 66
     1
 10
0.0
 20
0.0
 30
0.0
 70
     8
  0
VERTEX
  5
508
  8
TEAM-NET
 10
30.0
 20
-198.397826
 30
689.649417
 70
    32
  0
VERTEX
  5
509
  8
TEAM-NET
 10
29.886207
 20
-198.675236
 30
688.701941
 70
    32
  0
VERTEX
  5
50A
  8
TEAM-NET
 10
29.58476
 20
-199.387087
 30
687.874697
 70
    32
  0
VERTEX
  5
50B
  8
TEAM-NET
 10
28.643484
 20
-201.419941
 30
686.647308
 70
    32
  0
VERTEX
  5
50C
  8
TEAM-NET
 10
27.418556
 20
-203.711477
 30
685.909319
 70
    32
  0
VERTEX
  5
50D
  8
TEAM-NET
 10
26.0
 20
-205.971488
 30
685.649417
 70
    32
  0
SEQEND
  5
50E
  8
TEAM-NET
  0
ARC
  5
7A
  8
TEAM-NET
 10
-33.0
 20
-198.397826
 30
-689.649417
 40
3.0
210
0.0
220
0.0
230
-1.0
 50
0.0
 51
35.430945
  0
ARC
  5
7B
  8
TEAM-NET
 10
174.614911
 20
682.649417
 30
112.293751
 40
3.0
210
-0.766725
220
-0.641975
230
0.0
 50
90.0
 51
180.0
  0
ARC
  5
7C
  8
TEAM-NET
 10
0.0
 20
-174.919112
 30
-685.649417
 40
40.5
210
0.0
220
0.0
230
-1.0
 50
230.060729
 51
309.939271
  0
ARC
  5
7D
  8
TEAM-NET
 10
0.0
 20
-174.919112
 30
682.649417
 40
37.5
 50
230.060729
 51
309.939271
  0
ARC
  5
7E
  8
TEAM-NET
 10
174.614911
 20
682.649417
 30
-112.293751
 40
3.0
210
-0.766725
220
0.641975
230
0.0
 50
90.0
 51
180.0
  0
ARC
  5
7F
  8
TEAM-NET
 10
-33.0
 20
-198.397826
 30
689.649417
 40
3.0
 50
0.0
 51
35.430945
  0
POLYLINE
  5
80
  8
TEAM-NET
 66
     1
 10
0.0
 20
0.0
 30
0.0
 70
     8
  0
VERTEX
  5
50F
  8
TEAM-NET
 10
-30.555556
 20
-196.658662
 30
689.649417
 70
    32
  0
VERTEX
  5
510
  8
TEAM-NET
 10
-30.371835
 20
-196.914669
 30
687.995157
 70
    32
  0
VERTEX
  5
511
  8
TEAM-NET
 10
-29.886315
 20
-197.569925
 30
686.550972
 70
    32
  0
VERTEX
  5
512
  8
TEAM-NET
 10
-28.360458
 20
-199.453427
 30
684.398516
 70
    32
  0
VERTEX
  5
513
  8
TEAM-NET
 10
-26.374446
 20
-201.576866
 30
683.105116
 70
    32
  0
VERTEX
  5
514
  8
TEAM-NET
 10
-24.074074
 20
-203.671312
 30
682.649417
 70
    32
  0
SEQEND
  5
515
  8
TEAM-NET
  0
POLYLINE
  5
81
  8
TEAM-NET
 66
     1
 10
0.0
 20
0.0
 30
0.0
 70
     8
  0
VERTEX
  5
516
  8
TEAM-NET
 10
-26.0
 20
-205.971488
 30
685.649417
 70
    32
  0
VERTEX
  5
517
  8
TEAM-NET
 10
-27.419658
 20
-203.709486
 30
685.909816
 70
    32
  0
VERTEX
  5
518
  8
TEAM-NET
 10
-28.645311
 20
-201.416172
 30
686.648902
 70
    32
  0
VERTEX
  5
519
  8
TEAM-NET
 10
-29.586983
 20
-199.38199
 30
687.878877
 70
    32
  0
VERTEX
  5
51A
  8
TEAM-NET
 10
-29.886618
 20
-198.674314
 30
688.704125
 70
    32
  0
VERTEX
  5
51B
  8
TEAM-NET
 10
-30.0
 20
-198.397826
 30
689.649417
 70
    32
  0
SEQEND
  5
51C
  8
TEAM-NET
  0
ARC
  5
82
  8
TEAM-NET
 10
174.614911
 20
682.649417
 30
-112.293751
 40
3.0
210
-0.766725
220
0.641975
230
0.0
 50
90.0
 51
180.0
  0
POLYLINE
  5
83
  8
TEAM-NET
 66
     1
 10
0.0
 20
0.0
 30
0.0
 70
     8
  0
VERTEX
  5
51D
  8
TEAM-NET
 10
-30.0
 20
-239.902052
 30
689.649417
 70
    32
  0
VERTEX
  5
51E
  8
TEAM-NET
 10
-29.695603
 20
-239.908602
 30
688.118887
 70
    32
  0
VERTEX
  5
51F
  8
TEAM-NET
 10
-28.828536
 20
-239.914134
 30
686.821098
 70
    32
  0
VERTEX
  5
520
  8
TEAM-NET
 10
-27.530807
 20
-239.91782
 30
685.953929
 70
    32
  0
VERTEX
  5
521
  8
TEAM-NET
 10
-26.0
 20
-239.919112
 30
685.649417
 70
    32
  0
SEQEND
  5
522
  8
TEAM-NET
  0
LINE
  5
84
  8
TEAM-NET
 10
-30.0
 20
-239.902052
 30
689.649417
 11
-30.0
 21
-198.397826
 31
689.649417
  0
LINE
  5
85
  8
TEAM-NET
 10
-26.0
 20
-205.971488
 30
685.649417
 11
-26.0
 21
-239.919112
 31
685.649417
  0
POLYLINE
  5
86
  8
TEAM-NET
 66
     1
 10
0.0
 20
0.0
 30
0.0
 70
     8
  0
VERTEX
  5
523
  8
TEAM-NET
 10
-26.0
 20
-205.971488
 30
685.649417
 70
    32
  0
VERTEX
  5
524
  8
TEAM-NET
 10
-27.419658
 20
-203.709486
 30
685.909816
 70
    32
  0
VERTEX
  5
525
  8
TEAM-NET
 10
-28.645311
 20
-201.416172
 30
686.648902
 70
    32
  0
VERTEX
  5
526
  8
TEAM-NET
 10
-29.586983
 20
-199.38199
 30
687.878877
 70
    32
  0
VERTEX
  5
527
  8
TEAM-NET
 10
-29.886618
 20
-198.674314
 30
688.704125
 70
    32
  0
VERTEX
  5
528
  8
TEAM-NET
 10
-30.0
 20
-198.397826
 30
689.649417
 70
    32
  0
SEQEND
  5
529
  8
TEAM-NET
  0
LINE
  5
87
  8
TEAM-NET
 10
-26.0
 20
-239.919112
 30
685.649417
 11
26.0
 21
-239.919112
 31
685.649417
210
0.0
220
0.0
230
-1.0
  0
LINE
  5
88
  8
TEAM-NET
 10
-26.0
 20
-205.971488
 30
685.649417
 11
-26.0
 21
-239.919112
 31
685.649417
210
0.0
220
0.0
230
-1.0
  0
LINE
  5
89
  8
TEAM-NET
 10
26.0
 20
-239.919112
 30
685.649417
 11
26.0
 21
-205.971488
 31
685.649417
210
0.0
220
0.0
230
-1.0
  0
ARC
  5
8A
  8
TEAM-NET
 10
0.0
 20
-174.919112
 30
-685.649417
 40
40.5
210
0.0
220
0.0
230
-1.0
 50
230.060729
 51
309.939271
  0
POLYLINE
  5
8B
  8
TEAM-NET
 66
     1
 10
0.0
 20
0.0
 30
0.0
 70
     8
  0
VERTEX
  5
52A
  8
TEAM-NET
 10
30.0
 20
-239.902052
 30
689.649417
 70
    32
  0
VERTEX
  5
52B
  8
TEAM-NET
 10
29.695603
 20
-239.908602
 30
688.118887
 70
    32
  0
VERTEX
  5
52C
  8
TEAM-NET
 10
28.828536
 20
-239.914134
 30
686.821098
 70
    32
  0
VERTEX
  5
52D
  8
TEAM-NET
 10
27.530807
 20
-239.91782
 30
685.953929
 70
    32
  0
VERTEX
  5
52E
  8
TEAM-NET
 10
26.0
 20
-239.919112
 30
685.649417
 70
    32
  0
SEQEND
  5
52F
  8
TEAM-NET
  0
LINE
  5
8C
  8
TEAM-NET
 10
26.0
 20
-239.919112
 30
685.649417
 11
26.0
 21
-205.971488
 31
685.649417
  0
LINE
  5
8D
  8
TEAM-NET
 10
30.0
 20
-198.397826
 30
689.649417
 11
30.0
 21
-239.902052
 31
689.649417
  0
POLYLINE
  5
8E
  8
TEAM-NET
 66
     1
 10
0.0
 20
0.0
 30
0.0
 70
     8
  0
VERTEX
  5
530
  8
TEAM-NET
 10
30.0
 20
-198.397826
 30
689.649417
 70
    32
  0
VERTEX
  5
531
  8
TEAM-NET
 10
29.886207
 20
-198.675236
 30
688.701941
 70
    32
  0
VERTEX
  5
532
  8
TEAM-NET
 10
29.58476
 20
-199.387087
 30
687.874697
 70
    32
  0
VERTEX
  5
533
  8
TEAM-NET
 10
28.643484
 20
-201.419941
 30
686.647308
 70
    32
  0
VERTEX
  5
534
  8
TEAM-NET
 10
27.418556
 20
-203.711477
 30
685.909319
 70
    32
  0
VERTEX
  5
535
  8
TEAM-NET
 10
26.0
 20
-205.971488
 30
685.649417
 70
    32
  0
SEQEND
  5
536
  8
TEAM-NET
  0
ARC
  5
8F
  8
TEAM-NET
 10
-33.0
 20
-198.397826
 30
-689.649417
 40
3.0
210
0.0
220
0.0
230
-1.0
 50
0.0
 51
35.430945
  0
ARC
  5
90
  8
TEAM-NET
 10
-33.0
 20
-198.397826
 30
689.649417
 40
3.0
 50
0.0
 51
35.430945
  0
POLYLINE
  5
91
  8
TEAM-NET
 66
     1
 10
0.0
 20
0.0
 30
0.0
 70
     8
  0
VERTEX
  5
537
  8
TEAM-NET
 10
-30.555556
 20
-196.658662
 30
689.649417
 70
    32
  0
VERTEX
  5
538
  8
TEAM-NET
 10
-30.371835
 20
-196.914669
 30
687.995157
 70
    32
  0
VERTEX
  5
539
  8
TEAM-NET
 10
-29.886315
 20
-197.569925
 30
686.550972
 70
    32
  0
VERTEX
  5
53A
  8
TEAM-NET
 10
-28.360458
 20
-199.453427
 30
684.398516
 70
    32
  0
VERTEX
  5
53B
  8
TEAM-NET
 10
-26.374446
 20
-201.576866
 30
683.105116
 70
    32
  0
VERTEX
  5
53C
  8
TEAM-NET
 10
-24.074074
 20
-203.671312
 30
682.649417
 70
    32
  0
SEQEND
  5
53D
  8
TEAM-NET
  0
ARC
  5
92
  8
TEAM-NET
 10
0.0
 20
-174.919112
 30
682.649417
 40
37.5
 50
230.060729
 51
309.939271
  0
POLYLINE
  5
93
  8
TEAM-NET
 66
     1
 10
0.0
 20
0.0
 30
0.0
 70
     8
  0
VERTEX
  5
53E
  8
TEAM-NET
 10
24.074074
 20
-203.671312
 30
682.649417
 70
    32
  0
VERTEX
  5
53F
  8
TEAM-NET
 10
26.372661
 20
-201.57871
 30
683.104245
 70
    32
  0
VERTEX
  5
540
  8
TEAM-NET
 10
28.357497
 20
-199.456917
 30
684.395726
 70
    32
  0
VERTEX
  5
541
  8
TEAM-NET
 10
29.882712
 20
-197.574645
 30
686.543658
 70
    32
  0
VERTEX
  5
542
  8
TEAM-NET
 10
30.371168
 20
-196.915523
 30
687.991335
 70
    32
  0
VERTEX
  5
543
  8
TEAM-NET
 10
30.555556
 20
-196.658662
 30
689.649417
 70
    32
  0
SEQEND
  5
544
  8
TEAM-NET
  0
LINE
  5
94
  8
TEAM-NET
 10
-30.0
 20
-239.902052
 30
689.649417
 11
-30.0
 21
-198.397826
 31
689.649417
210
-1.0
220
0.0
230
0.0
  0
LINE
  5
95
  8
TEAM-NET
 10
30.0
 20
-198.397826
 30
689.649417
 11
30.0
 21
-239.902052
 31
689.649417
210
1.0
220
0.0
230
0.0
  0
POLYLINE
  5
96
  8
TEAM-NET
 66
     1
 10
0.0
 20
0.0
 30
0.0
 70
     8
  0
VERTEX
  5
545
  8
TEAM-NET
 10
30.0
 20
-239.902052
 30
689.649417
 70
    32
  0
VERTEX
  5
546
  8
TEAM-NET
 10
29.695603
 20
-239.908602
 30
688.118887
 70
    32
  0
VERTEX
  5
547
  8
TEAM-NET
 10
28.828536
 20
-239.914134
 30
686.821098
 70
    32
  0
VERTEX
  5
548
  8
TEAM-NET
 10
27.530807
 20
-239.91782
 30
685.953929
 70
    32
  0
VERTEX
  5
549
  8
TEAM-NET
 10
26.0
 20
-239.919112
 30
685.649417
 70
    32
  0
SEQEND
  5
54A
  8
TEAM-NET
  0
LINE
  5
97
  8
TEAM-NET
 10
-26.0
 20
-239.919112
 30
685.649417
 11
26.0
 21
-239.919112
 31
685.649417
  0
POLYLINE
  5
98
  8
TEAM-NET
 66
     1
 10
0.0
 20
0.0
 30
0.0
 70
     8
  0
VERTEX
  5
54B
  8
TEAM-NET
 10
-30.0
 20
-239.902052
 30
689.649417
 70
    32
  0
VERTEX
  5
54C
  8
TEAM-NET
 10
-29.695603
 20
-239.908602
 30
688.118887
 70
    32
  0
VERTEX
  5
54D
  8
TEAM-NET
 10
-28.828536
 20
-239.914134
 30
686.821098
 70
    32
  0
VERTEX
  5
54E
  8
TEAM-NET
 10
-27.530807
 20
-239.91782
 30
685.953929
 70
    32
  0
VERTEX
  5
54F
  8
TEAM-NET
 10
-26.0
 20
-239.919112
 30
685.649417
 70
    32
  0
SEQEND
  5
550
  8
TEAM-NET
  0
LINE
  5
99
  8
TEAM-NET
 10
11.066489
 20
-157.071625
 30
758.708407
 11
11.066489
 21
-157.071625
 31
728.866025
  0
LINE
  5
9A
  8
TEAM-NET
 10
-11.066489
 20
-192.7666
 30
758.708407
 11
-11.066489
 21
-192.7666
 31
728.866025
  0
LINE
  5
9B
  8
TEAM-NET
 10
11.593464
 20
-156.221744
 30
758.866025
 11
11.593464
 21
-156.221744
 31
728.866025
  0
LINE
  5
9C
  8
TEAM-NET
 10
-11.593464
 20
-193.616481
 30
758.866025
 11
-11.593464
 21
-193.616481
 31
728.866025
  0
LINE
  5
9D
  8
TEAM-NET
 10
11.593464
 20
-156.221744
 30
758.866025
 11
11.593464
 21
-156.221744
 31
728.866025
  0
LINE
  5
9E
  8
TEAM-NET
 10
-11.593464
 20
-193.616481
 30
758.866025
 11
-11.593464
 21
-193.616481
 31
728.866025
  0
LINE
  5
9F
  8
TEAM-NET
 10
11.066489
 20
-157.071625
 30
758.708407
 11
11.066489
 21
-157.071625
 31
728.866025
  0
LINE
  5
A0
  8
TEAM-NET
 10
-11.066489
 20
-192.7666
 30
758.708407
 11
-11.066489
 21
-192.7666
 31
728.866025
  0
LINE
  5
A1
  8
TEAM-NET
 10
-5.972793
 20
-174.34837
 30
730.708407
 11
-5.972793
 21
-174.34837
 31
770.708407
210
-0.072118
220
0.997396
230
0.0
  0
LINE
  5
A2
  8
TEAM-NET
 10
-20.993675
 20
-175.434468
 30
770.708407
 11
-20.993675
 21
-175.434468
 31
735.708407
210
-0.072118
220
0.997396
230
0.0
  0
LINE
  5
A3
  8
TEAM-NET
 10
-20.993675
 20
-175.434468
 30
770.708407
 11
-20.993675
 21
-175.434468
 31
735.708407
  0
LINE
  5
A4
  8
TEAM-NET
 10
-20.84944
 20
-177.429261
 30
770.708407
 11
-20.84944
 21
-177.429261
 31
735.708407
  0
LINE
  5
A5
  8
TEAM-NET
 10
0.570743
 20
-168.94632
 30
730.708407
 11
0.570743
 21
-168.94632
 31
770.708407
210
0.997396
220
0.072118
230
0.0
  0
LINE
  5
A6
  8
TEAM-NET
 10
-0.515356
 20
-153.925437
 30
770.708407
 11
-0.515356
 21
-153.925437
 31
735.708407
210
0.997396
220
0.072118
230
0.0
  0
LINE
  5
A7
  8
TEAM-NET
 10
-0.515356
 20
-153.925437
 30
770.708407
 11
-0.515356
 21
-153.925437
 31
735.708407
  0
LINE
  5
A8
  8
TEAM-NET
 10
-2.510148
 20
-154.069672
 30
770.708407
 11
-2.510148
 21
-154.069672
 31
735.708407
  0
LINE
  5
A9
  8
TEAM-NET
 10
5.972793
 20
-175.489855
 30
730.708407
 11
5.972793
 21
-175.489855
 31
770.708407
210
0.072118
220
-0.997396
230
-0.0
  0
LINE
  5
AA
  8
TEAM-NET
 10
20.993675
 20
-174.403757
 30
770.708407
 11
20.993675
 21
-174.403757
 31
735.708407
210
0.072118
220
-0.997396
230
-0.0
  0
LINE
  5
AB
  8
TEAM-NET
 10
20.993675
 20
-174.403757
 30
770.708407
 11
20.993675
 21
-174.403757
 31
735.708407
  0
LINE
  5
AC
  8
TEAM-NET
 10
20.84944
 20
-172.408964
 30
770.708407
 11
20.84944
 21
-172.408964
 31
735.708407
  0
LINE
  5
AD
  8
TEAM-NET
 10
-0.570743
 20
-180.891905
 30
770.708407
 11
-0.570743
 21
-180.891905
 31
730.708407
210
-0.997396
220
-0.072118
230
-0.0
  0
LINE
  5
AE
  8
TEAM-NET
 10
0.515356
 20
-195.912788
 30
770.708407
 11
0.515356
 21
-195.912788
 31
735.708407
210
-0.997396
220
-0.072118
230
-0.0
  0
LINE
  5
AF
  8
TEAM-NET
 10
0.515356
 20
-195.912788
 30
770.708407
 11
0.515356
 21
-195.912788
 31
735.708407
  0
LINE
  5
B0
  8
TEAM-NET
 10
2.510148
 20
-195.768553
 30
770.708407
 11
2.510148
 21
-195.768553
 31
735.708407
  0
LINE
  5
B1
  8
TEAM-NET
 10
5.828557
 20
-173.495063
 30
770.708407
 11
5.828557
 21
-173.495063
 31
730.708407
210
-0.072118
220
0.997396
230
0.0
  0
LINE
  5
B2
  8
TEAM-NET
 10
20.84944
 20
-172.408964
 30
770.708407
 11
20.84944
 21
-172.408964
 31
735.708407
210
-0.072118
220
0.997396
230
0.0
  0
LINE
  5
B3
  8
TEAM-NET
 10
1.42405
 20
-180.74767
 30
770.708407
 11
1.42405
 21
-180.74767
 31
730.708407
  0
LINE
  5
B4
  8
TEAM-NET
 10
5.972793
 20
-175.489855
 30
730.708407
 11
5.972793
 21
-175.489855
 31
770.708407
  0
LINE
  5
B5
  8
TEAM-NET
 10
-1.42405
 20
-169.090555
 30
770.708407
 11
-1.42405
 21
-169.090555
 31
730.708407
210
-0.997396
220
-0.072118
230
-0.0
  0
LINE
  5
B6
  8
TEAM-NET
 10
-2.510148
 20
-154.069672
 30
770.708407
 11
-2.510148
 21
-154.069672
 31
735.708407
210
-0.997396
220
-0.072118
230
-0.0
  0
LINE
  5
B7
  8
TEAM-NET
 10
0.570743
 20
-168.94632
 30
730.708407
 11
0.570743
 21
-168.94632
 31
770.708407
  0
LINE
  5
B8
  8
TEAM-NET
 10
5.828557
 20
-173.495063
 30
770.708407
 11
5.828557
 21
-173.495063
 31
730.708407
  0
LINE
  5
B9
  8
TEAM-NET
 10
-5.828557
 20
-176.343162
 30
770.708407
 11
-5.828557
 21
-176.343162
 31
730.708407
210
0.072118
220
-0.997396
230
-0.0
  0
LINE
  5
BA
  8
TEAM-NET
 10
-20.84944
 20
-177.429261
 30
770.708407
 11
-20.84944
 21
-177.429261
 31
735.708407
210
0.072118
220
-0.997396
230
-0.0
  0
LINE
  5
BB
  8
TEAM-NET
 10
-0.570743
 20
-180.891905
 30
770.708407
 11
-0.570743
 21
-180.891905
 31
730.708407
  0
LINE
  5
BC
  8
TEAM-NET
 10
-5.828557
 20
-176.343162
 30
770.708407
 11
-5.828557
 21
-176.343162
 31
730.708407
  0
LINE
  5
BD
  8
TEAM-NET
 10
-5.972793
 20
-174.34837
 30
730.708407
 11
-5.972793
 21
-174.34837
 31
770.708407
  0
LINE
  5
BE
  8
TEAM-NET
 10
-1.42405
 20
-169.090555
 30
770.708407
 11
-1.42405
 21
-169.090555
 31
730.708407
  0
LINE
  5
BF
  8
TEAM-NET
 10
1.42405
 20
-180.74767
 30
770.708407
 11
1.42405
 21
-180.74767
 31
730.708407
210
0.997396
220
0.072118
230
0.0
  0
LINE
  5
C0
  8
TEAM-NET
 10
2.510148
 20
-195.768553
 30
770.708407
 11
2.510148
 21
-195.768553
 31
735.708407
210
0.997396
220
0.072118
230
0.0
  0
LINE
  5
C1
  8
TEAM-NET
 10
130.0
 20
-264.919112
 30
708.0
 11
130.0
 21
-108.448925
 31
708.0
210
0.0
220
0.0
230
-1.0
  0
LINE
  5
C2
  8
TEAM-NET
 10
33.0
 20
-264.919112
 30
708.0
 11
130.0
 21
-264.919112
 31
708.0
210
0.0
220
0.0
230
-1.0
  0
LINE
  5
C3
  8
TEAM-NET
 10
130.0
 20
-108.448925
 30
708.0
 11
-130.0
 21
-108.448925
 31
708.0
210
0.0
220
0.0
230
-1.0
  0
LINE
  5
C4
  8
TEAM-NET
 10
33.0
 20
-200.083572
 30
708.0
 11
33.0
 21
-264.919112
 31
708.0
210
0.0
220
0.0
230
-1.0
  0
LINE
  5
C5
  8
TEAM-NET
 10
-130.0
 20
-108.448925
 30
708.0
 11
-130.0
 21
-264.919112
 31
708.0
210
0.0
220
0.0
230
-1.0
  0
ARC
  5
C6
  8
TEAM-NET
 10
0.0
 20
-174.919112
 30
-708.0
 40
41.5
210
0.0
220
0.0
230
-1.0
 50
322.672329
 51
217.327671
  0
LINE
  5
C7
  8
TEAM-NET
 10
-130.0
 20
-264.919112
 30
708.0
 11
-33.0
 21
-264.919112
 31
708.0
210
0.0
220
0.0
230
-1.0
  0
LINE
  5
C8
  8
TEAM-NET
 10
-33.0
 20
-264.919112
 30
708.0
 11
-33.0
 21
-200.083572
 31
708.0
210
0.0
220
0.0
230
-1.0
  0
ARC
  5
C9
  8
TEAM-NET
 10
0.0
 20
-174.919112
 30
704.0
 40
37.5
 50
0.0
 51
180.0
  0
ARC
  5
CA
  8
TEAM-NET
 10
-33.0
 20
-198.397826
 30
-704.0
 40
3.0
210
0.0
220
0.0
230
-1.0
 50
0.0
 51
35.430945
  0
ARC
  5
CB
  8
TEAM-NET
 10
-33.0
 20
-198.397826
 30
704.0
 40
3.0
 50
0.0
 51
35.430945
  0
ARC
  5
CC
  8
TEAM-NET
 10
0.0
 20
-174.919112
 30
704.0
 40
37.5
 50
180.0
 51
215.430945
  0
ARC
  5
CD
  8
TEAM-NET
 10
0.0
 20
-174.919112
 30
704.0
 40
37.5
 50
324.569055
 51
0.0
  0
ARC
  5
CE
  8
TEAM-NET
 10
-33.0
 20
705.0
 30
-264.919112
 40
3.0
210
0.0
220
1.0
230
0.0
 50
0.0
 51
90.0
  0
LINE
  5
CF
  8
TEAM-NET
 10
30.0
 20
-264.919112
 30
705.0
 11
30.0
 21
-200.083572
 31
705.0
  0
LINE
  5
D0
  8
TEAM-NET
 10
33.0
 20
-200.083572
 30
708.0
 11
33.0
 21
-264.919112
 31
708.0
  0
ARC
  5
D1
  8
TEAM-NET
 10
-33.0
 20
705.0
 30
-200.083572
 40
3.0
210
0.0
220
1.0
230
0.0
 50
0.0
 51
90.0
  0
ARC
  5
D2
  8
TEAM-NET
 10
-33.0
 20
705.0
 30
-200.083572
 40
3.0
210
0.0
220
1.0
230
0.0
 50
0.0
 51
90.0
  0
POLYLINE
  5
D3
  8
TEAM-NET
 66
     1
 10
0.0
 20
0.0
 30
-30.0
 70
   128
210
-1.0
220
0.0
230
0.0
  0
VERTEX
  5
96C
  8
TEAM-NET
 10
200.083572
 20
705.0
 30
-30.0
  0
VERTEX
  5
96D
  8
TEAM-NET
 10
199.043231
 20
704.782724
 30
-30.0
  0
VERTEX
  5
96E
  8
TEAM-NET
 10
198.397826
 20
704.0
 30
-30.0
  0
SEQEND
  5
96F
  8
TEAM-NET
  0
POLYLINE
  5
D4
  8
TEAM-NET
 66
     1
 10
0.0
 20
0.0
 30
0.0
 70
     8
  0
VERTEX
  5
555
  8
TEAM-NET
 10
30.555556
 20
-196.658662
 30
704.0
 70
    32
  0
VERTEX
  5
556
  8
TEAM-NET
 10
30.858976
 20
-197.069946
 30
705.911045
 70
    32
  0
VERTEX
  5
557
  8
TEAM-NET
 10
31.492478
 20
-197.941177
 30
707.130897
 70
    32
  0
VERTEX
  5
558
  8
TEAM-NET
 10
32.229019
 20
-198.975625
 30
707.788984
 70
    32
  0
VERTEX
  5
559
  8
TEAM-NET
 10
33.0
 20
-200.083572
 30
708.0
 70
    32
  0
SEQEND
  5
55A
  8
TEAM-NET
  0
ARC
  5
D5
  8
TEAM-NET
 10
-33.0
 20
-198.397826
 30
-704.0
 40
3.0
210
0.0
220
0.0
230
-1.0
 50
0.0
 51
35.430945
  0
ARC
  5
D6
  8
TEAM-NET
 10
-33.0
 20
-198.397826
 30
704.0
 40
3.0
 50
0.0
 51
35.430945
  0
POLYLINE
  5
D7
  8
TEAM-NET
 66
     1
 10
0.0
 20
0.0
 30
-30.0
 70
   128
210
1.0
220
-0.0
230
-0.0
  0
VERTEX
  5
970
  8
TEAM-NET
 10
-198.397826
 20
704.0
 30
-30.0
  0
VERTEX
  5
971
  8
TEAM-NET
 10
-199.044603
 20
704.783223
 30
-30.0
  0
VERTEX
  5
972
  8
TEAM-NET
 10
-200.083572
 20
705.0
 30
-30.0
  0
SEQEND
  5
973
  8
TEAM-NET
  0
POLYLINE
  5
D8
  8
TEAM-NET
 66
     1
 10
0.0
 20
0.0
 30
0.0
 70
     8
  0
VERTEX
  5
55F
  8
TEAM-NET
 10
-33.0
 20
-200.083572
 30
708.0
 70
    32
  0
VERTEX
  5
560
  8
TEAM-NET
 10
-32.230938
 20
-198.97836
 30
707.78973
 70
    32
  0
VERTEX
  5
561
  8
TEAM-NET
 10
-31.49447
 20
-197.943947
 30
707.132894
 70
    32
  0
VERTEX
  5
562
  8
TEAM-NET
 10
-30.860847
 20
-197.072496
 30
705.916219
 70
    32
  0
VERTEX
  5
563
  8
TEAM-NET
 10
-30.555556
 20
-196.658662
 30
704.0
 70
    32
  0
SEQEND
  5
564
  8
TEAM-NET
  0
ARC
  5
D9
  8
TEAM-NET
 10
-33.0
 20
705.0
 30
200.083572
 40
3.0
210
0.0
220
-1.0
230
0.0
 50
0.0
 51
90.0
  0
ARC
  5
DA
  8
TEAM-NET
 10
-33.0
 20
705.0
 30
200.083572
 40
3.0
210
0.0
220
-1.0
230
0.0
 50
0.0
 51
90.0
  0
LINE
  5
DB
  8
TEAM-NET
 10
-30.0
 20
-200.083572
 30
705.0
 11
-30.0
 21
-264.919112
 31
705.0
  0
LINE
  5
DC
  8
TEAM-NET
 10
-33.0
 20
-264.919112
 30
708.0
 11
-33.0
 21
-200.083572
 31
708.0
  0
ARC
  5
DD
  8
TEAM-NET
 10
-33.0
 20
705.0
 30
264.919112
 40
3.0
210
0.0
220
-1.0
230
0.0
 50
0.0
 51
90.0
  0
ARC
  5
DE
  8
TEAM-NET
 10
0.0
 20
-174.919112
 30
704.0
 40
37.5
 50
324.569055
 51
0.0
  0
ARC
  5
DF
  8
TEAM-NET
 10
0.0
 20
-174.919112
 30
704.0
 40
37.5
 50
0.0
 51
180.0
  0
POLYLINE
  5
E0
  8
TEAM-NET
 66
     1
 10
0.0
 20
0.0
 30
0.0
 70
     8
  0
VERTEX
  5
565
  8
TEAM-NET
 10
30.555556
 20
-196.658662
 30
704.0
 70
    32
  0
VERTEX
  5
566
  8
TEAM-NET
 10
30.858976
 20
-197.069946
 30
705.911045
 70
    32
  0
VERTEX
  5
567
  8
TEAM-NET
 10
31.492478
 20
-197.941177
 30
707.130897
 70
    32
  0
VERTEX
  5
568
  8
TEAM-NET
 10
32.229019
 20
-198.975625
 30
707.788984
 70
    32
  0
VERTEX
  5
569
  8
TEAM-NET
 10
33.0
 20
-200.083572
 30
708.0
 70
    32
  0
SEQEND
  5
56A
  8
TEAM-NET
  0
ARC
  5
E1
  8
TEAM-NET
 10
0.0
 20
-174.919112
 30
704.0
 40
37.5
 50
180.0
 51
215.430945
  0
ARC
  5
E2
  8
TEAM-NET
 10
0.0
 20
-174.919112
 30
-708.0
 40
41.5
210
0.0
220
0.0
230
-1.0
 50
322.672329
 51
217.327671
  0
POLYLINE
  5
E3
  8
TEAM-NET
 66
     1
 10
0.0
 20
0.0
 30
0.0
 70
     8
  0
VERTEX
  5
56B
  8
TEAM-NET
 10
-33.0
 20
-200.083572
 30
708.0
 70
    32
  0
VERTEX
  5
56C
  8
TEAM-NET
 10
-32.230938
 20
-198.97836
 30
707.78973
 70
    32
  0
VERTEX
  5
56D
  8
TEAM-NET
 10
-31.49447
 20
-197.943947
 30
707.132894
 70
    32
  0
VERTEX
  5
56E
  8
TEAM-NET
 10
-30.860847
 20
-197.072496
 30
705.916219
 70
    32
  0
VERTEX
  5
56F
  8
TEAM-NET
 10
-30.555556
 20
-196.658662
 30
704.0
 70
    32
  0
SEQEND
  5
570
  8
TEAM-NET
  0
LINE
  5
E4
  8
TEAM-NET
 10
130.0
 20
-108.448925
 30
708.0
 11
-130.0
 21
-108.448925
 31
708.0
  0
POLYLINE
  5
E5
  8
TEAM-NET
 66
     1
 10
0.0
 20
0.0
 30
-30.0
 70
   128
210
1.0
220
-0.0
230
-0.0
  0
VERTEX
  5
974
  8
TEAM-NET
 10
-198.397826
 20
704.0
 30
-30.0
  0
VERTEX
  5
975
  8
TEAM-NET
 10
-199.044603
 20
704.783223
 30
-30.0
  0
VERTEX
  5
976
  8
TEAM-NET
 10
-200.083572
 20
705.0
 30
-30.0
  0
SEQEND
  5
977
  8
TEAM-NET
  0
LINE
  5
E6
  8
TEAM-NET
 10
-30.0
 20
-200.083572
 30
705.0
 11
-30.0
 21
-264.919112
 31
705.0
210
-1.0
220
0.0
230
0.0
  0
ARC
  5
E7
  8
TEAM-NET
 10
-33.0
 20
705.0
 30
-264.919112
 40
3.0
210
0.0
220
1.0
230
0.0
 50
0.0
 51
90.0
  0
ARC
  5
E8
  8
TEAM-NET
 10
-33.0
 20
705.0
 30
264.919112
 40
3.0
210
0.0
220
-1.0
230
0.0
 50
0.0
 51
90.0
  0
POLYLINE
  5
E9
  8
TEAM-NET
 66
     1
 10
0.0
 20
0.0
 30
-30.0
 70
   128
210
-1.0
220
0.0
230
0.0
  0
VERTEX
  5
978
  8
TEAM-NET
 10
200.083572
 20
705.0
 30
-30.0
  0
VERTEX
  5
979
  8
TEAM-NET
 10
199.043231
 20
704.782724
 30
-30.0
  0
VERTEX
  5
97A
  8
TEAM-NET
 10
198.397826
 20
704.0
 30
-30.0
  0
SEQEND
  5
97B
  8
TEAM-NET
  0
LINE
  5
EA
  8
TEAM-NET
 10
30.0
 20
-264.919112
 30
705.0
 11
30.0
 21
-200.083572
 31
705.0
210
1.0
220
0.0
230
0.0
  0
LINE
  5
EB
  8
TEAM-NET
 10
33.0
 20
-264.919112
 30
708.0
 11
130.0
 21
-264.919112
 31
708.0
  0
LINE
  5
EC
  8
TEAM-NET
 10
-130.0
 20
-264.919112
 30
708.0
 11
-33.0
 21
-264.919112
 31
708.0
  0
LINE
  5
ED
  8
TEAM-NET
 10
130.0
 20
-264.919112
 30
708.0
 11
130.0
 21
-108.448925
 31
708.0
  0
LINE
  5
EE
  8
TEAM-NET
 10
-130.0
 20
-108.448925
 30
708.0
 11
-130.0
 21
-264.919112
 31
708.0
  0
ARC
  5
EF
  8
TEAM-NET
 10
0.0
 20
-174.919112
 30
-728.866025
 40
21.0
210
0.0
220
0.0
230
-1.0
 50
301.801339
 51
121.801339
  0
ARC
  5
F0
  8
TEAM-NET
 10
0.0
 20
-174.919112
 30
-728.866025
 40
21.0
210
0.0
220
0.0
230
-1.0
 50
121.801339
 51
301.801339
  0
ARC
  5
F1
  8
TEAM-NET
 10
0.0
 20
-174.919112
 30
-728.866025
 40
22.0
210
0.0
220
0.0
230
-1.0
 50
301.801339
 51
121.801339
  0
ARC
  5
F2
  8
TEAM-NET
 10
0.0
 20
-174.919112
 30
-728.866025
 40
22.0
210
0.0
220
0.0
230
-1.0
 50
121.801339
 51
301.801339
  0
POLYLINE
  5
F3
  8
TEAM-NET
 66
     1
 10
0.0
 20
0.0
 30
0.0
 70
     8
  0
VERTEX
  5
579
  8
TEAM-NET
 10
-20.993675
 20
-175.434468
 30
735.708407
 70
    32
  0
VERTEX
  5
57A
  8
TEAM-NET
 10
-20.61295
 20
-175.40694
 30
733.793274
 70
    32
  0
VERTEX
  5
57B
  8
TEAM-NET
 10
-19.529869
 20
-175.328627
 30
732.171502
 70
    32
  0
VERTEX
  5
57C
  8
TEAM-NET
 10
-17.909094
 20
-175.211435
 30
731.088185
 70
    32
  0
VERTEX
  5
57D
  8
TEAM-NET
 10
-15.999257
 20
-175.073342
 30
730.708407
 70
    32
  0
SEQEND
  5
57E
  8
TEAM-NET
  0
ARC
  5
F4
  8
TEAM-NET
 10
0.0
 20
-174.919112
 30
730.708407
 40
16.0
 50
180.552304
 51
187.718947
  0
ARC
  5
F5
  8
TEAM-NET
 10
0.0
 20
-174.919112
 30
-735.708407
 40
21.0
210
0.0
220
0.0
230
-1.0
 50
353.134972
 51
358.593777
  0
POLYLINE
  5
F6
  8
TEAM-NET
 66
     1
 10
0.0
 20
0.0
 30
0.0
 70
     8
  0
VERTEX
  5
57F
  8
TEAM-NET
 10
-15.855021
 20
-177.068135
 30
730.708407
 70
    32
  0
VERTEX
  5
580
  8
TEAM-NET
 10
-17.765877
 20
-177.206301
 30
731.088536
 70
    32
  0
VERTEX
  5
581
  8
TEAM-NET
 10
-19.38564
 20
-177.323419
 30
732.171508
 70
    32
  0
VERTEX
  5
582
  8
TEAM-NET
 10
-20.469134
 20
-177.401762
 30
733.794295
 70
    32
  0
VERTEX
  5
583
  8
TEAM-NET
 10
-20.84944
 20
-177.429261
 30
735.708407
 70
    32
  0
SEQEND
  5
584
  8
TEAM-NET
  0
POLYLINE
  5
F7
  8
TEAM-NET
 66
     1
 10
0.0
 20
0.0
 30
11.614751
 70
   128
210
-0.997396
220
-0.072118
230
0.0
  0
VERTEX
  5
97C
  8
TEAM-NET
 10
153.48747
 20
735.708407
 30
11.614751
  0
VERTEX
  5
97D
  8
TEAM-NET
 10
153.869189
 20
733.793274
 30
11.614751
  0
VERTEX
  5
97E
  8
TEAM-NET
 10
154.955098
 20
732.171502
 30
11.614751
  0
VERTEX
  5
97F
  8
TEAM-NET
 10
156.580104
 20
731.088185
 30
11.614751
  0
VERTEX
  5
980
  8
TEAM-NET
 10
158.494927
 20
730.708407
 30
11.614751
  0
SEQEND
  5
981
  8
TEAM-NET
  0
ARC
  5
F8
  8
TEAM-NET
 10
0.0
 20
-174.919112
 30
730.708407
 40
16.0
 50
90.552304
 51
97.718947
  0
ARC
  5
F9
  8
TEAM-NET
 10
0.0
 20
-174.919112
 30
-735.708407
 40
21.0
210
0.0
220
0.0
230
-1.0
 50
83.134972
 51
88.593777
  0
POLYLINE
  5
FA
  8
TEAM-NET
 66
     1
 10
0.0
 20
0.0
 30
-13.614751
 70
   128
210
0.997396
220
0.072118
230
-0.0
  0
VERTEX
  5
982
  8
TEAM-NET
 10
-158.494927
 20
730.708407
 30
-13.614751
  0
VERTEX
  5
983
  8
TEAM-NET
 10
-156.579082
 20
731.088536
 30
-13.614751
  0
VERTEX
  5
984
  8
TEAM-NET
 10
-154.955091
 20
732.171508
 30
-13.614751
  0
VERTEX
  5
985
  8
TEAM-NET
 10
-153.868768
 20
733.794295
 30
-13.614751
  0
VERTEX
  5
986
  8
TEAM-NET
 10
-153.48747
 20
735.708407
 30
-13.614751
  0
SEQEND
  5
987
  8
TEAM-NET
  0
POLYLINE
  5
FB
  8
TEAM-NET
 66
     1
 10
0.0
 20
0.0
 30
0.0
 70
     8
  0
VERTEX
  5
591
  8
TEAM-NET
 10
20.993675
 20
-174.403757
 30
735.708407
 70
    32
  0
VERTEX
  5
592
  8
TEAM-NET
 10
20.61295
 20
-174.431285
 30
733.793274
 70
    32
  0
VERTEX
  5
593
  8
TEAM-NET
 10
19.529869
 20
-174.509598
 30
732.171502
 70
    32
  0
VERTEX
  5
594
  8
TEAM-NET
 10
17.909094
 20
-174.62679
 30
731.088185
 70
    32
  0
VERTEX
  5
595
  8
TEAM-NET
 10
15.999257
 20
-174.764882
 30
730.708407
 70
    32
  0
SEQEND
  5
596
  8
TEAM-NET
  0
ARC
  5
FC
  8
TEAM-NET
 10
0.0
 20
-174.919112
 30
730.708407
 40
16.0
 50
0.552304
 51
7.718947
  0
ARC
  5
FD
  8
TEAM-NET
 10
0.0
 20
-174.919112
 30
-735.708407
 40
21.0
210
0.0
220
0.0
230
-1.0
 50
173.134972
 51
178.593777
  0
POLYLINE
  5
FE
  8
TEAM-NET
 66
     1
 10
0.0
 20
0.0
 30
0.0
 70
     8
  0
VERTEX
  5
597
  8
TEAM-NET
 10
15.855021
 20
-172.77009
 30
730.708407
 70
    32
  0
VERTEX
  5
598
  8
TEAM-NET
 10
17.765877
 20
-172.631924
 30
731.088536
 70
    32
  0
VERTEX
  5
599
  8
TEAM-NET
 10
19.38564
 20
-172.514806
 30
732.171508
 70
    32
  0
VERTEX
  5
59A
  8
TEAM-NET
 10
20.469134
 20
-172.436463
 30
733.794295
 70
    32
  0
VERTEX
  5
59B
  8
TEAM-NET
 10
20.84944
 20
-172.408964
 30
735.708407
 70
    32
  0
SEQEND
  5
59C
  8
TEAM-NET
  0
POLYLINE
  5
FF
  8
TEAM-NET
 66
     1
 10
0.0
 20
0.0
 30
-13.614751
 70
   128
210
0.997396
220
0.072118
230
0.0
  0
VERTEX
  5
988
  8
TEAM-NET
 10
-195.439823
 20
735.708407
 30
-13.614751
  0
VERTEX
  5
989
  8
TEAM-NET
 10
-195.058104
 20
733.793274
 30
-13.614751
  0
VERTEX
  5
98A
  8
TEAM-NET
 10
-193.972195
 20
732.171502
 30
-13.614751
  0
VERTEX
  5
98B
  8
TEAM-NET
 10
-192.347189
 20
731.088185
 30
-13.614751
  0
VERTEX
  5
98C
  8
TEAM-NET
 10
-190.432366
 20
730.708407
 30
-13.614751
  0
SEQEND
  5
98D
  8
TEAM-NET
  0
ARC
  5
100
  8
TEAM-NET
 10
0.0
 20
-174.919112
 30
730.708407
 40
16.0
 50
270.552304
 51
277.718947
  0
ARC
  5
101
  8
TEAM-NET
 10
0.0
 20
-174.919112
 30
-735.708407
 40
21.0
210
0.0
220
0.0
230
-1.0
 50
263.134972
 51
268.593777
  0
POLYLINE
  5
102
  8
TEAM-NET
 66
     1
 10
0.0
 20
0.0
 30
11.614751
 70
   128
210
-0.997396
220
-0.072118
230
-0.0
  0
VERTEX
  5
98E
  8
TEAM-NET
 10
190.432366
 20
730.708407
 30
11.614751
  0
VERTEX
  5
98F
  8
TEAM-NET
 10
192.348211
 20
731.088536
 30
11.614751
  0
VERTEX
  5
990
  8
TEAM-NET
 10
193.972202
 20
732.171508
 30
11.614751
  0
VERTEX
  5
991
  8
TEAM-NET
 10
195.058525
 20
733.794295
 30
11.614751
  0
VERTEX
  5
992
  8
TEAM-NET
 10
195.439823
 20
735.708407
 30
11.614751
  0
SEQEND
  5
993
  8
TEAM-NET
  0
ARC
  5
103
  8
TEAM-NET
 10
0.0
 20
-174.919112
 30
-730.708407
 40
16.0
210
0.0
220
0.0
230
-1.0
 50
172.281053
 51
179.447696
  0
LINE
  5
104
  8
TEAM-NET
 10
5.972793
 20
-175.489855
 30
730.708407
 11
15.999257
 21
-174.764882
 31
730.708407
210
0.0
220
0.0
230
-1.0
  0
LINE
  5
105
  8
TEAM-NET
 10
15.855021
 20
-172.77009
 30
730.708407
 11
5.828557
 21
-173.495063
 31
730.708407
210
0.0
220
0.0
230
-1.0
  0
ARC
  5
106
  8
TEAM-NET
 10
0.0
 20
-174.919112
 30
-730.708407
 40
6.0
210
0.0
220
0.0
230
-1.0
 50
185.458443
 51
256.270306
  0
ARC
  5
107
  8
TEAM-NET
 10
0.0
 20
-174.919112
 30
-730.708407
 40
6.0
210
0.0
220
0.0
230
-1.0
 50
95.458443
 51
166.270306
  0
LINE
  5
108
  8
TEAM-NET
 10
2.149022
 20
-190.774134
 30
730.708407
 11
1.42405
 21
-180.74767
 31
730.708407
210
0.0
220
0.0
230
-1.0
  0
LINE
  5
109
  8
TEAM-NET
 10
0.570743
 20
-168.94632
 30
730.708407
 11
-0.15423
 21
-158.919856
 31
730.708407
210
0.0
220
0.0
230
-1.0
  0
ARC
  5
10A
  8
TEAM-NET
 10
0.0
 20
-174.919112
 30
-730.708407
 40
16.0
210
0.0
220
0.0
230
-1.0
 50
262.281053
 51
269.447696
  0
ARC
  5
10B
  8
TEAM-NET
 10
0.0
 20
-174.919112
 30
-730.708407
 40
16.0
210
0.0
220
0.0
230
-1.0
 50
82.281053
 51
89.447696
  0
LINE
  5
10C
  8
TEAM-NET
 10
-0.570743
 20
-180.891905
 30
730.708407
 11
0.15423
 21
-190.918369
 31
730.708407
210
0.0
220
0.0
230
-1.0
  0
LINE
  5
10D
  8
TEAM-NET
 10
-2.149022
 20
-159.064091
 30
730.708407
 11
-1.42405
 21
-169.090555
 31
730.708407
210
0.0
220
0.0
230
-1.0
  0
ARC
  5
10E
  8
TEAM-NET
 10
0.0
 20
-174.919112
 30
-730.708407
 40
6.0
210
0.0
220
0.0
230
-1.0
 50
275.458443
 51
346.270306
  0
ARC
  5
10F
  8
TEAM-NET
 10
0.0
 20
-174.919112
 30
-730.708407
 40
6.0
210
0.0
220
0.0
230
-1.0
 50
5.458443
 51
76.270306
  0
LINE
  5
110
  8
TEAM-NET
 10
-15.855021
 20
-177.068135
 30
730.708407
 11
-5.828557
 21
-176.343162
 31
730.708407
210
0.0
220
0.0
230
-1.0
  0
LINE
  5
111
  8
TEAM-NET
 10
-5.972793
 20
-174.34837
 30
730.708407
 11
-15.999257
 21
-175.073342
 31
730.708407
210
0.0
220
0.0
230
-1.0
  0
ARC
  5
112
  8
TEAM-NET
 10
0.0
 20
-174.919112
 30
-730.708407
 40
16.0
210
0.0
220
0.0
230
-1.0
 50
352.281053
 51
359.447696
  0
ARC
  5
113
  8
TEAM-NET
 10
0.0
 20
-174.919112
 30
728.866025
 40
21.0
 50
238.198661
 51
58.198661
  0
ARC
  5
114
  8
TEAM-NET
 10
0.0
 20
-174.919112
 30
728.866025
 40
22.0
 50
58.198661
 51
238.198661
  0
ARC
  5
115
  8
TEAM-NET
 10
0.0
 20
-174.919112
 30
728.866025
 40
22.0
 50
238.198661
 51
58.198661
  0
ARC
  5
116
  8
TEAM-NET
 10
0.0
 20
-174.919112
 30
728.866025
 40
21.0
 50
58.198661
 51
238.198661
  0
LINE
  5
117
  8
TEAM-NET
 10
-5.972793
 20
-174.34837
 30
730.708407
 11
-15.999257
 21
-175.073342
 31
730.708407
210
-0.072118
220
0.997396
230
0.0
  0
POLYLINE
  5
118
  8
TEAM-NET
 66
     1
 10
0.0
 20
0.0
 30
0.0
 70
     8
  0
VERTEX
  5
5A9
  8
TEAM-NET
 10
-20.993675
 20
-175.434468
 30
735.708407
 70
    32
  0
VERTEX
  5
5AA
  8
TEAM-NET
 10
-20.61295
 20
-175.40694
 30
733.793274
 70
    32
  0
VERTEX
  5
5AB
  8
TEAM-NET
 10
-19.529869
 20
-175.328627
 30
732.171502
 70
    32
  0
VERTEX
  5
5AC
  8
TEAM-NET
 10
-17.909094
 20
-175.211435
 30
731.088185
 70
    32
  0
VERTEX
  5
5AD
  8
TEAM-NET
 10
-15.999257
 20
-175.073342
 30
730.708407
 70
    32
  0
SEQEND
  5
5AE
  8
TEAM-NET
  0
ARC
  5
119
  8
TEAM-NET
 10
0.0
 20
-174.919112
 30
-735.708407
 40
21.0
210
0.0
220
0.0
230
-1.0
 50
353.134972
 51
358.593777
  0
LINE
  5
11A
  8
TEAM-NET
 10
0.570743
 20
-168.94632
 30
730.708407
 11
-0.15423
 21
-158.919856
 31
730.708407
210
0.997396
220
0.072118
230
0.0
  0
POLYLINE
  5
11B
  8
TEAM-NET
 66
     1
 10
0.0
 20
0.0
 30
11.614751
 70
   128
210
-0.997396
220
-0.072118
230
0.0
  0
VERTEX
  5
994
  8
TEAM-NET
 10
153.48747
 20
735.708407
 30
11.614751
  0
VERTEX
  5
995
  8
TEAM-NET
 10
153.869189
 20
733.793274
 30
11.614751
  0
VERTEX
  5
996
  8
TEAM-NET
 10
154.955098
 20
732.171502
 30
11.614751
  0
VERTEX
  5
997
  8
TEAM-NET
 10
156.580104
 20
731.088185
 30
11.614751
  0
VERTEX
  5
998
  8
TEAM-NET
 10
158.494927
 20
730.708407
 30
11.614751
  0
SEQEND
  5
999
  8
TEAM-NET
  0
ARC
  5
11C
  8
TEAM-NET
 10
0.0
 20
-174.919112
 30
-735.708407
 40
21.0
210
0.0
220
0.0
230
-1.0
 50
83.134972
 51
88.593777
  0
LINE
  5
11D
  8
TEAM-NET
 10
5.972793
 20
-175.489855
 30
730.708407
 11
15.999257
 21
-174.764882
 31
730.708407
210
0.072118
220
-0.997396
230
-0.0
  0
POLYLINE
  5
11E
  8
TEAM-NET
 66
     1
 10
0.0
 20
0.0
 30
0.0
 70
     8
  0
VERTEX
  5
5B5
  8
TEAM-NET
 10
20.993675
 20
-174.403757
 30
735.708407
 70
    32
  0
VERTEX
  5
5B6
  8
TEAM-NET
 10
20.61295
 20
-174.431285
 30
733.793274
 70
    32
  0
VERTEX
  5
5B7
  8
TEAM-NET
 10
19.529869
 20
-174.509598
 30
732.171502
 70
    32
  0
VERTEX
  5
5B8
  8
TEAM-NET
 10
17.909094
 20
-174.62679
 30
731.088185
 70
    32
  0
VERTEX
  5
5B9
  8
TEAM-NET
 10
15.999257
 20
-174.764882
 30
730.708407
 70
    32
  0
SEQEND
  5
5BA
  8
TEAM-NET
  0
ARC
  5
11F
  8
TEAM-NET
 10
0.0
 20
-174.919112
 30
-735.708407
 40
21.0
210
0.0
220
0.0
230
-1.0
 50
173.134972
 51
178.593777
  0
LINE
  5
120
  8
TEAM-NET
 10
-0.570743
 20
-180.891905
 30
730.708407
 11
0.15423
 21
-190.918369
 31
730.708407
210
-0.997396
220
-0.072118
230
-0.0
  0
POLYLINE
  5
121
  8
TEAM-NET
 66
     1
 10
0.0
 20
0.0
 30
-13.614751
 70
   128
210
0.997396
220
0.072118
230
0.0
  0
VERTEX
  5
99A
  8
TEAM-NET
 10
-195.439823
 20
735.708407
 30
-13.614751
  0
VERTEX
  5
99B
  8
TEAM-NET
 10
-195.058104
 20
733.793274
 30
-13.614751
  0
VERTEX
  5
99C
  8
TEAM-NET
 10
-193.972195
 20
732.171502
 30
-13.614751
  0
VERTEX
  5
99D
  8
TEAM-NET
 10
-192.347189
 20
731.088185
 30
-13.614751
  0
VERTEX
  5
99E
  8
TEAM-NET
 10
-190.432366
 20
730.708407
 30
-13.614751
  0
SEQEND
  5
99F
  8
TEAM-NET
  0
ARC
  5
122
  8
TEAM-NET
 10
0.0
 20
-174.919112
 30
-735.708407
 40
21.0
210
0.0
220
0.0
230
-1.0
 50
263.134972
 51
268.593777
  0
LINE
  5
123
  8
TEAM-NET
 10
15.855021
 20
-172.77009
 30
730.708407
 11
5.828557
 21
-173.495063
 31
730.708407
210
-0.072118
220
0.997396
230
0.0
  0
POLYLINE
  5
124
  8
TEAM-NET
 66
     1
 10
0.0
 20
0.0
 30
0.0
 70
     8
  0
VERTEX
  5
5C1
  8
TEAM-NET
 10
15.855021
 20
-172.77009
 30
730.708407
 70
    32
  0
VERTEX
  5
5C2
  8
TEAM-NET
 10
17.765877
 20
-172.631924
 30
731.088536
 70
    32
  0
VERTEX
  5
5C3
  8
TEAM-NET
 10
19.38564
 20
-172.514806
 30
732.171508
 70
    32
  0
VERTEX
  5
5C4
  8
TEAM-NET
 10
20.469134
 20
-172.436463
 30
733.794295
 70
    32
  0
VERTEX
  5
5C5
  8
TEAM-NET
 10
20.84944
 20
-172.408964
 30
735.708407
 70
    32
  0
SEQEND
  5
5C6
  8
TEAM-NET
  0
ARC
  5
125
  8
TEAM-NET
 10
0.0
 20
-174.919112
 30
730.708407
 40
6.0
 50
283.729694
 51
354.541557
  0
LINE
  5
126
  8
TEAM-NET
 10
-2.149022
 20
-159.064091
 30
730.708407
 11
-1.42405
 21
-169.090555
 31
730.708407
210
-0.997396
220
-0.072118
230
-0.0
  0
POLYLINE
  5
127
  8
TEAM-NET
 66
     1
 10
0.0
 20
0.0
 30
-13.614751
 70
   128
210
0.997396
220
0.072118
230
-0.0
  0
VERTEX
  5
9A0
  8
TEAM-NET
 10
-158.494927
 20
730.708407
 30
-13.614751
  0
VERTEX
  5
9A1
  8
TEAM-NET
 10
-156.579082
 20
731.088536
 30
-13.614751
  0
VERTEX
  5
9A2
  8
TEAM-NET
 10
-154.955091
 20
732.171508
 30
-13.614751
  0
VERTEX
  5
9A3
  8
TEAM-NET
 10
-153.868768
 20
733.794295
 30
-13.614751
  0
VERTEX
  5
9A4
  8
TEAM-NET
 10
-153.48747
 20
735.708407
 30
-13.614751
  0
SEQEND
  5
9A5
  8
TEAM-NET
  0
ARC
  5
128
  8
TEAM-NET
 10
0.0
 20
-174.919112
 30
730.708407
 40
6.0
 50
13.729694
 51
84.541557
  0
LINE
  5
129
  8
TEAM-NET
 10
-15.855021
 20
-177.068135
 30
730.708407
 11
-5.828557
 21
-176.343162
 31
730.708407
210
0.072118
220
-0.997396
230
-0.0
  0
POLYLINE
  5
12A
  8
TEAM-NET
 66
     1
 10
0.0
 20
0.0
 30
0.0
 70
     8
  0
VERTEX
  5
5CD
  8
TEAM-NET
 10
-15.855021
 20
-177.068135
 30
730.708407
 70
    32
  0
VERTEX
  5
5CE
  8
TEAM-NET
 10
-17.765877
 20
-177.206301
 30
731.088536
 70
    32
  0
VERTEX
  5
5CF
  8
TEAM-NET
 10
-19.38564
 20
-177.323419
 30
732.171508
 70
    32
  0
VERTEX
  5
5D0
  8
TEAM-NET
 10
-20.469134
 20
-177.401762
 30
733.794295
 70
    32
  0
VERTEX
  5
5D1
  8
TEAM-NET
 10
-20.84944
 20
-177.429261
 30
735.708407
 70
    32
  0
SEQEND
  5
5D2
  8
TEAM-NET
  0
ARC
  5
12B
  8
TEAM-NET
 10
0.0
 20
-174.919112
 30
730.708407
 40
6.0
 50
193.729694
 51
264.541557
  0
ARC
  5
12C
  8
TEAM-NET
 10
0.0
 20
-174.919112
 30
730.708407
 40
6.0
 50
103.729694
 51
174.541557
  0
LINE
  5
12D
  8
TEAM-NET
 10
2.149022
 20
-190.774134
 30
730.708407
 11
1.42405
 21
-180.74767
 31
730.708407
210
0.997396
220
0.072118
230
0.0
  0
POLYLINE
  5
12E
  8
TEAM-NET
 66
     1
 10
0.0
 20
0.0
 30
11.614751
 70
   128
210
-0.997396
220
-0.072118
230
-0.0
  0
VERTEX
  5
9A6
  8
TEAM-NET
 10
190.432366
 20
730.708407
 30
11.614751
  0
VERTEX
  5
9A7
  8
TEAM-NET
 10
192.348211
 20
731.088536
 30
11.614751
  0
VERTEX
  5
9A8
  8
TEAM-NET
 10
193.972202
 20
732.171508
 30
11.614751
  0
VERTEX
  5
9A9
  8
TEAM-NET
 10
195.058525
 20
733.794295
 30
11.614751
  0
VERTEX
  5
9AA
  8
TEAM-NET
 10
195.439823
 20
735.708407
 30
11.614751
  0
SEQEND
  5
9AB
  8
TEAM-NET
  0
LINE
  5
12F
  8
TEAM-NET
 10
-130.0
 20
-78.448925
 30
738.0
 11
130.0
 21
-78.448925
 31
738.0
  0
LINE
  5
130
  8
TEAM-NET
 10
-130.0
 20
-78.448925
 30
738.0
 11
130.0
 21
-78.448925
 31
738.0
210
0.0
220
1.0
230
0.0
  0
LINE
  5
131
  8
TEAM-NET
 10
-158.0
 20
-287.919112
 30
768.0
 11
-158.0
 21
-119.919112
 31
768.0
  0
LINE
  5
132
  8
TEAM-NET
 10
158.0
 20
-119.919112
 30
768.0
 11
158.0
 21
-287.919112
 31
768.0
  0
LINE
  5
133
  8
TEAM-NET
 10
158.0
 20
-119.919112
 30
768.0
 11
158.0
 21
-287.919112
 31
768.0
  0
LINE
  5
134
  8
TEAM-NET
 10
-158.0
 20
-287.919112
 30
768.0
 11
-158.0
 21
-119.919112
 31
768.0
  0
LINE
  5
135
  8
TEAM-NET
 10
158.0
 20
-287.919112
 30
768.0
 11
-158.0
 21
-287.919112
 31
768.0
  0
LINE
  5
136
  8
TEAM-NET
 10
158.0
 20
-287.919112
 30
768.0
 11
-158.0
 21
-287.919112
 31
768.0
  0
ARC
  5
137
  8
TEAM-NET
 10
26.0
 20
-6.398514
 30
884.445966
 40
4.0
210
-0.0
220
-0.444784
230
0.895638
 50
270.0
 51
0.0
  0
LINE
  5
138
  8
TEAM-NET
 10
-26.0
 20
-402.700998
 30
787.518065
 11
26.0
 21
-402.700998
 31
787.518065
  0
ARC
  5
139
  8
TEAM-NET
 10
-26.0
 20
-6.398514
 30
884.445966
 40
4.0
210
0.0
220
-0.444784
230
0.895638
 50
180.0
 51
270.0
  0
ARC
  5
13A
  8
TEAM-NET
 10
26.0
 20
-6.398514
 30
884.445966
 40
4.0
210
-0.0
220
-0.444784
230
0.895638
 50
270.0
 51
0.0
  0
LINE
  5
13B
  8
TEAM-NET
 10
-26.0
 20
-402.700998
 30
787.518065
 11
26.0
 21
-402.700998
 31
787.518065
  0
ARC
  5
13C
  8
TEAM-NET
 10
-26.0
 20
-6.398514
 30
884.445966
 40
4.0
210
0.0
220
-0.444784
230
0.895638
 50
180.0
 51
270.0
  0
ARC
  5
13D
  8
TEAM-NET
 10
119.919112
 20
788.0
 30
-158.0
 40
20.0
210
-1.0
220
0.0
230
0.0
 50
180.0
 51
270.0
  0
ARC
  5
13E
  8
TEAM-NET
 10
-119.919112
 20
788.0
 30
-158.0
 40
20.0
210
1.0
220
0.0
230
0.0
 50
270.0
 51
0.0
  0
ARC
  5
13F
  8
TEAM-NET
 10
-119.919112
 20
788.0
 30
-158.0
 40
20.0
210
1.0
220
0.0
230
0.0
 50
270.0
 51
0.0
  0
ARC
  5
140
  8
TEAM-NET
 10
119.919112
 20
788.0
 30
-158.0
 40
20.0
210
-1.0
220
0.0
230
0.0
 50
180.0
 51
270.0
  0
LINE
  5
141
  8
TEAM-NET
 10
16.808169
 20
-147.811725
 30
767.392065
 11
11.066489
 21
-157.071625
 31
758.708407
  0
ARC
  5
142
  8
TEAM-NET
 10
0.0
 20
-174.919112
 30
758.708407
 40
21.0
 50
238.198661
 51
58.198661
  0
ARC
  5
143
  8
TEAM-NET
 10
0.0
 20
-174.919112
 30
767.392065
 40
31.895533
 50
238.198661
 51
58.198661
  0
LINE
  5
144
  8
TEAM-NET
 10
-16.808169
 20
-202.0265
 30
767.392065
 11
-11.066489
 21
-192.7666
 31
758.708407
  0
LINE
  5
145
  8
TEAM-NET
 10
17.230927
 20
-147.129922
 30
767.392065
 11
11.593464
 21
-156.221744
 31
758.866025
  0
ARC
  5
146
  8
TEAM-NET
 10
0.0
 20
-174.919112
 30
758.866025
 40
22.0
 50
58.198661
 51
238.198661
  0
ARC
  5
147
  8
TEAM-NET
 10
0.0
 20
-174.919112
 30
767.392065
 40
32.697766
 50
58.198661
 51
238.198661
  0
LINE
  5
148
  8
TEAM-NET
 10
-17.230927
 20
-202.708303
 30
767.392065
 11
-11.593464
 21
-193.616481
 31
758.866025
  0
LINE
  5
149
  8
TEAM-NET
 10
17.230927
 20
-147.129922
 30
767.392065
 11
11.593464
 21
-156.221744
 31
758.866025
  0
ARC
  5
14A
  8
TEAM-NET
 10
0.0
 20
-174.919112
 30
767.392065
 40
32.697766
 50
238.198661
 51
58.198661
  0
ARC
  5
14B
  8
TEAM-NET
 10
0.0
 20
-174.919112
 30
758.866025
 40
22.0
 50
238.198661
 51
58.198661
  0
LINE
  5
14C
  8
TEAM-NET
 10
-17.230927
 20
-202.708303
 30
767.392065
 11
-11.593464
 21
-193.616481
 31
758.866025
  0
ARC
  5
14D
  8
TEAM-NET
 10
0.0
 20
-174.919112
 30
767.392065
 40
31.895533
 50
58.198661
 51
238.198661
  0
ARC
  5
14E
  8
TEAM-NET
 10
0.0
 20
-174.919112
 30
767.392065
 40
31.895533
 50
238.198661
 51
58.198661
  0
ARC
  5
14F
  8
TEAM-NET
 10
0.0
 20
-174.919112
 30
767.392065
 40
32.697766
 50
58.198661
 51
238.198661
  0
ARC
  5
150
  8
TEAM-NET
 10
0.0
 20
-174.919112
 30
767.392065
 40
32.697766
 50
238.198661
 51
58.198661
  0
LINE
  5
151
  8
TEAM-NET
 10
16.808169
 20
-147.811725
 30
767.392065
 11
11.066489
 21
-157.071625
 31
758.708407
  0
ARC
  5
152
  8
TEAM-NET
 10
0.0
 20
-174.919112
 30
767.392065
 40
31.895533
 50
58.198661
 51
238.198661
  0
ARC
  5
153
  8
TEAM-NET
 10
0.0
 20
-174.919112
 30
758.708407
 40
21.0
 50
58.198661
 51
238.198661
  0
LINE
  5
154
  8
TEAM-NET
 10
-16.808169
 20
-202.0265
 30
767.392065
 11
-11.066489
 21
-192.7666
 31
758.708407
  0
ARC
  5
155
  8
TEAM-NET
 10
29.0
 20
760.267949
 30
174.919112
 40
3.0
210
0.0
220
-1.0
230
0.0
 50
120.0
 51
180.0
  0
ARC
  5
156
  8
TEAM-NET
 10
0.0
 20
-174.919112
 30
-760.267949
 40
26.0
210
0.0
220
0.0
230
-1.0
 50
180.0
 51
0.0
  0
ARC
  5
157
  8
TEAM-NET
 10
0.0
 20
-174.919112
 30
762.866025
 40
27.5
 50
180.0
 51
0.0
  0
ARC
  5
158
  8
TEAM-NET
 10
29.0
 20
760.267949
 30
-174.919112
 40
3.0
210
0.0
220
1.0
230
0.0
 50
120.0
 51
180.0
  0
LINE
  5
159
  8
TEAM-NET
 10
35.696152
 20
-174.919112
 30
767.598076
 11
27.5
 21
-174.919112
 31
762.866025
  0
ARC
  5
15A
  8
TEAM-NET
 10
0.0
 20
-174.919112
 30
762.866025
 40
27.5
 50
180.0
 51
0.0
  0
ARC
  5
15B
  8
TEAM-NET
 10
0.0
 20
-174.919112
 30
-767.598076
 40
35.696152
210
0.0
220
0.0
230
-1.0
 50
180.0
 51
0.0
  0
LINE
  5
15C
  8
TEAM-NET
 10
-35.696152
 20
-174.919112
 30
767.598076
 11
-27.5
 21
-174.919112
 31
762.866025
  0
ARC
  5
15D
  8
TEAM-NET
 10
-37.196152
 20
765.0
 30
174.919112
 40
3.0
210
0.0
220
-1.0
230
0.0
 50
60.0
 51
90.0
  0
ARC
  5
15E
  8
TEAM-NET
 10
0.0
 20
-174.919112
 30
768.0
 40
37.196152
 50
180.0
 51
0.0
  0
ARC
  5
15F
  8
TEAM-NET
 10
0.0
 20
-174.919112
 30
-767.598076
 40
35.696152
210
0.0
220
0.0
230
-1.0
 50
180.0
 51
0.0
  0
ARC
  5
160
  8
TEAM-NET
 10
-37.196152
 20
765.0
 30
-174.919112
 40
3.0
210
0.0
220
1.0
230
0.0
 50
60.0
 51
90.0
  0
ARC
  5
161
  8
TEAM-NET
 10
0.0
 20
-174.919112
 30
768.0
 40
37.196152
 50
180.0
 51
0.0
  0
ARC
  5
162
  8
TEAM-NET
 10
0.0
 20
-174.919112
 30
768.0
 40
37.196152
 50
360.0
 51
180.0
  0
LINE
  5
163
  8
TEAM-NET
 10
-158.0
 20
-119.919112
 30
768.0
 11
158.0
 21
-119.919112
 31
768.0
  0
ARC
  5
164
  8
TEAM-NET
 10
-37.196152
 20
765.0
 30
174.919112
 40
3.0
210
0.0
220
-1.0
230
0.0
 50
60.0
 51
90.0
  0
ARC
  5
165
  8
TEAM-NET
 10
0.0
 20
-174.919112
 30
-767.598076
 40
35.696152
210
0.0
220
0.0
230
-1.0
 50
0.0
 51
180.0
  0
ARC
  5
166
  8
TEAM-NET
 10
0.0
 20
-174.919112
 30
768.0
 40
37.196152
 50
360.0
 51
180.0
  0
ARC
  5
167
  8
TEAM-NET
 10
-37.196152
 20
765.0
 30
-174.919112
 40
3.0
210
0.0
220
1.0
230
0.0
 50
60.0
 51
90.0
  0
LINE
  5
168
  8
TEAM-NET
 10
35.696152
 20
-174.919112
 30
767.598076
 11
27.5
 21
-174.919112
 31
762.866025
  0
ARC
  5
169
  8
TEAM-NET
 10
0.0
 20
-174.919112
 30
-767.598076
 40
35.696152
210
0.0
220
0.0
230
-1.0
 50
0.0
 51
180.0
  0
ARC
  5
16A
  8
TEAM-NET
 10
0.0
 20
-174.919112
 30
762.866025
 40
27.5
 50
360.0
 51
180.0
  0
LINE
  5
16B
  8
TEAM-NET
 10
-35.696152
 20
-174.919112
 30
767.598076
 11
-27.5
 21
-174.919112
 31
762.866025
  0
ARC
  5
16C
  8
TEAM-NET
 10
29.0
 20
760.267949
 30
174.919112
 40
3.0
210
0.0
220
-1.0
230
0.0
 50
120.0
 51
180.0
  0
ARC
  5
16D
  8
TEAM-NET
 10
0.0
 20
-174.919112
 30
762.866025
 40
27.5
 50
360.0
 51
180.0
  0
ARC
  5
16E
  8
TEAM-NET
 10
0.0
 20
-174.919112
 30
-760.267949
 40
26.0
210
0.0
220
0.0
230
-1.0
 50
0.0
 51
180.0
  0
ARC
  5
16F
  8
TEAM-NET
 10
29.0
 20
760.267949
 30
-174.919112
 40
3.0
210
0.0
220
1.0
230
0.0
 50
120.0
 51
180.0
  0
ARC
  5
170
  8
TEAM-NET
 10
0.0
 20
-174.919112
 30
758.708407
 40
21.0
 50
238.198661
 51
58.198661
  0
ARC
  5
171
  8
TEAM-NET
 10
0.0
 20
-174.919112
 30
758.866025
 40
22.0
 50
58.198661
 51
238.198661
  0
ARC
  5
172
  8
TEAM-NET
 10
0.0
 20
-174.919112
 30
758.866025
 40
22.0
 50
238.198661
 51
58.198661
  0
ARC
  5
173
  8
TEAM-NET
 10
0.0
 20
-174.919112
 30
758.708407
 40
21.0
 50
58.198661
 51
238.198661
  0
ARC
  5
174
  8
TEAM-NET
 10
0.0
 20
-174.919112
 30
-760.267949
 40
26.0
210
0.0
220
0.0
230
-1.0
 50
180.0
 51
0.0
  0
ARC
  5
175
  8
TEAM-NET
 10
0.0
 20
-174.919112
 30
-760.267949
 40
26.0
210
0.0
220
0.0
230
-1.0
 50
0.0
 51
180.0
  0
LINE
  5
176
  8
TEAM-NET
 10
-158.0
 20
-119.919112
 30
768.0
 11
158.0
 21
-119.919112
 31
768.0
  0
LINE
  5
177
  8
TEAM-NET
 10
158.0
 20
-99.919112
 30
788.0
 11
-158.0
 21
-99.919112
 31
788.0
210
0.0
220
-1.0
230
0.0
  0
LINE
  5
178
  8
TEAM-NET
 10
19.768658
 20
-152.353649
 30
771.530327
 11
19.768658
 21
-152.353649
 31
770.708407
  0
ARC
  5
179
  8
TEAM-NET
 10
0.0
 20
-174.919112
 30
771.530327
 40
30.0
 50
48.779756
 51
138.779756
  0
ARC
  5
17A
  8
TEAM-NET
 10
0.0
 20
-174.919112
 30
770.708407
 40
30.0
 50
48.779756
 51
228.779756
  0
ARC
  5
17B
  8
TEAM-NET
 10
0.0
 20
-174.919112
 30
771.530327
 40
30.0
 50
138.779756
 51
228.779756
  0
LINE
  5
17C
  8
TEAM-NET
 10
-19.768658
 20
-197.484576
 30
771.530327
 11
-19.768658
 21
-197.484576
 31
770.708407
  0
LINE
  5
17D
  8
TEAM-NET
 10
-20.84944
 20
-177.429261
 30
770.708407
 11
-5.828557
 21
-176.343162
 31
770.708407
210
0.0
220
0.0
230
-1.0
  0
ARC
  5
17E
  8
TEAM-NET
 10
0.0
 20
-174.919112
 30
-770.708407
 40
6.0
210
0.0
220
0.0
230
-1.0
 50
275.458443
 51
346.270306
  0
ARC
  5
17F
  8
TEAM-NET
 10
0.0
 20
-174.919112
 30
-770.708407
 40
21.0
210
0.0
220
0.0
230
-1.0
 50
353.134972
 51
358.593777
  0
LINE
  5
180
  8
TEAM-NET
 10
-0.570743
 20
-180.891905
 30
770.708407
 11
0.515356
 21
-195.912788
 31
770.708407
210
0.0
220
0.0
230
-1.0
  0
LINE
  5
181
  8
TEAM-NET
 10
-5.972793
 20
-174.34837
 30
770.708407
 11
-20.993675
 21
-175.434468
 31
770.708407
210
0.0
220
0.0
230
-1.0
  0
ARC
  5
182
  8
TEAM-NET
 10
0.0
 20
-174.919112
 30
-770.708407
 40
21.0
210
0.0
220
0.0
230
-1.0
 50
263.134972
 51
268.593777
  0
ARC
  5
183
  8
TEAM-NET
 10
0.0
 20
-174.919112
 30
-770.708407
 40
6.0
210
0.0
220
0.0
230
-1.0
 50
5.458443
 51
76.270306
  0
LINE
  5
184
  8
TEAM-NET
 10
2.510148
 20
-195.768553
 30
770.708407
 11
1.42405
 21
-180.74767
 31
770.708407
210
0.0
220
0.0
230
-1.0
  0
LINE
  5
185
  8
TEAM-NET
 10
-2.510148
 20
-154.069672
 30
770.708407
 11
-1.42405
 21
-169.090555
 31
770.708407
210
0.0
220
0.0
230
-1.0
  0
ARC
  5
186
  8
TEAM-NET
 10
0.0
 20
-174.919112
 30
-770.708407
 40
6.0
210
0.0
220
0.0
230
-1.0
 50
185.458443
 51
256.270306
  0
ARC
  5
187
  8
TEAM-NET
 10
0.0
 20
-174.919112
 30
-770.708407
 40
21.0
210
0.0
220
0.0
230
-1.0
 50
83.134972
 51
88.593777
  0
LINE
  5
188
  8
TEAM-NET
 10
5.972793
 20
-175.489855
 30
770.708407
 11
20.993675
 21
-174.403757
 31
770.708407
210
0.0
220
0.0
230
-1.0
  0
LINE
  5
189
  8
TEAM-NET
 10
0.570743
 20
-168.94632
 30
770.708407
 11
-0.515356
 21
-153.925437
 31
770.708407
210
0.0
220
0.0
230
-1.0
  0
ARC
  5
18A
  8
TEAM-NET
 10
0.0
 20
-174.919112
 30
-770.708407
 40
21.0
210
0.0
220
0.0
230
-1.0
 50
173.134972
 51
178.593777
  0
ARC
  5
18B
  8
TEAM-NET
 10
0.0
 20
-174.919112
 30
-770.708407
 40
6.0
210
0.0
220
0.0
230
-1.0
 50
95.458443
 51
166.270306
  0
LINE
  5
18C
  8
TEAM-NET
 10
20.84944
 20
-172.408964
 30
770.708407
 11
5.828557
 21
-173.495063
 31
770.708407
210
0.0
220
0.0
230
-1.0
  0
ARC
  5
18D
  8
TEAM-NET
 10
0.0
 20
-174.919112
 30
-770.708407
 40
30.0
210
0.0
220
0.0
230
-1.0
 50
311.220244
 51
131.220244
  0
ARC
  5
18E
  8
TEAM-NET
 10
0.0
 20
-174.919112
 30
-770.708407
 40
30.0
210
0.0
220
0.0
230
-1.0
 50
131.220244
 51
311.220244
  0
ARC
  5
18F
  8
TEAM-NET
 10
0.0
 20
-174.919112
 30
771.530327
 40
30.0
 50
318.779756
 51
48.779756
  0
LINE
  5
190
  8
TEAM-NET
 10
19.768658
 20
-152.353649
 30
771.530327
 11
19.768658
 21
-152.353649
 31
770.708407
  0
ARC
  5
191
  8
TEAM-NET
 10
0.0
 20
-174.919112
 30
771.530327
 40
30.0
 50
228.779756
 51
318.779756
  0
ARC
  5
192
  8
TEAM-NET
 10
0.0
 20
-174.919112
 30
770.708407
 40
30.0
 50
228.779756
 51
48.779756
  0
LINE
  5
193
  8
TEAM-NET
 10
-19.768658
 20
-197.484576
 30
771.530327
 11
-19.768658
 21
-197.484576
 31
770.708407
  0
LINE
  5
194
  8
TEAM-NET
 10
-5.972793
 20
-174.34837
 30
770.708407
 11
-20.993675
 21
-175.434468
 31
770.708407
210
-0.072118
220
0.997396
230
0.0
  0
ARC
  5
195
  8
TEAM-NET
 10
0.0
 20
-174.919112
 30
770.708407
 40
21.0
 50
181.406223
 51
186.865028
  0
LINE
  5
196
  8
TEAM-NET
 10
0.570743
 20
-168.94632
 30
770.708407
 11
-0.515356
 21
-153.925437
 31
770.708407
210
0.997396
220
0.072118
230
0.0
  0
ARC
  5
197
  8
TEAM-NET
 10
0.0
 20
-174.919112
 30
770.708407
 40
21.0
 50
91.406223
 51
96.865028
  0
LINE
  5
198
  8
TEAM-NET
 10
5.972793
 20
-175.489855
 30
770.708407
 11
20.993675
 21
-174.403757
 31
770.708407
210
0.072118
220
-0.997396
230
-0.0
  0
ARC
  5
199
  8
TEAM-NET
 10
0.0
 20
-174.919112
 30
770.708407
 40
21.0
 50
1.406223
 51
6.865028
  0
LINE
  5
19A
  8
TEAM-NET
 10
-0.570743
 20
-180.891905
 30
770.708407
 11
0.515356
 21
-195.912788
 31
770.708407
210
-0.997396
220
-0.072118
230
-0.0
  0
ARC
  5
19B
  8
TEAM-NET
 10
0.0
 20
-174.919112
 30
770.708407
 40
21.0
 50
271.406223
 51
276.865028
  0
LINE
  5
19C
  8
TEAM-NET
 10
20.84944
 20
-172.408964
 30
770.708407
 11
5.828557
 21
-173.495063
 31
770.708407
210
-0.072118
220
0.997396
230
0.0
  0
ARC
  5
19D
  8
TEAM-NET
 10
0.0
 20
-174.919112
 30
770.708407
 40
6.0
 50
283.729694
 51
354.541557
  0
LINE
  5
19E
  8
TEAM-NET
 10
-2.510148
 20
-154.069672
 30
770.708407
 11
-1.42405
 21
-169.090555
 31
770.708407
210
-0.997396
220
-0.072118
230
-0.0
  0
ARC
  5
19F
  8
TEAM-NET
 10
0.0
 20
-174.919112
 30
770.708407
 40
6.0
 50
13.729694
 51
84.541557
  0
LINE
  5
1A0
  8
TEAM-NET
 10
-20.84944
 20
-177.429261
 30
770.708407
 11
-5.828557
 21
-176.343162
 31
770.708407
210
0.072118
220
-0.997396
230
-0.0
  0
ARC
  5
1A1
  8
TEAM-NET
 10
0.0
 20
-174.919112
 30
770.708407
 40
6.0
 50
193.729694
 51
264.541557
  0
ARC
  5
1A2
  8
TEAM-NET
 10
0.0
 20
-174.919112
 30
770.708407
 40
6.0
 50
103.729694
 51
174.541557
  0
LINE
  5
1A3
  8
TEAM-NET
 10
2.510148
 20
-195.768553
 30
770.708407
 11
1.42405
 21
-180.74767
 31
770.708407
210
0.997396
220
0.072118
230
0.0
  0
LINE
  5
1A4
  8
TEAM-NET
 10
158.0
 20
-99.919112
 30
788.0
 11
-158.0
 21
-99.919112
 31
788.0
  0
ARC
  5
1A5
  8
TEAM-NET
 10
0.0
 20
-174.919112
 30
771.530327
 40
30.0
 50
138.779756
 51
228.779756
  0
ARC
  5
1A6
  8
TEAM-NET
 10
0.0
 20
-174.919112
 30
771.530327
 40
30.0
 50
228.779756
 51
318.779756
  0
ARC
  5
1A7
  8
TEAM-NET
 10
114.617442
 20
684.559111
 30
131.57103
 40
91.7912
210
-0.658955
220
-0.752182
230
-0.0
 50
89.596498
 51
108.650003
  0
ARC
  5
1A8
  8
TEAM-NET
 10
-115.9103
 20
684.559111
 30
-131.57103
 40
91.7912
210
0.658955
220
0.752182
230
0.0
 50
89.596498
 51
108.650003
  0
ARC
  5
1A9
  8
TEAM-NET
 10
0.0
 20
-174.919112
 30
771.530327
 40
30.0
 50
48.779756
 51
138.779756
  0
ARC
  5
1AA
  8
TEAM-NET
 10
114.617442
 20
684.559111
 30
131.57103
 40
91.7912
210
-0.658955
220
-0.752182
230
-0.0
 50
89.596498
 51
108.650003
  0
ARC
  5
1AB
  8
TEAM-NET
 10
0.0
 20
-174.919112
 30
771.530327
 40
30.0
 50
318.779756
 51
48.779756
  0
ARC
  5
1AC
  8
TEAM-NET
 10
-115.9103
 20
684.559111
 30
-131.57103
 40
91.7912
210
0.658955
220
0.752182
230
0.0
 50
89.596498
 51
108.650003
  0
LINE
  5
1AD
  8
TEAM-NET
 10
0.0
 20
-62.575076
 30
1004.967502
 11
0.0
 21
-55.74673
 31
966.242029
  0
LINE
  5
1AE
  8
TEAM-NET
 10
0.0
 20
-105.906617
 30
997.326982
 11
0.0
 21
-99.078271
 31
958.601509
  0
LINE
  5
1AF
  8
TEAM-NET
 10
0.0
 20
-62.575076
 30
1004.967502
 11
0.0
 21
-55.74673
 31
966.242029
  0
LINE
  5
1B0
  8
TEAM-NET
 10
0.0
 20
-105.906617
 30
997.326982
 11
0.0
 21
-99.078271
 31
958.601509
  0
ARC
  5
1B1
  8
TEAM-NET
 10
-0.071736
 20
700.811921
 30
-563.63723
 40
10.0
210
-0.0
220
-0.656966
230
-0.75392
 50
358.117883
 51
178.117883
  0
ARC
  5
1B2
  8
TEAM-NET
 10
0.071736
 20
700.811921
 30
562.63723
 40
9.0
210
0.0
220
0.656966
230
0.75392
 50
181.882117
 51
1.882117
  0
ARC
  5
1B3
  8
TEAM-NET
 10
-0.071736
 20
700.811921
 30
-563.63723
 40
10.0
210
-0.0
220
-0.656966
230
-0.75392
 50
178.117883
 51
358.117883
  0
ARC
  5
1B4
  8
TEAM-NET
 10
-0.071736
 20
700.811921
 30
-562.63723
 40
8.0
210
-0.0
220
-0.656966
230
-0.75392
 50
358.117883
 51
178.117883
  0
ARC
  5
1B5
  8
TEAM-NET
 10
-0.071736
 20
700.811921
 30
-562.63723
 40
8.0
210
-0.0
220
-0.656966
230
-0.75392
 50
178.117883
 51
358.117883
  0
ARC
  5
1B6
  8
TEAM-NET
 10
-0.071736
 20
700.811921
 30
-562.63723
 40
9.0
210
-0.0
220
-0.656966
230
-0.75392
 50
178.117883
 51
358.117883
  0
POLYLINE
  5
1B7
  8
TEAM-NET
 66
     1
 10
0.0
 20
0.0
 30
-552.455354
 70
   128
210
-0.0
220
-0.675261
230
-0.737579
  0
VERTEX
  5
9AC
  8
TEAM-NET
 10
-14.0
 20
714.418164
 30
-552.455354
  0
VERTEX
  5
9AD
  8
TEAM-NET
 10
-13.761623
 20
711.816455
 30
-552.455354
  0
VERTEX
  5
9AE
  8
TEAM-NET
 10
-13.054611
 20
709.303345
 30
-552.455354
  0
VERTEX
  5
9AF
  8
TEAM-NET
 10
-11.90304
 20
706.964413
 30
-552.455354
  0
VERTEX
  5
9B0
  8
TEAM-NET
 10
-10.346125
 20
704.87931
 30
-552.455354
  0
VERTEX
  5
9B1
  8
TEAM-NET
 10
-8.436885
 20
703.119042
 30
-552.455354
  0
VERTEX
  5
9B2
  8
TEAM-NET
 10
-6.240337
 20
701.743551
 30
-552.455354
  0
VERTEX
  5
9B3
  8
TEAM-NET
 10
-3.831282
 20
700.799679
 30
-552.455354
  0
VERTEX
  5
9B4
  8
TEAM-NET
 10
-1.291757
 20
700.319569
 30
-552.455354
  0
VERTEX
  5
9B5
  8
TEAM-NET
 10
1.291757
 20
700.319569
 30
-552.455354
  0
VERTEX
  5
9B6
  8
TEAM-NET
 10
3.831282
 20
700.799679
 30
-552.455354
  0
VERTEX
  5
9B7
  8
TEAM-NET
 10
6.240337
 20
701.743551
 30
-552.455354
  0
VERTEX
  5
9B8
  8
TEAM-NET
 10
8.436885
 20
703.119042
 30
-552.455354
  0
VERTEX
  5
9B9
  8
TEAM-NET
 10
10.346125
 20
704.87931
 30
-552.455354
  0
VERTEX
  5
9BA
  8
TEAM-NET
 10
11.90304
 20
706.964413
 30
-552.455354
  0
VERTEX
  5
9BB
  8
TEAM-NET
 10
13.054611
 20
709.303345
 30
-552.455354
  0
VERTEX
  5
9BC
  8
TEAM-NET
 10
13.761623
 20
711.816455
 30
-552.455354
  0
VERTEX
  5
9BD
  8
TEAM-NET
 10
14.0
 20
714.418164
 30
-552.455354
  0
SEQEND
  5
9BE
  8
TEAM-NET
  0
POLYLINE
  5
1B8
  8
TEAM-NET
 66
     1
 10
0.0
 20
0.0
 30
567.812617
 70
   129
210
-0.0
220
0.656966
230
0.75392
  0
VERTEX
  5
9BF
  8
TEAM-NET
 10
0.0
 20
712.837538
 30
567.812617
  0
VERTEX
  5
9C0
  8
TEAM-NET
 10
-2.271015
 20
712.617337
 30
567.812617
  0
VERTEX
  5
9C1
  8
TEAM-NET
 10
-4.459949
 20
711.964693
 30
567.812617
  0
VERTEX
  5
9C2
  8
TEAM-NET
 10
-6.48769
 20
710.903193
 30
567.812617
  0
VERTEX
  5
9C3
  8
TEAM-NET
 10
-8.280948
 20
709.471204
 30
567.812617
  0
VERTEX
  5
9C4
  8
TEAM-NET
 10
-9.774911
 20
707.720481
 30
567.812617
  0
VERTEX
  5
9C5
  8
TEAM-NET
 10
-10.915584
 20
705.7143
 30
567.812617
  0
VERTEX
  5
9C6
  8
TEAM-NET
 10
-11.661739
 20
703.52517
 30
567.812617
  0
VERTEX
  5
9C7
  8
TEAM-NET
 10
-11.986408
 20
701.23221
 30
567.812617
  0
VERTEX
  5
9C8
  8
TEAM-NET
 10
-11.877857
 20
698.918296
 30
567.812617
  0
VERTEX
  5
9C9
  8
TEAM-NET
 10
-11.34001
 20
696.667057
 30
567.812617
  0
VERTEX
  5
9CA
  8
TEAM-NET
 10
-10.392305
 20
694.559859
 30
567.812617
  0
VERTEX
  5
9CB
  8
TEAM-NET
 10
-9.068995
 20
692.672863
 30
567.812617
  0
VERTEX
  5
9CC
  8
TEAM-NET
 10
-7.417908
 20
691.074268
 30
567.812617
  0
VERTEX
  5
9CD
  8
TEAM-NET
 10
-5.498718
 20
689.821853
 30
567.812617
  0
VERTEX
  5
9CE
  8
TEAM-NET
 10
-3.380791
 20
688.960882
 30
567.812617
  0
VERTEX
  5
9CF
  8
TEAM-NET
 10
-1.140673
 20
688.522475
 30
567.812617
  0
VERTEX
  5
9D0
  8
TEAM-NET
 10
1.140673
 20
688.522475
 30
567.812617
  0
VERTEX
  5
9D1
  8
TEAM-NET
 10
3.380791
 20
688.960882
 30
567.812617
  0
VERTEX
  5
9D2
  8
TEAM-NET
 10
5.498718
 20
689.821853
 30
567.812617
  0
VERTEX
  5
9D3
  8
TEAM-NET
 10
7.417908
 20
691.074268
 30
567.812617
  0
VERTEX
  5
9D4
  8
TEAM-NET
 10
9.068995
 20
692.672863
 30
567.812617
  0
VERTEX
  5
9D5
  8
TEAM-NET
 10
10.392305
 20
694.559859
 30
567.812617
  0
VERTEX
  5
9D6
  8
TEAM-NET
 10
11.34001
 20
696.667057
 30
567.812617
  0
VERTEX
  5
9D7
  8
TEAM-NET
 10
11.877857
 20
698.918296
 30
567.812617
  0
VERTEX
  5
9D8
  8
TEAM-NET
 10
11.986408
 20
701.23221
 30
567.812617
  0
VERTEX
  5
9D9
  8
TEAM-NET
 10
11.661739
 20
703.52517
 30
567.812617
  0
VERTEX
  5
9DA
  8
TEAM-NET
 10
10.915584
 20
705.7143
 30
567.812617
  0
VERTEX
  5
9DB
  8
TEAM-NET
 10
9.774911
 20
707.720481
 30
567.812617
  0
VERTEX
  5
9DC
  8
TEAM-NET
 10
8.280948
 20
709.471204
 30
567.812617
  0
VERTEX
  5
9DD
  8
TEAM-NET
 10
6.48769
 20
710.903193
 30
567.812617
  0
VERTEX
  5
9DE
  8
TEAM-NET
 10
4.459949
 20
711.964693
 30
567.812617
  0
VERTEX
  5
9DF
  8
TEAM-NET
 10
2.271015
 20
712.617337
 30
567.812617
  0
SEQEND
  5
9E0
  8
TEAM-NET
  0
POLYLINE
  5
1B9
  8
TEAM-NET
 66
     1
 10
0.0
 20
0.0
 30
-567.812617
 70
   129
210
-0.0
220
-0.656966
230
-0.75392
  0
VERTEX
  5
9E1
  8
TEAM-NET
 10
0.0
 20
712.837538
 30
-567.812617
  0
VERTEX
  5
9E2
  8
TEAM-NET
 10
-2.271015
 20
712.617337
 30
-567.812617
  0
VERTEX
  5
9E3
  8
TEAM-NET
 10
-4.459949
 20
711.964693
 30
-567.812617
  0
VERTEX
  5
9E4
  8
TEAM-NET
 10
-6.48769
 20
710.903193
 30
-567.812617
  0
VERTEX
  5
9E5
  8
TEAM-NET
 10
-8.280948
 20
709.471204
 30
-567.812617
  0
VERTEX
  5
9E6
  8
TEAM-NET
 10
-9.774911
 20
707.720481
 30
-567.812617
  0
VERTEX
  5
9E7
  8
TEAM-NET
 10
-10.915584
 20
705.7143
 30
-567.812617
  0
VERTEX
  5
9E8
  8
TEAM-NET
 10
-11.661739
 20
703.52517
 30
-567.812617
  0
VERTEX
  5
9E9
  8
TEAM-NET
 10
-11.986408
 20
701.23221
 30
-567.812617
  0
VERTEX
  5
9EA
  8
TEAM-NET
 10
-11.877857
 20
698.918296
 30
-567.812617
  0
VERTEX
  5
9EB
  8
TEAM-NET
 10
-11.34001
 20
696.667057
 30
-567.812617
  0
VERTEX
  5
9EC
  8
TEAM-NET
 10
-10.392305
 20
694.559859
 30
-567.812617
  0
VERTEX
  5
9ED
  8
TEAM-NET
 10
-9.068995
 20
692.672863
 30
-567.812617
  0
VERTEX
  5
9EE
  8
TEAM-NET
 10
-7.417908
 20
691.074268
 30
-567.812617
  0
VERTEX
  5
9EF
  8
TEAM-NET
 10
-5.498718
 20
689.821853
 30
-567.812617
  0
VERTEX
  5
9F0
  8
TEAM-NET
 10
-3.380791
 20
688.960882
 30
-567.812617
  0
VERTEX
  5
9F1
  8
TEAM-NET
 10
-1.140673
 20
688.522475
 30
-567.812617
  0
VERTEX
  5
9F2
  8
TEAM-NET
 10
1.140673
 20
688.522475
 30
-567.812617
  0
VERTEX
  5
9F3
  8
TEAM-NET
 10
3.380791
 20
688.960882
 30
-567.812617
  0
VERTEX
  5
9F4
  8
TEAM-NET
 10
5.498718
 20
689.821853
 30
-567.812617
  0
VERTEX
  5
9F5
  8
TEAM-NET
 10
7.417908
 20
691.074268
 30
-567.812617
  0
VERTEX
  5
9F6
  8
TEAM-NET
 10
9.068995
 20
692.672863
 30
-567.812617
  0
VERTEX
  5
9F7
  8
TEAM-NET
 10
10.392305
 20
694.559859
 30
-567.812617
  0
VERTEX
  5
9F8
  8
TEAM-NET
 10
11.34001
 20
696.667057
 30
-567.812617
  0
VERTEX
  5
9F9
  8
TEAM-NET
 10
11.877857
 20
698.918296
 30
-567.812617
  0
VERTEX
  5
9FA
  8
TEAM-NET
 10
11.986408
 20
701.23221
 30
-567.812617
  0
VERTEX
  5
9FB
  8
TEAM-NET
 10
11.661739
 20
703.52517
 30
-567.812617
  0
VERTEX
  5
9FC
  8
TEAM-NET
 10
10.915584
 20
705.7143
 30
-567.812617
  0
VERTEX
  5
9FD
  8
TEAM-NET
 10
9.774911
 20
707.720481
 30
-567.812617
  0
VERTEX
  5
9FE
  8
TEAM-NET
 10
8.280948
 20
709.471204
 30
-567.812617
  0
VERTEX
  5
9FF
  8
TEAM-NET
 10
6.48769
 20
710.903193
 30
-567.812617
  0
VERTEX
  5
A00
  8
TEAM-NET
 10
4.459949
 20
711.964693
 30
-567.812617
  0
VERTEX
  5
A01
  8
TEAM-NET
 10
2.271015
 20
712.617337
 30
-567.812617
  0
SEQEND
  5
A02
  8
TEAM-NET
  0
ARC
  5
1BA
  8
TEAM-NET
 10
0.071736
 20
700.811921
 30
562.63723
 40
8.0
210
0.0
220
0.656966
230
0.75392
 50
181.882117
 51
1.882117
  0
ARC
  5
1BB
  8
TEAM-NET
 10
-0.071736
 20
700.811921
 30
-563.63723
 40
10.0
210
-0.0
220
-0.656966
230
-0.75392
 50
178.117883
 51
358.117883
  0
ARC
  5
1BC
  8
TEAM-NET
 10
-0.071736
 20
700.811921
 30
-563.63723
 40
10.0
210
-0.0
220
-0.656966
230
-0.75392
 50
358.117883
 51
178.117883
  0
ARC
  5
1BD
  8
TEAM-NET
 10
0.071736
 20
700.811921
 30
562.63723
 40
8.0
210
0.0
220
0.656966
230
0.75392
 50
1.882117
 51
181.882117
  0
LINE
  5
1BE
  8
TEAM-NET
 10
-3.0
 20
-45.145922
 30
893.068735
 11
-3.0
 21
-51.591371
 31
858.745107
  0
LINE
  5
1BF
  8
TEAM-NET
 10
-2.0
 20
-52.574192
 30
858.929666
 11
-2.0
 21
-46.128744
 31
893.253294
  0
LINE
  5
1C0
  8
TEAM-NET
 10
2.0
 20
-46.128744
 30
893.253294
 11
2.0
 21
-52.574192
 31
858.929666
210
-0.0
220
-0.982821
230
0.184559
  0
LINE
  5
1C1
  8
TEAM-NET
 10
-2.0
 20
-52.574192
 30
858.929666
 11
-2.0
 21
-46.128744
 31
893.253294
210
-0.0
220
-0.982821
230
0.184559
  0
LINE
  5
1C2
  8
TEAM-NET
 10
2.0
 20
-46.128744
 30
893.253294
 11
2.0
 21
-52.574192
 31
858.929666
  0
LINE
  5
1C3
  8
TEAM-NET
 10
3.0
 20
-51.591371
 30
858.745107
 11
3.0
 21
-45.145922
 31
893.068735
  0
LINE
  5
1C4
  8
TEAM-NET
 10
-1.0
 20
-42.183348
 30
892.590182
 11
-1.0
 21
-48.642903
 31
858.19143
  0
LINE
  5
1C5
  8
TEAM-NET
 10
-3.0
 20
-44.148991
 30
892.9593
 11
-3.0
 21
-50.608546
 31
858.560548
  0
LINE
  5
1C6
  8
TEAM-NET
 10
1.0
 20
-48.642903
 30
858.19143
 11
1.0
 21
-42.183348
 31
892.590182
210
0.0
220
0.982821
230
-0.184559
  0
LINE
  5
1C7
  8
TEAM-NET
 10
-1.0
 20
-42.183348
 30
892.590182
 11
-1.0
 21
-48.642903
 31
858.19143
210
0.0
220
0.982821
230
-0.184559
  0
LINE
  5
1C8
  8
TEAM-NET
 10
3.0
 20
-44.148991
 30
892.9593
 11
3.0
 21
-50.608546
 31
858.560548
  0
LINE
  5
1C9
  8
TEAM-NET
 10
1.0
 20
-48.642903
 30
858.19143
 11
1.0
 21
-42.183348
 31
892.590182
  0
POLYLINE
  5
1CA
  8
TEAM-NET
 66
     1
 10
0.0
 20
0.0
 30
-552.455354
 70
   128
210
-0.0
220
-0.675261
230
-0.737579
  0
VERTEX
  5
A03
  8
TEAM-NET
 10
-14.0
 20
714.418164
 30
-552.455354
  0
VERTEX
  5
A04
  8
TEAM-NET
 10
-13.761623
 20
711.816455
 30
-552.455354
  0
VERTEX
  5
A05
  8
TEAM-NET
 10
-13.054611
 20
709.303345
 30
-552.455354
  0
VERTEX
  5
A06
  8
TEAM-NET
 10
-11.90304
 20
706.964413
 30
-552.455354
  0
VERTEX
  5
A07
  8
TEAM-NET
 10
-10.346125
 20
704.87931
 30
-552.455354
  0
VERTEX
  5
A08
  8
TEAM-NET
 10
-8.436885
 20
703.119042
 30
-552.455354
  0
VERTEX
  5
A09
  8
TEAM-NET
 10
-6.240337
 20
701.743551
 30
-552.455354
  0
VERTEX
  5
A0A
  8
TEAM-NET
 10
-3.831282
 20
700.799679
 30
-552.455354
  0
VERTEX
  5
A0B
  8
TEAM-NET
 10
-1.291757
 20
700.319569
 30
-552.455354
  0
VERTEX
  5
A0C
  8
TEAM-NET
 10
1.291757
 20
700.319569
 30
-552.455354
  0
VERTEX
  5
A0D
  8
TEAM-NET
 10
3.831282
 20
700.799679
 30
-552.455354
  0
VERTEX
  5
A0E
  8
TEAM-NET
 10
6.240337
 20
701.743551
 30
-552.455354
  0
VERTEX
  5
A0F
  8
TEAM-NET
 10
8.436885
 20
703.119042
 30
-552.455354
  0
VERTEX
  5
A10
  8
TEAM-NET
 10
10.346125
 20
704.87931
 30
-552.455354
  0
VERTEX
  5
A11
  8
TEAM-NET
 10
11.90304
 20
706.964413
 30
-552.455354
  0
VERTEX
  5
A12
  8
TEAM-NET
 10
13.054611
 20
709.303345
 30
-552.455354
  0
VERTEX
  5
A13
  8
TEAM-NET
 10
13.761623
 20
711.816455
 30
-552.455354
  0
VERTEX
  5
A14
  8
TEAM-NET
 10
14.0
 20
714.418164
 30
-552.455354
  0
SEQEND
  5
A15
  8
TEAM-NET
  0
LINE
  5
1CB
  8
TEAM-NET
 10
0.0
 20
-55.254326
 30
966.328853
 11
0.0
 21
-36.153027
 31
858.0
  0
LINE
  5
1CC
  8
TEAM-NET
 10
0.0
 20
-99.570675
 30
958.514685
 11
0.0
 21
-81.847224
 31
858.0
  0
LINE
  5
1CD
  8
TEAM-NET
 10
0.0
 20
-55.254326
 30
966.328853
 11
0.0
 21
-36.153027
 31
858.0
  0
LINE
  5
1CE
  8
TEAM-NET
 10
0.0
 20
-99.570675
 30
958.514685
 11
0.0
 21
-81.847224
 31
858.0
  0
LINE
  5
1CF
  8
TEAM-NET
 10
3.0
 20
-44.148991
 30
892.9593
 11
3.0
 21
-50.608546
 31
858.560548
210
1.0
220
-0.0
230
-0.0
  0
LINE
  5
1D0
  8
TEAM-NET
 10
3.0
 20
-51.591371
 30
858.745107
 11
3.0
 21
-45.145922
 31
893.068735
210
1.0
220
-0.0
230
-0.0
  0
LINE
  5
1D1
  8
TEAM-NET
 10
-3.0
 20
-45.145922
 30
893.068735
 11
-3.0
 21
-51.591371
 31
858.745107
210
-1.0
220
0.0
230
0.0
  0
LINE
  5
1D2
  8
TEAM-NET
 10
-3.0
 20
-44.148991
 30
892.9593
 11
-3.0
 21
-50.608546
 31
858.560548
210
-1.0
220
0.0
230
0.0
  0
ARC
  5
1D3
  8
TEAM-NET
 10
395.919112
 20
837.0
 30
-33.0
 40
4.0
210
-1.0
220
0.0
230
0.0
 50
270.0
 51
0.0
  0
ARC
  5
1D4
  8
TEAM-NET
 10
-395.919112
 20
837.0
 30
30.0
 40
7.0
210
1.0
220
0.0
230
0.0
 50
180.0
 51
270.0
  0
ARC
  5
1D5
  8
TEAM-NET
 10
395.919112
 20
837.0
 30
30.0
 40
7.0
210
-1.0
220
0.0
230
0.0
 50
270.0
 51
0.0
  0
ARC
  5
1D6
  8
TEAM-NET
 10
-395.919112
 20
837.0
 30
-33.0
 40
4.0
210
1.0
220
0.0
230
0.0
 50
180.0
 51
270.0
  0
ARC
  5
1D7
  8
TEAM-NET
 10
-395.919112
 20
837.0
 30
-197.5
 40
4.0
210
1.0
220
0.0
230
0.0
 50
180.0
 51
270.0
  0
ARC
  5
1D8
  8
TEAM-NET
 10
-395.919112
 20
837.0
 30
-33.0
 40
4.0
210
1.0
220
0.0
230
0.0
 50
180.0
 51
270.0
  0
ARC
  5
1D9
  8
TEAM-NET
 10
395.919112
 20
837.0
 30
-197.5
 40
4.0
210
-1.0
220
0.0
230
0.0
 50
270.0
 51
0.0
  0
ARC
  5
1DA
  8
TEAM-NET
 10
395.919112
 20
837.0
 30
-33.0
 40
4.0
210
-1.0
220
0.0
230
0.0
 50
270.0
 51
0.0
  0
ARC
  5
1DB
  8
TEAM-NET
 10
-395.919112
 20
837.0
 30
-197.5
 40
4.0
210
1.0
220
0.0
230
0.0
 50
180.0
 51
270.0
  0
ARC
  5
1DC
  8
TEAM-NET
 10
-258.5
 20
837.0
 30
334.919112
 40
4.0
210
0.0
220
-1.0
230
0.0
 50
180.0
 51
270.0
  0
ARC
  5
1DD
  8
TEAM-NET
 10
395.919112
 20
837.0
 30
-197.5
 40
4.0
210
-1.0
220
0.0
230
0.0
 50
270.0
 51
0.0
  0
ARC
  5
1DE
  8
TEAM-NET
 10
258.5
 20
837.0
 30
334.919112
 40
4.0
210
0.0
220
-1.0
230
0.0
 50
270.0
 51
0.0
  0
ARC
  5
1DF
  8
TEAM-NET
 10
-258.5
 20
837.0
 30
334.919112
 40
4.0
210
0.0
220
-1.0
230
0.0
 50
180.0
 51
270.0
  0
ARC
  5
1E0
  8
TEAM-NET
 10
-258.5
 20
837.0
 30
64.919112
 40
4.0
210
0.0
220
-1.0
230
0.0
 50
180.0
 51
270.0
  0
ARC
  5
1E1
  8
TEAM-NET
 10
258.5
 20
837.0
 30
334.919112
 40
4.0
210
0.0
220
-1.0
230
0.0
 50
270.0
 51
0.0
  0
ARC
  5
1E2
  8
TEAM-NET
 10
258.5
 20
837.0
 30
64.919112
 40
4.0
210
0.0
220
-1.0
230
0.0
 50
270.0
 51
0.0
  0
ARC
  5
1E3
  8
TEAM-NET
 10
-258.5
 20
837.0
 30
64.919112
 40
4.0
210
0.0
220
-1.0
230
0.0
 50
180.0
 51
270.0
  0
ARC
  5
1E4
  8
TEAM-NET
 10
3.919112
 20
837.0
 30
197.5
 40
4.0
210
-1.0
220
0.0
230
0.0
 50
180.0
 51
270.0
  0
ARC
  5
1E5
  8
TEAM-NET
 10
258.5
 20
837.0
 30
64.919112
 40
4.0
210
0.0
220
-1.0
230
0.0
 50
270.0
 51
0.0
  0
ARC
  5
1E6
  8
TEAM-NET
 10
-3.919112
 20
837.0
 30
197.5
 40
4.0
210
1.0
220
0.0
230
0.0
 50
270.0
 51
0.0
  0
ARC
  5
1E7
  8
TEAM-NET
 10
-3.919112
 20
837.0
 30
197.5
 40
4.0
210
1.0
220
0.0
230
0.0
 50
270.0
 51
0.0
  0
ARC
  5
1E8
  8
TEAM-NET
 10
3.919112
 20
837.0
 30
197.5
 40
4.0
210
-1.0
220
0.0
230
0.0
 50
180.0
 51
270.0
  0
LINE
  5
1E9
  8
TEAM-NET
 10
17.5
 20
-59.000125
 30
855.0
 11
17.5
 21
-59.000125
 31
833.0
  0
LINE
  5
1EA
  8
TEAM-NET
 10
-17.5
 20
-59.000125
 30
855.0
 11
-17.5
 21
-59.000125
 31
833.0
  0
LINE
  5
1EB
  8
TEAM-NET
 10
30.0
 20
-403.919112
 30
809.757281
 11
30.0
 21
-403.919112
 31
868.0
  0
LINE
  5
1EC
  8
TEAM-NET
 10
26.0
 20
-407.919112
 30
868.0
 11
26.0
 21
-407.919112
 31
809.757281
  0
LINE
  5
1ED
  8
TEAM-NET
 10
-26.0
 20
-407.919112
 30
809.757281
 11
-26.0
 21
-407.919112
 31
868.0
210
0.0
220
-1.0
230
0.0
  0
LINE
  5
1EE
  8
TEAM-NET
 10
26.0
 20
-407.919112
 30
868.0
 11
26.0
 21
-407.919112
 31
809.757281
210
0.0
220
-1.0
230
0.0
  0
LINE
  5
1EF
  8
TEAM-NET
 10
-26.0
 20
-407.919112
 30
809.757281
 11
-26.0
 21
-407.919112
 31
868.0
  0
LINE
  5
1F0
  8
TEAM-NET
 10
-30.0
 20
-403.919112
 30
868.0
 11
-30.0
 21
-403.919112
 31
809.757281
  0
LINE
  5
1F1
  8
TEAM-NET
 10
17.5
 20
-59.000125
 30
855.0
 11
17.5
 21
-59.000125
 31
833.0
  0
LINE
  5
1F2
  8
TEAM-NET
 10
-17.5
 20
-59.000125
 30
855.0
 11
-17.5
 21
-59.000125
 31
833.0
  0
LINE
  5
1F3
  8
TEAM-NET
 10
-30.0
 20
-403.919112
 30
868.0
 11
-30.0
 21
-403.919112
 31
809.757281
210
-1.0
220
0.0
230
0.0
  0
ARC
  5
1F4
  8
TEAM-NET
 10
395.919112
 20
837.0
 30
30.0
 40
7.0
210
-1.0
220
0.0
230
0.0
 50
270.0
 51
0.0
  0
LINE
  5
1F5
  8
TEAM-NET
 10
30.0
 20
-403.919112
 30
809.757281
 11
30.0
 21
-403.919112
 31
868.0
210
1.0
220
0.0
230
0.0
  0
ARC
  5
1F6
  8
TEAM-NET
 10
-395.919112
 20
837.0
 30
30.0
 40
7.0
210
1.0
220
0.0
230
0.0
 50
180.0
 51
270.0
  0
LINE
  5
1F7
  8
TEAM-NET
 10
254.965663
 20
-334.899884
 30
830.070313
 11
254.965663
 21
-108.448925
 31
830.070313
  0
LINE
  5
1F8
  8
TEAM-NET
 10
257.964839
 20
-108.448925
 30
833.0
 11
257.964839
 21
-334.899884
 31
833.0
  0
LINE
  5
1F9
  8
TEAM-NET
 10
-254.965663
 20
-108.448925
 30
830.070313
 11
-254.965663
 21
-334.899884
 31
830.070313
  0
LINE
  5
1FA
  8
TEAM-NET
 10
-257.964839
 20
-334.899884
 30
833.0
 11
-257.964839
 21
-108.448925
 31
833.0
  0
LINE
  5
1FB
  8
TEAM-NET
 10
-257.964839
 20
-334.899884
 30
833.0
 11
-257.964839
 21
-108.448925
 31
833.0
210
0.0
220
0.0
230
-1.0
  0
LINE
  5
1FC
  8
TEAM-NET
 10
-258.5
 20
-64.919112
 30
833.0
 11
-258.5
 21
-334.919112
 31
833.0
210
0.0
220
0.0
230
-1.0
  0
LINE
  5
1FD
  8
TEAM-NET
 10
258.5
 20
-334.919112
 30
833.0
 11
258.5
 21
-64.919112
 31
833.0
210
0.0
220
0.0
230
-1.0
  0
LINE
  5
1FE
  8
TEAM-NET
 10
257.964839
 20
-108.448925
 30
833.0
 11
257.964839
 21
-334.899884
 31
833.0
210
0.0
220
0.0
230
-1.0
  0
LINE
  5
1FF
  8
TEAM-NET
 10
-258.5
 20
-64.919112
 30
833.0
 11
-258.5
 21
-334.919112
 31
833.0
  0
LINE
  5
200
  8
TEAM-NET
 10
258.5
 20
-334.919112
 30
833.0
 11
258.5
 21
-64.919112
 31
833.0
  0
LINE
  5
201
  8
TEAM-NET
 10
254.965663
 20
-334.899884
 30
830.070313
 11
254.965663
 21
-108.448925
 31
830.070313
  0
LINE
  5
202
  8
TEAM-NET
 10
-254.965663
 20
-108.448925
 30
830.070313
 11
-254.965663
 21
-334.899884
 31
830.070313
  0
ARC
  5
203
  8
TEAM-NET
 10
26.0
 20
-403.919112
 30
809.757281
 40
4.0
 50
270.0
 51
0.0
  0
LINE
  5
204
  8
TEAM-NET
 10
26.0
 20
-407.919112
 30
809.757281
 11
-26.0
 21
-407.919112
 31
809.757281
  0
ARC
  5
205
  8
TEAM-NET
 10
-26.0
 20
-403.919112
 30
809.757281
 40
4.0
 50
180.0
 51
270.0
  0
ARC
  5
206
  8
TEAM-NET
 10
26.0
 20
-403.919112
 30
809.757281
 40
4.0
 50
270.0
 51
0.0
  0
LINE
  5
207
  8
TEAM-NET
 10
26.0
 20
-407.919112
 30
809.757281
 11
-26.0
 21
-407.919112
 31
809.757281
210
0.0
220
-1.0
230
0.0
  0
ARC
  5
208
  8
TEAM-NET
 10
-26.0
 20
-403.919112
 30
809.757281
 40
4.0
 50
180.0
 51
270.0
  0
ARC
  5
209
  8
TEAM-NET
 10
-33.0
 20
830.0
 30
-395.919112
 40
3.0
210
0.0
220
1.0
230
0.0
 50
0.0
 51
90.0
  0
ARC
  5
20A
  8
TEAM-NET
 10
-33.0
 20
830.0
 30
-395.919112
 40
3.0
210
0.0
220
1.0
230
0.0
 50
0.0
 51
90.0
  0
LINE
  5
20B
  8
TEAM-NET
 10
30.0
 20
-395.919112
 30
830.0
 11
30.0
 21
-392.883951
 31
830.0
  0
LINE
  5
20C
  8
TEAM-NET
 10
33.0
 20
-392.883951
 30
833.0
 11
33.0
 21
-395.919112
 31
833.0
  0
ARC
  5
20D
  8
TEAM-NET
 10
-33.0
 20
830.0
 30
-392.883951
 40
3.0
210
0.0
220
1.0
230
0.0
 50
0.0
 51
90.0
  0
ARC
  5
20E
  8
TEAM-NET
 10
392.883951
 20
830.0
 30
-33.0
 40
3.0
210
-1.0
220
0.0
230
0.0
 50
90.0
 51
178.657007
  0
LINE
  5
20F
  8
TEAM-NET
 10
33.0
 20
-389.884775
 30
830.070313
 11
199.980771
 21
-389.884775
 31
830.070313
  0
LINE
  5
210
  8
TEAM-NET
 10
199.980771
 20
-392.883951
 30
833.0
 11
33.0
 21
-392.883951
 31
833.0
  0
ARC
  5
211
  8
TEAM-NET
 10
-392.883951
 20
830.0
 30
199.980771
 40
3.0
210
1.0
220
0.0
230
0.0
 50
1.342993
 51
90.0
  0
ARC
  5
212
  8
TEAM-NET
 10
-257.964839
 20
830.0
 30
-334.899884
 40
3.0
210
0.0
220
1.0
230
0.0
 50
1.342993
 51
90.0
  0
POLYLINE
  5
213
  8
TEAM-NET
 66
     1
 10
0.0
 20
0.0
 30
-833.0
 70
   128
210
0.0
220
0.0
230
-1.0
  0
VERTEX
  5
A16
  8
TEAM-NET
 10
-257.964839
 20
-334.899884
 30
-833.0
  0
VERTEX
  5
A17
  8
TEAM-NET
 10
-257.687728
 20
-340.563492
 30
-833.0
  0
VERTEX
  5
A18
  8
TEAM-NET
 10
-256.85858
 20
-346.173951
 30
-833.0
  0
VERTEX
  5
A19
  8
TEAM-NET
 10
-255.48548
 20
-351.675505
 30
-833.0
  0
VERTEX
  5
A1A
  8
TEAM-NET
 10
-253.581356
 20
-357.018036
 30
-833.0
  0
VERTEX
  5
A1B
  8
TEAM-NET
 10
-251.160708
 20
-362.155322
 30
-833.0
  0
VERTEX
  5
A1C
  8
TEAM-NET
 10
-248.232273
 20
-367.057078
 30
-833.0
  0
VERTEX
  5
A1D
  8
TEAM-NET
 10
-244.834487
 20
-371.648244
 30
-833.0
  0
VERTEX
  5
A1E
  8
TEAM-NET
 10
-241.019536
 20
-375.86481
 30
-833.0
  0
VERTEX
  5
A1F
  8
TEAM-NET
 10
-236.813648
 20
-379.684153
 30
-833.0
  0
VERTEX
  5
A20
  8
TEAM-NET
 10
-232.230291
 20
-383.089588
 30
-833.0
  0
VERTEX
  5
A21
  8
TEAM-NET
 10
-227.33273
 20
-386.028455
 30
-833.0
  0
VERTEX
  5
A22
  8
TEAM-NET
 10
-222.19459
 20
-388.460913
 30
-833.0
  0
VERTEX
  5
A23
  8
TEAM-NET
 10
-216.845838
 20
-390.377576
 30
-833.0
  0
VERTEX
  5
A24
  8
TEAM-NET
 10
-211.306767
 20
-391.767257
 30
-833.0
  0
VERTEX
  5
A25
  8
TEAM-NET
 10
-205.657551
 20
-392.605463
 30
-833.0
  0
VERTEX
  5
A26
  8
TEAM-NET
 10
-199.980771
 20
-392.883951
 30
-833.0
  0
SEQEND
  5
A27
  8
TEAM-NET
  0
POLYLINE
  5
214
  8
TEAM-NET
 66
     1
 10
0.0
 20
0.0
 30
0.0
 70
     8
  0
VERTEX
  5
655
  8
TEAM-NET
 10
199.980771
 20
-389.884775
 30
830.070313
 70
    32
  0
VERTEX
  5
656
  8
TEAM-NET
 10
205.364004
 20
-389.62077
 30
830.073745
 70
    32
  0
VERTEX
  5
657
  8
TEAM-NET
 10
210.721081
 20
-388.825983
 30
830.076578
 70
    32
  0
VERTEX
  5
658
  8
TEAM-NET
 10
215.973697
 20
-387.508231
 30
830.078868
 70
    32
  0
VERTEX
  5
659
  8
TEAM-NET
 10
221.045828
 20
-385.690743
 30
830.080663
 70
    32
  0
VERTEX
  5
65A
  8
TEAM-NET
 10
225.918229
 20
-383.384129
 30
830.082021
 70
    32
  0
VERTEX
  5
65B
  8
TEAM-NET
 10
230.562487
 20
-380.597292
 30
830.082973
 70
    32
  0
VERTEX
  5
65C
  8
TEAM-NET
 10
234.908785
 20
-377.368011
 30
830.083533
 70
    32
  0
VERTEX
  5
65D
  8
TEAM-NET
 10
238.89713
 20
-373.746224
 30
830.083715
 70
    32
  0
VERTEX
  5
65E
  8
TEAM-NET
 10
242.514753
 20
-369.747752
 30
830.083526
 70
    32
  0
VERTEX
  5
65F
  8
TEAM-NET
 10
245.73678
 20
-365.39405
 30
830.082958
 70
    32
  0
VERTEX
  5
660
  8
TEAM-NET
 10
248.513725
 20
-360.745813
 30
830.081998
 70
    32
  0
VERTEX
  5
661
  8
TEAM-NET
 10
250.809139
 20
-355.874221
 30
830.080635
 70
    32
  0
VERTEX
  5
662
  8
TEAM-NET
 10
252.614737
 20
-350.80799
 30
830.078834
 70
    32
  0
VERTEX
  5
663
  8
TEAM-NET
 10
253.916765
 20
-345.590951
 30
830.076554
 70
    32
  0
VERTEX
  5
664
  8
TEAM-NET
 10
254.702964
 20
-340.270626
 30
830.073738
 70
    32
  0
VERTEX
  5
665
  8
TEAM-NET
 10
254.965663
 20
-334.899884
 30
830.070313
 70
    32
  0
SEQEND
  5
666
  8
TEAM-NET
  0
ARC
  5
215
  8
TEAM-NET
 10
-392.883951
 20
830.0
 30
199.980771
 40
3.0
210
1.0
220
0.0
230
0.0
 50
1.342993
 51
90.0
  0
ARC
  5
216
  8
TEAM-NET
 10
-257.964839
 20
830.0
 30
-334.899884
 40
3.0
210
0.0
220
1.0
230
0.0
 50
1.342993
 51
90.0
  0
ARC
  5
217
  8
TEAM-NET
 10
-257.964839
 20
830.0
 30
334.899884
 40
3.0
210
0.0
220
-1.0
230
0.0
 50
1.342993
 51
90.0
  0
ARC
  5
218
  8
TEAM-NET
 10
-392.883951
 20
830.0
 30
-199.980771
 40
3.0
210
1.0
220
0.0
230
0.0
 50
1.342993
 51
90.0
  0
POLYLINE
  5
219
  8
TEAM-NET
 66
     1
 10
0.0
 20
0.0
 30
-833.0
 70
   128
210
0.0
220
0.0
230
-1.0
  0
VERTEX
  5
A28
  8
TEAM-NET
 10
199.980771
 20
-392.883951
 30
-833.0
  0
VERTEX
  5
A29
  8
TEAM-NET
 10
205.644385
 20
-392.60683
 30
-833.0
  0
VERTEX
  5
A2A
  8
TEAM-NET
 10
211.254787
 20
-391.777706
 30
-833.0
  0
VERTEX
  5
A2B
  8
TEAM-NET
 10
216.756558
 20
-390.404558
 30
-833.0
  0
VERTEX
  5
A2C
  8
TEAM-NET
 10
222.09892
 20
-388.500477
 30
-833.0
  0
VERTEX
  5
A2D
  8
TEAM-NET
 10
227.236218
 20
-386.079818
 30
-833.0
  0
VERTEX
  5
A2E
  8
TEAM-NET
 10
232.137947
 20
-383.151318
 30
-833.0
  0
VERTEX
  5
A2F
  8
TEAM-NET
 10
236.729218
 20
-379.753458
 30
-833.0
  0
VERTEX
  5
A30
  8
TEAM-NET
 10
240.945602
 20
-375.938712
 30
-833.0
  0
VERTEX
  5
A31
  8
TEAM-NET
 10
244.764739
 20
-371.733088
 30
-833.0
  0
VERTEX
  5
A32
  8
TEAM-NET
 10
248.170419
 20
-367.149394
 30
-833.0
  0
VERTEX
  5
A33
  8
TEAM-NET
 10
251.109256
 20
-362.251972
 30
-833.0
  0
VERTEX
  5
A34
  8
TEAM-NET
 10
253.54161
 20
-357.114433
 30
-833.0
  0
VERTEX
  5
A35
  8
TEAM-NET
 10
255.458436
 20
-351.764981
 30
-833.0
  0
VERTEX
  5
A36
  8
TEAM-NET
 10
256.848125
 20
-346.225946
 30
-833.0
  0
VERTEX
  5
A37
  8
TEAM-NET
 10
257.68636
 20
-340.576624
 30
-833.0
  0
VERTEX
  5
A38
  8
TEAM-NET
 10
257.964839
 20
-334.899884
 30
-833.0
  0
SEQEND
  5
A39
  8
TEAM-NET
  0
POLYLINE
  5
21A
  8
TEAM-NET
 66
     1
 10
0.0
 20
0.0
 30
0.0
 70
     8
  0
VERTEX
  5
679
  8
TEAM-NET
 10
-254.965663
 20
-334.899884
 30
830.070313
 70
    32
  0
VERTEX
  5
67A
  8
TEAM-NET
 10
-254.701667
 20
-340.283078
 30
830.073745
 70
    32
  0
VERTEX
  5
67B
  8
TEAM-NET
 10
-253.906852
 20
-345.640257
 30
830.076578
 70
    32
  0
VERTEX
  5
67C
  8
TEAM-NET
 10
-252.589092
 20
-350.892838
 30
830.078868
 70
    32
  0
VERTEX
  5
67D
  8
TEAM-NET
 10
-250.77145
 20
-355.965633
 30
830.080664
 70
    32
  0
VERTEX
  5
67E
  8
TEAM-NET
 10
-248.464935
 20
-360.837464
 30
830.082021
 70
    32
  0
VERTEX
  5
67F
  8
TEAM-NET
 10
-245.678126
 20
-365.481591
 30
830.082973
 70
    32
  0
VERTEX
  5
680
  8
TEAM-NET
 10
-242.448612
 20
-369.828208
 30
830.083533
 70
    32
  0
VERTEX
  5
681
  8
TEAM-NET
 10
-238.827021
 20
-373.816303
 30
830.083715
 70
    32
  0
VERTEX
  5
682
  8
TEAM-NET
 10
-234.828722
 20
-377.433731
 30
830.083526
 70
    32
  0
VERTEX
  5
683
  8
TEAM-NET
 10
-230.47492
 20
-380.655828
 30
830.082958
 70
    32
  0
VERTEX
  5
684
  8
TEAM-NET
 10
-225.826708
 20
-383.432835
 30
830.081998
 70
    32
  0
VERTEX
  5
685
  8
TEAM-NET
 10
-220.955105
 20
-385.72826
 30
830.080635
 70
    32
  0
VERTEX
  5
686
  8
TEAM-NET
 10
-215.889035
 20
-387.533816
 30
830.078835
 70
    32
  0
VERTEX
  5
687
  8
TEAM-NET
 10
-210.671789
 20
-388.835891
 30
830.076554
 70
    32
  0
VERTEX
  5
688
  8
TEAM-NET
 10
-205.351518
 20
-389.622067
 30
830.073738
 70
    32
  0
VERTEX
  5
689
  8
TEAM-NET
 10
-199.980771
 20
-389.884775
 30
830.070313
 70
    32
  0
SEQEND
  5
68A
  8
TEAM-NET
  0
ARC
  5
21B
  8
TEAM-NET
 10
-257.964839
 20
830.0
 30
334.899884
 40
3.0
210
0.0
220
-1.0
230
0.0
 50
1.342993
 51
90.0
  0
ARC
  5
21C
  8
TEAM-NET
 10
-392.883951
 20
830.0
 30
-199.980771
 40
3.0
210
1.0
220
0.0
230
0.0
 50
1.342993
 51
90.0
  0
LINE
  5
21D
  8
TEAM-NET
 10
-199.980771
 20
-389.884775
 30
830.070313
 11
-33.0
 21
-389.884775
 31
830.070313
  0
LINE
  5
21E
  8
TEAM-NET
 10
-33.0
 20
-392.883951
 30
833.0
 11
-199.980771
 21
-392.883951
 31
833.0
  0
ARC
  5
21F
  8
TEAM-NET
 10
-392.883951
 20
830.0
 30
-33.0
 40
3.0
210
1.0
220
0.0
230
0.0
 50
1.342993
 51
90.0
  0
ARC
  5
220
  8
TEAM-NET
 10
-33.0
 20
-373.322903
 30
-838.98022
 40
3.0
210
0.0
220
0.023438
230
-0.999725
 50
360.0
 51
90.0
  0
ARC
  5
221
  8
TEAM-NET
 10
-33.0
 20
830.0
 30
-392.883951
 40
3.0
210
0.0
220
1.0
230
0.0
 50
0.0
 51
90.0
  0
ARC
  5
222
  8
TEAM-NET
 10
392.883951
 20
830.0
 30
-33.0
 40
3.0
210
-1.0
220
0.0
230
0.0
 50
90.0
 51
178.657007
  0
ARC
  5
223
  8
TEAM-NET
 10
-33.0
 20
830.0
 30
395.919112
 40
3.0
210
0.0
220
-1.0
230
0.0
 50
0.0
 51
90.0
  0
LINE
  5
224
  8
TEAM-NET
 10
-33.0
 20
-395.919112
 30
833.0
 11
-33.0
 21
-392.883951
 31
833.0
  0
LINE
  5
225
  8
TEAM-NET
 10
-30.0
 20
-392.883951
 30
830.0
 11
-30.0
 21
-395.919112
 31
830.0
  0
ARC
  5
226
  8
TEAM-NET
 10
33.0
 20
830.0
 30
-392.883951
 40
3.0
210
0.0
220
1.0
230
0.0
 50
90.0
 51
180.0
  0
ARC
  5
227
  8
TEAM-NET
 10
-33.0
 20
830.0
 30
395.919112
 40
3.0
210
0.0
220
-1.0
230
0.0
 50
0.0
 51
90.0
  0
ARC
  5
228
  8
TEAM-NET
 10
33.0
 20
-373.322903
 30
-838.98022
 40
3.0
210
0.0
220
0.023438
230
-0.999725
 50
90.0
 51
180.0
  0
ARC
  5
229
  8
TEAM-NET
 10
-392.883951
 20
830.0
 30
-33.0
 40
3.0
210
1.0
220
0.0
230
0.0
 50
1.342993
 51
90.0
  0
ARC
  5
22A
  8
TEAM-NET
 10
33.0
 20
830.0
 30
-392.883951
 40
3.0
210
0.0
220
1.0
230
0.0
 50
90.0
 51
180.0
  0
POLYLINE
  5
22B
  8
TEAM-NET
 66
     1
 10
0.0
 20
0.0
 30
-833.0
 70
   128
210
0.0
220
0.0
230
-1.0
  0
VERTEX
  5
A3A
  8
TEAM-NET
 10
199.980771
 20
-392.883951
 30
-833.0
  0
VERTEX
  5
A3B
  8
TEAM-NET
 10
205.644385
 20
-392.60683
 30
-833.0
  0
VERTEX
  5
A3C
  8
TEAM-NET
 10
211.254787
 20
-391.777706
 30
-833.0
  0
VERTEX
  5
A3D
  8
TEAM-NET
 10
216.756558
 20
-390.404558
 30
-833.0
  0
VERTEX
  5
A3E
  8
TEAM-NET
 10
222.09892
 20
-388.500477
 30
-833.0
  0
VERTEX
  5
A3F
  8
TEAM-NET
 10
227.236218
 20
-386.079818
 30
-833.0
  0
VERTEX
  5
A40
  8
TEAM-NET
 10
232.137947
 20
-383.151318
 30
-833.0
  0
VERTEX
  5
A41
  8
TEAM-NET
 10
236.729218
 20
-379.753458
 30
-833.0
  0
VERTEX
  5
A42
  8
TEAM-NET
 10
240.945602
 20
-375.938712
 30
-833.0
  0
VERTEX
  5
A43
  8
TEAM-NET
 10
244.764739
 20
-371.733088
 30
-833.0
  0
VERTEX
  5
A44
  8
TEAM-NET
 10
248.170419
 20
-367.149394
 30
-833.0
  0
VERTEX
  5
A45
  8
TEAM-NET
 10
251.109256
 20
-362.251972
 30
-833.0
  0
VERTEX
  5
A46
  8
TEAM-NET
 10
253.54161
 20
-357.114433
 30
-833.0
  0
VERTEX
  5
A47
  8
TEAM-NET
 10
255.458436
 20
-351.764981
 30
-833.0
  0
VERTEX
  5
A48
  8
TEAM-NET
 10
256.848125
 20
-346.225946
 30
-833.0
  0
VERTEX
  5
A49
  8
TEAM-NET
 10
257.68636
 20
-340.576624
 30
-833.0
  0
VERTEX
  5
A4A
  8
TEAM-NET
 10
257.964839
 20
-334.899884
 30
-833.0
  0
SEQEND
  5
A4B
  8
TEAM-NET
  0
LINE
  5
22C
  8
TEAM-NET
 10
-33.0
 20
-392.883951
 30
833.0
 11
-199.980771
 21
-392.883951
 31
833.0
210
0.0
220
0.0
230
-1.0
  0
LINE
  5
22D
  8
TEAM-NET
 10
-33.0
 20
-395.919112
 30
833.0
 11
-33.0
 21
-392.883951
 31
833.0
210
0.0
220
0.0
230
-1.0
  0
LINE
  5
22E
  8
TEAM-NET
 10
-197.5
 20
-395.919112
 30
833.0
 11
-33.0
 21
-395.919112
 31
833.0
210
0.0
220
0.0
230
-1.0
  0
ARC
  5
22F
  8
TEAM-NET
 10
197.5
 20
-334.919112
 30
-833.0
 40
61.0
210
0.0
220
0.0
230
-1.0
 50
270.0
 51
0.0
  0
ARC
  5
230
  8
TEAM-NET
 10
-197.5
 20
-334.919112
 30
-833.0
 40
61.0
210
0.0
220
0.0
230
-1.0
 50
180.0
 51
270.0
  0
POLYLINE
  5
231
  8
TEAM-NET
 66
     1
 10
0.0
 20
0.0
 30
-833.0
 70
   128
210
0.0
220
0.0
230
-1.0
  0
VERTEX
  5
A4C
  8
TEAM-NET
 10
-257.964839
 20
-334.899884
 30
-833.0
  0
VERTEX
  5
A4D
  8
TEAM-NET
 10
-257.687728
 20
-340.563492
 30
-833.0
  0
VERTEX
  5
A4E
  8
TEAM-NET
 10
-256.85858
 20
-346.173951
 30
-833.0
  0
VERTEX
  5
A4F
  8
TEAM-NET
 10
-255.48548
 20
-351.675505
 30
-833.0
  0
VERTEX
  5
A50
  8
TEAM-NET
 10
-253.581356
 20
-357.018036
 30
-833.0
  0
VERTEX
  5
A51
  8
TEAM-NET
 10
-251.160708
 20
-362.155322
 30
-833.0
  0
VERTEX
  5
A52
  8
TEAM-NET
 10
-248.232273
 20
-367.057078
 30
-833.0
  0
VERTEX
  5
A53
  8
TEAM-NET
 10
-244.834487
 20
-371.648244
 30
-833.0
  0
VERTEX
  5
A54
  8
TEAM-NET
 10
-241.019536
 20
-375.86481
 30
-833.0
  0
VERTEX
  5
A55
  8
TEAM-NET
 10
-236.813648
 20
-379.684153
 30
-833.0
  0
VERTEX
  5
A56
  8
TEAM-NET
 10
-232.230291
 20
-383.089588
 30
-833.0
  0
VERTEX
  5
A57
  8
TEAM-NET
 10
-227.33273
 20
-386.028455
 30
-833.0
  0
VERTEX
  5
A58
  8
TEAM-NET
 10
-222.19459
 20
-388.460913
 30
-833.0
  0
VERTEX
  5
A59
  8
TEAM-NET
 10
-216.845838
 20
-390.377576
 30
-833.0
  0
VERTEX
  5
A5A
  8
TEAM-NET
 10
-211.306767
 20
-391.767257
 30
-833.0
  0
VERTEX
  5
A5B
  8
TEAM-NET
 10
-205.657551
 20
-392.605463
 30
-833.0
  0
VERTEX
  5
A5C
  8
TEAM-NET
 10
-199.980771
 20
-392.883951
 30
-833.0
  0
SEQEND
  5
A5D
  8
TEAM-NET
  0
LINE
  5
232
  8
TEAM-NET
 10
33.0
 20
-395.919112
 30
833.0
 11
197.5
 21
-395.919112
 31
833.0
210
0.0
220
0.0
230
-1.0
  0
LINE
  5
233
  8
TEAM-NET
 10
199.980771
 20
-392.883951
 30
833.0
 11
33.0
 21
-392.883951
 31
833.0
210
0.0
220
0.0
230
-1.0
  0
LINE
  5
234
  8
TEAM-NET
 10
33.0
 20
-392.883951
 30
833.0
 11
33.0
 21
-395.919112
 31
833.0
210
0.0
220
0.0
230
-1.0
  0
LINE
  5
235
  8
TEAM-NET
 10
-197.5
 20
-395.919112
 30
833.0
 11
-33.0
 21
-395.919112
 31
833.0
  0
LINE
  5
236
  8
TEAM-NET
 10
33.0
 20
-395.919112
 30
833.0
 11
197.5
 21
-395.919112
 31
833.0
  0
ARC
  5
237
  8
TEAM-NET
 10
-197.5
 20
-334.919112
 30
833.0
 40
61.0
 50
180.0
 51
270.0
  0
ARC
  5
238
  8
TEAM-NET
 10
197.5
 20
-334.919112
 30
833.0
 40
61.0
 50
270.0
 51
0.0
  0
LINE
  5
239
  8
TEAM-NET
 10
-30.0
 20
-392.883951
 30
830.0
 11
-30.0
 21
-395.919112
 31
830.0
210
-1.0
220
0.0
230
0.0
  0
ARC
  5
23A
  8
TEAM-NET
 10
-33.0
 20
-373.322903
 30
-838.98022
 40
3.0
210
0.0
220
0.023438
230
-0.999725
 50
360.0
 51
90.0
  0
ARC
  5
23B
  8
TEAM-NET
 10
33.0
 20
-373.322903
 30
-838.98022
 40
3.0
210
0.0
220
0.023438
230
-0.999725
 50
90.0
 51
180.0
  0
LINE
  5
23C
  8
TEAM-NET
 10
30.0
 20
-395.919112
 30
830.0
 11
30.0
 21
-392.883951
 31
830.0
210
1.0
220
0.0
230
0.0
  0
LINE
  5
23D
  8
TEAM-NET
 10
33.0
 20
-389.884775
 30
830.070313
 11
199.980771
 21
-389.884775
 31
830.070313
  0
LINE
  5
23E
  8
TEAM-NET
 10
-199.980771
 20
-389.884775
 30
830.070313
 11
-33.0
 21
-389.884775
 31
830.070313
  0
POLYLINE
  5
23F
  8
TEAM-NET
 66
     1
 10
0.0
 20
0.0
 30
0.0
 70
     8
  0
VERTEX
  5
6AF
  8
TEAM-NET
 10
-254.965663
 20
-334.899884
 30
830.070313
 70
    32
  0
VERTEX
  5
6B0
  8
TEAM-NET
 10
-254.701667
 20
-340.283078
 30
830.073745
 70
    32
  0
VERTEX
  5
6B1
  8
TEAM-NET
 10
-253.906852
 20
-345.640257
 30
830.076578
 70
    32
  0
VERTEX
  5
6B2
  8
TEAM-NET
 10
-252.589092
 20
-350.892838
 30
830.078868
 70
    32
  0
VERTEX
  5
6B3
  8
TEAM-NET
 10
-250.77145
 20
-355.965633
 30
830.080664
 70
    32
  0
VERTEX
  5
6B4
  8
TEAM-NET
 10
-248.464935
 20
-360.837464
 30
830.082021
 70
    32
  0
VERTEX
  5
6B5
  8
TEAM-NET
 10
-245.678126
 20
-365.481591
 30
830.082973
 70
    32
  0
VERTEX
  5
6B6
  8
TEAM-NET
 10
-242.448612
 20
-369.828208
 30
830.083533
 70
    32
  0
VERTEX
  5
6B7
  8
TEAM-NET
 10
-238.827021
 20
-373.816303
 30
830.083715
 70
    32
  0
VERTEX
  5
6B8
  8
TEAM-NET
 10
-234.828722
 20
-377.433731
 30
830.083526
 70
    32
  0
VERTEX
  5
6B9
  8
TEAM-NET
 10
-230.47492
 20
-380.655828
 30
830.082958
 70
    32
  0
VERTEX
  5
6BA
  8
TEAM-NET
 10
-225.826708
 20
-383.432835
 30
830.081998
 70
    32
  0
VERTEX
  5
6BB
  8
TEAM-NET
 10
-220.955105
 20
-385.72826
 30
830.080635
 70
    32
  0
VERTEX
  5
6BC
  8
TEAM-NET
 10
-215.889035
 20
-387.533816
 30
830.078835
 70
    32
  0
VERTEX
  5
6BD
  8
TEAM-NET
 10
-210.671789
 20
-388.835891
 30
830.076554
 70
    32
  0
VERTEX
  5
6BE
  8
TEAM-NET
 10
-205.351518
 20
-389.622067
 30
830.073738
 70
    32
  0
VERTEX
  5
6BF
  8
TEAM-NET
 10
-199.980771
 20
-389.884775
 30
830.070313
 70
    32
  0
SEQEND
  5
6C0
  8
TEAM-NET
  0
POLYLINE
  5
240
  8
TEAM-NET
 66
     1
 10
0.0
 20
0.0
 30
0.0
 70
     8
  0
VERTEX
  5
6C1
  8
TEAM-NET
 10
199.980771
 20
-389.884775
 30
830.070313
 70
    32
  0
VERTEX
  5
6C2
  8
TEAM-NET
 10
205.364004
 20
-389.62077
 30
830.073745
 70
    32
  0
VERTEX
  5
6C3
  8
TEAM-NET
 10
210.721081
 20
-388.825983
 30
830.076578
 70
    32
  0
VERTEX
  5
6C4
  8
TEAM-NET
 10
215.973697
 20
-387.508231
 30
830.078868
 70
    32
  0
VERTEX
  5
6C5
  8
TEAM-NET
 10
221.045828
 20
-385.690743
 30
830.080663
 70
    32
  0
VERTEX
  5
6C6
  8
TEAM-NET
 10
225.918229
 20
-383.384129
 30
830.082021
 70
    32
  0
VERTEX
  5
6C7
  8
TEAM-NET
 10
230.562487
 20
-380.597292
 30
830.082973
 70
    32
  0
VERTEX
  5
6C8
  8
TEAM-NET
 10
234.908785
 20
-377.368011
 30
830.083533
 70
    32
  0
VERTEX
  5
6C9
  8
TEAM-NET
 10
238.89713
 20
-373.746224
 30
830.083715
 70
    32
  0
VERTEX
  5
6CA
  8
TEAM-NET
 10
242.514753
 20
-369.747752
 30
830.083526
 70
    32
  0
VERTEX
  5
6CB
  8
TEAM-NET
 10
245.73678
 20
-365.39405
 30
830.082958
 70
    32
  0
VERTEX
  5
6CC
  8
TEAM-NET
 10
248.513725
 20
-360.745813
 30
830.081998
 70
    32
  0
VERTEX
  5
6CD
  8
TEAM-NET
 10
250.809139
 20
-355.874221
 30
830.080635
 70
    32
  0
VERTEX
  5
6CE
  8
TEAM-NET
 10
252.614737
 20
-350.80799
 30
830.078834
 70
    32
  0
VERTEX
  5
6CF
  8
TEAM-NET
 10
253.916765
 20
-345.590951
 30
830.076554
 70
    32
  0
VERTEX
  5
6D0
  8
TEAM-NET
 10
254.702964
 20
-340.270626
 30
830.073738
 70
    32
  0
VERTEX
  5
6D1
  8
TEAM-NET
 10
254.965663
 20
-334.899884
 30
830.070313
 70
    32
  0
SEQEND
  5
6D2
  8
TEAM-NET
  0
ARC
  5
241
  8
TEAM-NET
 10
-257.964839
 20
830.0
 30
-108.448925
 40
3.0
210
0.0
220
1.0
230
0.0
 50
1.342993
 51
90.0
  0
ARC
  5
242
  8
TEAM-NET
 10
75.448925
 20
830.0
 30
-224.95262
 40
3.0
210
-1.0
220
0.0
230
0.0
 50
0.0
 51
90.0
  0
POLYLINE
  5
243
  8
TEAM-NET
 66
     1
 10
0.0
 20
0.0
 30
-833.0
 70
   128
210
0.0
220
0.0
230
-1.0
  0
VERTEX
  5
A5E
  8
TEAM-NET
 10
-224.95262
 20
-75.448925
 30
-833.0
  0
VERTEX
  5
A5F
  8
TEAM-NET
 10
-231.369614
 20
-76.078084
 30
-833.0
  0
VERTEX
  5
A60
  8
TEAM-NET
 10
-237.542807
 20
-77.94262
 30
-833.0
  0
VERTEX
  5
A61
  8
TEAM-NET
 10
-243.258341
 20
-80.986548
 30
-833.0
  0
VERTEX
  5
A62
  8
TEAM-NET
 10
-248.273153
 20
-85.091059
 30
-833.0
  0
VERTEX
  5
A63
  8
TEAM-NET
 10
-252.386788
 20
-90.093025
 30
-833.0
  0
VERTEX
  5
A64
  8
TEAM-NET
 10
-255.445637
 20
-95.804166
 30
-833.0
  0
VERTEX
  5
A65
  8
TEAM-NET
 10
-257.328878
 20
-102.001909
 30
-833.0
  0
VERTEX
  5
A66
  8
TEAM-NET
 10
-257.964839
 20
-108.448925
 30
-833.0
  0
SEQEND
  5
A67
  8
TEAM-NET
  0
POLYLINE
  5
244
  8
TEAM-NET
 66
     1
 10
0.0
 20
0.0
 30
0.0
 70
     8
  0
VERTEX
  5
6DD
  8
TEAM-NET
 10
254.965663
 20
-108.448925
 30
830.070313
 70
    32
  0
VERTEX
  5
6DE
  8
TEAM-NET
 10
254.387493
 20
-102.588001
 30
830.069302
 70
    32
  0
VERTEX
  5
6DF
  8
TEAM-NET
 10
252.675384
 20
-96.953689
 30
830.06625
 70
    32
  0
VERTEX
  5
6E0
  8
TEAM-NET
 10
249.894486
 20
-91.761743
 30
830.061093
 70
    32
  0
VERTEX
  5
6E1
  8
TEAM-NET
 10
246.154635
 20
-87.214501
 30
830.053736
 70
    32
  0
VERTEX
  5
6E2
  8
TEAM-NET
 10
241.595463
 20
-83.483128
 30
830.044047
 70
    32
  0
VERTEX
  5
6E3
  8
TEAM-NET
 10
236.399194
 20
-80.715921
 30
830.031902
 70
    32
  0
VERTEX
  5
6E4
  8
TEAM-NET
 10
230.786778
 20
-79.020888
 30
830.017249
 70
    32
  0
VERTEX
  5
6E5
  8
TEAM-NET
 10
224.95262
 20
-78.448925
 30
830.0
 70
    32
  0
SEQEND
  5
6E6
  8
TEAM-NET
  0
ARC
  5
245
  8
TEAM-NET
 10
-257.964839
 20
830.0
 30
-108.448925
 40
3.0
210
0.0
220
1.0
230
0.0
 50
1.342993
 51
90.0
  0
LINE
  5
246
  8
TEAM-NET
 10
224.95262
 20
-78.448925
 30
830.0
 11
-224.95262
 21
-78.448925
 31
830.0
  0
ARC
  5
247
  8
TEAM-NET
 10
75.448925
 20
830.0
 30
224.95262
 40
3.0
210
-1.0
220
0.0
230
0.0
 50
0.0
 51
90.0
  0
ARC
  5
248
  8
TEAM-NET
 10
75.448925
 20
830.0
 30
-224.95262
 40
3.0
210
-1.0
220
0.0
230
0.0
 50
0.0
 51
90.0
  0
LINE
  5
249
  8
TEAM-NET
 10
-224.95262
 20
-75.448925
 30
833.0
 11
-5.973859
 21
-75.448925
 31
833.0
  0
LINE
  5
24A
  8
TEAM-NET
 10
5.973859
 20
-75.448925
 30
833.0
 11
224.95262
 21
-75.448925
 31
833.0
  0
POLYLINE
  5
24B
  8
TEAM-NET
 66
     1
 10
0.0
 20
0.0
 30
0.0
 70
     8
  0
VERTEX
  5
6E7
  8
TEAM-NET
 10
5.973859
 20
-75.448925
 30
833.0
 70
    32
  0
VERTEX
  5
6E8
  8
TEAM-NET
 10
3.003345
 20
-76.240468
 30
832.893709
 70
    32
  0
VERTEX
  5
6E9
  8
TEAM-NET
 10
0.0
 20
-76.500125
 30
832.8098
 70
    32
  0
VERTEX
  5
6EA
  8
TEAM-NET
 10
-3.003289
 20
-76.240161
 30
832.894321
 70
    32
  0
VERTEX
  5
6EB
  8
TEAM-NET
 10
-5.973818
 20
-75.44894
 30
833.0
 70
    32
  0
SEQEND
  5
6EC
  8
TEAM-NET
  0
ARC
  5
24C
  8
TEAM-NET
 10
-257.964839
 20
830.0
 30
108.448925
 40
3.0
210
0.0
220
-1.0
230
0.0
 50
1.342993
 51
90.0
  0
POLYLINE
  5
24D
  8
TEAM-NET
 66
     1
 10
0.0
 20
0.0
 30
-833.0
 70
   128
210
0.0
220
0.0
230
-1.0
  0
VERTEX
  5
A68
  8
TEAM-NET
 10
257.964839
 20
-108.448925
 30
-833.0
  0
VERTEX
  5
A69
  8
TEAM-NET
 10
257.334914
 20
-102.032088
 30
-833.0
  0
VERTEX
  5
A6A
  8
TEAM-NET
 10
255.468503
 20
-95.859467
 30
-833.0
  0
VERTEX
  5
A6B
  8
TEAM-NET
 10
252.421621
 20
-90.145554
 30
-833.0
  0
VERTEX
  5
A6C
  8
TEAM-NET
 10
248.315036
 20
-85.13291
 30
-833.0
  0
VERTEX
  5
A6D
  8
TEAM-NET
 10
243.310895
 20
-81.021685
 30
-833.0
  0
VERTEX
  5
A6E
  8
TEAM-NET
 10
237.598228
 20
-77.965171
 30
-833.0
  0
VERTEX
  5
A6F
  8
TEAM-NET
 10
231.399743
 20
-76.084172
 30
-833.0
  0
VERTEX
  5
A70
  8
TEAM-NET
 10
224.95262
 20
-75.448925
 30
-833.0
  0
SEQEND
  5
A71
  8
TEAM-NET
  0
POLYLINE
  5
24E
  8
TEAM-NET
 66
     1
 10
0.0
 20
0.0
 30
0.0
 70
     8
  0
VERTEX
  5
6F7
  8
TEAM-NET
 10
-224.95262
 20
-78.448925
 30
830.0
 70
    32
  0
VERTEX
  5
6F8
  8
TEAM-NET
 10
-230.814171
 20
-79.026423
 30
830.017324
 70
    32
  0
VERTEX
  5
6F9
  8
TEAM-NET
 10
-236.449579
 20
-80.736421
 30
830.032026
 70
    32
  0
VERTEX
  5
6FA
  8
TEAM-NET
 10
-241.643243
 20
-83.515071
 30
830.044152
 70
    32
  0
VERTEX
  5
6FB
  8
TEAM-NET
 10
-246.192712
 20
-87.252547
 30
830.053814
 70
    32
  0
VERTEX
  5
6FC
  8
TEAM-NET
 10
-249.926155
 20
-91.809497
 30
830.061153
 70
    32
  0
VERTEX
  5
6FD
  8
TEAM-NET
 10
-252.696171
 20
-97.003963
 30
830.066288
 70
    32
  0
VERTEX
  5
6FE
  8
TEAM-NET
 10
-254.39298
 20
-102.615437
 30
830.069312
 70
    32
  0
VERTEX
  5
6FF
  8
TEAM-NET
 10
-254.965663
 20
-108.448925
 30
830.070313
 70
    32
  0
SEQEND
  5
700
  8
TEAM-NET
  0
ARC
  5
24F
  8
TEAM-NET
 10
75.448925
 20
830.0
 30
224.95262
 40
3.0
210
-1.0
220
0.0
230
0.0
 50
0.0
 51
90.0
  0
ARC
  5
250
  8
TEAM-NET
 10
-257.964839
 20
830.0
 30
108.448925
 40
3.0
210
0.0
220
-1.0
230
0.0
 50
1.342993
 51
90.0
  0
POLYLINE
  5
251
  8
TEAM-NET
 66
     1
 10
0.0
 20
0.0
 30
-833.0
 70
   128
210
0.0
220
0.0
230
-1.0
  0
VERTEX
  5
A72
  8
TEAM-NET
 10
257.964839
 20
-108.448925
 30
-833.0
  0
VERTEX
  5
A73
  8
TEAM-NET
 10
257.334914
 20
-102.032088
 30
-833.0
  0
VERTEX
  5
A74
  8
TEAM-NET
 10
255.468503
 20
-95.859467
 30
-833.0
  0
VERTEX
  5
A75
  8
TEAM-NET
 10
252.421621
 20
-90.145554
 30
-833.0
  0
VERTEX
  5
A76
  8
TEAM-NET
 10
248.315036
 20
-85.13291
 30
-833.0
  0
VERTEX
  5
A77
  8
TEAM-NET
 10
243.310895
 20
-81.021685
 30
-833.0
  0
VERTEX
  5
A78
  8
TEAM-NET
 10
237.598228
 20
-77.965171
 30
-833.0
  0
VERTEX
  5
A79
  8
TEAM-NET
 10
231.399743
 20
-76.084172
 30
-833.0
  0
VERTEX
  5
A7A
  8
TEAM-NET
 10
224.95262
 20
-75.448925
 30
-833.0
  0
SEQEND
  5
A7B
  8
TEAM-NET
  0
LINE
  5
252
  8
TEAM-NET
 10
-224.95262
 20
-75.448925
 30
833.0
 11
-5.973859
 21
-75.448925
 31
833.0
210
0.0
220
0.0
230
-1.0
  0
ARC
  5
253
  8
TEAM-NET
 10
0.0
 20
-59.000125
 30
-833.0
 40
17.5
210
0.0
220
0.0
230
-1.0
 50
289.95996
 51
0.0
  0
ARC
  5
254
  8
TEAM-NET
 10
0.0
 20
-59.000125
 30
-833.0
 40
17.5
210
0.0
220
0.0
230
-1.0
 50
0.0
 51
180.0
  0
ARC
  5
255
  8
TEAM-NET
 10
197.5
 20
-64.919112
 30
-833.0
 40
61.0
210
0.0
220
0.0
230
-1.0
 50
0.0
 51
90.0
  0
ARC
  5
256
  8
TEAM-NET
 10
0.0
 20
-59.000125
 30
-833.0
 40
17.5
210
0.0
220
0.0
230
-1.0
 50
180.0
 51
250.04004
  0
LINE
  5
257
  8
TEAM-NET
 10
197.5
 20
-3.919112
 30
833.0
 11
-197.5
 21
-3.919112
 31
833.0
210
0.0
220
0.0
230
-1.0
  0
LINE
  5
258
  8
TEAM-NET
 10
5.973859
 20
-75.448925
 30
833.0
 11
224.95262
 21
-75.448925
 31
833.0
210
0.0
220
0.0
230
-1.0
  0
ARC
  5
259
  8
TEAM-NET
 10
-197.5
 20
-64.919112
 30
-833.0
 40
61.0
210
0.0
220
0.0
230
-1.0
 50
90.0
 51
180.0
  0
POLYLINE
  5
25A
  8
TEAM-NET
 66
     1
 10
0.0
 20
0.0
 30
-833.0
 70
   128
210
0.0
220
0.0
230
-1.0
  0
VERTEX
  5
A7C
  8
TEAM-NET
 10
-224.95262
 20
-75.448925
 30
-833.0
  0
VERTEX
  5
A7D
  8
TEAM-NET
 10
-231.369614
 20
-76.078084
 30
-833.0
  0
VERTEX
  5
A7E
  8
TEAM-NET
 10
-237.542807
 20
-77.94262
 30
-833.0
  0
VERTEX
  5
A7F
  8
TEAM-NET
 10
-243.258341
 20
-80.986548
 30
-833.0
  0
VERTEX
  5
A80
  8
TEAM-NET
 10
-248.273153
 20
-85.091059
 30
-833.0
  0
VERTEX
  5
A81
  8
TEAM-NET
 10
-252.386788
 20
-90.093025
 30
-833.0
  0
VERTEX
  5
A82
  8
TEAM-NET
 10
-255.445637
 20
-95.804166
 30
-833.0
  0
VERTEX
  5
A83
  8
TEAM-NET
 10
-257.328878
 20
-102.001909
 30
-833.0
  0
VERTEX
  5
A84
  8
TEAM-NET
 10
-257.964839
 20
-108.448925
 30
-833.0
  0
SEQEND
  5
A85
  8
TEAM-NET
  0
ARC
  5
25B
  8
TEAM-NET
 10
-197.5
 20
-64.919112
 30
833.0
 40
61.0
 50
90.0
 51
180.0
  0
ARC
  5
25C
  8
TEAM-NET
 10
197.5
 20
-64.919112
 30
833.0
 40
61.0
 50
0.0
 51
90.0
  0
LINE
  5
25D
  8
TEAM-NET
 10
197.5
 20
-3.919112
 30
833.0
 11
-197.5
 21
-3.919112
 31
833.0
  0
ARC
  5
25E
  8
TEAM-NET
 10
0.0
 20
-59.000125
 30
833.0
 40
17.5
 50
289.95996
 51
0.0
  0
POLYLINE
  5
25F
  8
TEAM-NET
 66
     1
 10
0.0
 20
0.0
 30
0.0
 70
     8
  0
VERTEX
  5
715
  8
TEAM-NET
 10
5.973859
 20
-75.448925
 30
833.0
 70
    32
  0
VERTEX
  5
716
  8
TEAM-NET
 10
3.003345
 20
-76.240468
 30
832.893709
 70
    32
  0
VERTEX
  5
717
  8
TEAM-NET
 10
0.0
 20
-76.500125
 30
832.8098
 70
    32
  0
VERTEX
  5
718
  8
TEAM-NET
 10
-3.003289
 20
-76.240161
 30
832.894321
 70
    32
  0
VERTEX
  5
719
  8
TEAM-NET
 10
-5.973818
 20
-75.44894
 30
833.0
 70
    32
  0
SEQEND
  5
71A
  8
TEAM-NET
  0
ARC
  5
260
  8
TEAM-NET
 10
0.0
 20
-59.000125
 30
833.0
 40
17.5
 50
180.0
 51
250.04004
  0
ARC
  5
261
  8
TEAM-NET
 10
0.0
 20
-59.000125
 30
833.0
 40
17.5
 50
360.0
 51
180.0
  0
POLYLINE
  5
262
  8
TEAM-NET
 66
     1
 10
0.0
 20
0.0
 30
0.0
 70
     8
  0
VERTEX
  5
71B
  8
TEAM-NET
 10
254.965663
 20
-108.448925
 30
830.070313
 70
    32
  0
VERTEX
  5
71C
  8
TEAM-NET
 10
254.387493
 20
-102.588001
 30
830.069302
 70
    32
  0
VERTEX
  5
71D
  8
TEAM-NET
 10
252.675384
 20
-96.953689
 30
830.06625
 70
    32
  0
VERTEX
  5
71E
  8
TEAM-NET
 10
249.894486
 20
-91.761743
 30
830.061093
 70
    32
  0
VERTEX
  5
71F
  8
TEAM-NET
 10
246.154635
 20
-87.214501
 30
830.053736
 70
    32
  0
VERTEX
  5
720
  8
TEAM-NET
 10
241.595463
 20
-83.483128
 30
830.044047
 70
    32
  0
VERTEX
  5
721
  8
TEAM-NET
 10
236.399194
 20
-80.715921
 30
830.031902
 70
    32
  0
VERTEX
  5
722
  8
TEAM-NET
 10
230.786778
 20
-79.020888
 30
830.017249
 70
    32
  0
VERTEX
  5
723
  8
TEAM-NET
 10
224.95262
 20
-78.448925
 30
830.0
 70
    32
  0
SEQEND
  5
724
  8
TEAM-NET
  0
POLYLINE
  5
263
  8
TEAM-NET
 66
     1
 10
0.0
 20
0.0
 30
0.0
 70
     8
  0
VERTEX
  5
725
  8
TEAM-NET
 10
-224.95262
 20
-78.448925
 30
830.0
 70
    32
  0
VERTEX
  5
726
  8
TEAM-NET
 10
-230.814171
 20
-79.026423
 30
830.017324
 70
    32
  0
VERTEX
  5
727
  8
TEAM-NET
 10
-236.449579
 20
-80.736421
 30
830.032026
 70
    32
  0
VERTEX
  5
728
  8
TEAM-NET
 10
-241.643243
 20
-83.515071
 30
830.044152
 70
    32
  0
VERTEX
  5
729
  8
TEAM-NET
 10
-246.192712
 20
-87.252547
 30
830.053814
 70
    32
  0
VERTEX
  5
72A
  8
TEAM-NET
 10
-249.926155
 20
-91.809497
 30
830.061153
 70
    32
  0
VERTEX
  5
72B
  8
TEAM-NET
 10
-252.696171
 20
-97.003963
 30
830.066288
 70
    32
  0
VERTEX
  5
72C
  8
TEAM-NET
 10
-254.39298
 20
-102.615437
 30
830.069312
 70
    32
  0
VERTEX
  5
72D
  8
TEAM-NET
 10
-254.965663
 20
-108.448925
 30
830.070313
 70
    32
  0
SEQEND
  5
72E
  8
TEAM-NET
  0
LINE
  5
264
  8
TEAM-NET
 10
224.95262
 20
-78.448925
 30
830.0
 11
-224.95262
 21
-78.448925
 31
830.0
210
0.0
220
1.0
230
0.0
  0
LINE
  5
265
  8
TEAM-NET
 10
240.0
 20
-67.419112
 30
868.0
 11
240.0
 21
-334.919112
 31
868.0
  0
LINE
  5
266
  8
TEAM-NET
 10
-240.0
 20
-334.919112
 30
868.0
 11
-240.0
 21
-67.419112
 31
868.0
  0
LINE
  5
267
  8
TEAM-NET
 10
-262.5
 20
-334.919112
 30
868.0
 11
-262.5
 21
-64.919112
 31
868.0
  0
LINE
  5
268
  8
TEAM-NET
 10
262.5
 20
-64.919112
 30
868.0
 11
262.5
 21
-334.919112
 31
868.0
  0
LINE
  5
269
  8
TEAM-NET
 10
-240.0
 20
-334.919112
 30
868.0
 11
-240.0
 21
-67.419112
 31
868.0
210
1.0
220
0.0
230
0.0
  0
LINE
  5
26A
  8
TEAM-NET
 10
-240.0
 20
-119.919112
 30
850.0
 11
-240.0
 21
-334.919112
 31
850.0
210
1.0
220
0.0
230
0.0
  0
LINE
  5
26B
  8
TEAM-NET
 10
240.0
 20
-67.419112
 30
868.0
 11
240.0
 21
-334.919112
 31
868.0
210
-1.0
220
0.0
230
0.0
  0
LINE
  5
26C
  8
TEAM-NET
 10
240.0
 20
-334.919112
 30
850.0
 11
240.0
 21
-119.919112
 31
850.0
210
-1.0
220
0.0
230
0.0
  0
LINE
  5
26D
  8
TEAM-NET
 10
-262.5
 20
-334.919112
 30
837.0
 11
-262.5
 21
-64.919112
 31
837.0
  0
LINE
  5
26E
  8
TEAM-NET
 10
262.5
 20
-64.919112
 30
837.0
 11
262.5
 21
-334.919112
 31
837.0
  0
LINE
  5
26F
  8
TEAM-NET
 10
-262.5
 20
-334.919112
 30
868.0
 11
-262.5
 21
-64.919112
 31
868.0
210
-1.0
220
0.0
230
0.0
  0
LINE
  5
270
  8
TEAM-NET
 10
-262.5
 20
-334.919112
 30
837.0
 11
-262.5
 21
-64.919112
 31
837.0
210
-1.0
220
0.0
230
0.0
  0
LINE
  5
271
  8
TEAM-NET
 10
262.5
 20
-64.919112
 30
868.0
 11
262.5
 21
-334.919112
 31
868.0
210
1.0
220
0.0
230
0.0
  0
LINE
  5
272
  8
TEAM-NET
 10
262.5
 20
-64.919112
 30
837.0
 11
262.5
 21
-334.919112
 31
837.0
210
1.0
220
0.0
230
0.0
  0
LINE
  5
273
  8
TEAM-NET
 10
240.0
 20
-334.919112
 30
850.0
 11
240.0
 21
-119.919112
 31
850.0
  0
LINE
  5
274
  8
TEAM-NET
 10
-240.0
 20
-119.919112
 30
850.0
 11
-240.0
 21
-334.919112
 31
850.0
  0
LINE
  5
275
  8
TEAM-NET
 10
-240.0
 20
-334.919112
 30
850.0
 11
-240.0
 21
-334.919112
 31
868.0
210
1.0
220
0.0
230
0.0
  0
LINE
  5
276
  8
TEAM-NET
 10
240.0
 20
-334.919112
 30
868.0
 11
240.0
 21
-334.919112
 31
850.0
210
-1.0
220
0.0
230
0.0
  0
LINE
  5
277
  8
TEAM-NET
 10
240.0
 20
-334.919112
 30
868.0
 11
240.0
 21
-334.919112
 31
850.0
  0
LINE
  5
278
  8
TEAM-NET
 10
205.0
 20
-369.919112
 30
850.0
 11
205.0
 21
-369.919112
 31
868.0
  0
LINE
  5
279
  8
TEAM-NET
 10
205.0
 20
-369.919112
 30
850.0
 11
205.0
 21
-369.919112
 31
868.0
210
0.0
220
1.0
230
0.0
  0
LINE
  5
27A
  8
TEAM-NET
 10
-205.0
 20
-369.919112
 30
868.0
 11
-205.0
 21
-369.919112
 31
850.0
210
0.0
220
1.0
230
0.0
  0
LINE
  5
27B
  8
TEAM-NET
 10
-205.0
 20
-369.919112
 30
868.0
 11
-205.0
 21
-369.919112
 31
850.0
  0
LINE
  5
27C
  8
TEAM-NET
 10
-240.0
 20
-334.919112
 30
850.0
 11
-240.0
 21
-334.919112
 31
868.0
  0
LINE
  5
27D
  8
TEAM-NET
 10
33.0
 20
-399.919112
 30
837.0
 11
33.0
 21
-399.919112
 31
868.0
  0
LINE
  5
27E
  8
TEAM-NET
 10
30.0
 20
-402.919112
 30
868.0
 11
30.0
 21
-402.919112
 31
837.0
  0
LINE
  5
27F
  8
TEAM-NET
 10
-30.0
 20
-402.919112
 30
837.0
 11
-30.0
 21
-402.919112
 31
868.0
  0
LINE
  5
280
  8
TEAM-NET
 10
-33.0
 20
-399.919112
 30
868.0
 11
-33.0
 21
-399.919112
 31
837.0
  0
LINE
  5
281
  8
TEAM-NET
 10
-197.5
 20
-399.919112
 30
837.0
 11
-197.5
 21
-399.919112
 31
868.0
210
0.0
220
-1.0
230
0.0
  0
LINE
  5
282
  8
TEAM-NET
 10
-33.0
 20
-399.919112
 30
868.0
 11
-33.0
 21
-399.919112
 31
837.0
210
0.0
220
-1.0
230
0.0
  0
LINE
  5
283
  8
TEAM-NET
 10
197.5
 20
-399.919112
 30
868.0
 11
197.5
 21
-399.919112
 31
837.0
210
0.0
220
-1.0
230
0.0
  0
LINE
  5
284
  8
TEAM-NET
 10
33.0
 20
-399.919112
 30
837.0
 11
33.0
 21
-399.919112
 31
868.0
210
0.0
220
-1.0
230
0.0
  0
LINE
  5
285
  8
TEAM-NET
 10
-262.5
 20
-334.919112
 30
868.0
 11
-262.5
 21
-334.919112
 31
837.0
210
-1.0
220
0.0
230
0.0
  0
LINE
  5
286
  8
TEAM-NET
 10
-262.5
 20
-334.919112
 30
868.0
 11
-262.5
 21
-334.919112
 31
837.0
  0
LINE
  5
287
  8
TEAM-NET
 10
-197.5
 20
-399.919112
 30
837.0
 11
-197.5
 21
-399.919112
 31
868.0
  0
LINE
  5
288
  8
TEAM-NET
 10
262.5
 20
-334.919112
 30
837.0
 11
262.5
 21
-334.919112
 31
868.0
210
1.0
220
0.0
230
0.0
  0
LINE
  5
289
  8
TEAM-NET
 10
197.5
 20
-399.919112
 30
868.0
 11
197.5
 21
-399.919112
 31
837.0
  0
LINE
  5
28A
  8
TEAM-NET
 10
262.5
 20
-334.919112
 30
837.0
 11
262.5
 21
-334.919112
 31
868.0
  0
LINE
  5
28B
  8
TEAM-NET
 10
-30.0
 20
-402.919112
 30
837.0
 11
-30.0
 21
-402.919112
 31
868.0
210
-1.0
220
0.0
230
0.0
  0
LINE
  5
28C
  8
TEAM-NET
 10
30.0
 20
-402.919112
 30
868.0
 11
30.0
 21
-402.919112
 31
837.0
210
1.0
220
0.0
230
0.0
  0
ARC
  5
28D
  8
TEAM-NET
 10
205.0
 20
-334.919112
 30
850.0
 40
35.0
 50
270.0
 51
0.0
  0
LINE
  5
28E
  8
TEAM-NET
 10
-205.0
 20
-369.919112
 30
850.0
 11
205.0
 21
-369.919112
 31
850.0
210
0.0
220
1.0
230
0.0
  0
ARC
  5
28F
  8
TEAM-NET
 10
-205.0
 20
-334.919112
 30
850.0
 40
35.0
 50
180.0
 51
270.0
  0
ARC
  5
290
  8
TEAM-NET
 10
33.0
 20
-402.919112
 30
837.0
 40
3.0
 50
90.0
 51
180.0
  0
ARC
  5
291
  8
TEAM-NET
 10
-33.0
 20
-402.919112
 30
837.0
 40
3.0
 50
0.0
 51
90.0
  0
LINE
  5
292
  8
TEAM-NET
 10
-33.0
 20
-399.919112
 30
837.0
 11
-197.5
 21
-399.919112
 31
837.0
  0
LINE
  5
293
  8
TEAM-NET
 10
197.5
 20
-399.919112
 30
837.0
 11
33.0
 21
-399.919112
 31
837.0
  0
ARC
  5
294
  8
TEAM-NET
 10
197.5
 20
-334.919112
 30
-837.0
 40
65.0
210
0.0
220
0.0
230
-1.0
 50
270.0
 51
0.0
  0
ARC
  5
295
  8
TEAM-NET
 10
-197.5
 20
-334.919112
 30
-837.0
 40
65.0
210
0.0
220
0.0
230
-1.0
 50
180.0
 51
270.0
  0
ARC
  5
296
  8
TEAM-NET
 10
33.0
 20
-402.919112
 30
837.0
 40
3.0
 50
90.0
 51
180.0
  0
ARC
  5
297
  8
TEAM-NET
 10
-33.0
 20
-402.919112
 30
837.0
 40
3.0
 50
0.0
 51
90.0
  0
LINE
  5
298
  8
TEAM-NET
 10
-33.0
 20
-399.919112
 30
837.0
 11
-197.5
 21
-399.919112
 31
837.0
210
0.0
220
-1.0
230
0.0
  0
LINE
  5
299
  8
TEAM-NET
 10
197.5
 20
-399.919112
 30
837.0
 11
33.0
 21
-399.919112
 31
837.0
210
0.0
220
-1.0
230
0.0
  0
ARC
  5
29A
  8
TEAM-NET
 10
197.5
 20
-334.919112
 30
-837.0
 40
65.0
210
0.0
220
0.0
230
-1.0
 50
270.0
 51
0.0
  0
ARC
  5
29B
  8
TEAM-NET
 10
-197.5
 20
-334.919112
 30
-837.0
 40
65.0
210
0.0
220
0.0
230
-1.0
 50
180.0
 51
270.0
  0
ARC
  5
29C
  8
TEAM-NET
 10
205.0
 20
-334.919112
 30
850.0
 40
35.0
 50
270.0
 51
0.0
  0
ARC
  5
29D
  8
TEAM-NET
 10
-205.0
 20
-334.919112
 30
850.0
 40
35.0
 50
180.0
 51
270.0
  0
LINE
  5
29E
  8
TEAM-NET
 10
-205.0
 20
-369.919112
 30
850.0
 11
205.0
 21
-369.919112
 31
850.0
  0
TEXT
  5
29F
  8
TEAM-TXT
 10
-128.784275
 20
-338.278698
 30
851.0
 40
30.0
  1
team 231026
 41
0.8
 51
15.0
  7
TEAM
  0
ARC
  5
2A2
  8
TEAM-NET
 10
205.0
 20
-334.919112
 30
868.0
 40
35.0
 50
270.0
 51
0.0
  0
LINE
  5
2A3
  8
TEAM-NET
 10
205.0
 20
-369.919112
 30
868.0
 11
-205.0
 21
-369.919112
 31
868.0
  0
ARC
  5
2A4
  8
TEAM-NET
 10
-205.0
 20
-334.919112
 30
868.0
 40
35.0
 50
180.0
 51
270.0
  0
ARC
  5
2A5
  8
TEAM-NET
 10
-197.5
 20
-334.919112
 30
868.0
 40
65.0
 50
180.0
 51
270.0
  0
LINE
  5
2A6
  8
TEAM-NET
 10
-33.0
 20
-399.919112
 30
868.0
 11
-197.5
 21
-399.919112
 31
868.0
  0
ARC
  5
2A7
  8
TEAM-NET
 10
-33.0
 20
-402.919112
 30
868.0
 40
3.0
 50
0.0
 51
90.0
  0
ARC
  5
2A8
  8
TEAM-NET
 10
197.5
 20
-334.919112
 30
868.0
 40
65.0
 50
270.0
 51
0.0
  0
LINE
  5
2A9
  8
TEAM-NET
 10
-30.0
 20
-402.919112
 30
868.0
 11
-30.0
 21
-403.919112
 31
868.0
  0
LINE
  5
2AA
  8
TEAM-NET
 10
197.5
 20
-399.919112
 30
868.0
 11
33.0
 21
-399.919112
 31
868.0
  0
ARC
  5
2AB
  8
TEAM-NET
 10
-26.0
 20
-403.919112
 30
868.0
 40
4.0
 50
180.0
 51
270.0
  0
ARC
  5
2AC
  8
TEAM-NET
 10
33.0
 20
-402.919112
 30
868.0
 40
3.0
 50
90.0
 51
180.0
  0
LINE
  5
2AD
  8
TEAM-NET
 10
-26.0
 20
-407.919112
 30
868.0
 11
26.0
 21
-407.919112
 31
868.0
  0
LINE
  5
2AE
  8
TEAM-NET
 10
30.0
 20
-403.919112
 30
868.0
 11
30.0
 21
-402.919112
 31
868.0
  0
ARC
  5
2AF
  8
TEAM-NET
 10
26.0
 20
-403.919112
 30
868.0
 40
4.0
 50
270.0
 51
0.0
  0
ARC
  5
2B0
  8
TEAM-NET
 10
205.0
 20
-334.919112
 30
868.0
 40
35.0
 50
270.0
 51
0.0
  0
LINE
  5
2B1
  8
TEAM-NET
 10
205.0
 20
-369.919112
 30
868.0
 11
-205.0
 21
-369.919112
 31
868.0
210
0.0
220
1.0
230
0.0
  0
ARC
  5
2B2
  8
TEAM-NET
 10
-205.0
 20
-334.919112
 30
868.0
 40
35.0
 50
180.0
 51
270.0
  0
ARC
  5
2B3
  8
TEAM-NET
 10
33.0
 20
-402.919112
 30
868.0
 40
3.0
 50
90.0
 51
180.0
  0
ARC
  5
2B4
  8
TEAM-NET
 10
-33.0
 20
-402.919112
 30
868.0
 40
3.0
 50
0.0
 51
90.0
  0
LINE
  5
2B5
  8
TEAM-NET
 10
-33.0
 20
-399.919112
 30
868.0
 11
-197.5
 21
-399.919112
 31
868.0
210
0.0
220
-1.0
230
0.0
  0
ARC
  5
2B6
  8
TEAM-NET
 10
-26.0
 20
-403.919112
 30
-868.0
 40
4.0
210
0.0
220
0.0
230
-1.0
 50
180.0
 51
270.0
  0
LINE
  5
2B7
  8
TEAM-NET
 10
-26.0
 20
-407.919112
 30
868.0
 11
26.0
 21
-407.919112
 31
868.0
210
0.0
220
-1.0
230
0.0
  0
ARC
  5
2B8
  8
TEAM-NET
 10
26.0
 20
-403.919112
 30
-868.0
 40
4.0
210
0.0
220
0.0
230
-1.0
 50
270.0
 51
0.0
  0
LINE
  5
2B9
  8
TEAM-NET
 10
197.5
 20
-399.919112
 30
868.0
 11
33.0
 21
-399.919112
 31
868.0
210
0.0
220
-1.0
230
0.0
  0
ARC
  5
2BA
  8
TEAM-NET
 10
197.5
 20
-334.919112
 30
-868.0
 40
65.0
210
0.0
220
0.0
230
-1.0
 50
270.0
 51
0.0
  0
ARC
  5
2BB
  8
TEAM-NET
 10
-197.5
 20
-334.919112
 30
-868.0
 40
65.0
210
0.0
220
0.0
230
-1.0
 50
180.0
 51
270.0
  0
LINE
  5
2BC
  8
TEAM-NET
 10
-30.0
 20
-402.919112
 30
868.0
 11
-30.0
 21
-403.919112
 31
868.0
210
-1.0
220
0.0
230
0.0
  0
LINE
  5
2BD
  8
TEAM-NET
 10
30.0
 20
-403.919112
 30
868.0
 11
30.0
 21
-402.919112
 31
868.0
210
1.0
220
0.0
230
0.0
  0
ARC
  5
2BE
  8
TEAM-NET
 10
-92.919112
 20
851.0
 30
-220.0
 40
7.0
210
1.0
220
0.0
230
0.0
 50
90.0
 51
180.0
  0
ARC
  5
2BF
  8
TEAM-NET
 10
-92.919112
 20
851.0
 30
-220.0
 40
7.0
210
1.0
220
0.0
230
0.0
 50
90.0
 51
180.0
  0
ARC
  5
2C0
  8
TEAM-NET
 10
92.919112
 20
851.0
 30
-220.0
 40
7.0
210
-1.0
220
0.0
230
0.0
 50
0.0
 51
90.0
  0
ARC
  5
2C1
  8
TEAM-NET
 10
92.919112
 20
851.0
 30
-220.0
 40
7.0
210
-1.0
220
0.0
230
0.0
 50
0.0
 51
90.0
  0
ARC
  5
2C2
  8
TEAM-NET
 10
2.0
 20
209.194015
 30
-834.471505
 40
1.0
210
-0.0
220
-0.184559
230
-0.982821
 50
360.0
 51
90.0
  0
ARC
  5
2C3
  8
TEAM-NET
 10
-2.0
 20
209.194015
 30
-834.471505
 40
1.0
210
-0.0
220
-0.184559
230
-0.982821
 50
90.0
 51
180.0
  0
ARC
  5
2C4
  8
TEAM-NET
 10
-235.0
 20
863.0
 30
67.419112
 40
5.0
210
0.0
220
-1.0
230
0.0
 50
180.0
 51
270.0
  0
ARC
  5
2C5
  8
TEAM-NET
 10
-27.419112
 20
863.0
 30
-195.0
 40
5.0
210
1.0
220
0.0
230
0.0
 50
270.0
 51
0.0
  0
ARC
  5
2C6
  8
TEAM-NET
 10
-27.419112
 20
863.0
 30
-195.0
 40
5.0
210
1.0
220
0.0
230
0.0
 50
270.0
 51
0.0
  0
ARC
  5
2C7
  8
TEAM-NET
 10
-27.419112
 20
863.0
 30
195.0
 40
5.0
210
1.0
220
0.0
230
0.0
 50
270.0
 51
0.0
  0
ARC
  5
2C8
  8
TEAM-NET
 10
-235.0
 20
863.0
 30
67.419112
 40
5.0
210
0.0
220
-1.0
230
0.0
 50
180.0
 51
270.0
  0
ARC
  5
2C9
  8
TEAM-NET
 10
-235.0
 20
863.0
 30
97.469168
 40
5.0
210
0.0
220
-1.0
230
0.0
 50
180.0
 51
270.0
  0
ARC
  5
2CA
  8
TEAM-NET
 10
-27.419112
 20
863.0
 30
195.0
 40
5.0
210
1.0
220
0.0
230
0.0
 50
270.0
 51
0.0
  0
ARC
  5
2CB
  8
TEAM-NET
 10
235.0
 20
863.0
 30
67.419112
 40
5.0
210
0.0
220
-1.0
230
0.0
 50
270.0
 51
0.0
  0
ARC
  5
2CC
  8
TEAM-NET
 10
-235.0
 20
863.0
 30
97.469168
 40
5.0
210
0.0
220
-1.0
230
0.0
 50
180.0
 51
270.0
  0
POLYLINE
  5
2CD
  8
TEAM-NET
 66
     1
 10
0.0
 20
0.0
 30
0.0
 70
     8
  0
VERTEX
  5
72F
  8
TEAM-NET
 10
-240.0
 20
-97.469168
 30
863.0
 70
    32
  0
VERTEX
  5
730
  8
TEAM-NET
 10
-240.0
 20
-100.709963
 30
862.708685
 70
    32
  0
VERTEX
  5
731
  8
TEAM-NET
 10
-240.0
 20
-103.859232
 30
861.897419
 70
    32
  0
VERTEX
  5
732
  8
TEAM-NET
 10
-240.0
 20
-109.736764
 30
859.081765
 70
    32
  0
VERTEX
  5
733
  8
TEAM-NET
 10
-240.0
 20
-114.999982
 30
855.271561
 70
    32
  0
VERTEX
  5
734
  8
TEAM-NET
 10
-240.0
 20
-119.919112
 30
851.0
 70
    32
  0
SEQEND
  5
735
  8
TEAM-NET
  0
ARC
  5
2CE
  8
TEAM-NET
 10
235.0
 20
863.0
 30
67.419112
 40
5.0
210
0.0
220
-1.0
230
0.0
 50
270.0
 51
0.0
  0
ARC
  5
2CF
  8
TEAM-NET
 10
235.0
 20
863.0
 30
97.469168
 40
5.0
210
0.0
220
-1.0
230
0.0
 50
270.0
 51
0.0
  0
POLYLINE
  5
2D0
  8
TEAM-NET
 66
     1
 10
0.0
 20
0.0
 30
0.0
 70
     8
  0
VERTEX
  5
736
  8
TEAM-NET
 10
240.0
 20
-119.919112
 30
851.0
 70
    32
  0
VERTEX
  5
737
  8
TEAM-NET
 10
240.0
 20
-114.979024
 30
855.288697
 70
    32
  0
VERTEX
  5
738
  8
TEAM-NET
 10
240.0
 20
-109.681297
 30
859.115885
 70
    32
  0
VERTEX
  5
739
  8
TEAM-NET
 10
240.0
 20
-103.855588
 30
861.898646
 70
    32
  0
VERTEX
  5
73A
  8
TEAM-NET
 10
240.0
 20
-100.703238
 30
862.709868
 70
    32
  0
VERTEX
  5
73B
  8
TEAM-NET
 10
240.0
 20
-97.469168
 30
863.0
 70
    32
  0
SEQEND
  5
73C
  8
TEAM-NET
  0
ARC
  5
2D1
  8
TEAM-NET
 10
235.0
 20
863.0
 30
97.469168
 40
5.0
210
0.0
220
-1.0
230
0.0
 50
270.0
 51
0.0
  0
POLYLINE
  5
2D2
  8
TEAM-NET
 66
     1
 10
0.0
 20
0.0
 30
0.0
 70
     8
  0
VERTEX
  5
73D
  8
TEAM-NET
 10
-240.0
 20
-97.469168
 30
863.0
 70
    32
  0
VERTEX
  5
73E
  8
TEAM-NET
 10
-240.0
 20
-100.709963
 30
862.708685
 70
    32
  0
VERTEX
  5
73F
  8
TEAM-NET
 10
-240.0
 20
-103.859232
 30
861.897419
 70
    32
  0
VERTEX
  5
740
  8
TEAM-NET
 10
-240.0
 20
-109.736764
 30
859.081765
 70
    32
  0
VERTEX
  5
741
  8
TEAM-NET
 10
-240.0
 20
-114.999982
 30
855.271561
 70
    32
  0
VERTEX
  5
742
  8
TEAM-NET
 10
-240.0
 20
-119.919112
 30
851.0
 70
    32
  0
SEQEND
  5
743
  8
TEAM-NET
  0
POLYLINE
  5
2D3
  8
TEAM-NET
 66
     1
 10
0.0
 20
0.0
 30
0.0
 70
     8
  0
VERTEX
  5
744
  8
TEAM-NET
 10
240.0
 20
-119.919112
 30
851.0
 70
    32
  0
VERTEX
  5
745
  8
TEAM-NET
 10
240.0
 20
-114.979024
 30
855.288697
 70
    32
  0
VERTEX
  5
746
  8
TEAM-NET
 10
240.0
 20
-109.681297
 30
859.115885
 70
    32
  0
VERTEX
  5
747
  8
TEAM-NET
 10
240.0
 20
-103.855588
 30
861.898646
 70
    32
  0
VERTEX
  5
748
  8
TEAM-NET
 10
240.0
 20
-100.703238
 30
862.709868
 70
    32
  0
VERTEX
  5
749
  8
TEAM-NET
 10
240.0
 20
-97.469168
 30
863.0
 70
    32
  0
SEQEND
  5
74A
  8
TEAM-NET
  0
ARC
  5
2D4
  8
TEAM-NET
 10
2.0
 20
209.194015
 30
834.471505
 40
1.0
210
0.0
220
0.184559
230
0.982821
 50
0.0
 51
90.0
  0
ARC
  5
2D5
  8
TEAM-NET
 10
-2.0
 20
209.194015
 30
834.471505
 40
1.0
210
0.0
220
0.184559
230
0.982821
 50
90.0
 51
180.0
  0
LINE
  5
2D6
  8
TEAM-NET
 10
-197.5
 20
0.080888
 30
868.0
 11
-197.5
 21
0.080888
 31
837.0
  0
LINE
  5
2D7
  8
TEAM-NET
 10
-262.5
 20
-64.919112
 30
837.0
 11
-262.5
 21
-64.919112
 31
868.0
  0
LINE
  5
2D8
  8
TEAM-NET
 10
-262.5
 20
-64.919112
 30
837.0
 11
-262.5
 21
-64.919112
 31
868.0
210
-1.0
220
0.0
230
0.0
  0
LINE
  5
2D9
  8
TEAM-NET
 10
262.5
 20
-64.919112
 30
868.0
 11
262.5
 21
-64.919112
 31
837.0
  0
LINE
  5
2DA
  8
TEAM-NET
 10
197.5
 20
0.080888
 30
837.0
 11
197.5
 21
0.080888
 31
868.0
  0
LINE
  5
2DB
  8
TEAM-NET
 10
262.5
 20
-64.919112
 30
868.0
 11
262.5
 21
-64.919112
 31
837.0
210
1.0
220
0.0
230
0.0
  0
LINE
  5
2DC
  8
TEAM-NET
 10
197.5
 20
0.080888
 30
837.0
 11
197.5
 21
0.080888
 31
868.0
210
0.0
220
1.0
230
0.0
  0
LINE
  5
2DD
  8
TEAM-NET
 10
-197.5
 20
0.080888
 30
868.0
 11
-197.5
 21
0.080888
 31
837.0
210
0.0
220
1.0
230
0.0
  0
ARC
  5
2DE
  8
TEAM-NET
 10
20.5
 20
855.0
 30
59.000125
 40
3.0
210
0.0
220
-1.0
230
0.0
 50
90.0
 51
180.0
  0
ARC
  5
2DF
  8
TEAM-NET
 10
0.0
 20
-59.000125
 30
-855.0
 40
17.5
210
0.0
220
0.0
230
-1.0
 50
180.0
 51
0.0
  0
ARC
  5
2E0
  8
TEAM-NET
 10
0.0
 20
-59.000125
 30
858.0
 40
20.5
 50
180.0
 51
0.0
  0
ARC
  5
2E1
  8
TEAM-NET
 10
20.5
 20
855.0
 30
-59.000125
 40
3.0
210
0.0
220
1.0
230
0.0
 50
90.0
 51
180.0
  0
ARC
  5
2E2
  8
TEAM-NET
 10
0.0
 20
-59.000125
 30
858.0
 40
20.5
 50
180.0
 51
0.0
  0
ARC
  5
2E3
  8
TEAM-NET
 10
0.0
 20
-59.000125
 30
858.0
 40
20.5
 50
360.0
 51
180.0
  0
LINE
  5
2E4
  8
TEAM-NET
 10
-235.0
 20
-97.469168
 30
858.0
 11
-235.0
 21
-67.419112
 31
858.0
  0
ARC
  5
2E5
  8
TEAM-NET
 10
-220.0
 20
-119.919112
 30
858.0
 40
27.0
 50
90.0
 51
123.748989
  0
ARC
  5
2E6
  8
TEAM-NET
 10
-195.0
 20
-67.419112
 30
858.0
 40
40.0
 50
90.0
 51
180.0
  0
LINE
  5
2E7
  8
TEAM-NET
 10
220.0
 20
-92.919112
 30
858.0
 11
-220.0
 21
-92.919112
 31
858.0
  0
LINE
  5
2E8
  8
TEAM-NET
 10
-195.0
 20
-27.419112
 30
858.0
 11
195.0
 21
-27.419112
 31
858.0
  0
ARC
  5
2E9
  8
TEAM-NET
 10
220.0
 20
-119.919112
 30
858.0
 40
27.0
 50
56.251011
 51
90.0
  0
ARC
  5
2EA
  8
TEAM-NET
 10
195.0
 20
-67.419112
 30
858.0
 40
40.0
 50
0.0
 51
90.0
  0
LINE
  5
2EB
  8
TEAM-NET
 10
235.0
 20
-67.419112
 30
858.0
 11
235.0
 21
-97.469168
 31
858.0
  0
ARC
  5
2EC
  8
TEAM-NET
 10
-220.0
 20
-119.919112
 30
858.0
 40
27.0
 50
90.0
 51
123.748989
  0
ARC
  5
2ED
  8
TEAM-NET
 10
220.0
 20
-119.919112
 30
-851.0
 40
20.0
210
0.0
220
0.0
230
-1.0
 50
0.0
 51
90.0
  0
POLYLINE
  5
2EE
  8
TEAM-NET
 66
     1
 10
0.0
 20
0.0
 30
0.0
 70
     8
  0
VERTEX
  5
74B
  8
TEAM-NET
 10
-240.0
 20
-119.919112
 30
851.0
 70
    32
  0
VERTEX
  5
74C
  8
TEAM-NET
 10
-239.439851
 20
-113.543969
 30
853.491744
 70
    32
  0
VERTEX
  5
74D
  8
TEAM-NET
 10
-238.058013
 20
-107.660913
 30
855.714363
 70
    32
  0
VERTEX
  5
74E
  8
TEAM-NET
 10
-236.429029
 20
-102.32923
 30
857.356828
 70
    32
  0
VERTEX
  5
74F
  8
TEAM-NET
 10
-235.0
 20
-97.469168
 30
858.0
 70
    32
  0
SEQEND
  5
750
  8
TEAM-NET
  0
ARC
  5
2EF
  8
TEAM-NET
 10
-220.0
 20
-119.919112
 30
-851.0
 40
20.0
210
0.0
220
0.0
230
-1.0
 50
90.0
 51
180.0
  0
LINE
  5
2F0
  8
TEAM-NET
 10
220.0
 20
-99.919112
 30
851.0
 11
220.0
 21
-99.919112
 31
850.0
  0
LINE
  5
2F1
  8
TEAM-NET
 10
240.0
 20
-119.919112
 30
850.0
 11
240.0
 21
-119.919112
 31
851.0
  0
ARC
  5
2F2
  8
TEAM-NET
 10
220.0
 20
-119.919112
 30
850.0
 40
20.0
 50
0.0
 51
90.0
  0
ARC
  5
2F3
  8
TEAM-NET
 10
20.5
 20
855.0
 30
59.000125
 40
3.0
210
0.0
220
-1.0
230
0.0
 50
90.0
 51
180.0
  0
ARC
  5
2F4
  8
TEAM-NET
 10
0.0
 20
-59.000125
 30
858.0
 40
20.5
 50
360.0
 51
180.0
  0
ARC
  5
2F5
  8
TEAM-NET
 10
0.0
 20
-59.000125
 30
-855.0
 40
17.5
210
0.0
220
0.0
230
-1.0
 50
0.0
 51
180.0
  0
ARC
  5
2F6
  8
TEAM-NET
 10
20.5
 20
855.0
 30
-59.000125
 40
3.0
210
0.0
220
1.0
230
0.0
 50
90.0
 51
180.0
  0
LINE
  5
2F7
  8
TEAM-NET
 10
-220.0
 20
-99.919112
 30
851.0
 11
220.0
 21
-99.919112
 31
851.0
  0
LINE
  5
2F8
  8
TEAM-NET
 10
220.0
 20
-92.919112
 30
858.0
 11
-220.0
 21
-92.919112
 31
858.0
  0
ARC
  5
2F9
  8
TEAM-NET
 10
-220.0
 20
-119.919112
 30
-851.0
 40
20.0
210
0.0
220
0.0
230
-1.0
 50
90.0
 51
180.0
  0
ARC
  5
2FA
  8
TEAM-NET
 10
220.0
 20
-119.919112
 30
858.0
 40
27.0
 50
56.251011
 51
90.0
  0
POLYLINE
  5
2FB
  8
TEAM-NET
 66
     1
 10
0.0
 20
0.0
 30
0.0
 70
     8
  0
VERTEX
  5
751
  8
TEAM-NET
 10
235.0
 20
-97.469168
 30
858.0
 70
    32
  0
VERTEX
  5
752
  8
TEAM-NET
 10
236.428098
 20
-102.326235
 30
857.357544
 70
    32
  0
VERTEX
  5
753
  8
TEAM-NET
 10
238.042016
 20
-107.605058
 30
855.734266
 70
    32
  0
VERTEX
  5
754
  8
TEAM-NET
 10
239.435414
 20
-113.518278
 30
853.50174
 70
    32
  0
VERTEX
  5
755
  8
TEAM-NET
 10
240.0
 20
-119.919112
 30
851.0
 70
    32
  0
SEQEND
  5
756
  8
TEAM-NET
  0
ARC
  5
2FC
  8
TEAM-NET
 10
220.0
 20
-119.919112
 30
-851.0
 40
20.0
210
0.0
220
0.0
230
-1.0
 50
0.0
 51
90.0
  0
LINE
  5
2FD
  8
TEAM-NET
 10
-240.0
 20
-119.919112
 30
851.0
 11
-240.0
 21
-119.919112
 31
850.0
  0
LINE
  5
2FE
  8
TEAM-NET
 10
-220.0
 20
-99.919112
 30
850.0
 11
-220.0
 21
-99.919112
 31
851.0
  0
ARC
  5
2FF
  8
TEAM-NET
 10
-220.0
 20
-119.919112
 30
850.0
 40
20.0
 50
90.0
 51
180.0
  0
POLYLINE
  5
300
  8
TEAM-NET
 66
     1
 10
0.0
 20
0.0
 30
-858.0
 70
   128
210
0.0
220
0.0
230
-1.0
  0
VERTEX
  5
A86
  8
TEAM-NET
 10
0.0
 20
-36.153027
 30
-858.0
  0
VERTEX
  5
A87
  8
TEAM-NET
 10
-4.134364
 20
-36.542042
 30
-858.0
  0
VERTEX
  5
A88
  8
TEAM-NET
 10
-8.127937
 20
-37.69584
 30
-858.0
  0
VERTEX
  5
A89
  8
TEAM-NET
 10
-11.844724
 20
-39.57513
 30
-858.0
  0
VERTEX
  5
A8A
  8
TEAM-NET
 10
-15.158152
 20
-42.115916
 30
-858.0
  0
VERTEX
  5
A8B
  8
TEAM-NET
 10
-17.955388
 20
-45.231672
 30
-858.0
  0
VERTEX
  5
A8C
  8
TEAM-NET
 10
-20.141174
 20
-48.816297
 30
-858.0
  0
VERTEX
  5
A8D
  8
TEAM-NET
 10
-21.641077
 20
-52.74772
 30
-858.0
  0
VERTEX
  5
A8E
  8
TEAM-NET
 10
-22.404019
 20
-56.892061
 30
-858.0
  0
VERTEX
  5
A8F
  8
TEAM-NET
 10
-22.404019
 20
-61.10819
 30
-858.0
  0
VERTEX
  5
A90
  8
TEAM-NET
 10
-21.641077
 20
-65.252531
 30
-858.0
  0
VERTEX
  5
A91
  8
TEAM-NET
 10
-20.141174
 20
-69.183954
 30
-858.0
  0
VERTEX
  5
A92
  8
TEAM-NET
 10
-17.955388
 20
-72.768578
 30
-858.0
  0
VERTEX
  5
A93
  8
TEAM-NET
 10
-15.158152
 20
-75.884335
 30
-858.0
  0
VERTEX
  5
A94
  8
TEAM-NET
 10
-11.844724
 20
-78.42512
 30
-858.0
  0
VERTEX
  5
A95
  8
TEAM-NET
 10
-8.127937
 20
-80.30441
 30
-858.0
  0
VERTEX
  5
A96
  8
TEAM-NET
 10
-4.134364
 20
-81.458209
 30
-858.0
  0
VERTEX
  5
A97
  8
TEAM-NET
 10
0.0
 20
-81.847224
 30
-858.0
  0
SEQEND
  5
A98
  8
TEAM-NET
  0
POLYLINE
  5
301
  8
TEAM-NET
 66
     1
 10
0.0
 20
0.0
 30
-858.0
 70
   128
210
0.0
220
0.0
230
-1.0
  0
VERTEX
  5
A99
  8
TEAM-NET
 10
0.0
 20
-81.847224
 30
-858.0
  0
VERTEX
  5
A9A
  8
TEAM-NET
 10
4.134364
 20
-81.458209
 30
-858.0
  0
VERTEX
  5
A9B
  8
TEAM-NET
 10
8.127937
 20
-80.30441
 30
-858.0
  0
VERTEX
  5
A9C
  8
TEAM-NET
 10
11.844724
 20
-78.42512
 30
-858.0
  0
VERTEX
  5
A9D
  8
TEAM-NET
 10
15.158152
 20
-75.884335
 30
-858.0
  0
VERTEX
  5
A9E
  8
TEAM-NET
 10
17.955388
 20
-72.768578
 30
-858.0
  0
VERTEX
  5
A9F
  8
TEAM-NET
 10
20.141174
 20
-69.183954
 30
-858.0
  0
VERTEX
  5
AA0
  8
TEAM-NET
 10
21.641077
 20
-65.252531
 30
-858.0
  0
VERTEX
  5
AA1
  8
TEAM-NET
 10
22.404019
 20
-61.10819
 30
-858.0
  0
VERTEX
  5
AA2
  8
TEAM-NET
 10
22.404019
 20
-56.892061
 30
-858.0
  0
VERTEX
  5
AA3
  8
TEAM-NET
 10
21.641077
 20
-52.74772
 30
-858.0
  0
VERTEX
  5
AA4
  8
TEAM-NET
 10
20.141174
 20
-48.816297
 30
-858.0
  0
VERTEX
  5
AA5
  8
TEAM-NET
 10
17.955388
 20
-45.231672
 30
-858.0
  0
VERTEX
  5
AA6
  8
TEAM-NET
 10
15.158152
 20
-42.115916
 30
-858.0
  0
VERTEX
  5
AA7
  8
TEAM-NET
 10
11.844724
 20
-39.57513
 30
-858.0
  0
VERTEX
  5
AA8
  8
TEAM-NET
 10
8.127937
 20
-37.69584
 30
-858.0
  0
VERTEX
  5
AA9
  8
TEAM-NET
 10
4.134364
 20
-36.542042
 30
-858.0
  0
VERTEX
  5
AAA
  8
TEAM-NET
 10
0.0
 20
-36.153027
 30
-858.0
  0
SEQEND
  5
AAB
  8
TEAM-NET
  0
LINE
  5
302
  8
TEAM-NET
 10
1.0
 20
-48.642903
 30
858.19143
 11
-1.0
 21
-48.642903
 31
858.19143
210
-0.0
220
-0.184559
230
-0.982821
  0
ARC
  5
303
  8
TEAM-NET
 10
1.0
 20
208.194012
 30
-834.471505
 40
2.0
210
-0.0
220
-0.184559
230
-0.982821
 50
270.0
 51
360.0
  0
ARC
  5
304
  8
TEAM-NET
 10
-1.0
 20
208.194012
 30
-834.471505
 40
2.0
210
-0.0
220
-0.184559
230
-0.982821
 50
180.0
 51
270.0
  0
LINE
  5
305
  8
TEAM-NET
 10
3.0
 20
-51.591371
 30
858.745107
 11
3.0
 21
-50.608546
 31
858.560548
210
-0.0
220
-0.184559
230
-0.982821
  0
LINE
  5
306
  8
TEAM-NET
 10
-3.0
 20
-50.608546
 30
858.560548
 11
-3.0
 21
-51.591371
 31
858.745107
210
-0.0
220
-0.184559
230
-0.982821
  0
ARC
  5
307
  8
TEAM-NET
 10
195.0
 20
-67.419112
 30
-858.0
 40
40.0
210
0.0
220
0.0
230
-1.0
 50
0.0
 51
90.0
  0
LINE
  5
308
  8
TEAM-NET
 10
-195.0
 20
-27.419112
 30
858.0
 11
195.0
 21
-27.419112
 31
858.0
  0
LINE
  5
309
  8
TEAM-NET
 10
-235.0
 20
-97.469168
 30
858.0
 11
-235.0
 21
-67.419112
 31
858.0
  0
ARC
  5
30A
  8
TEAM-NET
 10
-195.0
 20
-67.419112
 30
-858.0
 40
40.0
210
0.0
220
0.0
230
-1.0
 50
90.0
 51
180.0
  0
POLYLINE
  5
30B
  8
TEAM-NET
 66
     1
 10
0.0
 20
0.0
 30
0.0
 70
     8
  0
VERTEX
  5
77D
  8
TEAM-NET
 10
-240.0
 20
-119.919112
 30
851.0
 70
    32
  0
VERTEX
  5
77E
  8
TEAM-NET
 10
-239.439851
 20
-113.543969
 30
853.491744
 70
    32
  0
VERTEX
  5
77F
  8
TEAM-NET
 10
-238.058013
 20
-107.660913
 30
855.714363
 70
    32
  0
VERTEX
  5
780
  8
TEAM-NET
 10
-236.429029
 20
-102.32923
 30
857.356828
 70
    32
  0
VERTEX
  5
781
  8
TEAM-NET
 10
-235.0
 20
-97.469168
 30
858.0
 70
    32
  0
SEQEND
  5
782
  8
TEAM-NET
  0
LINE
  5
30C
  8
TEAM-NET
 10
235.0
 20
-67.419112
 30
858.0
 11
235.0
 21
-97.469168
 31
858.0
  0
POLYLINE
  5
30D
  8
TEAM-NET
 66
     1
 10
0.0
 20
0.0
 30
0.0
 70
     8
  0
VERTEX
  5
783
  8
TEAM-NET
 10
235.0
 20
-97.469168
 30
858.0
 70
    32
  0
VERTEX
  5
784
  8
TEAM-NET
 10
236.428098
 20
-102.326235
 30
857.357544
 70
    32
  0
VERTEX
  5
785
  8
TEAM-NET
 10
238.042016
 20
-107.605058
 30
855.734266
 70
    32
  0
VERTEX
  5
786
  8
TEAM-NET
 10
239.435414
 20
-113.518278
 30
853.50174
 70
    32
  0
VERTEX
  5
787
  8
TEAM-NET
 10
240.0
 20
-119.919112
 30
851.0
 70
    32
  0
SEQEND
  5
788
  8
TEAM-NET
  0
LINE
  5
30E
  8
TEAM-NET
 10
-240.0
 20
-119.919112
 30
851.0
 11
-240.0
 21
-119.919112
 31
850.0
210
1.0
220
0.0
230
0.0
  0
LINE
  5
30F
  8
TEAM-NET
 10
240.0
 20
-119.919112
 30
850.0
 11
240.0
 21
-119.919112
 31
851.0
210
-1.0
220
0.0
230
0.0
  0
ARC
  5
310
  8
TEAM-NET
 10
1.0
 20
208.194012
 30
834.471505
 40
2.0
210
0.0
220
0.184559
230
0.982821
 50
270.0
 51
0.0
  0
LINE
  5
311
  8
TEAM-NET
 10
1.0
 20
-48.642903
 30
858.19143
 11
-1.0
 21
-48.642903
 31
858.19143
210
0.0
220
0.982821
230
-0.184559
  0
ARC
  5
312
  8
TEAM-NET
 10
-1.0
 20
208.194012
 30
834.471505
 40
2.0
210
0.0
220
0.184559
230
0.982821
 50
180.0
 51
270.0
  0
ARC
  5
313
  8
TEAM-NET
 10
197.5
 20
-64.919112
 30
-837.0
 40
65.0
210
0.0
220
0.0
230
-1.0
 50
0.0
 51
90.0
  0
ARC
  5
314
  8
TEAM-NET
 10
-197.5
 20
-64.919112
 30
-837.0
 40
65.0
210
0.0
220
0.0
230
-1.0
 50
90.0
 51
180.0
  0
LINE
  5
315
  8
TEAM-NET
 10
-197.5
 20
0.080888
 30
837.0
 11
197.5
 21
0.080888
 31
837.0
  0
ARC
  5
316
  8
TEAM-NET
 10
0.0
 20
-59.000125
 30
-855.0
 40
17.5
210
0.0
220
0.0
230
-1.0
 50
180.0
 51
0.0
  0
LINE
  5
317
  8
TEAM-NET
 10
-220.0
 20
-99.919112
 30
850.0
 11
-220.0
 21
-99.919112
 31
851.0
210
0.0
220
-1.0
230
0.0
  0
LINE
  5
318
  8
TEAM-NET
 10
-220.0
 20
-99.919112
 30
851.0
 11
220.0
 21
-99.919112
 31
851.0
210
0.0
220
-1.0
230
0.0
  0
LINE
  5
319
  8
TEAM-NET
 10
220.0
 20
-99.919112
 30
851.0
 11
220.0
 21
-99.919112
 31
850.0
210
0.0
220
-1.0
230
0.0
  0
ARC
  5
31A
  8
TEAM-NET
 10
197.5
 20
-64.919112
 30
-837.0
 40
65.0
210
0.0
220
0.0
230
-1.0
 50
0.0
 51
90.0
  0
ARC
  5
31B
  8
TEAM-NET
 10
0.0
 20
-59.000125
 30
-855.0
 40
17.5
210
0.0
220
0.0
230
-1.0
 50
0.0
 51
180.0
  0
ARC
  5
31C
  8
TEAM-NET
 10
-197.5
 20
-64.919112
 30
-837.0
 40
65.0
210
0.0
220
0.0
230
-1.0
 50
90.0
 51
180.0
  0
LINE
  5
31D
  8
TEAM-NET
 10
-197.5
 20
0.080888
 30
837.0
 11
197.5
 21
0.080888
 31
837.0
210
0.0
220
1.0
230
0.0
  0
ARC
  5
31E
  8
TEAM-NET
 10
220.0
 20
-119.919112
 30
850.0
 40
20.0
 50
0.0
 51
90.0
  0
ARC
  5
31F
  8
TEAM-NET
 10
-220.0
 20
-119.919112
 30
850.0
 40
20.0
 50
90.0
 51
180.0
  0
POLYLINE
  5
320
  8
TEAM-NET
 66
     1
 10
0.0
 20
0.0
 30
858.0
 70
   128
  0
VERTEX
  5
AAC
  8
TEAM-NET
 10
0.0
 20
-36.153027
 30
858.0
  0
VERTEX
  5
AAD
  8
TEAM-NET
 10
-4.134364
 20
-36.542042
 30
858.0
  0
VERTEX
  5
AAE
  8
TEAM-NET
 10
-8.127937
 20
-37.69584
 30
858.0
  0
VERTEX
  5
AAF
  8
TEAM-NET
 10
-11.844724
 20
-39.57513
 30
858.0
  0
VERTEX
  5
AB0
  8
TEAM-NET
 10
-15.158152
 20
-42.115916
 30
858.0
  0
VERTEX
  5
AB1
  8
TEAM-NET
 10
-17.955388
 20
-45.231672
 30
858.0
  0
VERTEX
  5
AB2
  8
TEAM-NET
 10
-20.141174
 20
-48.816297
 30
858.0
  0
VERTEX
  5
AB3
  8
TEAM-NET
 10
-21.641077
 20
-52.74772
 30
858.0
  0
VERTEX
  5
AB4
  8
TEAM-NET
 10
-22.404019
 20
-56.892061
 30
858.0
  0
VERTEX
  5
AB5
  8
TEAM-NET
 10
-22.404019
 20
-61.10819
 30
858.0
  0
VERTEX
  5
AB6
  8
TEAM-NET
 10
-21.641077
 20
-65.252531
 30
858.0
  0
VERTEX
  5
AB7
  8
TEAM-NET
 10
-20.141174
 20
-69.183954
 30
858.0
  0
VERTEX
  5
AB8
  8
TEAM-NET
 10
-17.955388
 20
-72.768578
 30
858.0
  0
VERTEX
  5
AB9
  8
TEAM-NET
 10
-15.158152
 20
-75.884335
 30
858.0
  0
VERTEX
  5
ABA
  8
TEAM-NET
 10
-11.844724
 20
-78.42512
 30
858.0
  0
VERTEX
  5
ABB
  8
TEAM-NET
 10
-8.127937
 20
-80.30441
 30
858.0
  0
VERTEX
  5
ABC
  8
TEAM-NET
 10
-4.134364
 20
-81.458209
 30
858.0
  0
VERTEX
  5
ABD
  8
TEAM-NET
 10
0.0
 20
-81.847224
 30
858.0
  0
SEQEND
  5
ABE
  8
TEAM-NET
  0
POLYLINE
  5
321
  8
TEAM-NET
 66
     1
 10
0.0
 20
0.0
 30
858.0
 70
   128
  0
VERTEX
  5
ABF
  8
TEAM-NET
 10
0.0
 20
-81.847224
 30
858.0
  0
VERTEX
  5
AC0
  8
TEAM-NET
 10
4.134364
 20
-81.458209
 30
858.0
  0
VERTEX
  5
AC1
  8
TEAM-NET
 10
8.127937
 20
-80.30441
 30
858.0
  0
VERTEX
  5
AC2
  8
TEAM-NET
 10
11.844724
 20
-78.42512
 30
858.0
  0
VERTEX
  5
AC3
  8
TEAM-NET
 10
15.158152
 20
-75.884335
 30
858.0
  0
VERTEX
  5
AC4
  8
TEAM-NET
 10
17.955388
 20
-72.768578
 30
858.0
  0
VERTEX
  5
AC5
  8
TEAM-NET
 10
20.141174
 20
-69.183954
 30
858.0
  0
VERTEX
  5
AC6
  8
TEAM-NET
 10
21.641077
 20
-65.252531
 30
858.0
  0
VERTEX
  5
AC7
  8
TEAM-NET
 10
22.404019
 20
-61.10819
 30
858.0
  0
VERTEX
  5
AC8
  8
TEAM-NET
 10
22.404019
 20
-56.892061
 30
858.0
  0
VERTEX
  5
AC9
  8
TEAM-NET
 10
21.641077
 20
-52.74772
 30
858.0
  0
VERTEX
  5
ACA
  8
TEAM-NET
 10
20.141174
 20
-48.816297
 30
858.0
  0
VERTEX
  5
ACB
  8
TEAM-NET
 10
17.955388
 20
-45.231672
 30
858.0
  0
VERTEX
  5
ACC
  8
TEAM-NET
 10
15.158152
 20
-42.115916
 30
858.0
  0
VERTEX
  5
ACD
  8
TEAM-NET
 10
11.844724
 20
-39.57513
 30
858.0
  0
VERTEX
  5
ACE
  8
TEAM-NET
 10
8.127937
 20
-37.69584
 30
858.0
  0
VERTEX
  5
ACF
  8
TEAM-NET
 10
4.134364
 20
-36.542042
 30
858.0
  0
VERTEX
  5
AD0
  8
TEAM-NET
 10
0.0
 20
-36.153027
 30
858.0
  0
SEQEND
  5
AD1
  8
TEAM-NET
  0
LINE
  5
322
  8
TEAM-NET
 10
3.0
 20
-51.591371
 30
858.745107
 11
3.0
 21
-50.608546
 31
858.560548
210
1.0
220
-0.0
230
-0.0
  0
LINE
  5
323
  8
TEAM-NET
 10
-3.0
 20
-50.608546
 30
858.560548
 11
-3.0
 21
-51.591371
 31
858.745107
210
-1.0
220
0.0
230
0.0
  0
ARC
  5
324
  8
TEAM-NET
 10
195.0
 20
-67.419112
 30
868.0
 40
45.0
 50
0.0
 51
90.0
  0
LINE
  5
325
  8
TEAM-NET
 10
-195.0
 20
-22.419112
 30
868.0
 11
195.0
 21
-22.419112
 31
868.0
  0
ARC
  5
326
  8
TEAM-NET
 10
-195.0
 20
-67.419112
 30
868.0
 40
45.0
 50
90.0
 51
180.0
  0
ARC
  5
327
  8
TEAM-NET
 10
-197.5
 20
-64.919112
 30
868.0
 40
65.0
 50
90.0
 51
180.0
  0
LINE
  5
328
  8
TEAM-NET
 10
-197.5
 20
0.080888
 30
868.0
 11
197.5
 21
0.080888
 31
868.0
  0
ARC
  5
329
  8
TEAM-NET
 10
197.5
 20
-64.919112
 30
868.0
 40
65.0
 50
0.0
 51
90.0
  0
ARC
  5
32A
  8
TEAM-NET
 10
-195.0
 20
-67.419112
 30
868.0
 40
45.0
 50
90.0
 51
180.0
  0
LINE
  5
32B
  8
TEAM-NET
 10
-240.0
 20
-67.419112
 30
868.0
 11
-240.0
 21
-67.419112
 31
863.0
  0
LINE
  5
32C
  8
TEAM-NET
 10
-195.0
 20
-22.419112
 30
863.0
 11
-195.0
 21
-22.419112
 31
868.0
  0
ARC
  5
32D
  8
TEAM-NET
 10
-195.0
 20
-67.419112
 30
863.0
 40
45.0
 50
90.0
 51
180.0
  0
ARC
  5
32E
  8
TEAM-NET
 10
195.0
 20
-67.419112
 30
868.0
 40
45.0
 50
0.0
 51
90.0
  0
LINE
  5
32F
  8
TEAM-NET
 10
195.0
 20
-22.419112
 30
868.0
 11
195.0
 21
-22.419112
 31
863.0
  0
LINE
  5
330
  8
TEAM-NET
 10
240.0
 20
-67.419112
 30
863.0
 11
240.0
 21
-67.419112
 31
868.0
  0
ARC
  5
331
  8
TEAM-NET
 10
195.0
 20
-67.419112
 30
863.0
 40
45.0
 50
0.0
 51
90.0
  0
LINE
  5
332
  8
TEAM-NET
 10
-195.0
 20
-22.419112
 30
868.0
 11
195.0
 21
-22.419112
 31
868.0
210
0.0
220
-1.0
230
0.0
  0
LINE
  5
333
  8
TEAM-NET
 10
-195.0
 20
-22.419112
 30
863.0
 11
-195.0
 21
-22.419112
 31
868.0
210
0.0
220
-1.0
230
0.0
  0
LINE
  5
334
  8
TEAM-NET
 10
195.0
 20
-22.419112
 30
868.0
 11
195.0
 21
-22.419112
 31
863.0
210
0.0
220
-1.0
230
0.0
  0
LINE
  5
335
  8
TEAM-NET
 10
195.0
 20
-22.419112
 30
863.0
 11
-195.0
 21
-22.419112
 31
863.0
210
0.0
220
-1.0
230
0.0
  0
LINE
  5
336
  8
TEAM-NET
 10
-2.0
 20
-52.574192
 30
858.929666
 11
2.0
 21
-52.574192
 31
858.929666
210
-0.0
220
-0.184559
230
-0.982821
  0
ARC
  5
337
  8
TEAM-NET
 10
-195.0
 20
-67.419112
 30
863.0
 40
45.0
 50
90.0
 51
180.0
  0
LINE
  5
338
  8
TEAM-NET
 10
195.0
 20
-22.419112
 30
863.0
 11
-195.0
 21
-22.419112
 31
863.0
  0
LINE
  5
339
  8
TEAM-NET
 10
-240.0
 20
-67.419112
 30
863.0
 11
-240.0
 21
-97.469168
 31
863.0
  0
ARC
  5
33A
  8
TEAM-NET
 10
195.0
 20
-67.419112
 30
863.0
 40
45.0
 50
0.0
 51
90.0
  0
LINE
  5
33B
  8
TEAM-NET
 10
240.0
 20
-97.469168
 30
863.0
 11
240.0
 21
-67.419112
 31
863.0
  0
LINE
  5
33C
  8
TEAM-NET
 10
-240.0
 20
-67.419112
 30
868.0
 11
-240.0
 21
-67.419112
 31
863.0
210
1.0
220
0.0
230
0.0
  0
LINE
  5
33D
  8
TEAM-NET
 10
-240.0
 20
-67.419112
 30
863.0
 11
-240.0
 21
-97.469168
 31
863.0
210
1.0
220
0.0
230
0.0
  0
LINE
  5
33E
  8
TEAM-NET
 10
240.0
 20
-67.419112
 30
863.0
 11
240.0
 21
-67.419112
 31
868.0
210
-1.0
220
0.0
230
0.0
  0
LINE
  5
33F
  8
TEAM-NET
 10
240.0
 20
-97.469168
 30
863.0
 11
240.0
 21
-67.419112
 31
863.0
210
-1.0
220
0.0
230
0.0
  0
LINE
  5
340
  8
TEAM-NET
 10
-2.0
 20
-52.574192
 30
858.929666
 11
2.0
 21
-52.574192
 31
858.929666
210
-0.0
220
-0.982821
230
0.184559
  0
ARC
  5
341
  8
TEAM-NET
 10
197.5
 20
-64.919112
 30
-868.0
 40
65.0
210
0.0
220
0.0
230
-1.0
 50
0.0
 51
90.0
  0
ARC
  5
342
  8
TEAM-NET
 10
-197.5
 20
-64.919112
 30
-868.0
 40
65.0
210
0.0
220
0.0
230
-1.0
 50
90.0
 51
180.0
  0
LINE
  5
343
  8
TEAM-NET
 10
-197.5
 20
0.080888
 30
868.0
 11
197.5
 21
0.080888
 31
868.0
210
0.0
220
1.0
230
0.0
  0
LINE
  5
344
  8
TEAM-NET
 10
4.68381
 20
-81.153587
 30
948.652518
 11
4.68381
 21
-155.467718
 31
888.622005
  0
LINE
  5
345
  8
TEAM-NET
 10
-4.68381
 20
-81.153587
 30
948.652518
 11
-4.68381
 21
-155.467718
 31
888.622005
  0
LINE
  5
346
  8
TEAM-NET
 10
-14.0
 20
-153.887913
 30
889.898163
 11
-14.0
 21
-79.597782
 31
949.909288
  0
LINE
  5
347
  8
TEAM-NET
 10
14.0
 20
-153.887913
 30
889.898163
 11
14.0
 21
-79.597782
 31
949.909288
  0
LINE
  5
348
  8
TEAM-NET
 10
-14.0
 20
-153.887913
 30
889.898163
 11
-14.0
 21
-79.597782
 31
949.909288
  0
LINE
  5
349
  8
TEAM-NET
 10
14.0
 20
-153.887913
 30
889.898163
 11
14.0
 21
-79.597782
 31
949.909288
  0
LINE
  5
34A
  8
TEAM-NET
 10
4.68381
 20
-81.153587
 30
948.652518
 11
4.68381
 21
-155.467718
 31
888.622005
  0
LINE
  5
34B
  8
TEAM-NET
 10
-4.68381
 20
-81.153587
 30
948.652518
 11
-4.68381
 21
-155.467718
 31
888.622005
  0
ARC
  5
34C
  8
TEAM-NET
 10
27.04015
 20
889.746523
 30
3.0
 40
17.407882
210
-1.0
220
0.0
230
0.0
 50
10.635407
 51
94.182905
  0
ARC
  5
34D
  8
TEAM-NET
 10
-27.04015
 20
889.746523
 30
-1.0
 40
15.407882
210
1.0
220
-0.0
230
-0.0
 50
86.21218
 51
169.364593
  0
ARC
  5
34E
  8
TEAM-NET
 10
-27.04015
 20
889.746523
 30
-1.0
 40
15.407882
210
1.0
220
-0.0
230
-0.0
 50
86.21218
 51
169.364593
  0
ARC
  5
34F
  8
TEAM-NET
 10
27.04015
 20
889.746523
 30
-1.0
 40
15.407882
210
-1.0
220
0.0
230
0.0
 50
10.635407
 51
93.78782
  0
ARC
  5
350
  8
TEAM-NET
 10
27.04015
 20
889.746523
 30
-1.0
 40
15.407882
210
-1.0
220
0.0
230
0.0
 50
10.635407
 51
93.78782
  0
ARC
  5
351
  8
TEAM-NET
 10
-27.04015
 20
889.746523
 30
3.0
 40
17.407882
210
1.0
220
-0.0
230
-0.0
 50
85.817095
 51
169.364593
  0
ARC
  5
352
  8
TEAM-NET
 10
-27.04015
 20
889.746523
 30
3.0
 40
17.407882
210
1.0
220
-0.0
230
-0.0
 50
85.817095
 51
169.364593
  0
ARC
  5
353
  8
TEAM-NET
 10
-26.967142
 20
889.65504
 30
3.0
 40
18.496523
210
1.0
220
-0.0
230
-0.0
 50
85.712041
 51
169.364593
  0
ARC
  5
354
  8
TEAM-NET
 10
26.967142
 20
889.65504
 30
2.0
 40
19.496523
210
-1.0
220
0.0
230
0.0
 50
10.635407
 51
94.287959
  0
ARC
  5
355
  8
TEAM-NET
 10
-26.967142
 20
889.65504
 30
-3.0
 40
18.496523
210
1.0
220
-0.0
230
-0.0
 50
85.712041
 51
169.364593
  0
ARC
  5
356
  8
TEAM-NET
 10
-26.967142
 20
889.65504
 30
2.0
 40
19.496523
210
1.0
220
-0.0
230
-0.0
 50
85.712041
 51
169.364593
  0
ARC
  5
357
  8
TEAM-NET
 10
26.967142
 20
889.65504
 30
2.0
 40
19.496523
210
-1.0
220
0.0
230
0.0
 50
10.635407
 51
94.287959
  0
ARC
  5
358
  8
TEAM-NET
 10
26.967142
 20
889.65504
 30
-3.0
 40
18.496523
210
-1.0
220
0.0
230
0.0
 50
10.635407
 51
94.287959
  0
ARC
  5
359
  8
TEAM-NET
 10
-26.967142
 20
889.65504
 30
2.0
 40
19.496523
210
1.0
220
-0.0
230
-0.0
 50
85.712041
 51
169.364593
  0
ARC
  5
35A
  8
TEAM-NET
 10
26.967142
 20
889.65504
 30
3.0
 40
18.496523
210
-1.0
220
0.0
230
0.0
 50
10.635407
 51
94.287959
  0
ARC
  5
35B
  8
TEAM-NET
 10
27.04015
 20
889.746523
 30
3.0
 40
17.407882
210
-1.0
220
0.0
230
0.0
 50
10.635407
 51
94.182905
  0
ARC
  5
35C
  8
TEAM-NET
 10
2.041624
 20
563.809585
 30
700.431487
 40
1.0
210
0.032843
220
-0.753513
230
0.656612
 50
268.360663
 51
358.360663
  0
ARC
  5
35D
  8
TEAM-NET
 10
0.071736
 20
700.811921
 30
562.63723
 40
9.0
210
0.0
220
0.656966
230
0.75392
 50
1.882117
 51
181.882117
  0
ARC
  5
35E
  8
TEAM-NET
 10
15.951008
 20
564.324527
 30
-700.431487
 40
1.0
210
-0.032843
220
0.753513
230
-0.656612
 50
271.639337
 51
1.639337
  0
ARC
  5
35F
  8
TEAM-NET
 10
2.041624
 20
563.809585
 30
700.431487
 40
1.0
210
0.032843
220
-0.753513
230
0.656612
 50
268.360663
 51
358.360663
  0
ARC
  5
360
  8
TEAM-NET
 10
15.951008
 20
564.324527
 30
-700.431487
 40
1.0
210
-0.032843
220
0.753513
230
-0.656612
 50
271.639337
 51
1.639337
  0
ARC
  5
361
  8
TEAM-NET
 10
-0.071736
 20
700.811921
 30
-562.63723
 40
9.0
210
-0.0
220
-0.656966
230
-0.75392
 50
358.117883
 51
178.117883
  0
POLYLINE
  5
362
  8
TEAM-NET
 66
     1
 10
0.0
 20
0.0
 30
-552.455354
 70
   128
210
-0.0
220
-0.675261
230
-0.737579
  0
VERTEX
  5
AD2
  8
TEAM-NET
 10
14.0
 20
714.418164
 30
-552.455354
  0
VERTEX
  5
AD3
  8
TEAM-NET
 10
13.787309
 20
716.876847
 30
-552.455354
  0
VERTEX
  5
AD4
  8
TEAM-NET
 10
13.155697
 20
719.260825
 30
-552.455354
  0
VERTEX
  5
AD5
  8
TEAM-NET
 10
12.124356
 20
721.497661
 30
-552.455354
  0
VERTEX
  5
AD6
  8
TEAM-NET
 10
10.724622
 20
723.51939
 30
-552.455354
  0
VERTEX
  5
AD7
  8
TEAM-NET
 10
8.999027
 20
725.264583
 30
-552.455354
  0
VERTEX
  5
AD8
  8
TEAM-NET
 10
7.0
 20
726.680213
 30
-552.455354
  0
VERTEX
  5
AD9
  8
TEAM-NET
 10
4.788282
 20
727.723267
 30
-552.455354
  0
VERTEX
  5
ADA
  8
TEAM-NET
 10
2.431074
 20
728.362051
 30
-552.455354
  0
VERTEX
  5
ADB
  8
TEAM-NET
 10
0.0
 20
728.577158
 30
-552.455354
  0
SEQEND
  5
ADC
  8
TEAM-NET
  0
POLYLINE
  5
363
  8
TEAM-NET
 66
     1
 10
0.0
 20
0.0
 30
-552.455354
 70
   128
210
0.0
220
-0.675261
230
-0.737579
  0
VERTEX
  5
ADD
  8
TEAM-NET
 10
0.0
 20
728.577158
 30
-552.455354
  0
VERTEX
  5
ADE
  8
TEAM-NET
 10
-2.731265
 20
728.305097
 30
-552.455354
  0
VERTEX
  5
ADF
  8
TEAM-NET
 10
-5.357568
 20
727.499369
 30
-552.455354
  0
VERTEX
  5
AE0
  8
TEAM-NET
 10
-7.777983
 20
726.190937
 30
-552.455354
  0
VERTEX
  5
AE1
  8
TEAM-NET
 10
-9.899495
 20
724.430085
 30
-552.455354
  0
VERTEX
  5
AE2
  8
TEAM-NET
 10
-11.640575
 20
722.28448
 30
-552.455354
  0
VERTEX
  5
AE3
  8
TEAM-NET
 10
-12.934313
 20
719.836576
 30
-552.455354
  0
VERTEX
  5
AE4
  8
TEAM-NET
 10
-13.730994
 20
717.180446
 30
-552.455354
  0
VERTEX
  5
AE5
  8
TEAM-NET
 10
-14.0
 20
714.418164
 30
-552.455354
  0
SEQEND
  5
AE6
  8
TEAM-NET
  0
POLYLINE
  5
364
  8
TEAM-NET
 66
     1
 10
0.0
 20
0.0
 30
-567.812617
 70
   128
210
-0.0
220
-0.656966
230
-0.75392
  0
VERTEX
  5
AE7
  8
TEAM-NET
 10
0.0
 20
705.761138
 30
-567.812617
  0
VERTEX
  5
AE8
  8
TEAM-NET
 10
-0.813335
 20
705.688883
 30
-567.812617
  0
VERTEX
  5
AE9
  8
TEAM-NET
 10
-1.601957
 20
705.474312
 30
-567.812617
  0
VERTEX
  5
AEA
  8
TEAM-NET
 10
-2.341905
 20
705.123946
 30
-567.812617
  0
VERTEX
  5
AEB
  8
TEAM-NET
 10
-3.010695
 20
704.64843
 30
-567.812617
  0
VERTEX
  5
AEC
  8
TEAM-NET
 10
-3.588007
 20
704.062213
 30
-567.812617
  0
VERTEX
  5
AED
  8
TEAM-NET
 10
-4.056298
 20
703.383105
 30
-567.812617
  0
VERTEX
  5
AEE
  8
TEAM-NET
 10
-4.401342
 20
702.631743
 30
-567.812617
  0
VERTEX
  5
AEF
  8
TEAM-NET
 10
-4.612652
 20
701.830955
 30
-567.812617
  0
VERTEX
  5
AF0
  8
TEAM-NET
 10
-4.68381
 20
701.005073
 30
-567.812617
  0
SEQEND
  5
AF1
  8
TEAM-NET
  0
POLYLINE
  5
365
  8
TEAM-NET
 66
     1
 10
0.0
 20
0.0
 30
-567.812617
 70
   128
210
0.0
220
-0.656966
230
-0.75392
  0
VERTEX
  5
AF2
  8
TEAM-NET
 10
-4.68381
 20
701.005073
 30
-567.812617
  0
VERTEX
  5
AF3
  8
TEAM-NET
 10
-4.593812
 20
700.07721
 30
-567.812617
  0
VERTEX
  5
AF4
  8
TEAM-NET
 10
-4.327276
 20
699.185005
 30
-567.812617
  0
VERTEX
  5
AF5
  8
TEAM-NET
 10
-3.894446
 20
698.362744
 30
-567.812617
  0
VERTEX
  5
AF6
  8
TEAM-NET
 10
-3.311954
 20
697.642027
 30
-567.812617
  0
VERTEX
  5
AF7
  8
TEAM-NET
 10
-2.602185
 20
697.050549
 30
-567.812617
  0
VERTEX
  5
AF8
  8
TEAM-NET
 10
-1.792416
 20
696.611041
 30
-567.812617
  0
VERTEX
  5
AF9
  8
TEAM-NET
 10
-0.913766
 20
696.340394
 30
-567.812617
  0
VERTEX
  5
AFA
  8
TEAM-NET
 10
0.0
 20
696.249007
 30
-567.812617
  0
VERTEX
  5
AFB
  8
TEAM-NET
 10
0.913766
 20
696.340394
 30
-567.812617
  0
VERTEX
  5
AFC
  8
TEAM-NET
 10
1.792416
 20
696.611041
 30
-567.812617
  0
VERTEX
  5
AFD
  8
TEAM-NET
 10
2.602185
 20
697.050549
 30
-567.812617
  0
VERTEX
  5
AFE
  8
TEAM-NET
 10
3.311954
 20
697.642027
 30
-567.812617
  0
VERTEX
  5
AFF
  8
TEAM-NET
 10
3.894446
 20
698.362744
 30
-567.812617
  0
VERTEX
  5
B00
  8
TEAM-NET
 10
4.327276
 20
699.185005
 30
-567.812617
  0
VERTEX
  5
B01
  8
TEAM-NET
 10
4.593812
 20
700.07721
 30
-567.812617
  0
VERTEX
  5
B02
  8
TEAM-NET
 10
4.68381
 20
701.005073
 30
-567.812617
  0
SEQEND
  5
B03
  8
TEAM-NET
  0
POLYLINE
  5
366
  8
TEAM-NET
 66
     1
 10
0.0
 20
0.0
 30
0.0
 70
     8
  0
VERTEX
  5
7E1
  8
TEAM-NET
 10
4.68381
 20
-155.467718
 30
888.622005
 70
    32
  0
VERTEX
  5
7E2
  8
TEAM-NET
 10
4.612652
 20
-156.090367
 30
889.164582
 70
    32
  0
VERTEX
  5
7E3
  8
TEAM-NET
 10
4.401342
 20
-156.694097
 30
889.690673
 70
    32
  0
VERTEX
  5
7E4
  8
TEAM-NET
 10
4.056298
 20
-157.260564
 30
890.184293
 70
    32
  0
VERTEX
  5
7E5
  8
TEAM-NET
 10
3.588007
 20
-157.772557
 30
890.630444
 70
    32
  0
VERTEX
  5
7E6
  8
TEAM-NET
 10
3.010695
 20
-158.214518
 30
891.015569
 70
    32
  0
VERTEX
  5
7E7
  8
TEAM-NET
 10
2.341905
 20
-158.573019
 30
891.327967
 70
    32
  0
VERTEX
  5
7E8
  8
TEAM-NET
 10
1.601957
 20
-158.837166
 30
891.558146
 70
    32
  0
VERTEX
  5
7E9
  8
TEAM-NET
 10
0.813335
 20
-158.998935
 30
891.699112
 70
    32
  0
VERTEX
  5
7EA
  8
TEAM-NET
 10
0.0
 20
-159.05341
 30
891.746581
 70
    32
  0
SEQEND
  5
7EB
  8
TEAM-NET
  0
ARC
  5
367
  8
TEAM-NET
 10
-1.0
 20
208.194012
 30
-869.471505
 40
2.0
210
-0.0
220
-0.184559
230
-0.982821
 50
180.0
 51
270.0
  0
LINE
  5
368
  8
TEAM-NET
 10
-1.0
 20
-42.183348
 30
892.590182
 11
1.0
 21
-42.183348
 31
892.590182
  0
ARC
  5
369
  8
TEAM-NET
 10
1.0
 20
208.194012
 30
-869.471505
 40
2.0
210
-0.0
220
-0.184559
230
-0.982821
 50
270.0
 51
360.0
  0
LINE
  5
36A
  8
TEAM-NET
 10
7.923948
 20
-158.524064
 30
884.420669
 11
7.923948
 21
-151.954399
 31
891.959866
  0
ARC
  5
36B
  8
TEAM-NET
 10
-0.071736
 20
700.811921
 30
-572.63723
 40
8.0
210
-0.0
220
-0.656966
230
-0.75392
 50
178.117883
 51
358.117883
  0
LINE
  5
36C
  8
TEAM-NET
 10
-8.06742
 20
-158.920243
 30
884.765899
 11
-8.06742
 21
-152.350578
 31
892.305097
  0
ARC
  5
36D
  8
TEAM-NET
 10
2.270488
 20
571.80631
 30
700.431487
 40
1.0
210
0.032843
220
-0.753513
230
0.656612
 50
358.360663
 51
88.360663
  0
ARC
  5
36E
  8
TEAM-NET
 10
-0.071736
 20
700.811921
 30
-572.63723
 40
9.0
210
-0.0
220
-0.656966
230
-0.75392
 50
358.117883
 51
178.117883
  0
ARC
  5
36F
  8
TEAM-NET
 10
0.071736
 20
700.811921
 30
571.63723
 40
10.0
210
0.0
220
0.656966
230
0.75392
 50
1.882117
 51
181.882117
  0
ARC
  5
370
  8
TEAM-NET
 10
15.722145
 20
572.321253
 30
-700.431487
 40
1.0
210
-0.032843
220
0.753513
230
-0.656612
 50
1.639337
 51
91.639337
  0
LINE
  5
371
  8
TEAM-NET
 10
9.922869
 20
-152.561843
 30
891.162793
 11
9.922869
 21
-157.817575
 31
885.131435
  0
ARC
  5
372
  8
TEAM-NET
 10
0.071736
 20
700.811921
 30
571.63723
 40
10.0
210
0.0
220
0.656966
230
0.75392
 50
181.882117
 51
1.882117
  0
LINE
  5
373
  8
TEAM-NET
 10
-10.066341
 20
-153.057066
 30
891.594331
 11
-10.066341
 21
-158.312798
 31
885.562973
  0
LINE
  5
374
  8
TEAM-NET
 10
9.922869
 20
-152.561843
 30
891.162793
 11
9.922869
 21
-157.817575
 31
885.131435
  0
ARC
  5
375
  8
TEAM-NET
 10
0.071736
 20
700.811921
 30
571.63723
 40
10.0
210
0.0
220
0.656966
230
0.75392
 50
1.882117
 51
181.882117
  0
LINE
  5
376
  8
TEAM-NET
 10
-10.066341
 20
-153.057066
 30
891.594331
 11
-10.066341
 21
-158.312798
 31
885.562973
  0
ARC
  5
377
  8
TEAM-NET
 10
2.270488
 20
571.80631
 30
700.431487
 40
1.0
210
0.032843
220
-0.753513
230
0.656612
 50
358.360663
 51
88.360663
  0
ARC
  5
378
  8
TEAM-NET
 10
0.071736
 20
700.811921
 30
571.63723
 40
10.0
210
0.0
220
0.656966
230
0.75392
 50
181.882117
 51
1.882117
  0
ARC
  5
379
  8
TEAM-NET
 10
-0.071736
 20
700.811921
 30
-572.63723
 40
9.0
210
-0.0
220
-0.656966
230
-0.75392
 50
178.117883
 51
358.117883
  0
ARC
  5
37A
  8
TEAM-NET
 10
15.722145
 20
572.321253
 30
-700.431487
 40
1.0
210
-0.032843
220
0.753513
230
-0.656612
 50
1.639337
 51
91.639337
  0
ARC
  5
37B
  8
TEAM-NET
 10
0.071736
 20
700.811921
 30
572.63723
 40
8.0
210
0.0
220
0.656966
230
0.75392
 50
181.882117
 51
1.882117
  0
ARC
  5
37C
  8
TEAM-NET
 10
0.071736
 20
700.811921
 30
572.63723
 40
8.0
210
0.0
220
0.656966
230
0.75392
 50
1.882117
 51
181.882117
  0
ARC
  5
37D
  8
TEAM-NET
 10
0.071736
 20
700.811921
 30
572.63723
 40
9.0
210
0.0
220
0.656966
230
0.75392
 50
181.882117
 51
1.882117
  0
ARC
  5
37E
  8
TEAM-NET
 10
0.071736
 20
700.811921
 30
572.63723
 40
9.0
210
0.0
220
0.656966
230
0.75392
 50
1.882117
 51
181.882117
  0
LINE
  5
37F
  8
TEAM-NET
 10
7.923948
 20
-158.524064
 30
884.420669
 11
7.923948
 21
-151.954399
 31
891.959866
  0
ARC
  5
380
  8
TEAM-NET
 10
-0.071736
 20
700.811921
 30
-572.63723
 40
8.0
210
-0.0
220
-0.656966
230
-0.75392
 50
358.117883
 51
178.117883
  0
LINE
  5
381
  8
TEAM-NET
 10
-8.06742
 20
-158.920243
 30
884.765899
 11
-8.06742
 21
-152.350578
 31
892.305097
  0
ARC
  5
382
  8
TEAM-NET
 10
-2.0
 20
209.194015
 30
-869.395068
 40
1.0
210
-0.0
220
-0.184559
230
-0.982821
 50
90.0
 51
180.0
  0
LINE
  5
383
  8
TEAM-NET
 10
2.0
 20
-46.128744
 30
893.253294
 11
-2.0
 21
-46.128744
 31
893.253294
210
-0.0
220
-0.982821
230
0.184559
  0
ARC
  5
384
  8
TEAM-NET
 10
2.0
 20
209.194015
 30
-869.395068
 40
1.0
210
-0.0
220
-0.184559
230
-0.982821
 50
360.0
 51
90.0
  0
ARC
  5
385
  8
TEAM-NET
 10
-1.0
 20
208.194012
 30
-869.471505
 40
2.0
210
-0.0
220
-0.184559
230
-0.982821
 50
180.0
 51
270.0
  0
LINE
  5
386
  8
TEAM-NET
 10
-1.0
 20
-42.183348
 30
892.590182
 11
1.0
 21
-42.183348
 31
892.590182
210
0.0
220
0.982821
230
-0.184559
  0
ARC
  5
387
  8
TEAM-NET
 10
1.0
 20
208.194012
 30
-869.471505
 40
2.0
210
-0.0
220
-0.184559
230
-0.982821
 50
270.0
 51
360.0
  0
POLYLINE
  5
388
  8
TEAM-NET
 66
     1
 10
0.0
 20
0.0
 30
567.812617
 70
   128
210
-0.0
220
0.656966
230
0.75392
  0
VERTEX
  5
B04
  8
TEAM-NET
 10
0.0
 20
705.761138
 30
567.812617
  0
VERTEX
  5
B05
  8
TEAM-NET
 10
-0.813335
 20
705.688883
 30
567.812617
  0
VERTEX
  5
B06
  8
TEAM-NET
 10
-1.601957
 20
705.474312
 30
567.812617
  0
VERTEX
  5
B07
  8
TEAM-NET
 10
-2.341905
 20
705.123946
 30
567.812617
  0
VERTEX
  5
B08
  8
TEAM-NET
 10
-3.010695
 20
704.64843
 30
567.812617
  0
VERTEX
  5
B09
  8
TEAM-NET
 10
-3.588007
 20
704.062213
 30
567.812617
  0
VERTEX
  5
B0A
  8
TEAM-NET
 10
-4.056298
 20
703.383105
 30
567.812617
  0
VERTEX
  5
B0B
  8
TEAM-NET
 10
-4.401342
 20
702.631743
 30
567.812617
  0
VERTEX
  5
B0C
  8
TEAM-NET
 10
-4.612652
 20
701.830955
 30
567.812617
  0
VERTEX
  5
B0D
  8
TEAM-NET
 10
-4.68381
 20
701.005073
 30
567.812617
  0
SEQEND
  5
B0E
  8
TEAM-NET
  0
POLYLINE
  5
389
  8
TEAM-NET
 66
     1
 10
0.0
 20
0.0
 30
567.812617
 70
   128
210
0.0
220
0.656966
230
0.75392
  0
VERTEX
  5
B0F
  8
TEAM-NET
 10
4.68381
 20
701.005073
 30
567.812617
  0
VERTEX
  5
B10
  8
TEAM-NET
 10
4.612652
 20
701.830955
 30
567.812617
  0
VERTEX
  5
B11
  8
TEAM-NET
 10
4.401342
 20
702.631743
 30
567.812617
  0
VERTEX
  5
B12
  8
TEAM-NET
 10
4.056298
 20
703.383105
 30
567.812617
  0
VERTEX
  5
B13
  8
TEAM-NET
 10
3.588007
 20
704.062213
 30
567.812617
  0
VERTEX
  5
B14
  8
TEAM-NET
 10
3.010695
 20
704.64843
 30
567.812617
  0
VERTEX
  5
B15
  8
TEAM-NET
 10
2.341905
 20
705.123946
 30
567.812617
  0
VERTEX
  5
B16
  8
TEAM-NET
 10
1.601957
 20
705.474312
 30
567.812617
  0
VERTEX
  5
B17
  8
TEAM-NET
 10
0.813335
 20
705.688883
 30
567.812617
  0
VERTEX
  5
B18
  8
TEAM-NET
 10
0.0
 20
705.761138
 30
567.812617
  0
SEQEND
  5
B19
  8
TEAM-NET
  0
POLYLINE
  5
38A
  8
TEAM-NET
 66
     1
 10
0.0
 20
0.0
 30
-552.455354
 70
   128
210
0.0
220
-0.675261
230
-0.737579
  0
VERTEX
  5
B1A
  8
TEAM-NET
 10
0.0
 20
728.577158
 30
-552.455354
  0
VERTEX
  5
B1B
  8
TEAM-NET
 10
-2.731265
 20
728.305097
 30
-552.455354
  0
VERTEX
  5
B1C
  8
TEAM-NET
 10
-5.357568
 20
727.499369
 30
-552.455354
  0
VERTEX
  5
B1D
  8
TEAM-NET
 10
-7.777983
 20
726.190937
 30
-552.455354
  0
VERTEX
  5
B1E
  8
TEAM-NET
 10
-9.899495
 20
724.430085
 30
-552.455354
  0
VERTEX
  5
B1F
  8
TEAM-NET
 10
-11.640575
 20
722.28448
 30
-552.455354
  0
VERTEX
  5
B20
  8
TEAM-NET
 10
-12.934313
 20
719.836576
 30
-552.455354
  0
VERTEX
  5
B21
  8
TEAM-NET
 10
-13.730994
 20
717.180446
 30
-552.455354
  0
VERTEX
  5
B22
  8
TEAM-NET
 10
-14.0
 20
714.418164
 30
-552.455354
  0
SEQEND
  5
B23
  8
TEAM-NET
  0
POLYLINE
  5
38B
  8
TEAM-NET
 66
     1
 10
0.0
 20
0.0
 30
-552.455354
 70
   128
210
-0.0
220
-0.675261
230
-0.737579
  0
VERTEX
  5
B24
  8
TEAM-NET
 10
14.0
 20
714.418164
 30
-552.455354
  0
VERTEX
  5
B25
  8
TEAM-NET
 10
13.787309
 20
716.876847
 30
-552.455354
  0
VERTEX
  5
B26
  8
TEAM-NET
 10
13.155697
 20
719.260825
 30
-552.455354
  0
VERTEX
  5
B27
  8
TEAM-NET
 10
12.124356
 20
721.497661
 30
-552.455354
  0
VERTEX
  5
B28
  8
TEAM-NET
 10
10.724622
 20
723.51939
 30
-552.455354
  0
VERTEX
  5
B29
  8
TEAM-NET
 10
8.999027
 20
725.264583
 30
-552.455354
  0
VERTEX
  5
B2A
  8
TEAM-NET
 10
7.0
 20
726.680213
 30
-552.455354
  0
VERTEX
  5
B2B
  8
TEAM-NET
 10
4.788282
 20
727.723267
 30
-552.455354
  0
VERTEX
  5
B2C
  8
TEAM-NET
 10
2.431074
 20
728.362051
 30
-552.455354
  0
VERTEX
  5
B2D
  8
TEAM-NET
 10
0.0
 20
728.577158
 30
-552.455354
  0
SEQEND
  5
B2E
  8
TEAM-NET
  0
POLYLINE
  5
38C
  8
TEAM-NET
 66
     1
 10
0.0
 20
0.0
 30
567.812617
 70
   128
210
-0.0
220
0.656966
230
0.75392
  0
VERTEX
  5
B2F
  8
TEAM-NET
 10
-4.68381
 20
701.005073
 30
567.812617
  0
VERTEX
  5
B30
  8
TEAM-NET
 10
-4.593812
 20
700.07721
 30
567.812617
  0
VERTEX
  5
B31
  8
TEAM-NET
 10
-4.327276
 20
699.185005
 30
567.812617
  0
VERTEX
  5
B32
  8
TEAM-NET
 10
-3.894446
 20
698.362744
 30
567.812617
  0
VERTEX
  5
B33
  8
TEAM-NET
 10
-3.311954
 20
697.642027
 30
567.812617
  0
VERTEX
  5
B34
  8
TEAM-NET
 10
-2.602185
 20
697.050549
 30
567.812617
  0
VERTEX
  5
B35
  8
TEAM-NET
 10
-1.792416
 20
696.611041
 30
567.812617
  0
VERTEX
  5
B36
  8
TEAM-NET
 10
-0.913766
 20
696.340394
 30
567.812617
  0
VERTEX
  5
B37
  8
TEAM-NET
 10
0.0
 20
696.249007
 30
567.812617
  0
VERTEX
  5
B38
  8
TEAM-NET
 10
0.913766
 20
696.340394
 30
567.812617
  0
VERTEX
  5
B39
  8
TEAM-NET
 10
1.792416
 20
696.611041
 30
567.812617
  0
VERTEX
  5
B3A
  8
TEAM-NET
 10
2.602185
 20
697.050549
 30
567.812617
  0
VERTEX
  5
B3B
  8
TEAM-NET
 10
3.311954
 20
697.642027
 30
567.812617
  0
VERTEX
  5
B3C
  8
TEAM-NET
 10
3.894446
 20
698.362744
 30
567.812617
  0
VERTEX
  5
B3D
  8
TEAM-NET
 10
4.327276
 20
699.185005
 30
567.812617
  0
VERTEX
  5
B3E
  8
TEAM-NET
 10
4.593812
 20
700.07721
 30
567.812617
  0
VERTEX
  5
B3F
  8
TEAM-NET
 10
4.68381
 20
701.005073
 30
567.812617
  0
SEQEND
  5
B40
  8
TEAM-NET
  0
ARC
  5
38D
  8
TEAM-NET
 10
-2.0
 20
209.194015
 30
-869.395068
 40
1.0
210
-0.0
220
-0.184559
230
-0.982821
 50
90.0
 51
180.0
  0
LINE
  5
38E
  8
TEAM-NET
 10
2.0
 20
-46.128744
 30
893.253294
 11
-2.0
 21
-46.128744
 31
893.253294
  0
ARC
  5
38F
  8
TEAM-NET
 10
2.0
 20
209.194015
 30
-869.395068
 40
1.0
210
-0.0
220
-0.184559
230
-0.982821
 50
360.0
 51
90.0
  0
ARC
  5
390
  8
TEAM-NET
 10
2.0
 20
192.74242
 30
886.769114
 40
1.0
210
0.0
220
0.184559
230
0.982821
 50
270.0
 51
0.0
  0
LINE
  5
391
  8
TEAM-NET
 10
-3.0
 20
-25.770409
 30
907.108035
 11
-3.0
 21
-25.584173
 31
908.099789
  0
LINE
  5
392
  8
TEAM-NET
 10
-2.0
 20
-24.601351
 30
907.91523
 11
-2.0
 21
-24.787587
 31
906.923476
  0
ARC
  5
393
  8
TEAM-NET
 10
-2.0
 20
192.74242
 30
-887.778202
 40
1.0
210
-0.0
220
-0.184559
230
-0.982821
 50
180.0
 51
270.0
  0
ARC
  5
394
  8
TEAM-NET
 10
2.0
 20
192.74242
 30
886.769114
 40
1.0
210
0.0
220
0.184559
230
0.982821
 50
270.0
 51
0.0
  0
POLYLINE
  5
395
  8
TEAM-NET
 66
     1
 10
0.0
 20
0.0
 30
191.74242
 70
   128
210
-0.0
220
-0.982821
230
0.184559
  0
VERTEX
  5
B41
  8
TEAM-NET
 10
-2.0
 20
886.769114
 30
191.74242
  0
VERTEX
  5
B42
  8
TEAM-NET
 10
-1.707707
 20
886.057991
 30
191.74242
  0
VERTEX
  5
B43
  8
TEAM-NET
 10
-1.0
 20
885.762346
 30
191.74242
  0
SEQEND
  5
B44
  8
TEAM-NET
  0
POLYLINE
  5
396
  8
TEAM-NET
 66
     1
 10
0.0
 20
0.0
 30
-141.217783
 70
   128
210
-0.001791
220
0.991836
230
-0.127508
  0
VERTEX
  5
B45
  8
TEAM-NET
 10
1.046975
 20
894.414986
 30
-141.217783
  0
VERTEX
  5
B46
  8
TEAM-NET
 10
2.462256
 20
895.003387
 30
-141.217783
  0
VERTEX
  5
B47
  8
TEAM-NET
 10
3.046517
 20
896.418629
 30
-141.217783
  0
SEQEND
  5
B48
  8
TEAM-NET
  0
ARC
  5
397
  8
TEAM-NET
 10
25.956216
 20
906.118562
 30
1.0
 40
1.0
210
-1.0
220
0.0
230
0.0
 50
190.635407
 51
273.78782
  0
ARC
  5
398
  8
TEAM-NET
 10
-2.0
 20
192.74242
 30
886.769114
 40
1.0
210
0.0
220
0.184559
230
0.982821
 50
180.0
 51
270.0
  0
LINE
  5
399
  8
TEAM-NET
 10
2.0
 20
-24.787587
 30
906.923476
 11
2.0
 21
-24.601351
 31
907.91523
  0
LINE
  5
39A
  8
TEAM-NET
 10
3.0
 20
-25.584173
 30
908.099789
 11
3.0
 21
-25.770409
 31
907.108035
  0
ARC
  5
39B
  8
TEAM-NET
 10
2.0
 20
192.74242
 30
-887.778202
 40
1.0
210
-0.0
220
-0.184559
230
-0.982821
 50
270.0
 51
360.0
  0
ARC
  5
39C
  8
TEAM-NET
 10
-25.956216
 20
906.118562
 30
1.0
 40
1.0
210
1.0
220
-0.0
230
-0.0
 50
266.21218
 51
349.364593
  0
POLYLINE
  5
39D
  8
TEAM-NET
 66
     1
 10
0.0
 20
0.0
 30
191.74242
 70
   128
210
0.0
220
-0.982821
230
0.184559
  0
VERTEX
  5
B49
  8
TEAM-NET
 10
1.0
 20
885.762346
 30
191.74242
  0
VERTEX
  5
B4A
  8
TEAM-NET
 10
1.70767
 20
886.057818
 30
191.74242
  0
VERTEX
  5
B4B
  8
TEAM-NET
 10
2.0
 20
886.769114
 30
191.74242
  0
SEQEND
  5
B4C
  8
TEAM-NET
  0
POLYLINE
  5
39E
  8
TEAM-NET
 66
     1
 10
0.0
 20
0.0
 30
-141.21697
 70
   128
210
0.00179
220
0.991836
230
-0.127507
  0
VERTEX
  5
B4D
  8
TEAM-NET
 10
-3.046493
 20
896.418757
 30
-141.21697
  0
VERTEX
  5
B4E
  8
TEAM-NET
 10
-2.462159
 20
895.00317
 30
-141.21697
  0
VERTEX
  5
B4F
  8
TEAM-NET
 10
-1.046951
 20
894.415114
 30
-141.21697
  0
SEQEND
  5
B50
  8
TEAM-NET
  0
ARC
  5
39F
  8
TEAM-NET
 10
-2.0
 20
192.74242
 30
886.769114
 40
1.0
210
0.0
220
0.184559
230
0.982821
 50
180.0
 51
270.0
  0
ARC
  5
3A0
  8
TEAM-NET
 10
25.956216
 20
906.118562
 30
1.0
 40
1.0
210
-1.0
220
0.0
230
0.0
 50
190.635407
 51
273.78782
  0
LINE
  5
3A1
  8
TEAM-NET
 10
-1.0
 20
-24.973395
 30
905.934004
 11
1.0
 21
-24.973395
 31
905.934004
  0
LINE
  5
3A2
  8
TEAM-NET
 10
1.0
 20
-26.022278
 30
905.120747
 11
-1.0
 21
-26.022278
 31
905.120747
  0
ARC
  5
3A3
  8
TEAM-NET
 10
-25.956216
 20
906.118562
 30
1.0
 40
1.0
210
1.0
220
-0.0
230
-0.0
 50
266.21218
 51
349.364593
  0
ARC
  5
3A4
  8
TEAM-NET
 10
2.0
 20
903.644991
 30
-93.410426
 40
1.0
210
0.0
220
0.997201
230
-0.074769
 50
0.0
 51
90.0
  0
ARC
  5
3A5
  8
TEAM-NET
 10
-2.0
 20
192.74242
 30
-887.778202
 40
1.0
210
-0.0
220
-0.184559
230
-0.982821
 50
180.0
 51
270.0
  0
ARC
  5
3A6
  8
TEAM-NET
 10
25.584173
 20
908.099789
 30
2.0
 40
1.0
210
-1.0
220
0.0
230
0.0
 50
94.287959
 51
190.635407
  0
ARC
  5
3A7
  8
TEAM-NET
 10
2.0
 20
192.74242
 30
-887.778202
 40
1.0
210
-0.0
220
-0.184559
230
-0.982821
 50
270.0
 51
360.0
  0
ARC
  5
3A8
  8
TEAM-NET
 10
-2.0
 20
903.644991
 30
-93.410426
 40
1.0
210
0.0
220
0.997201
230
-0.074769
 50
90.0
 51
180.0
  0
ARC
  5
3A9
  8
TEAM-NET
 10
-25.584173
 20
908.099789
 30
2.0
 40
1.0
210
1.0
220
-0.0
230
-0.0
 50
349.364593
 51
85.712041
  0
ARC
  5
3AA
  8
TEAM-NET
 10
25.584173
 20
908.099789
 30
2.0
 40
1.0
210
-1.0
220
0.0
230
0.0
 50
94.287959
 51
190.635407
  0
LINE
  5
3AB
  8
TEAM-NET
 10
-2.0
 20
-25.509403
 30
909.09699
 11
2.0
 21
-25.509403
 31
909.09699
  0
LINE
  5
3AC
  8
TEAM-NET
 10
2.0
 20
-24.601351
 30
907.91523
 11
-2.0
 21
-24.601351
 31
907.91523
  0
ARC
  5
3AD
  8
TEAM-NET
 10
-25.584173
 20
908.099789
 30
2.0
 40
1.0
210
1.0
220
-0.0
230
-0.0
 50
349.364593
 51
85.712041
  0
POLYLINE
  5
3AE
  8
TEAM-NET
 66
     1
 10
0.0
 20
0.0
 30
191.74242
 70
   128
210
-0.0
220
-0.982821
230
0.184559
  0
VERTEX
  5
B51
  8
TEAM-NET
 10
-2.0
 20
886.769114
 30
191.74242
  0
VERTEX
  5
B52
  8
TEAM-NET
 10
-1.707707
 20
886.057991
 30
191.74242
  0
VERTEX
  5
B53
  8
TEAM-NET
 10
-1.0
 20
885.762346
 30
191.74242
  0
SEQEND
  5
B54
  8
TEAM-NET
  0
LINE
  5
3AF
  8
TEAM-NET
 10
-2.0
 20
-24.601351
 30
907.91523
 11
-2.0
 21
-24.787587
 31
906.923476
210
0.0
220
0.982821
230
-0.184559
  0
LINE
  5
3B0
  8
TEAM-NET
 10
-1.0
 20
-24.973395
 30
905.934004
 11
1.0
 21
-24.973395
 31
905.934004
210
0.0
220
0.982821
230
-0.184559
  0
LINE
  5
3B1
  8
TEAM-NET
 10
2.0
 20
-24.601351
 30
907.91523
 11
-2.0
 21
-24.601351
 31
907.91523
210
0.0
220
0.982821
230
-0.184559
  0
POLYLINE
  5
3B2
  8
TEAM-NET
 66
     1
 10
0.0
 20
0.0
 30
191.74242
 70
   128
210
0.0
220
-0.982821
230
0.184559
  0
VERTEX
  5
B55
  8
TEAM-NET
 10
1.0
 20
885.762346
 30
191.74242
  0
VERTEX
  5
B56
  8
TEAM-NET
 10
1.70767
 20
886.057818
 30
191.74242
  0
VERTEX
  5
B57
  8
TEAM-NET
 10
2.0
 20
886.769114
 30
191.74242
  0
SEQEND
  5
B58
  8
TEAM-NET
  0
LINE
  5
3B3
  8
TEAM-NET
 10
2.0
 20
-24.787587
 30
906.923476
 11
2.0
 21
-24.601351
 31
907.91523
210
0.0
220
0.982821
230
-0.184559
  0
POLYLINE
  5
3B4
  8
TEAM-NET
 66
     1
 10
0.0
 20
0.0
 30
-141.217783
 70
   128
210
-0.001791
220
0.991836
230
-0.127508
  0
VERTEX
  5
B59
  8
TEAM-NET
 10
1.046975
 20
894.414986
 30
-141.217783
  0
VERTEX
  5
B5A
  8
TEAM-NET
 10
2.462256
 20
895.003387
 30
-141.217783
  0
VERTEX
  5
B5B
  8
TEAM-NET
 10
3.046517
 20
896.418629
 30
-141.217783
  0
SEQEND
  5
B5C
  8
TEAM-NET
  0
LINE
  5
3B5
  8
TEAM-NET
 10
1.0
 20
-26.022278
 30
905.120747
 11
-1.0
 21
-26.022278
 31
905.120747
  0
POLYLINE
  5
3B6
  8
TEAM-NET
 66
     1
 10
0.0
 20
0.0
 30
-141.21697
 70
   128
210
0.00179
220
0.991836
230
-0.127507
  0
VERTEX
  5
B5D
  8
TEAM-NET
 10
-3.046493
 20
896.418757
 30
-141.21697
  0
VERTEX
  5
B5E
  8
TEAM-NET
 10
-2.462159
 20
895.00317
 30
-141.21697
  0
VERTEX
  5
B5F
  8
TEAM-NET
 10
-1.046951
 20
894.415114
 30
-141.21697
  0
SEQEND
  5
B60
  8
TEAM-NET
  0
LINE
  5
3B7
  8
TEAM-NET
 10
3.0
 20
-25.584173
 30
908.099789
 11
3.0
 21
-25.770409
 31
907.108035
210
1.0
220
-0.0
230
-0.0
  0
ARC
  5
3B8
  8
TEAM-NET
 10
2.0
 20
903.644991
 30
-93.410426
 40
1.0
210
0.0
220
0.997201
230
-0.074769
 50
0.0
 51
90.0
  0
LINE
  5
3B9
  8
TEAM-NET
 10
-2.0
 20
-25.509403
 30
909.09699
 11
2.0
 21
-25.509403
 31
909.09699
  0
ARC
  5
3BA
  8
TEAM-NET
 10
-2.0
 20
903.644991
 30
-93.410426
 40
1.0
210
0.0
220
0.997201
230
-0.074769
 50
90.0
 51
180.0
  0
LINE
  5
3BB
  8
TEAM-NET
 10
-3.0
 20
-25.770409
 30
907.108035
 11
-3.0
 21
-25.584173
 31
908.099789
210
-1.0
220
0.0
230
0.0
  0
LINE
  5
3BC
  8
TEAM-NET
 10
-5.495044
 20
-83.076554
 30
954.215798
 11
-5.495044
 21
-76.25287
 31
945.76849
210
1.0
220
-0.0
230
-0.0
  0
LINE
  5
3BD
  8
TEAM-NET
 10
-5.495044
 20
-77.808675
 30
944.51172
 11
-5.495044
 21
-84.632359
 31
952.959028
210
1.0
220
-0.0
230
-0.0
  0
LINE
  5
3BE
  8
TEAM-NET
 10
5.850992
 20
-76.25287
 30
945.76849
 11
5.850992
 21
-83.076554
 31
954.215798
210
-1.0
220
0.0
230
0.0
  0
LINE
  5
3BF
  8
TEAM-NET
 10
5.850992
 20
-84.632359
 30
952.959028
 11
5.850992
 21
-77.808675
 31
944.51172
210
-1.0
220
0.0
230
0.0
  0
ARC
  5
3C0
  8
TEAM-NET
 10
0.0
 20
788.954857
 30
532.989436
 40
4.68381
210
0.0
220
0.777902
230
0.628385
 50
0.0
 51
180.0
  0
ARC
  5
3C1
  8
TEAM-NET
 10
0.0
 20
788.954857
 30
532.989436
 40
4.68381
210
0.0
220
0.777902
230
0.628385
 50
180.0
 51
0.0
  0
LINE
  5
3C2
  8
TEAM-NET
 10
5.850992
 20
-84.632359
 30
952.959028
 11
5.850992
 21
-77.808675
 31
944.51172
210
0.0
220
0.777902
230
0.628385
  0
LINE
  5
3C3
  8
TEAM-NET
 10
-5.495044
 20
-77.808675
 30
944.51172
 11
-5.495044
 21
-84.632359
 31
952.959028
210
0.0
220
0.777902
230
0.628385
  0
LINE
  5
3C4
  8
TEAM-NET
 10
5.850992
 20
-76.25287
 30
945.76849
 11
5.850992
 21
-83.076554
 31
954.215798
210
0.0
220
0.777902
230
0.628385
  0
LINE
  5
3C5
  8
TEAM-NET
 10
-5.495044
 20
-83.076554
 30
954.215798
 11
-5.495044
 21
-76.25287
 31
945.76849
210
0.0
220
0.777902
230
0.628385
  0
ARC
  5
3C6
  8
TEAM-NET
 10
0.0
 20
788.954857
 30
534.989436
 40
14.0
210
0.0
220
0.777902
230
0.628385
 50
180.0
 51
0.0
  0
ARC
  5
3C7
  8
TEAM-NET
 10
0.0
 20
788.954857
 30
532.989436
 40
4.68381
210
0.0
220
0.777902
230
0.628385
 50
0.0
 51
180.0
  0
ARC
  5
3C8
  8
TEAM-NET
 10
0.0
 20
788.954857
 30
534.989436
 40
14.0
210
0.0
220
0.777902
230
0.628385
 50
180.0
 51
0.0
  0
ARC
  5
3C9
  8
TEAM-NET
 10
0.0
 20
788.954857
 30
532.989436
 40
4.68381
210
0.0
220
0.777902
230
0.628385
 50
180.0
 51
0.0
  0
LINE
  5
3CA
  8
TEAM-NET
 10
-5.495044
 20
-76.25287
 30
945.76849
 11
-5.495044
 21
-77.808675
 31
944.51172
210
1.0
220
-0.0
230
-0.0
  0
LINE
  5
3CB
  8
TEAM-NET
 10
5.850992
 20
-76.25287
 30
945.76849
 11
5.850992
 21
-77.808675
 31
944.51172
210
-1.0
220
0.0
230
0.0
  0
LINE
  5
3CC
  8
TEAM-NET
 10
-5.495044
 20
-76.25287
 30
945.76849
 11
5.850992
 21
-76.25287
 31
945.76849
210
-0.0
220
-0.628385
230
0.777902
  0
LINE
  5
3CD
  8
TEAM-NET
 10
-5.495044
 20
-76.25287
 30
945.76849
 11
-5.495044
 21
-77.808675
 31
944.51172
210
-0.0
220
-0.628385
230
0.777902
  0
LINE
  5
3CE
  8
TEAM-NET
 10
5.850992
 20
-76.25287
 30
945.76849
 11
5.850992
 21
-77.808675
 31
944.51172
210
-0.0
220
-0.628385
230
0.777902
  0
LINE
  5
3CF
  8
TEAM-NET
 10
5.850992
 20
-77.808675
 30
944.51172
 11
-5.495044
 21
-77.808675
 31
944.51172
210
-0.0
220
-0.628385
230
0.777902
  0
LINE
  5
3D0
  8
TEAM-NET
 10
5.850992
 20
-77.808675
 30
944.51172
 11
-5.495044
 21
-77.808675
 31
944.51172
210
0.0
220
0.777902
230
0.628385
  0
LINE
  5
3D1
  8
TEAM-NET
 10
-5.495044
 20
-76.25287
 30
945.76849
 11
5.850992
 21
-76.25287
 31
945.76849
210
0.0
220
0.777902
230
0.628385
  0
LINE
  5
3D2
  8
TEAM-NET
 10
5.850992
 20
-83.076554
 30
954.215798
 11
-5.495044
 21
-83.076554
 31
954.215798
210
0.0
220
0.628385
230
-0.777902
  0
LINE
  5
3D3
  8
TEAM-NET
 10
5.850992
 20
-83.076554
 30
954.215798
 11
5.850992
 21
-84.632359
 31
952.959028
210
0.0
220
0.628385
230
-0.777902
  0
LINE
  5
3D4
  8
TEAM-NET
 10
-5.495044
 20
-83.076554
 30
954.215798
 11
-5.495044
 21
-84.632359
 31
952.959028
210
0.0
220
0.628385
230
-0.777902
  0
LINE
  5
3D5
  8
TEAM-NET
 10
-5.495044
 20
-84.632359
 30
952.959028
 11
5.850992
 21
-84.632359
 31
952.959028
210
0.0
220
0.628385
230
-0.777902
  0
ARC
  5
3D6
  8
TEAM-NET
 10
0.0
 20
90.886356
 30
961.242959
 40
22.0
210
0.0
220
-0.173648
230
0.984808
 50
270.0
 51
90.0
  0
ARC
  5
3D7
  8
TEAM-NET
 10
0.0
 20
90.886356
 30
961.242959
 40
22.0
210
0.0
220
-0.173648
230
0.984808
 50
90.0
 51
270.0
  0
ARC
  5
3D8
  8
TEAM-NET
 10
0.0
 20
90.886356
 30
961.242959
 40
22.5
210
0.0
220
-0.173648
230
0.984808
 50
90.0
 51
270.0
  0
ARC
  5
3D9
  8
TEAM-NET
 10
0.0
 20
90.886356
 30
961.242959
 40
22.5
210
0.0
220
-0.173648
230
0.984808
 50
270.0
 51
90.0
  0
LINE
  5
3DA
  8
TEAM-NET
 10
-5.495044
 20
-83.076554
 30
954.215798
 11
-5.495044
 21
-84.632359
 31
952.959028
210
1.0
220
-0.0
230
-0.0
  0
LINE
  5
3DB
  8
TEAM-NET
 10
5.850992
 20
-83.076554
 30
954.215798
 11
5.850992
 21
-84.632359
 31
952.959028
210
-1.0
220
0.0
230
0.0
  0
LINE
  5
3DC
  8
TEAM-NET
 10
-5.495044
 20
-84.632359
 30
952.959028
 11
5.850992
 21
-84.632359
 31
952.959028
210
0.0
220
0.777902
230
0.628385
  0
LINE
  5
3DD
  8
TEAM-NET
 10
5.850992
 20
-83.076554
 30
954.215798
 11
-5.495044
 21
-83.076554
 31
954.215798
210
0.0
220
0.777902
230
0.628385
  0
ARC
  5
3DE
  8
TEAM-NET
 10
0.0
 20
788.954857
 30
534.989436
 40
14.0
210
0.0
220
0.777902
230
0.628385
 50
0.0
 51
180.0
  0
ARC
  5
3DF
  8
TEAM-NET
 10
0.0
 20
90.886356
 30
961.242959
 40
22.0
210
0.0
220
-0.173648
230
0.984808
 50
90.0
 51
270.0
  0
ARC
  5
3E0
  8
TEAM-NET
 10
0.0
 20
90.886356
 30
961.242959
 40
22.0
210
0.0
220
-0.173648
230
0.984808
 50
270.0
 51
90.0
  0
ARC
  5
3E1
  8
TEAM-NET
 10
0.0
 20
788.954857
 30
534.989436
 40
14.0
210
0.0
220
0.777902
230
0.628385
 50
0.0
 51
180.0
  0
ARC
  5
3E2
  8
TEAM-NET
 10
0.0
 20
90.886356
 30
-961.242959
 40
22.5
210
-0.0
220
0.173648
230
-0.984808
 50
270.0
 51
90.0
  0
ARC
  5
3E3
  8
TEAM-NET
 10
0.0
 20
90.886356
 30
-961.242959
 40
22.5
210
-0.0
220
0.173648
230
-0.984808
 50
90.0
 51
270.0
  0
LINE
  5
3E4
  8
TEAM-NET
 10
3.508744
 20
-153.973911
 30
994.135384
 11
3.508744
 21
-81.00896
 31
991.873536
  0
ARC
  5
3E5
  8
TEAM-NET
 10
0.0
 20
990.807915
 30
-111.702488
 40
4.0
210
0.0
220
0.99952
230
-0.030984
 50
28.695233
 51
208.695233
  0
LINE
  5
3E6
  8
TEAM-NET
 10
3.508744
 20
-153.973911
 30
994.135384
 11
3.508744
 21
-81.00896
 31
991.873536
  0
ARC
  5
3E7
  8
TEAM-NET
 10
0.0
 20
990.807915
 30
-111.702488
 40
4.0
210
0.0
220
0.99952
230
-0.030984
 50
208.695233
 51
28.695233
  0
ARC
  5
3E8
  8
TEAM-NET
 10
0.0
 20
990.807915
 30
-111.702488
 40
4.0
210
0.0
220
0.99952
230
-0.030984
 50
28.695233
 51
208.695233
  0
ARC
  5
3E9
  8
TEAM-NET
 10
0.0
 20
990.807915
 30
-111.702488
 40
4.0
210
0.0
220
0.99952
230
-0.030984
 50
208.695233
 51
28.695233
  0
ARC
  5
3EA
  8
TEAM-NET
 10
-63.822572
 20
1003.404251
 30
0.0
 40
2.0
210
1.0
220
-0.0
230
-0.0
 50
51.409622
 51
100.0
  0
ARC
  5
3EB
  8
TEAM-NET
 10
0.0
 20
90.886356
 30
-1001.242959
 40
20.5
210
-0.0
220
0.173648
230
-0.984808
 50
90.0
 51
270.0
  0
ARC
  5
3EC
  8
TEAM-NET
 10
0.0
 20
90.886356
 30
1000.565835
 40
22.0
210
0.0
220
-0.173648
230
0.984808
 50
270.0
 51
90.0
  0
ARC
  5
3ED
  8
TEAM-NET
 10
104.19969
 20
996.284676
 30
0.0
 40
2.0
210
-1.0
220
0.0
230
0.0
 50
31.409622
 51
80.0
  0
ARC
  5
3EE
  8
TEAM-NET
 10
-63.822572
 20
1003.404251
 30
0.0
 40
2.0
210
1.0
220
-0.0
230
-0.0
 50
51.409622
 51
100.0
  0
ARC
  5
3EF
  8
TEAM-NET
 10
0.0
 20
90.886356
 30
1000.565835
 40
22.0
210
0.0
220
-0.173648
230
0.984808
 50
90.0
 51
270.0
  0
ARC
  5
3F0
  8
TEAM-NET
 10
0.0
 20
90.886356
 30
-1001.242959
 40
20.5
210
-0.0
220
0.173648
230
-0.984808
 50
270.0
 51
90.0
  0
ARC
  5
3F1
  8
TEAM-NET
 10
104.19969
 20
996.284676
 30
0.0
 40
2.0
210
-1.0
220
0.0
230
0.0
 50
31.409622
 51
80.0
  0
ARC
  5
3F2
  8
TEAM-NET
 10
0.0
 20
90.886356
 30
1001.242959
 40
20.5
210
0.0
220
-0.173648
230
0.984808
 50
90.0
 51
270.0
  0
ARC
  5
3F3
  8
TEAM-NET
 10
0.0
 20
90.886356
 30
1001.242959
 40
20.5
210
0.0
220
-0.173648
230
0.984808
 50
270.0
 51
90.0
  0
ARC
  5
3F4
  8
TEAM-NET
 10
0.0
 20
990.807915
 30
184.702488
 40
4.0
210
-0.0
220
-0.99952
230
0.030984
 50
331.304767
 51
151.304767
  0
LINE
  5
3F5
  8
TEAM-NET
 10
-3.508744
 20
-153.854894
 30
997.974744
 11
-3.508744
 21
-80.889944
 31
995.712896
  0
ARC
  5
3F6
  8
TEAM-NET
 10
153.797267
 20
484.652541
 30
-869.122949
 40
2.0
210
-0.480151
220
-0.027179
230
-0.876765
 50
273.693958
 51
3.693958
  0
ARC
  5
3F7
  8
TEAM-NET
 10
0.0
 20
990.807915
 30
-186.702488
 40
2.0
210
0.0
220
0.99952
230
-0.030984
 50
208.695233
 51
28.695233
  0
ARC
  5
3F8
  8
TEAM-NET
 10
0.0
 20
990.807915
 30
184.702488
 40
4.0
210
-0.0
220
-0.99952
230
0.030984
 50
151.304767
 51
331.304767
  0
ARC
  5
3F9
  8
TEAM-NET
 10
-153.539559
 20
488.64423
 30
869.122949
 40
2.0
210
0.480151
220
0.027179
230
0.876765
 50
86.306042
 51
176.306042
  0
ARC
  5
3FA
  8
TEAM-NET
 10
153.797267
 20
484.652541
 30
-869.122949
 40
2.0
210
-0.480151
220
-0.027179
230
-0.876765
 50
273.693958
 51
3.693958
  0
ARC
  5
3FB
  8
TEAM-NET
 10
0.0
 20
990.807915
 30
184.702488
 40
4.0
210
-0.0
220
-0.99952
230
0.030984
 50
331.304767
 51
151.304767
  0
ARC
  5
3FC
  8
TEAM-NET
 10
0.0
 20
990.807915
 30
-186.702488
 40
2.0
210
0.0
220
0.99952
230
-0.030984
 50
28.695233
 51
208.695233
  0
ARC
  5
3FD
  8
TEAM-NET
 10
-153.539559
 20
488.64423
 30
869.122949
 40
2.0
210
0.480151
220
0.027179
230
0.876765
 50
86.306042
 51
176.306042
  0
ARC
  5
3FE
  8
TEAM-NET
 10
0.0
 20
990.807915
 30
184.702488
 40
4.0
210
-0.0
220
-0.99952
230
0.030984
 50
151.304767
 51
331.304767
  0
LINE
  5
3FF
  8
TEAM-NET
 10
-3.508744
 20
-153.854894
 30
997.974744
 11
-3.508744
 21
-80.889944
 31
995.712896
  0
ARC
  5
400
  8
TEAM-NET
 10
0.0
 20
990.807915
 30
186.702488
 40
2.0
210
-0.0
220
-0.99952
230
0.030984
 50
331.304767
 51
151.304767
  0
ARC
  5
401
  8
TEAM-NET
 10
0.0
 20
990.807915
 30
186.702488
 40
2.0
210
-0.0
220
-0.99952
230
0.030984
 50
151.304767
 51
331.304767
  0
ARC
  5
402
  8
TEAM-NET
 10
0.0
 20
90.886356
 30
1000.565835
 40
22.0
210
0.0
220
-0.173648
230
0.984808
 50
90.0
 51
270.0
  0
ARC
  5
403
  8
TEAM-NET
 10
0.0
 20
90.886356
 30
1000.565835
 40
22.0
210
0.0
220
-0.173648
230
0.984808
 50
270.0
 51
90.0
  0
ENDSEC
  0
EOF
