  0
SECTION
  2
HEADER
  9
$ACADVER
  1
AC1009
  9
$INSBASE
 10
0.0
 20
0.0
 30
0.0
  9
$EXTMIN
 10
-265.049223
 20
-518.891146
 30
-0.051878
  9
$EXTMAX
 10
265.049228
 20
10.032282
 30
850.051885
  9
$LIMMIN
 10
-265.049223
 20
-518.891146
  9
$LIMMAX
 10
265.049228
 20
10.032282
  9
$ORTHOMODE
 70
     1
  9
$REGENMODE
 70
     1
  9
$FILLMODE
 70
     1
  9
$QTEXTMODE
 70
     0
  9
$MIRRTEXT
 70
     0
  9
$DRAGMODE
 70
     2
  9
$LTSCALE
 40
25.0
  9
$OSMODE
 70
     0
  9
$ATTMODE
 70
     1
  9
$TEXTSIZE
 40
200.0
  9
$TRACEWID
 40
1.0
  9
$TEXTSTYLE
  7
STANDARD
  9
$CLAYER
  8
TEAM-MAS
  9
$CELTYPE
  6
BYLAYER
  9
$CECOLOR
 62
   256
  9
$DIMSCALE
 40
1.0
  9
$DIMASZ
 40
20.0
  9
$DIMEXO
 40
10.0
  9
$DIMDLI
 40
1.0
  9
$DIMRND
 40
0.0
  9
$DIMDLE
 40
0.0
  9
$DIMEXE
 40
1.0
  9
$DIMTP
 40
0.0
  9
$DIMTM
 40
0.0
  9
$DIMTXT
 40
35.0
  9
$DIMCEN
 40
1.0
  9
$DIMTSZ
 40
0.0
  9
$DIMTOL
 70
     0
  9
$DIMLIM
 70
     0
  9
$DIMTIH
 70
     0
  9
$DIMTOH
 70
     0
  9
$DIMSE1
 70
     0
  9
$DIMSE2
 70
     0
  9
$DIMTAD
 70
     0
  9
$DIMZIN
 70
     0
  9
$DIMBLK
  1

  9
$DIMASO
 70
     1
  9
$DIMSHO
 70
     0
  9
$DIMPOST
  1

  9
$DIMAPOST
  1

  9
$DIMALT
 70
     0
  9
$DIMALTD
 70
     2
  9
$DIMALTF
 40
25.4
  9
$DIMLFAC
 40
1.0
  9
$DIMTOFL
 70
     0
  9
$DIMTVP
 40
0.0
  9
$DIMTIX
 70
     0
  9
$DIMSOXD
 70
     0
  9
$DIMSAH
 70
     0
  9
$DIMBLK1
  1

  9
$DIMBLK2
  1

  9
$DIMSTYLE
  2
TEAM
  9
$DIMCLRD
 70
     9
  9
$DIMCLRE
 70
     9
  9
$DIMCLRT
 70
    11
  9
$DIMTFAC
 40
1.0
  9
$DIMGAP
 40
15.0
  9
$LUNITS
 70
     2
  9
$LUPREC
 70
     1
  9
$SKETCHINC
 40
1.0
  9
$FILLETRAD
 40
50.0
  9
$AUNITS
 70
     0
  9
$AUPREC
 70
     0
  9
$MENU
  1
ROPLANS
  9
$ELEVATION
 40
0.0
  9
$PELEVATION
 40
0.0
  9
$THICKNESS
 40
0.0
  9
$LIMCHECK
 70
     0
  9
$BLIPMODE
 70
     1
  9
$CHAMFERA
 40
0.0
  9
$CHAMFERB
 40
0.0
  9
$SKPOLY
 70
     0
  9
$TDCREATE
 40
2450392.957851
  9
$TDUPDATE
 40
2455505.473099
  9
$TDINDWG
 40
2.023557
  9
$TDUSRTIMER
 40
2.023557
  9
$USRTIMER
 70
     1
  9
$ANGBASE
 50
0.0
  9
$ANGDIR
 70
     0
  9
$PDMODE
 70
     0
  9
$PDSIZE
 40
0.0
  9
$PLINEWID
 40
0.0
  9
$COORDS
 70
     2
  9
$SPLFRAME
 70
     0
  9
$SPLINETYPE
 70
     6
  9
$SPLINESEGS
 70
     8
  9
$ATTDIA
 70
     0
  9
$ATTREQ
 70
     0
  9
$HANDLING
 70
     1
  9
$HANDSEED
  5
B9B
  9
$SURFTAB1
 70
    24
  9
$SURFTAB2
 70
    24
  9
$SURFTYPE
 70
     6
  9
$SURFU
 70
     6
  9
$SURFV
 70
     6
  9
$UCSNAME
  2

  9
$UCSORG
 10
0.0
 20
0.0
 30
0.0
  9
$UCSXDIR
 10
1.0
 20
0.0
 30
0.0
  9
$UCSYDIR
 10
0.0
 20
1.0
 30
0.0
  9
$PUCSNAME
  2

  9
$PUCSORG
 10
0.0
 20
0.0
 30
0.0
  9
$PUCSXDIR
 10
1.0
 20
0.0
 30
0.0
  9
$PUCSYDIR
 10
0.0
 20
1.0
 30
0.0
  9
$USERI1
 70
     0
  9
$USERI2
 70
     0
  9
$USERI3
 70
     0
  9
$USERI4
 70
     0
  9
$USERI5
 70
     0
  9
$USERR1
 40
0.0
  9
$USERR2
 40
0.0
  9
$USERR3
 40
0.0
  9
$USERR4
 40
0.0
  9
$USERR5
 40
0.0
  9
$WORLDVIEW
 70
     1
  9
$SHADEDGE
 70
     0
  9
$SHADEDIF
 70
    70
  9
$TILEMODE
 70
     1
  9
$MAXACTVP
 70
    16
  9
$PLIMCHECK
 70
     0
  9
$PEXTMIN
 10
-0.805942
 20
0.005011
 30
0.0
  9
$PEXTMAX
 10
20.250094
 20
11.356329
 30
0.0
  9
$PLIMMIN
 10
0.0
 20
0.0
  9
$PLIMMAX
 10
12.0
 20
9.0
  9
$UNITMODE
 70
     0
  9
$VISRETAIN
 70
     0
  9
$PLINEGEN
 70
     0
  9
$PSLTSCALE
 70
     0
  0
ENDSEC
  0
SECTION
  2
TABLES
  0
TABLE
  2
VPORT
 70
     2
  0
VPORT
  2
*ACTIVE
 70
     0
 10
0.0
 20
0.0
 11
1.0
 21
1.0
 12
0.000002
 22
-254.429432
 13
0.0
 23
0.0
 14
1.0
 24
1.0
 15
50.0
 25
50.0
 16
0.0
 26
0.0
 36
1.0
 17
0.0
 27
0.0
 37
0.0
 40
532.171679
 41
1.865779
 42
50.0
 43
0.0
 44
0.0
 50
0.0
 51
0.0
 71
     0
 72
   100
 73
     1
 74
     1
 75
     0
 76
     0
 77
     0
 78
     0
  0
ENDTAB
  0
TABLE
  2
LTYPE
 70
     3
  0
LTYPE
  2
CONTINUOUS
 70
     0
  3
Solid Line
 72
    65
 73
     0
 40
0.0
  0
LTYPE
  2
31
 70
     0
  3

 72
    65
 73
     4
 40
2.1
 49
1.5
 49
-0.3
 49
0.0
 49
-0.3
  0
LTYPE
  2
22
 70
     0
  3

 72
    65
 73
     2
 40
1.4
 49
1.2
 49
-0.2
  0
ENDTAB
  0
TABLE
  2
LAYER
 70
    10
  0
LAYER
  2
0
 70
     0
 62
     7
  6
CONTINUOUS
  0
LAYER
  2
TEAM-BODY
 70
     0
 62
     2
  6
CONTINUOUS
  0
LAYER
  2
TEAM-AXE
 70
     0
 62
    10
  6
31
  0
LAYER
  2
TEAM-MAS
 70
     0
 62
     9
  6
CONTINUOUS
  0
LAYER
  2
TEAM-TXT
 70
     0
 62
    11
  6
CONTINUOUS
  0
LAYER
  2
TEAM-DET1
 70
     0
 62
     4
  6
CONTINUOUS
  0
LAYER
  2
TEAM-HIDE
 70
     0
 62
     8
  6
22
  0
LAYER
  2
TEAM-DET3
 70
     0
 62
    14
  6
CONTINUOUS
  0
LAYER
  2
TEAM-NET
 70
     0
 62
    15
  6
CONTINUOUS
  0
LAYER
  2
TEAM-INSP
 70
     0
 62
     5
  6
CONTINUOUS
  0
ENDTAB
  0
TABLE
  2
STYLE
 70
     2
  0
STYLE
  2
STANDARD
 70
     0
 40
0.0
 41
1.0
 50
0.0
 71
     0
 42
200.0
  3
txt
  4

  0
STYLE
  2
TEAM
 70
     0
 40
0.0
 41
0.8
 50
15.0
 71
     0
 42
7.0
  3
ROMANS.shx
  4

  0
ENDTAB
  0
TABLE
  2
VIEW
 70
     0
  0
ENDTAB
  0
TABLE
  2
UCS
 70
     0
  0
ENDTAB
  0
TABLE
  2
APPID
 70
     1
  0
APPID
  2
ACAD
 70
     0
  0
ENDTAB
  0
TABLE
  2
DIMSTYLE
 70
     1
  0
DIMSTYLE
  2
TEAM
 70
     0
  3

  4

  5

  6

  7

 40
1.0
 41
20.0
 42
10.0
 43
1.0
 44
1.0
 45
0.0
 46
0.0
 47
0.0
 48
0.0
140
35.0
141
1.0
142
0.0
143
25.4
144
1.0
145
0.0
146
1.0
147
15.0
 71
     0
 72
     0
 73
     0
 74
     0
 75
     0
 76
     0
 77
     0
 78
     0
170
     0
171
     2
172
     0
173
     0
174
     0
175
     0
176
     9
177
     9
178
    11
  0
ENDTAB
  0
ENDSEC
  0
SECTION
  2
BLOCKS
  0
BLOCK
  8
0
  2
$MODEL_SPACE
 70
     0
 10
0.0
 20
0.0
 30
0.0
  3
$MODEL_SPACE
  1

  0
ENDBLK
  5
A65
  8
0
  0
BLOCK
 67
     1
  8
0
  2
$PAPER_SPACE
 70
     0
 10
0.0
 20
0.0
 30
0.0
  3
$PAPER_SPACE
  1

  0
ENDBLK
  5
A63
 67
     1
  8
0
  0
ENDSEC
  0
SECTION
  2
ENTITIES
  0
CIRCLE
  5
20
  8
TEAM-INSP
 10
0.0
 20
0.0
 30
0.0
 40
10.0
  0
POLYLINE
  5
22
  8
TEAM-NET
 66
     1
 10
0.0
 20
0.0
 30
0.0
 70
    16
 71
    13
 72
    97
  0
VERTEX
  5
23
  8
TEAM-NET
 10
-250.484524
 20
-325.26706
 30
850.0
 70
    64
  0
VERTEX
  5
24
  8
TEAM-NET
 10
-249.976531
 20
-330.064938
 30
850.0
 70
    64
  0
VERTEX
  5
25
  8
TEAM-NET
 10
-249.296869
 20
-334.841523
 30
850.0
 70
    64
  0
VERTEX
  5
26
  8
TEAM-NET
 10
-248.44641
 20
-339.590672
 30
850.0
 70
    64
  0
VERTEX
  5
27
  8
TEAM-NET
 10
-247.426248
 20
-344.30628
 30
850.0
 70
    64
  0
VERTEX
  5
28
  8
TEAM-NET
 10
-246.237695
 20
-348.982287
 30
850.0
 70
    64
  0
VERTEX
  5
29
  8
TEAM-NET
 10
-244.882278
 20
-353.61268
 30
850.0
 70
    64
  0
VERTEX
  5
2A
  8
TEAM-NET
 10
-243.36174
 20
-358.191508
 30
850.0
 70
    64
  0
VERTEX
  5
2B
  8
TEAM-NET
 10
-241.678035
 20
-362.712883
 30
850.0
 70
    64
  0
VERTEX
  5
2C
  8
TEAM-NET
 10
-239.833328
 20
-367.170994
 30
850.0
 70
    64
  0
VERTEX
  5
2D
  8
TEAM-NET
 10
-237.829991
 20
-371.560109
 30
850.0
 70
    64
  0
VERTEX
  5
2E
  8
TEAM-NET
 10
-235.670598
 20
-375.874587
 30
850.0
 70
    64
  0
VERTEX
  5
2F
  8
TEAM-NET
 10
-233.357926
 20
-380.108881
 30
850.0
 70
    64
  0
VERTEX
  5
30
  8
TEAM-NET
 10
-229.768303
 20
-386.158714
 30
850.0
 70
    64
  0
VERTEX
  5
31
  8
TEAM-NET
 10
-225.967064
 20
-392.077874
 30
850.0
 70
    64
  0
VERTEX
  5
32
  8
TEAM-NET
 10
-221.958958
 20
-397.85896
 30
850.0
 70
    64
  0
VERTEX
  5
33
  8
TEAM-NET
 10
-217.748997
 20
-403.494747
 30
850.0
 70
    64
  0
VERTEX
  5
34
  8
TEAM-NET
 10
-213.342442
 20
-408.97819
 30
850.0
 70
    64
  0
VERTEX
  5
35
  8
TEAM-NET
 10
-208.744802
 20
-414.302434
 30
850.0
 70
    64
  0
VERTEX
  5
36
  8
TEAM-NET
 10
-203.961824
 20
-419.460824
 30
850.0
 70
    64
  0
VERTEX
  5
37
  8
TEAM-NET
 10
-198.999487
 20
-424.446913
 30
850.0
 70
    64
  0
VERTEX
  5
38
  8
TEAM-NET
 10
-193.863993
 20
-429.254467
 30
850.0
 70
    64
  0
VERTEX
  5
39
  8
TEAM-NET
 10
-188.561762
 20
-433.877477
 30
850.0
 70
    64
  0
VERTEX
  5
3A
  8
TEAM-NET
 10
-183.099423
 20
-438.310164
 30
850.0
 70
    64
  0
VERTEX
  5
3B
  8
TEAM-NET
 10
-177.483802
 20
-442.546988
 30
850.0
 70
    64
  0
VERTEX
  5
3C
  8
TEAM-NET
 10
-171.50746
 20
-446.765661
 30
850.0
 70
    64
  0
VERTEX
  5
3D
  8
TEAM-NET
 10
-165.415303
 20
-450.81529
 30
850.0
 70
    64
  0
VERTEX
  5
3E
  8
TEAM-NET
 10
-159.212112
 20
-454.692698
 30
850.0
 70
    64
  0
VERTEX
  5
3F
  8
TEAM-NET
 10
-152.902754
 20
-458.394842
 30
850.0
 70
    64
  0
VERTEX
  5
40
  8
TEAM-NET
 10
-146.492179
 20
-461.918817
 30
850.0
 70
    64
  0
VERTEX
  5
41
  8
TEAM-NET
 10
-139.985418
 20
-465.261859
 30
850.0
 70
    64
  0
VERTEX
  5
42
  8
TEAM-NET
 10
-133.387575
 20
-468.421344
 30
850.0
 70
    64
  0
VERTEX
  5
43
  8
TEAM-NET
 10
-126.703829
 20
-471.394794
 30
850.0
 70
    64
  0
VERTEX
  5
44
  8
TEAM-NET
 10
-119.939422
 20
-474.179875
 30
850.0
 70
    64
  0
VERTEX
  5
45
  8
TEAM-NET
 10
-113.099663
 20
-476.774402
 30
850.0
 70
    64
  0
VERTEX
  5
46
  8
TEAM-NET
 10
-106.189919
 20
-479.176339
 30
850.0
 70
    64
  0
VERTEX
  5
47
  8
TEAM-NET
 10
-99.21561
 20
-481.383801
 30
850.0
 70
    64
  0
VERTEX
  5
48
  8
TEAM-NET
 10
-91.156158
 20
-483.704318
 30
850.0
 70
    64
  0
VERTEX
  5
49
  8
TEAM-NET
 10
-83.042537
 20
-485.827694
 30
850.0
 70
    64
  0
VERTEX
  5
4A
  8
TEAM-NET
 10
-74.879569
 20
-487.752669
 30
850.0
 70
    64
  0
VERTEX
  5
4B
  8
TEAM-NET
 10
-66.672105
 20
-489.478098
 30
850.0
 70
    64
  0
VERTEX
  5
4C
  8
TEAM-NET
 10
-58.425023
 20
-491.002956
 30
850.0
 70
    64
  0
VERTEX
  5
4D
  8
TEAM-NET
 10
-50.143221
 20
-492.326337
 30
850.0
 70
    64
  0
VERTEX
  5
4E
  8
TEAM-NET
 10
-41.831623
 20
-493.447455
 30
850.0
 70
    64
  0
VERTEX
  5
4F
  8
TEAM-NET
 10
-33.495167
 20
-494.365643
 30
850.0
 70
    64
  0
VERTEX
  5
50
  8
TEAM-NET
 10
-25.138807
 20
-495.080355
 30
850.0
 70
    64
  0
VERTEX
  5
51
  8
TEAM-NET
 10
-16.767508
 20
-495.591168
 30
850.0
 70
    64
  0
VERTEX
  5
52
  8
TEAM-NET
 10
-8.386246
 20
-495.897777
 30
850.0
 70
    64
  0
VERTEX
  5
53
  8
TEAM-NET
 10
0.0
 20
-496.0
 30
850.0
 70
    64
  0
VERTEX
  5
54
  8
TEAM-NET
 10
8.386246
 20
-495.897777
 30
850.0
 70
    64
  0
VERTEX
  5
55
  8
TEAM-NET
 10
16.767508
 20
-495.591168
 30
850.0
 70
    64
  0
VERTEX
  5
56
  8
TEAM-NET
 10
25.138807
 20
-495.080355
 30
850.0
 70
    64
  0
VERTEX
  5
57
  8
TEAM-NET
 10
33.495167
 20
-494.365643
 30
850.0
 70
    64
  0
VERTEX
  5
58
  8
TEAM-NET
 10
41.831623
 20
-493.447455
 30
850.0
 70
    64
  0
VERTEX
  5
59
  8
TEAM-NET
 10
50.143221
 20
-492.326337
 30
850.0
 70
    64
  0
VERTEX
  5
5A
  8
TEAM-NET
 10
58.425023
 20
-491.002956
 30
850.0
 70
    64
  0
VERTEX
  5
5B
  8
TEAM-NET
 10
66.672105
 20
-489.478098
 30
850.0
 70
    64
  0
VERTEX
  5
5C
  8
TEAM-NET
 10
74.879569
 20
-487.752669
 30
850.0
 70
    64
  0
VERTEX
  5
5D
  8
TEAM-NET
 10
83.042537
 20
-485.827694
 30
850.0
 70
    64
  0
VERTEX
  5
5E
  8
TEAM-NET
 10
91.156158
 20
-483.704318
 30
850.0
 70
    64
  0
VERTEX
  5
5F
  8
TEAM-NET
 10
99.21561
 20
-481.383801
 30
850.0
 70
    64
  0
VERTEX
  5
60
  8
TEAM-NET
 10
106.189919
 20
-479.176339
 30
850.0
 70
    64
  0
VERTEX
  5
61
  8
TEAM-NET
 10
113.099663
 20
-476.774402
 30
850.0
 70
    64
  0
VERTEX
  5
62
  8
TEAM-NET
 10
119.939422
 20
-474.179875
 30
850.0
 70
    64
  0
VERTEX
  5
63
  8
TEAM-NET
 10
126.703829
 20
-471.394794
 30
850.0
 70
    64
  0
VERTEX
  5
64
  8
TEAM-NET
 10
133.387575
 20
-468.421344
 30
850.0
 70
    64
  0
VERTEX
  5
65
  8
TEAM-NET
 10
139.985418
 20
-465.261859
 30
850.0
 70
    64
  0
VERTEX
  5
66
  8
TEAM-NET
 10
146.492179
 20
-461.918817
 30
850.0
 70
    64
  0
VERTEX
  5
67
  8
TEAM-NET
 10
152.902754
 20
-458.394842
 30
850.0
 70
    64
  0
VERTEX
  5
68
  8
TEAM-NET
 10
159.212112
 20
-454.692698
 30
850.0
 70
    64
  0
VERTEX
  5
69
  8
TEAM-NET
 10
165.415303
 20
-450.81529
 30
850.0
 70
    64
  0
VERTEX
  5
6A
  8
TEAM-NET
 10
171.50746
 20
-446.765661
 30
850.0
 70
    64
  0
VERTEX
  5
6B
  8
TEAM-NET
 10
177.483802
 20
-442.546988
 30
850.0
 70
    64
  0
VERTEX
  5
6C
  8
TEAM-NET
 10
183.099423
 20
-438.310164
 30
850.0
 70
    64
  0
VERTEX
  5
6D
  8
TEAM-NET
 10
188.561762
 20
-433.877477
 30
850.0
 70
    64
  0
VERTEX
  5
6E
  8
TEAM-NET
 10
193.863993
 20
-429.254467
 30
850.0
 70
    64
  0
VERTEX
  5
6F
  8
TEAM-NET
 10
198.999487
 20
-424.446913
 30
850.0
 70
    64
  0
VERTEX
  5
70
  8
TEAM-NET
 10
203.961824
 20
-419.460824
 30
850.0
 70
    64
  0
VERTEX
  5
71
  8
TEAM-NET
 10
208.744802
 20
-414.302434
 30
850.0
 70
    64
  0
VERTEX
  5
72
  8
TEAM-NET
 10
213.342442
 20
-408.97819
 30
850.0
 70
    64
  0
VERTEX
  5
73
  8
TEAM-NET
 10
217.748997
 20
-403.494747
 30
850.0
 70
    64
  0
VERTEX
  5
74
  8
TEAM-NET
 10
221.958958
 20
-397.85896
 30
850.0
 70
    64
  0
VERTEX
  5
75
  8
TEAM-NET
 10
225.967064
 20
-392.077874
 30
850.0
 70
    64
  0
VERTEX
  5
76
  8
TEAM-NET
 10
229.768303
 20
-386.158714
 30
850.0
 70
    64
  0
VERTEX
  5
77
  8
TEAM-NET
 10
233.357926
 20
-380.108881
 30
850.0
 70
    64
  0
VERTEX
  5
78
  8
TEAM-NET
 10
235.793585
 20
-375.638919
 30
850.0
 70
    64
  0
VERTEX
  5
79
  8
TEAM-NET
 10
238.058436
 20
-371.080032
 30
850.0
 70
    64
  0
VERTEX
  5
7A
  8
TEAM-NET
 10
240.149238
 20
-366.438745
 30
850.0
 70
    64
  0
VERTEX
  5
7B
  8
TEAM-NET
 10
242.062998
 20
-361.7217
 30
850.0
 70
    64
  0
VERTEX
  5
7C
  8
TEAM-NET
 10
243.796978
 20
-356.935646
 30
850.0
 70
    64
  0
VERTEX
  5
7D
  8
TEAM-NET
 10
245.348696
 20
-352.087433
 30
850.0
 70
    64
  0
VERTEX
  5
7E
  8
TEAM-NET
 10
246.715932
 20
-347.183999
 30
850.0
 70
    64
  0
VERTEX
  5
7F
  8
TEAM-NET
 10
247.896729
 20
-342.232361
 30
850.0
 70
    64
  0
VERTEX
  5
80
  8
TEAM-NET
 10
248.889397
 20
-337.239606
 30
850.0
 70
    64
  0
VERTEX
  5
81
  8
TEAM-NET
 10
249.692516
 20
-332.212877
 30
850.0
 70
    64
  0
VERTEX
  5
82
  8
TEAM-NET
 10
250.304936
 20
-327.15937
 30
850.0
 70
    64
  0
VERTEX
  5
83
  8
TEAM-NET
 10
250.725782
 20
-322.086314
 30
850.0
 70
    64
  0
VERTEX
  5
84
  8
TEAM-NET
 10
-250.484524
 20
-324.866107
 30
846.954461
 70
    64
  0
VERTEX
  5
85
  8
TEAM-NET
 10
-249.976531
 20
-329.500502
 30
845.712678
 70
    64
  0
VERTEX
  5
86
  8
TEAM-NET
 10
-249.296869
 20
-334.114328
 30
844.476408
 70
    64
  0
VERTEX
  5
87
  8
TEAM-NET
 10
-248.44641
 20
-338.701654
 30
843.247237
 70
    64
  0
VERTEX
  5
88
  8
TEAM-NET
 10
-247.426248
 20
-343.256582
 30
842.026748
 70
    64
  0
VERTEX
  5
89
  8
TEAM-NET
 10
-246.237695
 20
-347.773257
 30
840.816508
 70
    64
  0
VERTEX
  5
8A
  8
TEAM-NET
 10
-244.882278
 20
-352.245874
 30
839.618074
 70
    64
  0
VERTEX
  5
8B
  8
TEAM-NET
 10
-243.36174
 20
-356.668681
 30
838.432987
 70
    64
  0
VERTEX
  5
8C
  8
TEAM-NET
 10
-241.678035
 20
-361.035995
 30
837.262769
 70
    64
  0
VERTEX
  5
8D
  8
TEAM-NET
 10
-239.833328
 20
-365.342199
 30
836.108925
 70
    64
  0
VERTEX
  5
8E
  8
TEAM-NET
 10
-237.829991
 20
-369.581759
 30
834.972938
 70
    64
  0
VERTEX
  5
8F
  8
TEAM-NET
 10
-235.670598
 20
-373.749225
 30
833.856269
 70
    64
  0
VERTEX
  5
90
  8
TEAM-NET
 10
-233.357926
 20
-377.839238
 30
832.760353
 70
    64
  0
VERTEX
  5
91
  8
TEAM-NET
 10
-229.768303
 20
-383.682929
 30
831.194541
 70
    64
  0
VERTEX
  5
92
  8
TEAM-NET
 10
-225.967064
 20
-389.400398
 30
829.66255
 70
    64
  0
VERTEX
  5
93
  8
TEAM-NET
 10
-221.958958
 20
-394.984498
 30
828.166295
 70
    64
  0
VERTEX
  5
94
  8
TEAM-NET
 10
-217.748997
 20
-400.42825
 30
826.707646
 70
    64
  0
VERTEX
  5
95
  8
TEAM-NET
 10
-213.342442
 20
-405.724849
 30
825.288426
 70
    64
  0
VERTEX
  5
96
  8
TEAM-NET
 10
-208.744802
 20
-410.867674
 30
823.91041
 70
    64
  0
VERTEX
  5
97
  8
TEAM-NET
 10
-203.961824
 20
-415.850297
 30
822.575321
 70
    64
  0
VERTEX
  5
98
  8
TEAM-NET
 10
-198.999487
 20
-420.666488
 30
821.284826
 70
    64
  0
VERTEX
  5
99
  8
TEAM-NET
 10
-193.863993
 20
-425.310229
 30
820.040539
 70
    64
  0
VERTEX
  5
9A
  8
TEAM-NET
 10
-188.561762
 20
-429.775714
 30
818.844016
 70
    64
  0
VERTEX
  5
9B
  8
TEAM-NET
 10
-183.099423
 20
-434.057361
 30
817.696753
 70
    64
  0
VERTEX
  5
9C
  8
TEAM-NET
 10
-177.483802
 20
-438.149818
 30
816.600182
 70
    64
  0
VERTEX
  5
9D
  8
TEAM-NET
 10
-171.50746
 20
-442.224743
 30
815.508309
 70
    64
  0
VERTEX
  5
9E
  8
TEAM-NET
 10
-165.415303
 20
-446.136385
 30
814.460188
 70
    64
  0
VERTEX
  5
9F
  8
TEAM-NET
 10
-159.212112
 20
-449.881673
 30
813.456641
 70
    64
  0
VERTEX
  5
A0
  8
TEAM-NET
 10
-152.902754
 20
-453.45767
 30
812.498455
 70
    64
  0
VERTEX
  5
A1
  8
TEAM-NET
 10
-146.492179
 20
-456.861569
 30
811.586383
 70
    64
  0
VERTEX
  5
A2
  8
TEAM-NET
 10
-139.985418
 20
-460.090699
 30
810.721141
 70
    64
  0
VERTEX
  5
A3
  8
TEAM-NET
 10
-133.387575
 20
-463.142528
 30
809.903406
 70
    64
  0
VERTEX
  5
A4
  8
TEAM-NET
 10
-126.703829
 20
-466.014659
 30
809.13382
 70
    64
  0
VERTEX
  5
A5
  8
TEAM-NET
 10
-119.939422
 20
-468.704841
 30
808.412988
 70
    64
  0
VERTEX
  5
A6
  8
TEAM-NET
 10
-113.099663
 20
-471.210961
 30
807.741475
 70
    64
  0
VERTEX
  5
A7
  8
TEAM-NET
 10
-106.189919
 20
-473.531054
 30
807.119808
 70
    64
  0
VERTEX
  5
A8
  8
TEAM-NET
 10
-99.21561
 20
-475.6633
 30
806.548475
 70
    64
  0
VERTEX
  5
A9
  8
TEAM-NET
 10
-91.156158
 20
-477.904746
 30
805.947881
 70
    64
  0
VERTEX
  5
AA
  8
TEAM-NET
 10
-83.042537
 20
-479.95577
 30
805.398311
 70
    64
  0
VERTEX
  5
AB
  8
TEAM-NET
 10
-74.879569
 20
-481.815153
 30
804.900091
 70
    64
  0
VERTEX
  5
AC
  8
TEAM-NET
 10
-66.672105
 20
-483.48179
 30
804.453517
 70
    64
  0
VERTEX
  5
AD
  8
TEAM-NET
 10
-58.425023
 20
-484.95469
 30
804.058854
 70
    64
  0
VERTEX
  5
AE
  8
TEAM-NET
 10
-50.143221
 20
-486.232977
 30
803.716338
 70
    64
  0
VERTEX
  5
AF
  8
TEAM-NET
 10
-41.831623
 20
-487.315894
 30
803.426172
 70
    64
  0
VERTEX
  5
B0
  8
TEAM-NET
 10
-33.495167
 20
-488.202795
 30
803.188527
 70
    64
  0
VERTEX
  5
B1
  8
TEAM-NET
 10
-25.138807
 20
-488.893155
 30
803.003546
 70
    64
  0
VERTEX
  5
B2
  8
TEAM-NET
 10
-16.767508
 20
-489.386562
 30
802.871338
 70
    64
  0
VERTEX
  5
B3
  8
TEAM-NET
 10
-8.386246
 20
-489.682723
 30
802.791982
 70
    64
  0
VERTEX
  5
B4
  8
TEAM-NET
 10
0.0
 20
-489.781463
 30
802.765524
 70
    64
  0
VERTEX
  5
B5
  8
TEAM-NET
 10
8.386246
 20
-489.682723
 30
802.791982
 70
    64
  0
VERTEX
  5
B6
  8
TEAM-NET
 10
16.767508
 20
-489.386562
 30
802.871338
 70
    64
  0
VERTEX
  5
B7
  8
TEAM-NET
 10
25.138807
 20
-488.893155
 30
803.003546
 70
    64
  0
VERTEX
  5
B8
  8
TEAM-NET
 10
33.495167
 20
-488.202795
 30
803.188527
 70
    64
  0
VERTEX
  5
B9
  8
TEAM-NET
 10
41.831623
 20
-487.315894
 30
803.426172
 70
    64
  0
VERTEX
  5
BA
  8
TEAM-NET
 10
50.143221
 20
-486.232977
 30
803.716338
 70
    64
  0
VERTEX
  5
BB
  8
TEAM-NET
 10
58.425023
 20
-484.95469
 30
804.058854
 70
    64
  0
VERTEX
  5
BC
  8
TEAM-NET
 10
66.672105
 20
-483.48179
 30
804.453517
 70
    64
  0
VERTEX
  5
BD
  8
TEAM-NET
 10
74.879569
 20
-481.815153
 30
804.900091
 70
    64
  0
VERTEX
  5
BE
  8
TEAM-NET
 10
83.042537
 20
-479.95577
 30
805.398311
 70
    64
  0
VERTEX
  5
BF
  8
TEAM-NET
 10
91.156158
 20
-477.904746
 30
805.947881
 70
    64
  0
VERTEX
  5
C0
  8
TEAM-NET
 10
99.21561
 20
-475.6633
 30
806.548475
 70
    64
  0
VERTEX
  5
C1
  8
TEAM-NET
 10
106.189919
 20
-473.531054
 30
807.119808
 70
    64
  0
VERTEX
  5
C2
  8
TEAM-NET
 10
113.099663
 20
-471.210961
 30
807.741475
 70
    64
  0
VERTEX
  5
C3
  8
TEAM-NET
 10
119.939422
 20
-468.704841
 30
808.412988
 70
    64
  0
VERTEX
  5
C4
  8
TEAM-NET
 10
126.703829
 20
-466.014659
 30
809.13382
 70
    64
  0
VERTEX
  5
C5
  8
TEAM-NET
 10
133.387575
 20
-463.142528
 30
809.903406
 70
    64
  0
VERTEX
  5
C6
  8
TEAM-NET
 10
139.985418
 20
-460.090699
 30
810.721141
 70
    64
  0
VERTEX
  5
C7
  8
TEAM-NET
 10
146.492179
 20
-456.861569
 30
811.586383
 70
    64
  0
VERTEX
  5
C8
  8
TEAM-NET
 10
152.902754
 20
-453.45767
 30
812.498455
 70
    64
  0
VERTEX
  5
C9
  8
TEAM-NET
 10
159.212112
 20
-449.881673
 30
813.456641
 70
    64
  0
VERTEX
  5
CA
  8
TEAM-NET
 10
165.415303
 20
-446.136385
 30
814.460188
 70
    64
  0
VERTEX
  5
CB
  8
TEAM-NET
 10
171.50746
 20
-442.224743
 30
815.508309
 70
    64
  0
VERTEX
  5
CC
  8
TEAM-NET
 10
177.483802
 20
-438.149818
 30
816.600182
 70
    64
  0
VERTEX
  5
CD
  8
TEAM-NET
 10
183.099423
 20
-434.057361
 30
817.696753
 70
    64
  0
VERTEX
  5
CE
  8
TEAM-NET
 10
188.561762
 20
-429.775714
 30
818.844016
 70
    64
  0
VERTEX
  5
CF
  8
TEAM-NET
 10
193.863993
 20
-425.310229
 30
820.040539
 70
    64
  0
VERTEX
  5
D0
  8
TEAM-NET
 10
198.999487
 20
-420.666488
 30
821.284826
 70
    64
  0
VERTEX
  5
D1
  8
TEAM-NET
 10
203.961824
 20
-415.850297
 30
822.575321
 70
    64
  0
VERTEX
  5
D2
  8
TEAM-NET
 10
208.744802
 20
-410.867674
 30
823.91041
 70
    64
  0
VERTEX
  5
D3
  8
TEAM-NET
 10
213.342442
 20
-405.724849
 30
825.288426
 70
    64
  0
VERTEX
  5
D4
  8
TEAM-NET
 10
217.748997
 20
-400.42825
 30
826.707646
 70
    64
  0
VERTEX
  5
D5
  8
TEAM-NET
 10
221.958958
 20
-394.984498
 30
828.166295
 70
    64
  0
VERTEX
  5
D6
  8
TEAM-NET
 10
225.967064
 20
-389.400398
 30
829.66255
 70
    64
  0
VERTEX
  5
D7
  8
TEAM-NET
 10
229.768303
 20
-383.682929
 30
831.194541
 70
    64
  0
VERTEX
  5
D8
  8
TEAM-NET
 10
233.357926
 20
-377.839238
 30
832.760353
 70
    64
  0
VERTEX
  5
D9
  8
TEAM-NET
 10
235.793585
 20
-373.521587
 30
833.917264
 70
    64
  0
VERTEX
  5
DA
  8
TEAM-NET
 10
238.058436
 20
-369.11804
 30
835.097191
 70
    64
  0
VERTEX
  5
DB
  8
TEAM-NET
 10
240.149238
 20
-364.634901
 30
836.298444
 70
    64
  0
VERTEX
  5
DC
  8
TEAM-NET
 10
242.062998
 20
-360.078585
 30
837.519306
 70
    64
  0
VERTEX
  5
DD
  8
TEAM-NET
 10
243.796978
 20
-355.455612
 30
838.758028
 70
    64
  0
VERTEX
  5
DE
  8
TEAM-NET
 10
245.348696
 20
-350.772598
 30
840.012838
 70
    64
  0
VERTEX
  5
DF
  8
TEAM-NET
 10
246.715932
 20
-346.036244
 30
841.28194
 70
    64
  0
VERTEX
  5
E0
  8
TEAM-NET
 10
247.896729
 20
-341.25333
 30
842.563518
 70
    64
  0
VERTEX
  5
E1
  8
TEAM-NET
 10
248.889397
 20
-336.430698
 30
843.855738
 70
    64
  0
VERTEX
  5
E2
  8
TEAM-NET
 10
249.692516
 20
-331.575251
 30
845.156751
 70
    64
  0
VERTEX
  5
E3
  8
TEAM-NET
 10
250.304936
 20
-326.693938
 30
846.464695
 70
    64
  0
VERTEX
  5
E4
  8
TEAM-NET
 10
250.725782
 20
-321.793743
 30
847.777698
 70
    64
  0
VERTEX
  5
E5
  8
TEAM-NET
 10
-250.484524
 20
-323.690573
 30
844.11647
 70
    64
  0
VERTEX
  5
E6
  8
TEAM-NET
 10
-249.976531
 20
-327.845658
 30
841.717531
 70
    64
  0
VERTEX
  5
E7
  8
TEAM-NET
 10
-249.296869
 20
-331.982301
 30
839.329239
 70
    64
  0
VERTEX
  5
E8
  8
TEAM-NET
 10
-248.44641
 20
-336.095184
 30
836.954664
 70
    64
  0
VERTEX
  5
E9
  8
TEAM-NET
 10
-247.426248
 20
-340.179021
 30
834.59686
 70
    64
  0
VERTEX
  5
EA
  8
TEAM-NET
 10
-246.237695
 20
-344.228562
 30
832.258856
 70
    64
  0
VERTEX
  5
EB
  8
TEAM-NET
 10
-244.882278
 20
-348.2386
 30
829.94366
 70
    64
  0
VERTEX
  5
EC
  8
TEAM-NET
 10
-243.36174
 20
-352.203981
 30
827.654246
 70
    64
  0
VERTEX
  5
ED
  8
TEAM-NET
 10
-241.678035
 20
-356.119607
 30
825.393559
 70
    64
  0
VERTEX
  5
EE
  8
TEAM-NET
 10
-239.833328
 20
-359.980444
 30
823.164503
 70
    64
  0
VERTEX
  5
EF
  8
TEAM-NET
 10
-237.829991
 20
-363.78153
 30
820.969945
 70
    64
  0
VERTEX
  5
F0
  8
TEAM-NET
 10
-235.670598
 20
-367.517977
 30
818.812706
 70
    64
  0
VERTEX
  5
F1
  8
TEAM-NET
 10
-233.357926
 20
-371.184983
 30
816.695559
 70
    64
  0
VERTEX
  5
F2
  8
TEAM-NET
 10
-229.768303
 20
-376.424292
 30
813.670643
 70
    64
  0
VERTEX
  5
F3
  8
TEAM-NET
 10
-225.967064
 20
-381.550435
 30
810.711063
 70
    64
  0
VERTEX
  5
F4
  8
TEAM-NET
 10
-221.958958
 20
-386.557002
 30
807.82052
 70
    64
  0
VERTEX
  5
F5
  8
TEAM-NET
 10
-217.748997
 20
-391.437737
 30
805.002627
 70
    64
  0
VERTEX
  5
F6
  8
TEAM-NET
 10
-213.342442
 20
-396.186538
 30
802.260905
 70
    64
  0
VERTEX
  5
F7
  8
TEAM-NET
 10
-208.744802
 20
-400.797469
 30
799.598783
 70
    64
  0
VERTEX
  5
F8
  8
TEAM-NET
 10
-203.961824
 20
-405.264766
 30
797.019588
 70
    64
  0
VERTEX
  5
F9
  8
TEAM-NET
 10
-198.999487
 20
-409.582845
 30
794.526544
 70
    64
  0
VERTEX
  5
FA
  8
TEAM-NET
 10
-193.863993
 20
-413.746309
 30
792.122767
 70
    64
  0
VERTEX
  5
FB
  8
TEAM-NET
 10
-188.561762
 20
-417.749953
 30
789.811262
 70
    64
  0
VERTEX
  5
FC
  8
TEAM-NET
 10
-183.099423
 20
-421.588773
 30
787.594918
 70
    64
  0
VERTEX
  5
FD
  8
TEAM-NET
 10
-177.483802
 20
-425.25797
 30
785.476506
 70
    64
  0
VERTEX
  5
FE
  8
TEAM-NET
 10
-171.50746
 20
-428.911448
 30
783.36717
 70
    64
  0
VERTEX
  5
FF
  8
TEAM-NET
 10
-165.415303
 20
-432.418529
 30
781.342355
 70
    64
  0
VERTEX
  5
100
  8
TEAM-NET
 10
-159.212112
 20
-435.776463
 30
779.403651
 70
    64
  0
VERTEX
  5
101
  8
TEAM-NET
 10
-152.902754
 20
-438.982614
 30
777.552579
 70
    64
  0
VERTEX
  5
102
  8
TEAM-NET
 10
-146.492179
 20
-442.034466
 30
775.790591
 70
    64
  0
VERTEX
  5
103
  8
TEAM-NET
 10
-139.985418
 20
-444.929625
 30
774.11907
 70
    64
  0
VERTEX
  5
104
  8
TEAM-NET
 10
-133.387575
 20
-447.66582
 30
772.539328
 70
    64
  0
VERTEX
  5
105
  8
TEAM-NET
 10
-126.703829
 20
-450.240903
 30
771.052603
 70
    64
  0
VERTEX
  5
106
  8
TEAM-NET
 10
-119.939422
 20
-452.652854
 30
769.660063
 70
    64
  0
VERTEX
  5
107
  8
TEAM-NET
 10
-113.099663
 20
-454.89978
 30
768.362799
 70
    64
  0
VERTEX
  5
108
  8
TEAM-NET
 10
-106.189919
 20
-456.979918
 30
767.161831
 70
    64
  0
VERTEX
  5
109
  8
TEAM-NET
 10
-99.21561
 20
-458.891637
 30
766.058099
 70
    64
  0
VERTEX
  5
10A
  8
TEAM-NET
 10
-91.156158
 20
-460.901263
 30
764.897841
 70
    64
  0
VERTEX
  5
10B
  8
TEAM-NET
 10
-83.042537
 20
-462.740161
 30
763.836153
 70
    64
  0
VERTEX
  5
10C
  8
TEAM-NET
 10
-74.879569
 20
-464.407238
 30
762.873666
 70
    64
  0
VERTEX
  5
10D
  8
TEAM-NET
 10
-66.672105
 20
-465.901503
 30
762.010951
 70
    64
  0
VERTEX
  5
10E
  8
TEAM-NET
 10
-58.425023
 20
-467.222069
 30
761.248522
 70
    64
  0
VERTEX
  5
10F
  8
TEAM-NET
 10
-50.143221
 20
-468.368151
 30
760.586831
 70
    64
  0
VERTEX
  5
110
  8
TEAM-NET
 10
-41.831623
 20
-469.339067
 30
760.026273
 70
    64
  0
VERTEX
  5
111
  8
TEAM-NET
 10
-33.495167
 20
-470.134241
 30
759.567179
 70
    64
  0
VERTEX
  5
112
  8
TEAM-NET
 10
-25.138807
 20
-470.7532
 30
759.209822
 70
    64
  0
VERTEX
  5
113
  8
TEAM-NET
 10
-16.767508
 20
-471.195577
 30
758.954416
 70
    64
  0
VERTEX
  5
114
  8
TEAM-NET
 10
-8.386246
 20
-471.461108
 30
758.801112
 70
    64
  0
VERTEX
  5
115
  8
TEAM-NET
 10
0.0
 20
-471.549636
 30
758.75
 70
    64
  0
VERTEX
  5
116
  8
TEAM-NET
 10
8.386246
 20
-471.461108
 30
758.801112
 70
    64
  0
VERTEX
  5
117
  8
TEAM-NET
 10
16.767508
 20
-471.195577
 30
758.954416
 70
    64
  0
VERTEX
  5
118
  8
TEAM-NET
 10
25.138807
 20
-470.7532
 30
759.209822
 70
    64
  0
VERTEX
  5
119
  8
TEAM-NET
 10
33.495167
 20
-470.134241
 30
759.567179
 70
    64
  0
VERTEX
  5
11A
  8
TEAM-NET
 10
41.831623
 20
-469.339067
 30
760.026273
 70
    64
  0
VERTEX
  5
11B
  8
TEAM-NET
 10
50.143221
 20
-468.368151
 30
760.586831
 70
    64
  0
VERTEX
  5
11C
  8
TEAM-NET
 10
58.425023
 20
-467.222069
 30
761.248522
 70
    64
  0
VERTEX
  5
11D
  8
TEAM-NET
 10
66.672105
 20
-465.901503
 30
762.010951
 70
    64
  0
VERTEX
  5
11E
  8
TEAM-NET
 10
74.879569
 20
-464.407238
 30
762.873666
 70
    64
  0
VERTEX
  5
11F
  8
TEAM-NET
 10
83.042537
 20
-462.740161
 30
763.836153
 70
    64
  0
VERTEX
  5
120
  8
TEAM-NET
 10
91.156158
 20
-460.901263
 30
764.897841
 70
    64
  0
VERTEX
  5
121
  8
TEAM-NET
 10
99.21561
 20
-458.891637
 30
766.058099
 70
    64
  0
VERTEX
  5
122
  8
TEAM-NET
 10
106.189919
 20
-456.979918
 30
767.161831
 70
    64
  0
VERTEX
  5
123
  8
TEAM-NET
 10
113.099663
 20
-454.89978
 30
768.362799
 70
    64
  0
VERTEX
  5
124
  8
TEAM-NET
 10
119.939422
 20
-452.652854
 30
769.660063
 70
    64
  0
VERTEX
  5
125
  8
TEAM-NET
 10
126.703829
 20
-450.240903
 30
771.052603
 70
    64
  0
VERTEX
  5
126
  8
TEAM-NET
 10
133.387575
 20
-447.66582
 30
772.539328
 70
    64
  0
VERTEX
  5
127
  8
TEAM-NET
 10
139.985418
 20
-444.929625
 30
774.11907
 70
    64
  0
VERTEX
  5
128
  8
TEAM-NET
 10
146.492179
 20
-442.034466
 30
775.790591
 70
    64
  0
VERTEX
  5
129
  8
TEAM-NET
 10
152.902754
 20
-438.982614
 30
777.552579
 70
    64
  0
VERTEX
  5
12A
  8
TEAM-NET
 10
159.212112
 20
-435.776463
 30
779.403651
 70
    64
  0
VERTEX
  5
12B
  8
TEAM-NET
 10
165.415303
 20
-432.418529
 30
781.342355
 70
    64
  0
VERTEX
  5
12C
  8
TEAM-NET
 10
171.50746
 20
-428.911448
 30
783.36717
 70
    64
  0
VERTEX
  5
12D
  8
TEAM-NET
 10
177.483802
 20
-425.25797
 30
785.476506
 70
    64
  0
VERTEX
  5
12E
  8
TEAM-NET
 10
183.099423
 20
-421.588773
 30
787.594918
 70
    64
  0
VERTEX
  5
12F
  8
TEAM-NET
 10
188.561762
 20
-417.749953
 30
789.811262
 70
    64
  0
VERTEX
  5
130
  8
TEAM-NET
 10
193.863993
 20
-413.746309
 30
792.122767
 70
    64
  0
VERTEX
  5
131
  8
TEAM-NET
 10
198.999487
 20
-409.582845
 30
794.526544
 70
    64
  0
VERTEX
  5
132
  8
TEAM-NET
 10
203.961824
 20
-405.264766
 30
797.019588
 70
    64
  0
VERTEX
  5
133
  8
TEAM-NET
 10
208.744802
 20
-400.797469
 30
799.598783
 70
    64
  0
VERTEX
  5
134
  8
TEAM-NET
 10
213.342442
 20
-396.186538
 30
802.260905
 70
    64
  0
VERTEX
  5
135
  8
TEAM-NET
 10
217.748997
 20
-391.437737
 30
805.002627
 70
    64
  0
VERTEX
  5
136
  8
TEAM-NET
 10
221.958958
 20
-386.557002
 30
807.82052
 70
    64
  0
VERTEX
  5
137
  8
TEAM-NET
 10
225.967064
 20
-381.550435
 30
810.711063
 70
    64
  0
VERTEX
  5
138
  8
TEAM-NET
 10
229.768303
 20
-376.424292
 30
813.670643
 70
    64
  0
VERTEX
  5
139
  8
TEAM-NET
 10
233.357926
 20
-371.184983
 30
816.695559
 70
    64
  0
VERTEX
  5
13A
  8
TEAM-NET
 10
235.793585
 20
-367.313882
 30
818.93054
 70
    64
  0
VERTEX
  5
13B
  8
TEAM-NET
 10
238.058436
 20
-363.365771
 30
821.209984
 70
    64
  0
VERTEX
  5
13C
  8
TEAM-NET
 10
240.149238
 20
-359.346298
 30
823.530627
 70
    64
  0
VERTEX
  5
13D
  8
TEAM-NET
 10
242.062998
 20
-355.261217
 30
825.88915
 70
    64
  0
VERTEX
  5
13E
  8
TEAM-NET
 10
243.796978
 20
-351.116373
 30
828.282177
 70
    64
  0
VERTEX
  5
13F
  8
TEAM-NET
 10
245.348696
 20
-346.917697
 30
830.706284
 70
    64
  0
VERTEX
  5
140
  8
TEAM-NET
 10
246.715932
 20
-342.671199
 30
833.158001
 70
    64
  0
VERTEX
  5
141
  8
TEAM-NET
 10
247.896729
 20
-338.382955
 30
835.633819
 70
    64
  0
VERTEX
  5
142
  8
TEAM-NET
 10
248.889397
 20
-334.059101
 30
838.130197
 70
    64
  0
VERTEX
  5
143
  8
TEAM-NET
 10
249.692516
 20
-329.705827
 30
840.643561
 70
    64
  0
VERTEX
  5
144
  8
TEAM-NET
 10
250.304936
 20
-325.329361
 30
843.170315
 70
    64
  0
VERTEX
  5
145
  8
TEAM-NET
 10
250.725782
 20
-320.935966
 30
845.706843
 70
    64
  0
VERTEX
  5
146
  8
TEAM-NET
 10
-250.484524
 20
-321.820568
 30
841.679432
 70
    64
  0
VERTEX
  5
147
  8
TEAM-NET
 10
-249.976531
 20
-325.21318
 30
838.28682
 70
    64
  0
VERTEX
  5
148
  8
TEAM-NET
 10
-249.296869
 20
-328.590735
 30
834.909265
 70
    64
  0
VERTEX
  5
149
  8
TEAM-NET
 10
-248.44641
 20
-331.948891
 30
831.551109
 70
    64
  0
VERTEX
  5
14A
  8
TEAM-NET
 10
-247.426248
 20
-335.28333
 30
828.21667
 70
    64
  0
VERTEX
  5
14B
  8
TEAM-NET
 10
-246.237695
 20
-338.589766
 30
824.910234
 70
    64
  0
VERTEX
  5
14C
  8
TEAM-NET
 10
-244.882278
 20
-341.863948
 30
821.636052
 70
    64
  0
VERTEX
  5
14D
  8
TEAM-NET
 10
-243.36174
 20
-345.101668
 30
818.398332
 70
    64
  0
VERTEX
  5
14E
  8
TEAM-NET
 10
-241.678035
 20
-348.298763
 30
815.201237
 70
    64
  0
VERTEX
  5
14F
  8
TEAM-NET
 10
-239.833328
 20
-351.451124
 30
812.048876
 70
    64
  0
VERTEX
  5
150
  8
TEAM-NET
 10
-237.829991
 20
-354.554697
 30
808.945303
 70
    64
  0
VERTEX
  5
151
  8
TEAM-NET
 10
-235.670598
 20
-357.605494
 30
805.894506
 70
    64
  0
VERTEX
  5
152
  8
TEAM-NET
 10
-233.357926
 20
-360.599591
 30
802.900409
 70
    64
  0
VERTEX
  5
153
  8
TEAM-NET
 10
-229.768303
 20
-364.87747
 30
798.62253
 70
    64
  0
VERTEX
  5
154
  8
TEAM-NET
 10
-225.967064
 20
-369.062947
 30
794.437053
 70
    64
  0
VERTEX
  5
155
  8
TEAM-NET
 10
-221.958958
 20
-373.150793
 30
790.349207
 70
    64
  0
VERTEX
  5
156
  8
TEAM-NET
 10
-217.748997
 20
-377.135896
 30
786.364104
 70
    64
  0
VERTEX
  5
157
  8
TEAM-NET
 10
-213.342442
 20
-381.013275
 30
782.486725
 70
    64
  0
VERTEX
  5
158
  8
TEAM-NET
 10
-208.744802
 20
-384.778085
 30
778.721915
 70
    64
  0
VERTEX
  5
159
  8
TEAM-NET
 10
-203.961824
 20
-388.425617
 30
775.074383
 70
    64
  0
VERTEX
  5
15A
  8
TEAM-NET
 10
-198.999487
 20
-391.951314
 30
771.548686
 70
    64
  0
VERTEX
  5
15B
  8
TEAM-NET
 10
-193.863993
 20
-395.350768
 30
768.149232
 70
    64
  0
VERTEX
  5
15C
  8
TEAM-NET
 10
-188.561762
 20
-398.61973
 30
764.88027
 70
    64
  0
VERTEX
  5
15D
  8
TEAM-NET
 10
-183.099423
 20
-401.754113
 30
761.745887
 70
    64
  0
VERTEX
  5
15E
  8
TEAM-NET
 10
-177.483802
 20
-404.75
 30
758.75
 70
    64
  0
VERTEX
  5
15F
  8
TEAM-NET
 10
-171.50746
 20
-407.733052
 30
755.766948
 70
    64
  0
VERTEX
  5
160
  8
TEAM-NET
 10
-165.415303
 20
-410.596573
 30
752.903427
 70
    64
  0
VERTEX
  5
161
  8
TEAM-NET
 10
-159.212112
 20
-413.338314
 30
750.161686
 70
    64
  0
VERTEX
  5
162
  8
TEAM-NET
 10
-152.902754
 20
-415.956125
 30
747.543875
 70
    64
  0
VERTEX
  5
163
  8
TEAM-NET
 10
-146.492179
 20
-418.447952
 30
745.052048
 70
    64
  0
VERTEX
  5
164
  8
TEAM-NET
 10
-139.985418
 20
-420.81184
 30
742.68816
 70
    64
  0
VERTEX
  5
165
  8
TEAM-NET
 10
-133.387575
 20
-423.045933
 30
740.454067
 70
    64
  0
VERTEX
  5
166
  8
TEAM-NET
 10
-126.703829
 20
-425.14848
 30
738.35152
 70
    64
  0
VERTEX
  5
167
  8
TEAM-NET
 10
-119.939422
 20
-427.117829
 30
736.382171
 70
    64
  0
VERTEX
  5
168
  8
TEAM-NET
 10
-113.099663
 20
-428.952437
 30
734.547563
 70
    64
  0
VERTEX
  5
169
  8
TEAM-NET
 10
-106.189919
 20
-430.650863
 30
732.849137
 70
    64
  0
VERTEX
  5
16A
  8
TEAM-NET
 10
-99.21561
 20
-432.211774
 30
731.288226
 70
    64
  0
VERTEX
  5
16B
  8
TEAM-NET
 10
-91.156158
 20
-433.852627
 30
729.647373
 70
    64
  0
VERTEX
  5
16C
  8
TEAM-NET
 10
-83.042537
 20
-435.354081
 30
728.145919
 70
    64
  0
VERTEX
  5
16D
  8
TEAM-NET
 10
-74.879569
 20
-436.715244
 30
726.784756
 70
    64
  0
VERTEX
  5
16E
  8
TEAM-NET
 10
-66.672105
 20
-437.935306
 30
725.564694
 70
    64
  0
VERTEX
  5
16F
  8
TEAM-NET
 10
-58.425023
 20
-439.013544
 30
724.486456
 70
    64
  0
VERTEX
  5
170
  8
TEAM-NET
 10
-50.143221
 20
-439.949316
 30
723.550684
 70
    64
  0
VERTEX
  5
171
  8
TEAM-NET
 10
-41.831623
 20
-440.742065
 30
722.757935
 70
    64
  0
VERTEX
  5
172
  8
TEAM-NET
 10
-33.495167
 20
-441.391322
 30
722.108678
 70
    64
  0
VERTEX
  5
173
  8
TEAM-NET
 10
-25.138807
 20
-441.8967
 30
721.6033
 70
    64
  0
VERTEX
  5
174
  8
TEAM-NET
 10
-16.767508
 20
-442.2579
 30
721.2421
 70
    64
  0
VERTEX
  5
175
  8
TEAM-NET
 10
-8.386246
 20
-442.474705
 30
721.025295
 70
    64
  0
VERTEX
  5
176
  8
TEAM-NET
 10
0.0
 20
-442.546988
 30
720.953012
 70
    64
  0
VERTEX
  5
177
  8
TEAM-NET
 10
8.386246
 20
-442.474705
 30
721.025295
 70
    64
  0
VERTEX
  5
178
  8
TEAM-NET
 10
16.767508
 20
-442.2579
 30
721.2421
 70
    64
  0
VERTEX
  5
179
  8
TEAM-NET
 10
25.138807
 20
-441.8967
 30
721.6033
 70
    64
  0
VERTEX
  5
17A
  8
TEAM-NET
 10
33.495167
 20
-441.391322
 30
722.108678
 70
    64
  0
VERTEX
  5
17B
  8
TEAM-NET
 10
41.831623
 20
-440.742065
 30
722.757935
 70
    64
  0
VERTEX
  5
17C
  8
TEAM-NET
 10
50.143221
 20
-439.949316
 30
723.550684
 70
    64
  0
VERTEX
  5
17D
  8
TEAM-NET
 10
58.425023
 20
-439.013544
 30
724.486456
 70
    64
  0
VERTEX
  5
17E
  8
TEAM-NET
 10
66.672105
 20
-437.935306
 30
725.564694
 70
    64
  0
VERTEX
  5
17F
  8
TEAM-NET
 10
74.879569
 20
-436.715244
 30
726.784756
 70
    64
  0
VERTEX
  5
180
  8
TEAM-NET
 10
83.042537
 20
-435.354081
 30
728.145919
 70
    64
  0
VERTEX
  5
181
  8
TEAM-NET
 10
91.156158
 20
-433.852627
 30
729.647373
 70
    64
  0
VERTEX
  5
182
  8
TEAM-NET
 10
99.21561
 20
-432.211774
 30
731.288226
 70
    64
  0
VERTEX
  5
183
  8
TEAM-NET
 10
106.189919
 20
-430.650863
 30
732.849137
 70
    64
  0
VERTEX
  5
184
  8
TEAM-NET
 10
113.099663
 20
-428.952437
 30
734.547563
 70
    64
  0
VERTEX
  5
185
  8
TEAM-NET
 10
119.939422
 20
-427.117829
 30
736.382171
 70
    64
  0
VERTEX
  5
186
  8
TEAM-NET
 10
126.703829
 20
-425.14848
 30
738.35152
 70
    64
  0
VERTEX
  5
187
  8
TEAM-NET
 10
133.387575
 20
-423.045933
 30
740.454067
 70
    64
  0
VERTEX
  5
188
  8
TEAM-NET
 10
139.985418
 20
-420.81184
 30
742.68816
 70
    64
  0
VERTEX
  5
189
  8
TEAM-NET
 10
146.492179
 20
-418.447952
 30
745.052048
 70
    64
  0
VERTEX
  5
18A
  8
TEAM-NET
 10
152.902754
 20
-415.956125
 30
747.543875
 70
    64
  0
VERTEX
  5
18B
  8
TEAM-NET
 10
159.212112
 20
-413.338314
 30
750.161686
 70
    64
  0
VERTEX
  5
18C
  8
TEAM-NET
 10
165.415303
 20
-410.596573
 30
752.903427
 70
    64
  0
VERTEX
  5
18D
  8
TEAM-NET
 10
171.50746
 20
-407.733052
 30
755.766948
 70
    64
  0
VERTEX
  5
18E
  8
TEAM-NET
 10
177.483802
 20
-404.75
 30
758.75
 70
    64
  0
VERTEX
  5
18F
  8
TEAM-NET
 10
183.099423
 20
-401.754113
 30
761.745887
 70
    64
  0
VERTEX
  5
190
  8
TEAM-NET
 10
188.561762
 20
-398.61973
 30
764.88027
 70
    64
  0
VERTEX
  5
191
  8
TEAM-NET
 10
193.863993
 20
-395.350768
 30
768.149232
 70
    64
  0
VERTEX
  5
192
  8
TEAM-NET
 10
198.999487
 20
-391.951314
 30
771.548686
 70
    64
  0
VERTEX
  5
193
  8
TEAM-NET
 10
203.961824
 20
-388.425617
 30
775.074383
 70
    64
  0
VERTEX
  5
194
  8
TEAM-NET
 10
208.744802
 20
-384.778085
 30
778.721915
 70
    64
  0
VERTEX
  5
195
  8
TEAM-NET
 10
213.342442
 20
-381.013275
 30
782.486725
 70
    64
  0
VERTEX
  5
196
  8
TEAM-NET
 10
217.748997
 20
-377.135896
 30
786.364104
 70
    64
  0
VERTEX
  5
197
  8
TEAM-NET
 10
221.958958
 20
-373.150793
 30
790.349207
 70
    64
  0
VERTEX
  5
198
  8
TEAM-NET
 10
225.967064
 20
-369.062947
 30
794.437053
 70
    64
  0
VERTEX
  5
199
  8
TEAM-NET
 10
229.768303
 20
-364.87747
 30
798.62253
 70
    64
  0
VERTEX
  5
19A
  8
TEAM-NET
 10
233.357926
 20
-360.599591
 30
802.900409
 70
    64
  0
VERTEX
  5
19B
  8
TEAM-NET
 10
235.793585
 20
-357.438851
 30
806.061149
 70
    64
  0
VERTEX
  5
19C
  8
TEAM-NET
 10
238.058436
 20
-354.215231
 30
809.284769
 70
    64
  0
VERTEX
  5
19D
  8
TEAM-NET
 10
240.149238
 20
-350.933346
 30
812.566654
 70
    64
  0
VERTEX
  5
19E
  8
TEAM-NET
 10
242.062998
 20
-347.597891
 30
815.902109
 70
    64
  0
VERTEX
  5
19F
  8
TEAM-NET
 10
243.796978
 20
-344.21364
 30
819.28636
 70
    64
  0
VERTEX
  5
1A0
  8
TEAM-NET
 10
245.348696
 20
-340.785435
 30
822.714565
 70
    64
  0
VERTEX
  5
1A1
  8
TEAM-NET
 10
246.715932
 20
-337.318184
 30
826.181816
 70
    64
  0
VERTEX
  5
1A2
  8
TEAM-NET
 10
247.896729
 20
-333.816847
 30
829.683153
 70
    64
  0
VERTEX
  5
1A3
  8
TEAM-NET
 10
248.889397
 20
-330.286436
 30
833.213564
 70
    64
  0
VERTEX
  5
1A4
  8
TEAM-NET
 10
249.692516
 20
-326.732002
 30
836.767998
 70
    64
  0
VERTEX
  5
1A5
  8
TEAM-NET
 10
250.304936
 20
-323.158633
 30
840.341367
 70
    64
  0
VERTEX
  5
1A6
  8
TEAM-NET
 10
250.725782
 20
-319.571441
 30
843.928559
 70
    64
  0
VERTEX
  5
1A7
  8
TEAM-NET
 10
-250.484524
 20
-319.38353
 30
839.809427
 70
    64
  0
VERTEX
  5
1A8
  8
TEAM-NET
 10
-249.976531
 20
-321.782469
 30
835.654342
 70
    64
  0
VERTEX
  5
1A9
  8
TEAM-NET
 10
-249.296869
 20
-324.170761
 30
831.517699
 70
    64
  0
VERTEX
  5
1AA
  8
TEAM-NET
 10
-248.44641
 20
-326.545336
 30
827.404816
 70
    64
  0
VERTEX
  5
1AB
  8
TEAM-NET
 10
-247.426248
 20
-328.90314
 30
823.320979
 70
    64
  0
VERTEX
  5
1AC
  8
TEAM-NET
 10
-246.237695
 20
-331.241144
 30
819.271438
 70
    64
  0
VERTEX
  5
1AD
  8
TEAM-NET
 10
-244.882278
 20
-333.55634
 30
815.2614
 70
    64
  0
VERTEX
  5
1AE
  8
TEAM-NET
 10
-243.36174
 20
-335.845754
 30
811.296019
 70
    64
  0
VERTEX
  5
1AF
  8
TEAM-NET
 10
-241.678035
 20
-338.106441
 30
807.380393
 70
    64
  0
VERTEX
  5
1B0
  8
TEAM-NET
 10
-239.833328
 20
-340.335497
 30
803.519556
 70
    64
  0
VERTEX
  5
1B1
  8
TEAM-NET
 10
-237.829991
 20
-342.530055
 30
799.71847
 70
    64
  0
VERTEX
  5
1B2
  8
TEAM-NET
 10
-235.670598
 20
-344.687294
 30
795.982023
 70
    64
  0
VERTEX
  5
1B3
  8
TEAM-NET
 10
-233.357926
 20
-346.804441
 30
792.315017
 70
    64
  0
VERTEX
  5
1B4
  8
TEAM-NET
 10
-229.768303
 20
-349.829357
 30
787.075708
 70
    64
  0
VERTEX
  5
1B5
  8
TEAM-NET
 10
-225.967064
 20
-352.788937
 30
781.949565
 70
    64
  0
VERTEX
  5
1B6
  8
TEAM-NET
 10
-221.958958
 20
-355.67948
 30
776.942998
 70
    64
  0
VERTEX
  5
1B7
  8
TEAM-NET
 10
-217.748997
 20
-358.497373
 30
772.062263
 70
    64
  0
VERTEX
  5
1B8
  8
TEAM-NET
 10
-213.342442
 20
-361.239095
 30
767.313462
 70
    64
  0
VERTEX
  5
1B9
  8
TEAM-NET
 10
-208.744802
 20
-363.901217
 30
762.702531
 70
    64
  0
VERTEX
  5
1BA
  8
TEAM-NET
 10
-203.961824
 20
-366.480412
 30
758.235234
 70
    64
  0
VERTEX
  5
1BB
  8
TEAM-NET
 10
-198.999487
 20
-368.973456
 30
753.917155
 70
    64
  0
VERTEX
  5
1BC
  8
TEAM-NET
 10
-193.863993
 20
-371.377233
 30
749.753691
 70
    64
  0
VERTEX
  5
1BD
  8
TEAM-NET
 10
-188.561762
 20
-373.688738
 30
745.750047
 70
    64
  0
VERTEX
  5
1BE
  8
TEAM-NET
 10
-183.099423
 20
-375.905082
 30
741.911227
 70
    64
  0
VERTEX
  5
1BF
  8
TEAM-NET
 10
-177.483802
 20
-378.023494
 30
738.24203
 70
    64
  0
VERTEX
  5
1C0
  8
TEAM-NET
 10
-171.50746
 20
-380.13283
 30
734.588552
 70
    64
  0
VERTEX
  5
1C1
  8
TEAM-NET
 10
-165.415303
 20
-382.157645
 30
731.081471
 70
    64
  0
VERTEX
  5
1C2
  8
TEAM-NET
 10
-159.212112
 20
-384.096349
 30
727.723537
 70
    64
  0
VERTEX
  5
1C3
  8
TEAM-NET
 10
-152.902754
 20
-385.947421
 30
724.517386
 70
    64
  0
VERTEX
  5
1C4
  8
TEAM-NET
 10
-146.492179
 20
-387.709409
 30
721.465534
 70
    64
  0
VERTEX
  5
1C5
  8
TEAM-NET
 10
-139.985418
 20
-389.38093
 30
718.570375
 70
    64
  0
VERTEX
  5
1C6
  8
TEAM-NET
 10
-133.387575
 20
-390.960672
 30
715.83418
 70
    64
  0
VERTEX
  5
1C7
  8
TEAM-NET
 10
-126.703829
 20
-392.447397
 30
713.259097
 70
    64
  0
VERTEX
  5
1C8
  8
TEAM-NET
 10
-119.939422
 20
-393.839937
 30
710.847146
 70
    64
  0
VERTEX
  5
1C9
  8
TEAM-NET
 10
-113.099663
 20
-395.137201
 30
708.60022
 70
    64
  0
VERTEX
  5
1CA
  8
TEAM-NET
 10
-106.189919
 20
-396.338169
 30
706.520082
 70
    64
  0
VERTEX
  5
1CB
  8
TEAM-NET
 10
-99.21561
 20
-397.441901
 30
704.608363
 70
    64
  0
VERTEX
  5
1CC
  8
TEAM-NET
 10
-91.156158
 20
-398.602159
 30
702.598737
 70
    64
  0
VERTEX
  5
1CD
  8
TEAM-NET
 10
-83.042537
 20
-399.663847
 30
700.759839
 70
    64
  0
VERTEX
  5
1CE
  8
TEAM-NET
 10
-74.879569
 20
-400.626334
 30
699.092762
 70
    64
  0
VERTEX
  5
1CF
  8
TEAM-NET
 10
-66.672105
 20
-401.489049
 30
697.598497
 70
    64
  0
VERTEX
  5
1D0
  8
TEAM-NET
 10
-58.425023
 20
-402.251478
 30
696.277931
 70
    64
  0
VERTEX
  5
1D1
  8
TEAM-NET
 10
-50.143221
 20
-402.913169
 30
695.131849
 70
    64
  0
VERTEX
  5
1D2
  8
TEAM-NET
 10
-41.831623
 20
-403.473727
 30
694.160933
 70
    64
  0
VERTEX
  5
1D3
  8
TEAM-NET
 10
-33.495167
 20
-403.932821
 30
693.365759
 70
    64
  0
VERTEX
  5
1D4
  8
TEAM-NET
 10
-25.138807
 20
-404.290178
 30
692.7468
 70
    64
  0
VERTEX
  5
1D5
  8
TEAM-NET
 10
-16.767508
 20
-404.545584
 30
692.304423
 70
    64
  0
VERTEX
  5
1D6
  8
TEAM-NET
 10
-8.386246
 20
-404.698888
 30
692.038892
 70
    64
  0
VERTEX
  5
1D7
  8
TEAM-NET
 10
0.0
 20
-404.75
 30
691.950364
 70
    64
  0
VERTEX
  5
1D8
  8
TEAM-NET
 10
8.386246
 20
-404.698888
 30
692.038892
 70
    64
  0
VERTEX
  5
1D9
  8
TEAM-NET
 10
16.767508
 20
-404.545584
 30
692.304423
 70
    64
  0
VERTEX
  5
1DA
  8
TEAM-NET
 10
25.138807
 20
-404.290178
 30
692.7468
 70
    64
  0
VERTEX
  5
1DB
  8
TEAM-NET
 10
33.495167
 20
-403.932821
 30
693.365759
 70
    64
  0
VERTEX
  5
1DC
  8
TEAM-NET
 10
41.831623
 20
-403.473727
 30
694.160933
 70
    64
  0
VERTEX
  5
1DD
  8
TEAM-NET
 10
50.143221
 20
-402.913169
 30
695.131849
 70
    64
  0
VERTEX
  5
1DE
  8
TEAM-NET
 10
58.425023
 20
-402.251478
 30
696.277931
 70
    64
  0
VERTEX
  5
1DF
  8
TEAM-NET
 10
66.672105
 20
-401.489049
 30
697.598497
 70
    64
  0
VERTEX
  5
1E0
  8
TEAM-NET
 10
74.879569
 20
-400.626334
 30
699.092762
 70
    64
  0
VERTEX
  5
1E1
  8
TEAM-NET
 10
83.042537
 20
-399.663847
 30
700.759839
 70
    64
  0
VERTEX
  5
1E2
  8
TEAM-NET
 10
91.156158
 20
-398.602159
 30
702.598737
 70
    64
  0
VERTEX
  5
1E3
  8
TEAM-NET
 10
99.21561
 20
-397.441901
 30
704.608363
 70
    64
  0
VERTEX
  5
1E4
  8
TEAM-NET
 10
106.189919
 20
-396.338169
 30
706.520082
 70
    64
  0
VERTEX
  5
1E5
  8
TEAM-NET
 10
113.099663
 20
-395.137201
 30
708.60022
 70
    64
  0
VERTEX
  5
1E6
  8
TEAM-NET
 10
119.939422
 20
-393.839937
 30
710.847146
 70
    64
  0
VERTEX
  5
1E7
  8
TEAM-NET
 10
126.703829
 20
-392.447397
 30
713.259097
 70
    64
  0
VERTEX
  5
1E8
  8
TEAM-NET
 10
133.387575
 20
-390.960672
 30
715.83418
 70
    64
  0
VERTEX
  5
1E9
  8
TEAM-NET
 10
139.985418
 20
-389.38093
 30
718.570375
 70
    64
  0
VERTEX
  5
1EA
  8
TEAM-NET
 10
146.492179
 20
-387.709409
 30
721.465534
 70
    64
  0
VERTEX
  5
1EB
  8
TEAM-NET
 10
152.902754
 20
-385.947421
 30
724.517386
 70
    64
  0
VERTEX
  5
1EC
  8
TEAM-NET
 10
159.212112
 20
-384.096349
 30
727.723537
 70
    64
  0
VERTEX
  5
1ED
  8
TEAM-NET
 10
165.415303
 20
-382.157645
 30
731.081471
 70
    64
  0
VERTEX
  5
1EE
  8
TEAM-NET
 10
171.50746
 20
-380.13283
 30
734.588552
 70
    64
  0
VERTEX
  5
1EF
  8
TEAM-NET
 10
177.483802
 20
-378.023494
 30
738.24203
 70
    64
  0
VERTEX
  5
1F0
  8
TEAM-NET
 10
183.099423
 20
-375.905082
 30
741.911227
 70
    64
  0
VERTEX
  5
1F1
  8
TEAM-NET
 10
188.561762
 20
-373.688738
 30
745.750047
 70
    64
  0
VERTEX
  5
1F2
  8
TEAM-NET
 10
193.863993
 20
-371.377233
 30
749.753691
 70
    64
  0
VERTEX
  5
1F3
  8
TEAM-NET
 10
198.999487
 20
-368.973456
 30
753.917155
 70
    64
  0
VERTEX
  5
1F4
  8
TEAM-NET
 10
203.961824
 20
-366.480412
 30
758.235234
 70
    64
  0
VERTEX
  5
1F5
  8
TEAM-NET
 10
208.744802
 20
-363.901217
 30
762.702531
 70
    64
  0
VERTEX
  5
1F6
  8
TEAM-NET
 10
213.342442
 20
-361.239095
 30
767.313462
 70
    64
  0
VERTEX
  5
1F7
  8
TEAM-NET
 10
217.748997
 20
-358.497373
 30
772.062263
 70
    64
  0
VERTEX
  5
1F8
  8
TEAM-NET
 10
221.958958
 20
-355.67948
 30
776.942998
 70
    64
  0
VERTEX
  5
1F9
  8
TEAM-NET
 10
225.967064
 20
-352.788937
 30
781.949565
 70
    64
  0
VERTEX
  5
1FA
  8
TEAM-NET
 10
229.768303
 20
-349.829357
 30
787.075708
 70
    64
  0
VERTEX
  5
1FB
  8
TEAM-NET
 10
233.357926
 20
-346.804441
 30
792.315017
 70
    64
  0
VERTEX
  5
1FC
  8
TEAM-NET
 10
235.793585
 20
-344.56946
 30
796.186118
 70
    64
  0
VERTEX
  5
1FD
  8
TEAM-NET
 10
238.058436
 20
-342.290016
 30
800.134229
 70
    64
  0
VERTEX
  5
1FE
  8
TEAM-NET
 10
240.149238
 20
-339.969373
 30
804.153702
 70
    64
  0
VERTEX
  5
1FF
  8
TEAM-NET
 10
242.062998
 20
-337.61085
 30
808.238783
 70
    64
  0
VERTEX
  5
200
  8
TEAM-NET
 10
243.796978
 20
-335.217823
 30
812.383627
 70
    64
  0
VERTEX
  5
201
  8
TEAM-NET
 10
245.348696
 20
-332.793716
 30
816.582303
 70
    64
  0
VERTEX
  5
202
  8
TEAM-NET
 10
246.715932
 20
-330.341999
 30
820.828801
 70
    64
  0
VERTEX
  5
203
  8
TEAM-NET
 10
247.896729
 20
-327.866181
 30
825.117045
 70
    64
  0
VERTEX
  5
204
  8
TEAM-NET
 10
248.889397
 20
-325.369803
 30
829.440899
 70
    64
  0
VERTEX
  5
205
  8
TEAM-NET
 10
249.692516
 20
-322.856439
 30
833.794173
 70
    64
  0
VERTEX
  5
206
  8
TEAM-NET
 10
250.304936
 20
-320.329685
 30
838.170639
 70
    64
  0
VERTEX
  5
207
  8
TEAM-NET
 10
250.725782
 20
-317.793157
 30
842.564034
 70
    64
  0
VERTEX
  5
208
  8
TEAM-NET
 10
-250.484524
 20
-316.545539
 30
838.633893
 70
    64
  0
VERTEX
  5
209
  8
TEAM-NET
 10
-249.976531
 20
-317.787322
 30
833.999498
 70
    64
  0
VERTEX
  5
20A
  8
TEAM-NET
 10
-249.296869
 20
-319.023592
 30
829.385672
 70
    64
  0
VERTEX
  5
20B
  8
TEAM-NET
 10
-248.44641
 20
-320.252763
 30
824.798346
 70
    64
  0
VERTEX
  5
20C
  8
TEAM-NET
 10
-247.426248
 20
-321.473252
 30
820.243418
 70
    64
  0
VERTEX
  5
20D
  8
TEAM-NET
 10
-246.237695
 20
-322.683492
 30
815.726743
 70
    64
  0
VERTEX
  5
20E
  8
TEAM-NET
 10
-244.882278
 20
-323.881926
 30
811.254126
 70
    64
  0
VERTEX
  5
20F
  8
TEAM-NET
 10
-243.36174
 20
-325.067013
 30
806.831319
 70
    64
  0
VERTEX
  5
210
  8
TEAM-NET
 10
-241.678035
 20
-326.237231
 30
802.464005
 70
    64
  0
VERTEX
  5
211
  8
TEAM-NET
 10
-239.833328
 20
-327.391075
 30
798.157801
 70
    64
  0
VERTEX
  5
212
  8
TEAM-NET
 10
-237.829991
 20
-328.527062
 30
793.918241
 70
    64
  0
VERTEX
  5
213
  8
TEAM-NET
 10
-235.670598
 20
-329.643731
 30
789.750775
 70
    64
  0
VERTEX
  5
214
  8
TEAM-NET
 10
-233.357926
 20
-330.739647
 30
785.660762
 70
    64
  0
VERTEX
  5
215
  8
TEAM-NET
 10
-229.768303
 20
-332.305459
 30
779.817071
 70
    64
  0
VERTEX
  5
216
  8
TEAM-NET
 10
-225.967064
 20
-333.83745
 30
774.099602
 70
    64
  0
VERTEX
  5
217
  8
TEAM-NET
 10
-221.958958
 20
-335.333705
 30
768.515502
 70
    64
  0
VERTEX
  5
218
  8
TEAM-NET
 10
-217.748997
 20
-336.792354
 30
763.07175
 70
    64
  0
VERTEX
  5
219
  8
TEAM-NET
 10
-213.342442
 20
-338.211574
 30
757.775151
 70
    64
  0
VERTEX
  5
21A
  8
TEAM-NET
 10
-208.744802
 20
-339.58959
 30
752.632326
 70
    64
  0
VERTEX
  5
21B
  8
TEAM-NET
 10
-203.961824
 20
-340.924679
 30
747.649703
 70
    64
  0
VERTEX
  5
21C
  8
TEAM-NET
 10
-198.999487
 20
-342.215174
 30
742.833512
 70
    64
  0
VERTEX
  5
21D
  8
TEAM-NET
 10
-193.863993
 20
-343.459461
 30
738.189771
 70
    64
  0
VERTEX
  5
21E
  8
TEAM-NET
 10
-188.561762
 20
-344.655984
 30
733.724286
 70
    64
  0
VERTEX
  5
21F
  8
TEAM-NET
 10
-183.099423
 20
-345.803247
 30
729.442639
 70
    64
  0
VERTEX
  5
220
  8
TEAM-NET
 10
-177.483802
 20
-346.899818
 30
725.350182
 70
    64
  0
VERTEX
  5
221
  8
TEAM-NET
 10
-171.50746
 20
-347.991691
 30
721.275257
 70
    64
  0
VERTEX
  5
222
  8
TEAM-NET
 10
-165.415303
 20
-349.039812
 30
717.363615
 70
    64
  0
VERTEX
  5
223
  8
TEAM-NET
 10
-159.212112
 20
-350.043359
 30
713.618327
 70
    64
  0
VERTEX
  5
224
  8
TEAM-NET
 10
-152.902754
 20
-351.001545
 30
710.04233
 70
    64
  0
VERTEX
  5
225
  8
TEAM-NET
 10
-146.492179
 20
-351.913617
 30
706.638431
 70
    64
  0
VERTEX
  5
226
  8
TEAM-NET
 10
-139.985418
 20
-352.778859
 30
703.409301
 70
    64
  0
VERTEX
  5
227
  8
TEAM-NET
 10
-133.387575
 20
-353.596594
 30
700.357472
 70
    64
  0
VERTEX
  5
228
  8
TEAM-NET
 10
-126.703829
 20
-354.36618
 30
697.485341
 70
    64
  0
VERTEX
  5
229
  8
TEAM-NET
 10
-119.939422
 20
-355.087012
 30
694.795159
 70
    64
  0
VERTEX
  5
22A
  8
TEAM-NET
 10
-113.099663
 20
-355.758525
 30
692.289039
 70
    64
  0
VERTEX
  5
22B
  8
TEAM-NET
 10
-106.189919
 20
-356.380192
 30
689.968946
 70
    64
  0
VERTEX
  5
22C
  8
TEAM-NET
 10
-99.21561
 20
-356.951525
 30
687.8367
 70
    64
  0
VERTEX
  5
22D
  8
TEAM-NET
 10
-91.156158
 20
-357.552119
 30
685.595254
 70
    64
  0
VERTEX
  5
22E
  8
TEAM-NET
 10
-83.042537
 20
-358.101689
 30
683.54423
 70
    64
  0
VERTEX
  5
22F
  8
TEAM-NET
 10
-74.879569
 20
-358.599909
 30
681.684847
 70
    64
  0
VERTEX
  5
230
  8
TEAM-NET
 10
-66.672105
 20
-359.046483
 30
680.01821
 70
    64
  0
VERTEX
  5
231
  8
TEAM-NET
 10
-58.425023
 20
-359.441146
 30
678.54531
 70
    64
  0
VERTEX
  5
232
  8
TEAM-NET
 10
-50.143221
 20
-359.783662
 30
677.267023
 70
    64
  0
VERTEX
  5
233
  8
TEAM-NET
 10
-41.831623
 20
-360.073828
 30
676.184106
 70
    64
  0
VERTEX
  5
234
  8
TEAM-NET
 10
-33.495167
 20
-360.311473
 30
675.297205
 70
    64
  0
VERTEX
  5
235
  8
TEAM-NET
 10
-25.138807
 20
-360.496454
 30
674.606845
 70
    64
  0
VERTEX
  5
236
  8
TEAM-NET
 10
-16.767508
 20
-360.628662
 30
674.113438
 70
    64
  0
VERTEX
  5
237
  8
TEAM-NET
 10
-8.386246
 20
-360.708018
 30
673.817277
 70
    64
  0
VERTEX
  5
238
  8
TEAM-NET
 10
0.0
 20
-360.734476
 30
673.718537
 70
    64
  0
VERTEX
  5
239
  8
TEAM-NET
 10
8.386246
 20
-360.708018
 30
673.817277
 70
    64
  0
VERTEX
  5
23A
  8
TEAM-NET
 10
16.767508
 20
-360.628662
 30
674.113438
 70
    64
  0
VERTEX
  5
23B
  8
TEAM-NET
 10
25.138807
 20
-360.496454
 30
674.606845
 70
    64
  0
VERTEX
  5
23C
  8
TEAM-NET
 10
33.495167
 20
-360.311473
 30
675.297205
 70
    64
  0
VERTEX
  5
23D
  8
TEAM-NET
 10
41.831623
 20
-360.073828
 30
676.184106
 70
    64
  0
VERTEX
  5
23E
  8
TEAM-NET
 10
50.143221
 20
-359.783662
 30
677.267023
 70
    64
  0
VERTEX
  5
23F
  8
TEAM-NET
 10
58.425023
 20
-359.441146
 30
678.54531
 70
    64
  0
VERTEX
  5
240
  8
TEAM-NET
 10
66.672105
 20
-359.046483
 30
680.01821
 70
    64
  0
VERTEX
  5
241
  8
TEAM-NET
 10
74.879569
 20
-358.599909
 30
681.684847
 70
    64
  0
VERTEX
  5
242
  8
TEAM-NET
 10
83.042537
 20
-358.101689
 30
683.54423
 70
    64
  0
VERTEX
  5
243
  8
TEAM-NET
 10
91.156158
 20
-357.552119
 30
685.595254
 70
    64
  0
VERTEX
  5
244
  8
TEAM-NET
 10
99.21561
 20
-356.951525
 30
687.8367
 70
    64
  0
VERTEX
  5
245
  8
TEAM-NET
 10
106.189919
 20
-356.380192
 30
689.968946
 70
    64
  0
VERTEX
  5
246
  8
TEAM-NET
 10
113.099663
 20
-355.758525
 30
692.289039
 70
    64
  0
VERTEX
  5
247
  8
TEAM-NET
 10
119.939422
 20
-355.087012
 30
694.795159
 70
    64
  0
VERTEX
  5
248
  8
TEAM-NET
 10
126.703829
 20
-354.36618
 30
697.485341
 70
    64
  0
VERTEX
  5
249
  8
TEAM-NET
 10
133.387575
 20
-353.596594
 30
700.357472
 70
    64
  0
VERTEX
  5
24A
  8
TEAM-NET
 10
139.985418
 20
-352.778859
 30
703.409301
 70
    64
  0
VERTEX
  5
24B
  8
TEAM-NET
 10
146.492179
 20
-351.913617
 30
706.638431
 70
    64
  0
VERTEX
  5
24C
  8
TEAM-NET
 10
152.902754
 20
-351.001545
 30
710.04233
 70
    64
  0
VERTEX
  5
24D
  8
TEAM-NET
 10
159.212112
 20
-350.043359
 30
713.618327
 70
    64
  0
VERTEX
  5
24E
  8
TEAM-NET
 10
165.415303
 20
-349.039812
 30
717.363615
 70
    64
  0
VERTEX
  5
24F
  8
TEAM-NET
 10
171.50746
 20
-347.991691
 30
721.275257
 70
    64
  0
VERTEX
  5
250
  8
TEAM-NET
 10
177.483802
 20
-346.899818
 30
725.350182
 70
    64
  0
VERTEX
  5
251
  8
TEAM-NET
 10
183.099423
 20
-345.803247
 30
729.442639
 70
    64
  0
VERTEX
  5
252
  8
TEAM-NET
 10
188.561762
 20
-344.655984
 30
733.724286
 70
    64
  0
VERTEX
  5
253
  8
TEAM-NET
 10
193.863993
 20
-343.459461
 30
738.189771
 70
    64
  0
VERTEX
  5
254
  8
TEAM-NET
 10
198.999487
 20
-342.215174
 30
742.833512
 70
    64
  0
VERTEX
  5
255
  8
TEAM-NET
 10
203.961824
 20
-340.924679
 30
747.649703
 70
    64
  0
VERTEX
  5
256
  8
TEAM-NET
 10
208.744802
 20
-339.58959
 30
752.632326
 70
    64
  0
VERTEX
  5
257
  8
TEAM-NET
 10
213.342442
 20
-338.211574
 30
757.775151
 70
    64
  0
VERTEX
  5
258
  8
TEAM-NET
 10
217.748997
 20
-336.792354
 30
763.07175
 70
    64
  0
VERTEX
  5
259
  8
TEAM-NET
 10
221.958958
 20
-335.333705
 30
768.515502
 70
    64
  0
VERTEX
  5
25A
  8
TEAM-NET
 10
225.967064
 20
-333.83745
 30
774.099602
 70
    64
  0
VERTEX
  5
25B
  8
TEAM-NET
 10
229.768303
 20
-332.305459
 30
779.817071
 70
    64
  0
VERTEX
  5
25C
  8
TEAM-NET
 10
233.357926
 20
-330.739647
 30
785.660762
 70
    64
  0
VERTEX
  5
25D
  8
TEAM-NET
 10
235.793585
 20
-329.582736
 30
789.978413
 70
    64
  0
VERTEX
  5
25E
  8
TEAM-NET
 10
238.058436
 20
-328.402809
 30
794.38196
 70
    64
  0
VERTEX
  5
25F
  8
TEAM-NET
 10
240.149238
 20
-327.201556
 30
798.865099
 70
    64
  0
VERTEX
  5
260
  8
TEAM-NET
 10
242.062998
 20
-325.980694
 30
803.421415
 70
    64
  0
VERTEX
  5
261
  8
TEAM-NET
 10
243.796978
 20
-324.741972
 30
808.044388
 70
    64
  0
VERTEX
  5
262
  8
TEAM-NET
 10
245.348696
 20
-323.487162
 30
812.727402
 70
    64
  0
VERTEX
  5
263
  8
TEAM-NET
 10
246.715932
 20
-322.21806
 30
817.463756
 70
    64
  0
VERTEX
  5
264
  8
TEAM-NET
 10
247.896729
 20
-320.936482
 30
822.24667
 70
    64
  0
VERTEX
  5
265
  8
TEAM-NET
 10
248.889397
 20
-319.644262
 30
827.069302
 70
    64
  0
VERTEX
  5
266
  8
TEAM-NET
 10
249.692516
 20
-318.343249
 30
831.924749
 70
    64
  0
VERTEX
  5
267
  8
TEAM-NET
 10
250.304936
 20
-317.035305
 30
836.806062
 70
    64
  0
VERTEX
  5
268
  8
TEAM-NET
 10
250.725782
 20
-315.722302
 30
841.706257
 70
    64
  0
VERTEX
  5
269
  8
TEAM-NET
 10
-250.484524
 20
-313.5
 30
838.23294
 70
    64
  0
VERTEX
  5
26A
  8
TEAM-NET
 10
-249.976531
 20
-313.5
 30
833.435062
 70
    64
  0
VERTEX
  5
26B
  8
TEAM-NET
 10
-249.296869
 20
-313.5
 30
828.658477
 70
    64
  0
VERTEX
  5
26C
  8
TEAM-NET
 10
-248.44641
 20
-313.5
 30
823.909328
 70
    64
  0
VERTEX
  5
26D
  8
TEAM-NET
 10
-247.426248
 20
-313.5
 30
819.19372
 70
    64
  0
VERTEX
  5
26E
  8
TEAM-NET
 10
-246.237695
 20
-313.5
 30
814.517713
 70
    64
  0
VERTEX
  5
26F
  8
TEAM-NET
 10
-244.882278
 20
-313.5
 30
809.88732
 70
    64
  0
VERTEX
  5
270
  8
TEAM-NET
 10
-243.36174
 20
-313.5
 30
805.308492
 70
    64
  0
VERTEX
  5
271
  8
TEAM-NET
 10
-241.678035
 20
-313.5
 30
800.787117
 70
    64
  0
VERTEX
  5
272
  8
TEAM-NET
 10
-239.833328
 20
-313.5
 30
796.329006
 70
    64
  0
VERTEX
  5
273
  8
TEAM-NET
 10
-237.829991
 20
-313.5
 30
791.939891
 70
    64
  0
VERTEX
  5
274
  8
TEAM-NET
 10
-235.670598
 20
-313.5
 30
787.625413
 70
    64
  0
VERTEX
  5
275
  8
TEAM-NET
 10
-233.357926
 20
-313.5
 30
783.391119
 70
    64
  0
VERTEX
  5
276
  8
TEAM-NET
 10
-229.768303
 20
-313.5
 30
777.341286
 70
    64
  0
VERTEX
  5
277
  8
TEAM-NET
 10
-225.967064
 20
-313.5
 30
771.422126
 70
    64
  0
VERTEX
  5
278
  8
TEAM-NET
 10
-221.958958
 20
-313.5
 30
765.64104
 70
    64
  0
VERTEX
  5
279
  8
TEAM-NET
 10
-217.748997
 20
-313.5
 30
760.005253
 70
    64
  0
VERTEX
  5
27A
  8
TEAM-NET
 10
-213.342442
 20
-313.5
 30
754.52181
 70
    64
  0
VERTEX
  5
27B
  8
TEAM-NET
 10
-208.744802
 20
-313.5
 30
749.197566
 70
    64
  0
VERTEX
  5
27C
  8
TEAM-NET
 10
-203.961824
 20
-313.5
 30
744.039176
 70
    64
  0
VERTEX
  5
27D
  8
TEAM-NET
 10
-198.999487
 20
-313.5
 30
739.053087
 70
    64
  0
VERTEX
  5
27E
  8
TEAM-NET
 10
-193.863993
 20
-313.5
 30
734.245533
 70
    64
  0
VERTEX
  5
27F
  8
TEAM-NET
 10
-188.561762
 20
-313.5
 30
729.622523
 70
    64
  0
VERTEX
  5
280
  8
TEAM-NET
 10
-183.099423
 20
-313.5
 30
725.189836
 70
    64
  0
VERTEX
  5
281
  8
TEAM-NET
 10
-177.483802
 20
-313.5
 30
720.953012
 70
    64
  0
VERTEX
  5
282
  8
TEAM-NET
 10
-171.50746
 20
-313.5
 30
716.734339
 70
    64
  0
VERTEX
  5
283
  8
TEAM-NET
 10
-165.415303
 20
-313.5
 30
712.68471
 70
    64
  0
VERTEX
  5
284
  8
TEAM-NET
 10
-159.212112
 20
-313.5
 30
708.807302
 70
    64
  0
VERTEX
  5
285
  8
TEAM-NET
 10
-152.902754
 20
-313.5
 30
705.105158
 70
    64
  0
VERTEX
  5
286
  8
TEAM-NET
 10
-146.492179
 20
-313.5
 30
701.581183
 70
    64
  0
VERTEX
  5
287
  8
TEAM-NET
 10
-139.985418
 20
-313.5
 30
698.238141
 70
    64
  0
VERTEX
  5
288
  8
TEAM-NET
 10
-133.387575
 20
-313.5
 30
695.078656
 70
    64
  0
VERTEX
  5
289
  8
TEAM-NET
 10
-126.703829
 20
-313.5
 30
692.105206
 70
    64
  0
VERTEX
  5
28A
  8
TEAM-NET
 10
-119.939422
 20
-313.5
 30
689.320125
 70
    64
  0
VERTEX
  5
28B
  8
TEAM-NET
 10
-113.099663
 20
-313.5
 30
686.725598
 70
    64
  0
VERTEX
  5
28C
  8
TEAM-NET
 10
-106.189919
 20
-313.5
 30
684.323661
 70
    64
  0
VERTEX
  5
28D
  8
TEAM-NET
 10
-99.21561
 20
-313.5
 30
682.116199
 70
    64
  0
VERTEX
  5
28E
  8
TEAM-NET
 10
-91.156158
 20
-313.5
 30
679.795682
 70
    64
  0
VERTEX
  5
28F
  8
TEAM-NET
 10
-83.042537
 20
-313.5
 30
677.672306
 70
    64
  0
VERTEX
  5
290
  8
TEAM-NET
 10
-74.879569
 20
-313.5
 30
675.747331
 70
    64
  0
VERTEX
  5
291
  8
TEAM-NET
 10
-66.672105
 20
-313.5
 30
674.021902
 70
    64
  0
VERTEX
  5
292
  8
TEAM-NET
 10
-58.425023
 20
-313.5
 30
672.497044
 70
    64
  0
VERTEX
  5
293
  8
TEAM-NET
 10
-50.143221
 20
-313.5
 30
671.173663
 70
    64
  0
VERTEX
  5
294
  8
TEAM-NET
 10
-41.831623
 20
-313.5
 30
670.052545
 70
    64
  0
VERTEX
  5
295
  8
TEAM-NET
 10
-33.495167
 20
-313.5
 30
669.134357
 70
    64
  0
VERTEX
  5
296
  8
TEAM-NET
 10
-25.138807
 20
-313.5
 30
668.419645
 70
    64
  0
VERTEX
  5
297
  8
TEAM-NET
 10
-16.767508
 20
-313.5
 30
667.908832
 70
    64
  0
VERTEX
  5
298
  8
TEAM-NET
 10
-8.386246
 20
-313.5
 30
667.602223
 70
    64
  0
VERTEX
  5
299
  8
TEAM-NET
 10
0.0
 20
-313.5
 30
667.5
 70
    64
  0
VERTEX
  5
29A
  8
TEAM-NET
 10
8.386246
 20
-313.5
 30
667.602223
 70
    64
  0
VERTEX
  5
29B
  8
TEAM-NET
 10
16.767508
 20
-313.5
 30
667.908832
 70
    64
  0
VERTEX
  5
29C
  8
TEAM-NET
 10
25.138807
 20
-313.5
 30
668.419645
 70
    64
  0
VERTEX
  5
29D
  8
TEAM-NET
 10
33.495167
 20
-313.5
 30
669.134357
 70
    64
  0
VERTEX
  5
29E
  8
TEAM-NET
 10
41.831623
 20
-313.5
 30
670.052545
 70
    64
  0
VERTEX
  5
29F
  8
TEAM-NET
 10
50.143221
 20
-313.5
 30
671.173663
 70
    64
  0
VERTEX
  5
2A0
  8
TEAM-NET
 10
58.425023
 20
-313.5
 30
672.497044
 70
    64
  0
VERTEX
  5
2A1
  8
TEAM-NET
 10
66.672105
 20
-313.5
 30
674.021902
 70
    64
  0
VERTEX
  5
2A2
  8
TEAM-NET
 10
74.879569
 20
-313.5
 30
675.747331
 70
    64
  0
VERTEX
  5
2A3
  8
TEAM-NET
 10
83.042537
 20
-313.5
 30
677.672306
 70
    64
  0
VERTEX
  5
2A4
  8
TEAM-NET
 10
91.156158
 20
-313.5
 30
679.795682
 70
    64
  0
VERTEX
  5
2A5
  8
TEAM-NET
 10
99.21561
 20
-313.5
 30
682.116199
 70
    64
  0
VERTEX
  5
2A6
  8
TEAM-NET
 10
106.189919
 20
-313.5
 30
684.323661
 70
    64
  0
VERTEX
  5
2A7
  8
TEAM-NET
 10
113.099663
 20
-313.5
 30
686.725598
 70
    64
  0
VERTEX
  5
2A8
  8
TEAM-NET
 10
119.939422
 20
-313.5
 30
689.320125
 70
    64
  0
VERTEX
  5
2A9
  8
TEAM-NET
 10
126.703829
 20
-313.5
 30
692.105206
 70
    64
  0
VERTEX
  5
2AA
  8
TEAM-NET
 10
133.387575
 20
-313.5
 30
695.078656
 70
    64
  0
VERTEX
  5
2AB
  8
TEAM-NET
 10
139.985418
 20
-313.5
 30
698.238141
 70
    64
  0
VERTEX
  5
2AC
  8
TEAM-NET
 10
146.492179
 20
-313.5
 30
701.581183
 70
    64
  0
VERTEX
  5
2AD
  8
TEAM-NET
 10
152.902754
 20
-313.5
 30
705.105158
 70
    64
  0
VERTEX
  5
2AE
  8
TEAM-NET
 10
159.212112
 20
-313.5
 30
708.807302
 70
    64
  0
VERTEX
  5
2AF
  8
TEAM-NET
 10
165.415303
 20
-313.5
 30
712.68471
 70
    64
  0
VERTEX
  5
2B0
  8
TEAM-NET
 10
171.50746
 20
-313.5
 30
716.734339
 70
    64
  0
VERTEX
  5
2B1
  8
TEAM-NET
 10
177.483802
 20
-313.5
 30
720.953012
 70
    64
  0
VERTEX
  5
2B2
  8
TEAM-NET
 10
183.099423
 20
-313.5
 30
725.189836
 70
    64
  0
VERTEX
  5
2B3
  8
TEAM-NET
 10
188.561762
 20
-313.5
 30
729.622523
 70
    64
  0
VERTEX
  5
2B4
  8
TEAM-NET
 10
193.863993
 20
-313.5
 30
734.245533
 70
    64
  0
VERTEX
  5
2B5
  8
TEAM-NET
 10
198.999487
 20
-313.5
 30
739.053087
 70
    64
  0
VERTEX
  5
2B6
  8
TEAM-NET
 10
203.961824
 20
-313.5
 30
744.039176
 70
    64
  0
VERTEX
  5
2B7
  8
TEAM-NET
 10
208.744802
 20
-313.5
 30
749.197566
 70
    64
  0
VERTEX
  5
2B8
  8
TEAM-NET
 10
213.342442
 20
-313.5
 30
754.52181
 70
    64
  0
VERTEX
  5
2B9
  8
TEAM-NET
 10
217.748997
 20
-313.5
 30
760.005253
 70
    64
  0
VERTEX
  5
2BA
  8
TEAM-NET
 10
221.958958
 20
-313.5
 30
765.64104
 70
    64
  0
VERTEX
  5
2BB
  8
TEAM-NET
 10
225.967064
 20
-313.5
 30
771.422126
 70
    64
  0
VERTEX
  5
2BC
  8
TEAM-NET
 10
229.768303
 20
-313.5
 30
777.341286
 70
    64
  0
VERTEX
  5
2BD
  8
TEAM-NET
 10
233.357926
 20
-313.5
 30
783.391119
 70
    64
  0
VERTEX
  5
2BE
  8
TEAM-NET
 10
235.793585
 20
-313.5
 30
787.861081
 70
    64
  0
VERTEX
  5
2BF
  8
TEAM-NET
 10
238.058436
 20
-313.5
 30
792.419968
 70
    64
  0
VERTEX
  5
2C0
  8
TEAM-NET
 10
240.149238
 20
-313.5
 30
797.061255
 70
    64
  0
VERTEX
  5
2C1
  8
TEAM-NET
 10
242.062998
 20
-313.5
 30
801.7783
 70
    64
  0
VERTEX
  5
2C2
  8
TEAM-NET
 10
243.796978
 20
-313.5
 30
806.564354
 70
    64
  0
VERTEX
  5
2C3
  8
TEAM-NET
 10
245.348696
 20
-313.5
 30
811.412567
 70
    64
  0
VERTEX
  5
2C4
  8
TEAM-NET
 10
246.715932
 20
-313.5
 30
816.316001
 70
    64
  0
VERTEX
  5
2C5
  8
TEAM-NET
 10
247.896729
 20
-313.5
 30
821.267639
 70
    64
  0
VERTEX
  5
2C6
  8
TEAM-NET
 10
248.889397
 20
-313.5
 30
826.260394
 70
    64
  0
VERTEX
  5
2C7
  8
TEAM-NET
 10
249.692516
 20
-313.5
 30
831.287123
 70
    64
  0
VERTEX
  5
2C8
  8
TEAM-NET
 10
250.304936
 20
-313.5
 30
836.34063
 70
    64
  0
VERTEX
  5
2C9
  8
TEAM-NET
 10
250.725782
 20
-313.5
 30
841.413686
 70
    64
  0
VERTEX
  5
2CA
  8
TEAM-NET
 10
-250.484524
 20
-310.454461
 30
838.633893
 70
    64
  0
VERTEX
  5
2CB
  8
TEAM-NET
 10
-249.976531
 20
-309.212678
 30
833.999498
 70
    64
  0
VERTEX
  5
2CC
  8
TEAM-NET
 10
-249.296869
 20
-307.976408
 30
829.385672
 70
    64
  0
VERTEX
  5
2CD
  8
TEAM-NET
 10
-248.44641
 20
-306.747237
 30
824.798346
 70
    64
  0
VERTEX
  5
2CE
  8
TEAM-NET
 10
-247.426248
 20
-305.526748
 30
820.243418
 70
    64
  0
VERTEX
  5
2CF
  8
TEAM-NET
 10
-246.237695
 20
-304.316508
 30
815.726743
 70
    64
  0
VERTEX
  5
2D0
  8
TEAM-NET
 10
-244.882278
 20
-303.118074
 30
811.254126
 70
    64
  0
VERTEX
  5
2D1
  8
TEAM-NET
 10
-243.36174
 20
-301.932987
 30
806.831319
 70
    64
  0
VERTEX
  5
2D2
  8
TEAM-NET
 10
-241.678035
 20
-300.762769
 30
802.464005
 70
    64
  0
VERTEX
  5
2D3
  8
TEAM-NET
 10
-239.833328
 20
-299.608925
 30
798.157801
 70
    64
  0
VERTEX
  5
2D4
  8
TEAM-NET
 10
-237.829991
 20
-298.472938
 30
793.918241
 70
    64
  0
VERTEX
  5
2D5
  8
TEAM-NET
 10
-235.670598
 20
-297.356269
 30
789.750775
 70
    64
  0
VERTEX
  5
2D6
  8
TEAM-NET
 10
-233.357926
 20
-296.260353
 30
785.660762
 70
    64
  0
VERTEX
  5
2D7
  8
TEAM-NET
 10
-229.768303
 20
-294.694541
 30
779.817071
 70
    64
  0
VERTEX
  5
2D8
  8
TEAM-NET
 10
-225.967064
 20
-293.16255
 30
774.099602
 70
    64
  0
VERTEX
  5
2D9
  8
TEAM-NET
 10
-221.958958
 20
-291.666295
 30
768.515502
 70
    64
  0
VERTEX
  5
2DA
  8
TEAM-NET
 10
-217.748997
 20
-290.207646
 30
763.07175
 70
    64
  0
VERTEX
  5
2DB
  8
TEAM-NET
 10
-213.342442
 20
-288.788426
 30
757.775151
 70
    64
  0
VERTEX
  5
2DC
  8
TEAM-NET
 10
-208.744802
 20
-287.41041
 30
752.632326
 70
    64
  0
VERTEX
  5
2DD
  8
TEAM-NET
 10
-203.961824
 20
-286.075321
 30
747.649703
 70
    64
  0
VERTEX
  5
2DE
  8
TEAM-NET
 10
-198.999487
 20
-284.784826
 30
742.833512
 70
    64
  0
VERTEX
  5
2DF
  8
TEAM-NET
 10
-193.863993
 20
-283.540539
 30
738.189771
 70
    64
  0
VERTEX
  5
2E0
  8
TEAM-NET
 10
-188.561762
 20
-282.344016
 30
733.724286
 70
    64
  0
VERTEX
  5
2E1
  8
TEAM-NET
 10
-183.099423
 20
-281.196753
 30
729.442639
 70
    64
  0
VERTEX
  5
2E2
  8
TEAM-NET
 10
-177.483802
 20
-280.100182
 30
725.350182
 70
    64
  0
VERTEX
  5
2E3
  8
TEAM-NET
 10
-171.50746
 20
-279.008309
 30
721.275257
 70
    64
  0
VERTEX
  5
2E4
  8
TEAM-NET
 10
-165.415303
 20
-277.960188
 30
717.363615
 70
    64
  0
VERTEX
  5
2E5
  8
TEAM-NET
 10
-159.212112
 20
-276.956641
 30
713.618327
 70
    64
  0
VERTEX
  5
2E6
  8
TEAM-NET
 10
-152.902754
 20
-275.998455
 30
710.04233
 70
    64
  0
VERTEX
  5
2E7
  8
TEAM-NET
 10
-146.492179
 20
-275.086383
 30
706.638431
 70
    64
  0
VERTEX
  5
2E8
  8
TEAM-NET
 10
-139.985418
 20
-274.221141
 30
703.409301
 70
    64
  0
VERTEX
  5
2E9
  8
TEAM-NET
 10
-133.387575
 20
-273.403406
 30
700.357472
 70
    64
  0
VERTEX
  5
2EA
  8
TEAM-NET
 10
-126.703829
 20
-272.63382
 30
697.485341
 70
    64
  0
VERTEX
  5
2EB
  8
TEAM-NET
 10
-119.939422
 20
-271.912988
 30
694.795159
 70
    64
  0
VERTEX
  5
2EC
  8
TEAM-NET
 10
-113.099663
 20
-271.241475
 30
692.289039
 70
    64
  0
VERTEX
  5
2ED
  8
TEAM-NET
 10
-106.189919
 20
-270.619808
 30
689.968946
 70
    64
  0
VERTEX
  5
2EE
  8
TEAM-NET
 10
-99.21561
 20
-270.048475
 30
687.8367
 70
    64
  0
VERTEX
  5
2EF
  8
TEAM-NET
 10
-91.156158
 20
-269.447881
 30
685.595254
 70
    64
  0
VERTEX
  5
2F0
  8
TEAM-NET
 10
-83.042537
 20
-268.898311
 30
683.54423
 70
    64
  0
VERTEX
  5
2F1
  8
TEAM-NET
 10
-74.879569
 20
-268.400091
 30
681.684847
 70
    64
  0
VERTEX
  5
2F2
  8
TEAM-NET
 10
-66.672105
 20
-267.953517
 30
680.01821
 70
    64
  0
VERTEX
  5
2F3
  8
TEAM-NET
 10
-58.425023
 20
-267.558854
 30
678.54531
 70
    64
  0
VERTEX
  5
2F4
  8
TEAM-NET
 10
-50.143221
 20
-267.216338
 30
677.267023
 70
    64
  0
VERTEX
  5
2F5
  8
TEAM-NET
 10
-41.831623
 20
-266.926172
 30
676.184106
 70
    64
  0
VERTEX
  5
2F6
  8
TEAM-NET
 10
-33.495167
 20
-266.688527
 30
675.297205
 70
    64
  0
VERTEX
  5
2F7
  8
TEAM-NET
 10
-25.138807
 20
-266.503546
 30
674.606845
 70
    64
  0
VERTEX
  5
2F8
  8
TEAM-NET
 10
-16.767508
 20
-266.371338
 30
674.113438
 70
    64
  0
VERTEX
  5
2F9
  8
TEAM-NET
 10
-8.386246
 20
-266.291982
 30
673.817277
 70
    64
  0
VERTEX
  5
2FA
  8
TEAM-NET
 10
0.0
 20
-266.265524
 30
673.718537
 70
    64
  0
VERTEX
  5
2FB
  8
TEAM-NET
 10
8.386246
 20
-266.291982
 30
673.817277
 70
    64
  0
VERTEX
  5
2FC
  8
TEAM-NET
 10
16.767508
 20
-266.371338
 30
674.113438
 70
    64
  0
VERTEX
  5
2FD
  8
TEAM-NET
 10
25.138807
 20
-266.503546
 30
674.606845
 70
    64
  0
VERTEX
  5
2FE
  8
TEAM-NET
 10
33.495167
 20
-266.688527
 30
675.297205
 70
    64
  0
VERTEX
  5
2FF
  8
TEAM-NET
 10
41.831623
 20
-266.926172
 30
676.184106
 70
    64
  0
VERTEX
  5
300
  8
TEAM-NET
 10
50.143221
 20
-267.216338
 30
677.267023
 70
    64
  0
VERTEX
  5
301
  8
TEAM-NET
 10
58.425023
 20
-267.558854
 30
678.54531
 70
    64
  0
VERTEX
  5
302
  8
TEAM-NET
 10
66.672105
 20
-267.953517
 30
680.01821
 70
    64
  0
VERTEX
  5
303
  8
TEAM-NET
 10
74.879569
 20
-268.400091
 30
681.684847
 70
    64
  0
VERTEX
  5
304
  8
TEAM-NET
 10
83.042537
 20
-268.898311
 30
683.54423
 70
    64
  0
VERTEX
  5
305
  8
TEAM-NET
 10
91.156158
 20
-269.447881
 30
685.595254
 70
    64
  0
VERTEX
  5
306
  8
TEAM-NET
 10
99.21561
 20
-270.048475
 30
687.8367
 70
    64
  0
VERTEX
  5
307
  8
TEAM-NET
 10
106.189919
 20
-270.619808
 30
689.968946
 70
    64
  0
VERTEX
  5
308
  8
TEAM-NET
 10
113.099663
 20
-271.241475
 30
692.289039
 70
    64
  0
VERTEX
  5
309
  8
TEAM-NET
 10
119.939422
 20
-271.912988
 30
694.795159
 70
    64
  0
VERTEX
  5
30A
  8
TEAM-NET
 10
126.703829
 20
-272.63382
 30
697.485341
 70
    64
  0
VERTEX
  5
30B
  8
TEAM-NET
 10
133.387575
 20
-273.403406
 30
700.357472
 70
    64
  0
VERTEX
  5
30C
  8
TEAM-NET
 10
139.985418
 20
-274.221141
 30
703.409301
 70
    64
  0
VERTEX
  5
30D
  8
TEAM-NET
 10
146.492179
 20
-275.086383
 30
706.638431
 70
    64
  0
VERTEX
  5
30E
  8
TEAM-NET
 10
152.902754
 20
-275.998455
 30
710.04233
 70
    64
  0
VERTEX
  5
30F
  8
TEAM-NET
 10
159.212112
 20
-276.956641
 30
713.618327
 70
    64
  0
VERTEX
  5
310
  8
TEAM-NET
 10
165.415303
 20
-277.960188
 30
717.363615
 70
    64
  0
VERTEX
  5
311
  8
TEAM-NET
 10
171.50746
 20
-279.008309
 30
721.275257
 70
    64
  0
VERTEX
  5
312
  8
TEAM-NET
 10
177.483802
 20
-280.100182
 30
725.350182
 70
    64
  0
VERTEX
  5
313
  8
TEAM-NET
 10
183.099423
 20
-281.196753
 30
729.442639
 70
    64
  0
VERTEX
  5
314
  8
TEAM-NET
 10
188.561762
 20
-282.344016
 30
733.724286
 70
    64
  0
VERTEX
  5
315
  8
TEAM-NET
 10
193.863993
 20
-283.540539
 30
738.189771
 70
    64
  0
VERTEX
  5
316
  8
TEAM-NET
 10
198.999487
 20
-284.784826
 30
742.833512
 70
    64
  0
VERTEX
  5
317
  8
TEAM-NET
 10
203.961824
 20
-286.075321
 30
747.649703
 70
    64
  0
VERTEX
  5
318
  8
TEAM-NET
 10
208.744802
 20
-287.41041
 30
752.632326
 70
    64
  0
VERTEX
  5
319
  8
TEAM-NET
 10
213.342442
 20
-288.788426
 30
757.775151
 70
    64
  0
VERTEX
  5
31A
  8
TEAM-NET
 10
217.748997
 20
-290.207646
 30
763.07175
 70
    64
  0
VERTEX
  5
31B
  8
TEAM-NET
 10
221.958958
 20
-291.666295
 30
768.515502
 70
    64
  0
VERTEX
  5
31C
  8
TEAM-NET
 10
225.967064
 20
-293.16255
 30
774.099602
 70
    64
  0
VERTEX
  5
31D
  8
TEAM-NET
 10
229.768303
 20
-294.694541
 30
779.817071
 70
    64
  0
VERTEX
  5
31E
  8
TEAM-NET
 10
233.357926
 20
-296.260353
 30
785.660762
 70
    64
  0
VERTEX
  5
31F
  8
TEAM-NET
 10
235.793585
 20
-297.417264
 30
789.978413
 70
    64
  0
VERTEX
  5
320
  8
TEAM-NET
 10
238.058436
 20
-298.597191
 30
794.38196
 70
    64
  0
VERTEX
  5
321
  8
TEAM-NET
 10
240.149238
 20
-299.798444
 30
798.865099
 70
    64
  0
VERTEX
  5
322
  8
TEAM-NET
 10
242.062998
 20
-301.019306
 30
803.421415
 70
    64
  0
VERTEX
  5
323
  8
TEAM-NET
 10
243.796978
 20
-302.258028
 30
808.044388
 70
    64
  0
VERTEX
  5
324
  8
TEAM-NET
 10
245.348696
 20
-303.512838
 30
812.727402
 70
    64
  0
VERTEX
  5
325
  8
TEAM-NET
 10
246.715932
 20
-304.78194
 30
817.463756
 70
    64
  0
VERTEX
  5
326
  8
TEAM-NET
 10
247.896729
 20
-306.063518
 30
822.24667
 70
    64
  0
VERTEX
  5
327
  8
TEAM-NET
 10
248.889397
 20
-307.355738
 30
827.069302
 70
    64
  0
VERTEX
  5
328
  8
TEAM-NET
 10
249.692516
 20
-308.656751
 30
831.924749
 70
    64
  0
VERTEX
  5
329
  8
TEAM-NET
 10
250.304936
 20
-309.964695
 30
836.806062
 70
    64
  0
VERTEX
  5
32A
  8
TEAM-NET
 10
250.725782
 20
-311.277698
 30
841.706257
 70
    64
  0
VERTEX
  5
32B
  8
TEAM-NET
 10
-250.484524
 20
-307.61647
 30
839.809427
 70
    64
  0
VERTEX
  5
32C
  8
TEAM-NET
 10
-249.976531
 20
-305.217531
 30
835.654342
 70
    64
  0
VERTEX
  5
32D
  8
TEAM-NET
 10
-249.296869
 20
-302.829239
 30
831.517699
 70
    64
  0
VERTEX
  5
32E
  8
TEAM-NET
 10
-248.44641
 20
-300.454664
 30
827.404816
 70
    64
  0
VERTEX
  5
32F
  8
TEAM-NET
 10
-247.426248
 20
-298.09686
 30
823.320979
 70
    64
  0
VERTEX
  5
330
  8
TEAM-NET
 10
-246.237695
 20
-295.758856
 30
819.271438
 70
    64
  0
VERTEX
  5
331
  8
TEAM-NET
 10
-244.882278
 20
-293.44366
 30
815.2614
 70
    64
  0
VERTEX
  5
332
  8
TEAM-NET
 10
-243.36174
 20
-291.154246
 30
811.296019
 70
    64
  0
VERTEX
  5
333
  8
TEAM-NET
 10
-241.678035
 20
-288.893559
 30
807.380393
 70
    64
  0
VERTEX
  5
334
  8
TEAM-NET
 10
-239.833328
 20
-286.664503
 30
803.519556
 70
    64
  0
VERTEX
  5
335
  8
TEAM-NET
 10
-237.829991
 20
-284.469945
 30
799.71847
 70
    64
  0
VERTEX
  5
336
  8
TEAM-NET
 10
-235.670598
 20
-282.312706
 30
795.982023
 70
    64
  0
VERTEX
  5
337
  8
TEAM-NET
 10
-233.357926
 20
-280.195559
 30
792.315017
 70
    64
  0
VERTEX
  5
338
  8
TEAM-NET
 10
-229.768303
 20
-277.170643
 30
787.075708
 70
    64
  0
VERTEX
  5
339
  8
TEAM-NET
 10
-225.967064
 20
-274.211063
 30
781.949565
 70
    64
  0
VERTEX
  5
33A
  8
TEAM-NET
 10
-221.958958
 20
-271.32052
 30
776.942998
 70
    64
  0
VERTEX
  5
33B
  8
TEAM-NET
 10
-217.748997
 20
-268.502627
 30
772.062263
 70
    64
  0
VERTEX
  5
33C
  8
TEAM-NET
 10
-213.342442
 20
-265.760905
 30
767.313462
 70
    64
  0
VERTEX
  5
33D
  8
TEAM-NET
 10
-208.744802
 20
-263.098783
 30
762.702531
 70
    64
  0
VERTEX
  5
33E
  8
TEAM-NET
 10
-203.961824
 20
-260.519588
 30
758.235234
 70
    64
  0
VERTEX
  5
33F
  8
TEAM-NET
 10
-198.999487
 20
-258.026544
 30
753.917155
 70
    64
  0
VERTEX
  5
340
  8
TEAM-NET
 10
-193.863993
 20
-255.622767
 30
749.753691
 70
    64
  0
VERTEX
  5
341
  8
TEAM-NET
 10
-188.561762
 20
-253.311262
 30
745.750047
 70
    64
  0
VERTEX
  5
342
  8
TEAM-NET
 10
-183.099423
 20
-251.094918
 30
741.911227
 70
    64
  0
VERTEX
  5
343
  8
TEAM-NET
 10
-177.483802
 20
-248.976506
 30
738.24203
 70
    64
  0
VERTEX
  5
344
  8
TEAM-NET
 10
-171.50746
 20
-246.86717
 30
734.588552
 70
    64
  0
VERTEX
  5
345
  8
TEAM-NET
 10
-165.415303
 20
-244.842355
 30
731.081471
 70
    64
  0
VERTEX
  5
346
  8
TEAM-NET
 10
-159.212112
 20
-242.903651
 30
727.723537
 70
    64
  0
VERTEX
  5
347
  8
TEAM-NET
 10
-152.902754
 20
-241.052579
 30
724.517386
 70
    64
  0
VERTEX
  5
348
  8
TEAM-NET
 10
-146.492179
 20
-239.290591
 30
721.465534
 70
    64
  0
VERTEX
  5
349
  8
TEAM-NET
 10
-139.985418
 20
-237.61907
 30
718.570375
 70
    64
  0
VERTEX
  5
34A
  8
TEAM-NET
 10
-133.387575
 20
-236.039328
 30
715.83418
 70
    64
  0
VERTEX
  5
34B
  8
TEAM-NET
 10
-126.703829
 20
-234.552603
 30
713.259097
 70
    64
  0
VERTEX
  5
34C
  8
TEAM-NET
 10
-119.939422
 20
-233.160063
 30
710.847146
 70
    64
  0
VERTEX
  5
34D
  8
TEAM-NET
 10
-113.099663
 20
-231.862799
 30
708.60022
 70
    64
  0
VERTEX
  5
34E
  8
TEAM-NET
 10
-106.189919
 20
-230.661831
 30
706.520082
 70
    64
  0
VERTEX
  5
34F
  8
TEAM-NET
 10
-99.21561
 20
-229.558099
 30
704.608363
 70
    64
  0
VERTEX
  5
350
  8
TEAM-NET
 10
-91.156158
 20
-228.397841
 30
702.598737
 70
    64
  0
VERTEX
  5
351
  8
TEAM-NET
 10
-83.042537
 20
-227.336153
 30
700.759839
 70
    64
  0
VERTEX
  5
352
  8
TEAM-NET
 10
-74.879569
 20
-226.373666
 30
699.092762
 70
    64
  0
VERTEX
  5
353
  8
TEAM-NET
 10
-66.672105
 20
-225.510951
 30
697.598497
 70
    64
  0
VERTEX
  5
354
  8
TEAM-NET
 10
-58.425023
 20
-224.748522
 30
696.277931
 70
    64
  0
VERTEX
  5
355
  8
TEAM-NET
 10
-50.143221
 20
-224.086831
 30
695.131849
 70
    64
  0
VERTEX
  5
356
  8
TEAM-NET
 10
-41.831623
 20
-223.526273
 30
694.160933
 70
    64
  0
VERTEX
  5
357
  8
TEAM-NET
 10
-33.495167
 20
-223.067179
 30
693.365759
 70
    64
  0
VERTEX
  5
358
  8
TEAM-NET
 10
-25.138807
 20
-222.709822
 30
692.7468
 70
    64
  0
VERTEX
  5
359
  8
TEAM-NET
 10
-16.767508
 20
-222.454416
 30
692.304423
 70
    64
  0
VERTEX
  5
35A
  8
TEAM-NET
 10
-8.386246
 20
-222.301112
 30
692.038892
 70
    64
  0
VERTEX
  5
35B
  8
TEAM-NET
 10
0.0
 20
-222.25
 30
691.950364
 70
    64
  0
VERTEX
  5
35C
  8
TEAM-NET
 10
8.386246
 20
-222.301112
 30
692.038892
 70
    64
  0
VERTEX
  5
35D
  8
TEAM-NET
 10
16.767508
 20
-222.454416
 30
692.304423
 70
    64
  0
VERTEX
  5
35E
  8
TEAM-NET
 10
25.138807
 20
-222.709822
 30
692.7468
 70
    64
  0
VERTEX
  5
35F
  8
TEAM-NET
 10
33.495167
 20
-223.067179
 30
693.365759
 70
    64
  0
VERTEX
  5
360
  8
TEAM-NET
 10
41.831623
 20
-223.526273
 30
694.160933
 70
    64
  0
VERTEX
  5
361
  8
TEAM-NET
 10
50.143221
 20
-224.086831
 30
695.131849
 70
    64
  0
VERTEX
  5
362
  8
TEAM-NET
 10
58.425023
 20
-224.748522
 30
696.277931
 70
    64
  0
VERTEX
  5
363
  8
TEAM-NET
 10
66.672105
 20
-225.510951
 30
697.598497
 70
    64
  0
VERTEX
  5
364
  8
TEAM-NET
 10
74.879569
 20
-226.373666
 30
699.092762
 70
    64
  0
VERTEX
  5
365
  8
TEAM-NET
 10
83.042537
 20
-227.336153
 30
700.759839
 70
    64
  0
VERTEX
  5
366
  8
TEAM-NET
 10
91.156158
 20
-228.397841
 30
702.598737
 70
    64
  0
VERTEX
  5
367
  8
TEAM-NET
 10
99.21561
 20
-229.558099
 30
704.608363
 70
    64
  0
VERTEX
  5
368
  8
TEAM-NET
 10
106.189919
 20
-230.661831
 30
706.520082
 70
    64
  0
VERTEX
  5
369
  8
TEAM-NET
 10
113.099663
 20
-231.862799
 30
708.60022
 70
    64
  0
VERTEX
  5
36A
  8
TEAM-NET
 10
119.939422
 20
-233.160063
 30
710.847146
 70
    64
  0
VERTEX
  5
36B
  8
TEAM-NET
 10
126.703829
 20
-234.552603
 30
713.259097
 70
    64
  0
VERTEX
  5
36C
  8
TEAM-NET
 10
133.387575
 20
-236.039328
 30
715.83418
 70
    64
  0
VERTEX
  5
36D
  8
TEAM-NET
 10
139.985418
 20
-237.61907
 30
718.570375
 70
    64
  0
VERTEX
  5
36E
  8
TEAM-NET
 10
146.492179
 20
-239.290591
 30
721.465534
 70
    64
  0
VERTEX
  5
36F
  8
TEAM-NET
 10
152.902754
 20
-241.052579
 30
724.517386
 70
    64
  0
VERTEX
  5
370
  8
TEAM-NET
 10
159.212112
 20
-242.903651
 30
727.723537
 70
    64
  0
VERTEX
  5
371
  8
TEAM-NET
 10
165.415303
 20
-244.842355
 30
731.081471
 70
    64
  0
VERTEX
  5
372
  8
TEAM-NET
 10
171.50746
 20
-246.86717
 30
734.588552
 70
    64
  0
VERTEX
  5
373
  8
TEAM-NET
 10
177.483802
 20
-248.976506
 30
738.24203
 70
    64
  0
VERTEX
  5
374
  8
TEAM-NET
 10
183.099423
 20
-251.094918
 30
741.911227
 70
    64
  0
VERTEX
  5
375
  8
TEAM-NET
 10
188.561762
 20
-253.311262
 30
745.750047
 70
    64
  0
VERTEX
  5
376
  8
TEAM-NET
 10
193.863993
 20
-255.622767
 30
749.753691
 70
    64
  0
VERTEX
  5
377
  8
TEAM-NET
 10
198.999487
 20
-258.026544
 30
753.917155
 70
    64
  0
VERTEX
  5
378
  8
TEAM-NET
 10
203.961824
 20
-260.519588
 30
758.235234
 70
    64
  0
VERTEX
  5
379
  8
TEAM-NET
 10
208.744802
 20
-263.098783
 30
762.702531
 70
    64
  0
VERTEX
  5
37A
  8
TEAM-NET
 10
213.342442
 20
-265.760905
 30
767.313462
 70
    64
  0
VERTEX
  5
37B
  8
TEAM-NET
 10
217.748997
 20
-268.502627
 30
772.062263
 70
    64
  0
VERTEX
  5
37C
  8
TEAM-NET
 10
221.958958
 20
-271.32052
 30
776.942998
 70
    64
  0
VERTEX
  5
37D
  8
TEAM-NET
 10
225.967064
 20
-274.211063
 30
781.949565
 70
    64
  0
VERTEX
  5
37E
  8
TEAM-NET
 10
229.768303
 20
-277.170643
 30
787.075708
 70
    64
  0
VERTEX
  5
37F
  8
TEAM-NET
 10
233.357926
 20
-280.195559
 30
792.315017
 70
    64
  0
VERTEX
  5
380
  8
TEAM-NET
 10
235.793585
 20
-282.43054
 30
796.186118
 70
    64
  0
VERTEX
  5
381
  8
TEAM-NET
 10
238.058436
 20
-284.709984
 30
800.134229
 70
    64
  0
VERTEX
  5
382
  8
TEAM-NET
 10
240.149238
 20
-287.030627
 30
804.153702
 70
    64
  0
VERTEX
  5
383
  8
TEAM-NET
 10
242.062998
 20
-289.38915
 30
808.238783
 70
    64
  0
VERTEX
  5
384
  8
TEAM-NET
 10
243.796978
 20
-291.782177
 30
812.383627
 70
    64
  0
VERTEX
  5
385
  8
TEAM-NET
 10
245.348696
 20
-294.206284
 30
816.582303
 70
    64
  0
VERTEX
  5
386
  8
TEAM-NET
 10
246.715932
 20
-296.658001
 30
820.828801
 70
    64
  0
VERTEX
  5
387
  8
TEAM-NET
 10
247.896729
 20
-299.133819
 30
825.117045
 70
    64
  0
VERTEX
  5
388
  8
TEAM-NET
 10
248.889397
 20
-301.630197
 30
829.440899
 70
    64
  0
VERTEX
  5
389
  8
TEAM-NET
 10
249.692516
 20
-304.143561
 30
833.794173
 70
    64
  0
VERTEX
  5
38A
  8
TEAM-NET
 10
250.304936
 20
-306.670315
 30
838.170639
 70
    64
  0
VERTEX
  5
38B
  8
TEAM-NET
 10
250.725782
 20
-309.206843
 30
842.564034
 70
    64
  0
VERTEX
  5
38C
  8
TEAM-NET
 10
-250.484524
 20
-305.179432
 30
841.679432
 70
    64
  0
VERTEX
  5
38D
  8
TEAM-NET
 10
-249.976531
 20
-301.78682
 30
838.28682
 70
    64
  0
VERTEX
  5
38E
  8
TEAM-NET
 10
-249.296869
 20
-298.409265
 30
834.909265
 70
    64
  0
VERTEX
  5
38F
  8
TEAM-NET
 10
-248.44641
 20
-295.051109
 30
831.551109
 70
    64
  0
VERTEX
  5
390
  8
TEAM-NET
 10
-247.426248
 20
-291.71667
 30
828.21667
 70
    64
  0
VERTEX
  5
391
  8
TEAM-NET
 10
-246.237695
 20
-288.410234
 30
824.910234
 70
    64
  0
VERTEX
  5
392
  8
TEAM-NET
 10
-244.882278
 20
-285.136052
 30
821.636052
 70
    64
  0
VERTEX
  5
393
  8
TEAM-NET
 10
-243.36174
 20
-281.898332
 30
818.398332
 70
    64
  0
VERTEX
  5
394
  8
TEAM-NET
 10
-241.678035
 20
-278.701237
 30
815.201237
 70
    64
  0
VERTEX
  5
395
  8
TEAM-NET
 10
-239.833328
 20
-275.548876
 30
812.048876
 70
    64
  0
VERTEX
  5
396
  8
TEAM-NET
 10
-237.829991
 20
-272.445303
 30
808.945303
 70
    64
  0
VERTEX
  5
397
  8
TEAM-NET
 10
-235.670598
 20
-269.394506
 30
805.894506
 70
    64
  0
VERTEX
  5
398
  8
TEAM-NET
 10
-233.357926
 20
-266.400409
 30
802.900409
 70
    64
  0
VERTEX
  5
399
  8
TEAM-NET
 10
-229.768303
 20
-262.12253
 30
798.62253
 70
    64
  0
VERTEX
  5
39A
  8
TEAM-NET
 10
-225.967064
 20
-257.937053
 30
794.437053
 70
    64
  0
VERTEX
  5
39B
  8
TEAM-NET
 10
-221.958958
 20
-253.849207
 30
790.349207
 70
    64
  0
VERTEX
  5
39C
  8
TEAM-NET
 10
-217.748997
 20
-249.864104
 30
786.364104
 70
    64
  0
VERTEX
  5
39D
  8
TEAM-NET
 10
-213.342442
 20
-245.986725
 30
782.486725
 70
    64
  0
VERTEX
  5
39E
  8
TEAM-NET
 10
-208.744802
 20
-242.221915
 30
778.721915
 70
    64
  0
VERTEX
  5
39F
  8
TEAM-NET
 10
-203.961824
 20
-238.574383
 30
775.074383
 70
    64
  0
VERTEX
  5
3A0
  8
TEAM-NET
 10
-198.999487
 20
-235.048686
 30
771.548686
 70
    64
  0
VERTEX
  5
3A1
  8
TEAM-NET
 10
-193.863993
 20
-231.649232
 30
768.149232
 70
    64
  0
VERTEX
  5
3A2
  8
TEAM-NET
 10
-188.561762
 20
-228.38027
 30
764.88027
 70
    64
  0
VERTEX
  5
3A3
  8
TEAM-NET
 10
-183.099423
 20
-225.245887
 30
761.745887
 70
    64
  0
VERTEX
  5
3A4
  8
TEAM-NET
 10
-177.483802
 20
-222.25
 30
758.75
 70
    64
  0
VERTEX
  5
3A5
  8
TEAM-NET
 10
-171.50746
 20
-219.266948
 30
755.766948
 70
    64
  0
VERTEX
  5
3A6
  8
TEAM-NET
 10
-165.415303
 20
-216.403427
 30
752.903427
 70
    64
  0
VERTEX
  5
3A7
  8
TEAM-NET
 10
-159.212112
 20
-213.661686
 30
750.161686
 70
    64
  0
VERTEX
  5
3A8
  8
TEAM-NET
 10
-152.902754
 20
-211.043875
 30
747.543875
 70
    64
  0
VERTEX
  5
3A9
  8
TEAM-NET
 10
-146.492179
 20
-208.552048
 30
745.052048
 70
    64
  0
VERTEX
  5
3AA
  8
TEAM-NET
 10
-139.985418
 20
-206.18816
 30
742.68816
 70
    64
  0
VERTEX
  5
3AB
  8
TEAM-NET
 10
-133.387575
 20
-203.954067
 30
740.454067
 70
    64
  0
VERTEX
  5
3AC
  8
TEAM-NET
 10
-126.703829
 20
-201.85152
 30
738.35152
 70
    64
  0
VERTEX
  5
3AD
  8
TEAM-NET
 10
-119.939422
 20
-199.882171
 30
736.382171
 70
    64
  0
VERTEX
  5
3AE
  8
TEAM-NET
 10
-113.099663
 20
-198.047563
 30
734.547563
 70
    64
  0
VERTEX
  5
3AF
  8
TEAM-NET
 10
-106.189919
 20
-196.349137
 30
732.849137
 70
    64
  0
VERTEX
  5
3B0
  8
TEAM-NET
 10
-99.21561
 20
-194.788226
 30
731.288226
 70
    64
  0
VERTEX
  5
3B1
  8
TEAM-NET
 10
-91.156158
 20
-193.147373
 30
729.647373
 70
    64
  0
VERTEX
  5
3B2
  8
TEAM-NET
 10
-83.042537
 20
-191.645919
 30
728.145919
 70
    64
  0
VERTEX
  5
3B3
  8
TEAM-NET
 10
-74.879569
 20
-190.284756
 30
726.784756
 70
    64
  0
VERTEX
  5
3B4
  8
TEAM-NET
 10
-66.672105
 20
-189.064694
 30
725.564694
 70
    64
  0
VERTEX
  5
3B5
  8
TEAM-NET
 10
-58.425023
 20
-187.986456
 30
724.486456
 70
    64
  0
VERTEX
  5
3B6
  8
TEAM-NET
 10
-50.143221
 20
-187.050684
 30
723.550684
 70
    64
  0
VERTEX
  5
3B7
  8
TEAM-NET
 10
-41.831623
 20
-186.257935
 30
722.757935
 70
    64
  0
VERTEX
  5
3B8
  8
TEAM-NET
 10
-33.495167
 20
-185.608678
 30
722.108678
 70
    64
  0
VERTEX
  5
3B9
  8
TEAM-NET
 10
-25.138807
 20
-185.1033
 30
721.6033
 70
    64
  0
VERTEX
  5
3BA
  8
TEAM-NET
 10
-16.767508
 20
-184.7421
 30
721.2421
 70
    64
  0
VERTEX
  5
3BB
  8
TEAM-NET
 10
-8.386246
 20
-184.525295
 30
721.025295
 70
    64
  0
VERTEX
  5
3BC
  8
TEAM-NET
 10
0.0
 20
-184.453012
 30
720.953012
 70
    64
  0
VERTEX
  5
3BD
  8
TEAM-NET
 10
8.386246
 20
-184.525295
 30
721.025295
 70
    64
  0
VERTEX
  5
3BE
  8
TEAM-NET
 10
16.767508
 20
-184.7421
 30
721.2421
 70
    64
  0
VERTEX
  5
3BF
  8
TEAM-NET
 10
25.138807
 20
-185.1033
 30
721.6033
 70
    64
  0
VERTEX
  5
3C0
  8
TEAM-NET
 10
33.495167
 20
-185.608678
 30
722.108678
 70
    64
  0
VERTEX
  5
3C1
  8
TEAM-NET
 10
41.831623
 20
-186.257935
 30
722.757935
 70
    64
  0
VERTEX
  5
3C2
  8
TEAM-NET
 10
50.143221
 20
-187.050684
 30
723.550684
 70
    64
  0
VERTEX
  5
3C3
  8
TEAM-NET
 10
58.425023
 20
-187.986456
 30
724.486456
 70
    64
  0
VERTEX
  5
3C4
  8
TEAM-NET
 10
66.672105
 20
-189.064694
 30
725.564694
 70
    64
  0
VERTEX
  5
3C5
  8
TEAM-NET
 10
74.879569
 20
-190.284756
 30
726.784756
 70
    64
  0
VERTEX
  5
3C6
  8
TEAM-NET
 10
83.042537
 20
-191.645919
 30
728.145919
 70
    64
  0
VERTEX
  5
3C7
  8
TEAM-NET
 10
91.156158
 20
-193.147373
 30
729.647373
 70
    64
  0
VERTEX
  5
3C8
  8
TEAM-NET
 10
99.21561
 20
-194.788226
 30
731.288226
 70
    64
  0
VERTEX
  5
3C9
  8
TEAM-NET
 10
106.189919
 20
-196.349137
 30
732.849137
 70
    64
  0
VERTEX
  5
3CA
  8
TEAM-NET
 10
113.099663
 20
-198.047563
 30
734.547563
 70
    64
  0
VERTEX
  5
3CB
  8
TEAM-NET
 10
119.939422
 20
-199.882171
 30
736.382171
 70
    64
  0
VERTEX
  5
3CC
  8
TEAM-NET
 10
126.703829
 20
-201.85152
 30
738.35152
 70
    64
  0
VERTEX
  5
3CD
  8
TEAM-NET
 10
133.387575
 20
-203.954067
 30
740.454067
 70
    64
  0
VERTEX
  5
3CE
  8
TEAM-NET
 10
139.985418
 20
-206.18816
 30
742.68816
 70
    64
  0
VERTEX
  5
3CF
  8
TEAM-NET
 10
146.492179
 20
-208.552048
 30
745.052048
 70
    64
  0
VERTEX
  5
3D0
  8
TEAM-NET
 10
152.902754
 20
-211.043875
 30
747.543875
 70
    64
  0
VERTEX
  5
3D1
  8
TEAM-NET
 10
159.212112
 20
-213.661686
 30
750.161686
 70
    64
  0
VERTEX
  5
3D2
  8
TEAM-NET
 10
165.415303
 20
-216.403427
 30
752.903427
 70
    64
  0
VERTEX
  5
3D3
  8
TEAM-NET
 10
171.50746
 20
-219.266948
 30
755.766948
 70
    64
  0
VERTEX
  5
3D4
  8
TEAM-NET
 10
177.483802
 20
-222.25
 30
758.75
 70
    64
  0
VERTEX
  5
3D5
  8
TEAM-NET
 10
183.099423
 20
-225.245887
 30
761.745887
 70
    64
  0
VERTEX
  5
3D6
  8
TEAM-NET
 10
188.561762
 20
-228.38027
 30
764.88027
 70
    64
  0
VERTEX
  5
3D7
  8
TEAM-NET
 10
193.863993
 20
-231.649232
 30
768.149232
 70
    64
  0
VERTEX
  5
3D8
  8
TEAM-NET
 10
198.999487
 20
-235.048686
 30
771.548686
 70
    64
  0
VERTEX
  5
3D9
  8
TEAM-NET
 10
203.961824
 20
-238.574383
 30
775.074383
 70
    64
  0
VERTEX
  5
3DA
  8
TEAM-NET
 10
208.744802
 20
-242.221915
 30
778.721915
 70
    64
  0
VERTEX
  5
3DB
  8
TEAM-NET
 10
213.342442
 20
-245.986725
 30
782.486725
 70
    64
  0
VERTEX
  5
3DC
  8
TEAM-NET
 10
217.748997
 20
-249.864104
 30
786.364104
 70
    64
  0
VERTEX
  5
3DD
  8
TEAM-NET
 10
221.958958
 20
-253.849207
 30
790.349207
 70
    64
  0
VERTEX
  5
3DE
  8
TEAM-NET
 10
225.967064
 20
-257.937053
 30
794.437053
 70
    64
  0
VERTEX
  5
3DF
  8
TEAM-NET
 10
229.768303
 20
-262.12253
 30
798.62253
 70
    64
  0
VERTEX
  5
3E0
  8
TEAM-NET
 10
233.357926
 20
-266.400409
 30
802.900409
 70
    64
  0
VERTEX
  5
3E1
  8
TEAM-NET
 10
235.793585
 20
-269.561149
 30
806.061149
 70
    64
  0
VERTEX
  5
3E2
  8
TEAM-NET
 10
238.058436
 20
-272.784769
 30
809.284769
 70
    64
  0
VERTEX
  5
3E3
  8
TEAM-NET
 10
240.149238
 20
-276.066654
 30
812.566654
 70
    64
  0
VERTEX
  5
3E4
  8
TEAM-NET
 10
242.062998
 20
-279.402109
 30
815.902109
 70
    64
  0
VERTEX
  5
3E5
  8
TEAM-NET
 10
243.796978
 20
-282.78636
 30
819.28636
 70
    64
  0
VERTEX
  5
3E6
  8
TEAM-NET
 10
245.348696
 20
-286.214565
 30
822.714565
 70
    64
  0
VERTEX
  5
3E7
  8
TEAM-NET
 10
246.715932
 20
-289.681816
 30
826.181816
 70
    64
  0
VERTEX
  5
3E8
  8
TEAM-NET
 10
247.896729
 20
-293.183153
 30
829.683153
 70
    64
  0
VERTEX
  5
3E9
  8
TEAM-NET
 10
248.889397
 20
-296.713564
 30
833.213564
 70
    64
  0
VERTEX
  5
3EA
  8
TEAM-NET
 10
249.692516
 20
-300.267998
 30
836.767998
 70
    64
  0
VERTEX
  5
3EB
  8
TEAM-NET
 10
250.304936
 20
-303.841367
 30
840.341367
 70
    64
  0
VERTEX
  5
3EC
  8
TEAM-NET
 10
250.725782
 20
-307.428559
 30
843.928559
 70
    64
  0
VERTEX
  5
3ED
  8
TEAM-NET
 10
-250.484524
 20
-303.309427
 30
844.11647
 70
    64
  0
VERTEX
  5
3EE
  8
TEAM-NET
 10
-249.976531
 20
-299.154342
 30
841.717531
 70
    64
  0
VERTEX
  5
3EF
  8
TEAM-NET
 10
-249.296869
 20
-295.017699
 30
839.329239
 70
    64
  0
VERTEX
  5
3F0
  8
TEAM-NET
 10
-248.44641
 20
-290.904816
 30
836.954664
 70
    64
  0
VERTEX
  5
3F1
  8
TEAM-NET
 10
-247.426248
 20
-286.820979
 30
834.59686
 70
    64
  0
VERTEX
  5
3F2
  8
TEAM-NET
 10
-246.237695
 20
-282.771438
 30
832.258856
 70
    64
  0
VERTEX
  5
3F3
  8
TEAM-NET
 10
-244.882278
 20
-278.7614
 30
829.94366
 70
    64
  0
VERTEX
  5
3F4
  8
TEAM-NET
 10
-243.36174
 20
-274.796019
 30
827.654246
 70
    64
  0
VERTEX
  5
3F5
  8
TEAM-NET
 10
-241.678035
 20
-270.880393
 30
825.393559
 70
    64
  0
VERTEX
  5
3F6
  8
TEAM-NET
 10
-239.833328
 20
-267.019556
 30
823.164503
 70
    64
  0
VERTEX
  5
3F7
  8
TEAM-NET
 10
-237.829991
 20
-263.21847
 30
820.969945
 70
    64
  0
VERTEX
  5
3F8
  8
TEAM-NET
 10
-235.670598
 20
-259.482023
 30
818.812706
 70
    64
  0
VERTEX
  5
3F9
  8
TEAM-NET
 10
-233.357926
 20
-255.815017
 30
816.695559
 70
    64
  0
VERTEX
  5
3FA
  8
TEAM-NET
 10
-229.768303
 20
-250.575708
 30
813.670643
 70
    64
  0
VERTEX
  5
3FB
  8
TEAM-NET
 10
-225.967064
 20
-245.449565
 30
810.711063
 70
    64
  0
VERTEX
  5
3FC
  8
TEAM-NET
 10
-221.958958
 20
-240.442998
 30
807.82052
 70
    64
  0
VERTEX
  5
3FD
  8
TEAM-NET
 10
-217.748997
 20
-235.562263
 30
805.002627
 70
    64
  0
VERTEX
  5
3FE
  8
TEAM-NET
 10
-213.342442
 20
-230.813462
 30
802.260905
 70
    64
  0
VERTEX
  5
3FF
  8
TEAM-NET
 10
-208.744802
 20
-226.202531
 30
799.598783
 70
    64
  0
VERTEX
  5
400
  8
TEAM-NET
 10
-203.961824
 20
-221.735234
 30
797.019588
 70
    64
  0
VERTEX
  5
401
  8
TEAM-NET
 10
-198.999487
 20
-217.417155
 30
794.526544
 70
    64
  0
VERTEX
  5
402
  8
TEAM-NET
 10
-193.863993
 20
-213.253691
 30
792.122767
 70
    64
  0
VERTEX
  5
403
  8
TEAM-NET
 10
-188.561762
 20
-209.250047
 30
789.811262
 70
    64
  0
VERTEX
  5
404
  8
TEAM-NET
 10
-183.099423
 20
-205.411227
 30
787.594918
 70
    64
  0
VERTEX
  5
405
  8
TEAM-NET
 10
-177.483802
 20
-201.74203
 30
785.476506
 70
    64
  0
VERTEX
  5
406
  8
TEAM-NET
 10
-171.50746
 20
-198.088552
 30
783.36717
 70
    64
  0
VERTEX
  5
407
  8
TEAM-NET
 10
-165.415303
 20
-194.581471
 30
781.342355
 70
    64
  0
VERTEX
  5
408
  8
TEAM-NET
 10
-159.212112
 20
-191.223537
 30
779.403651
 70
    64
  0
VERTEX
  5
409
  8
TEAM-NET
 10
-152.902754
 20
-188.017386
 30
777.552579
 70
    64
  0
VERTEX
  5
40A
  8
TEAM-NET
 10
-146.492179
 20
-184.965534
 30
775.790591
 70
    64
  0
VERTEX
  5
40B
  8
TEAM-NET
 10
-139.985418
 20
-182.070375
 30
774.11907
 70
    64
  0
VERTEX
  5
40C
  8
TEAM-NET
 10
-133.387575
 20
-179.33418
 30
772.539328
 70
    64
  0
VERTEX
  5
40D
  8
TEAM-NET
 10
-126.703829
 20
-176.759097
 30
771.052603
 70
    64
  0
VERTEX
  5
40E
  8
TEAM-NET
 10
-119.939422
 20
-174.347146
 30
769.660063
 70
    64
  0
VERTEX
  5
40F
  8
TEAM-NET
 10
-113.099663
 20
-172.10022
 30
768.362799
 70
    64
  0
VERTEX
  5
410
  8
TEAM-NET
 10
-106.189919
 20
-170.020082
 30
767.161831
 70
    64
  0
VERTEX
  5
411
  8
TEAM-NET
 10
-99.21561
 20
-168.108363
 30
766.058099
 70
    64
  0
VERTEX
  5
412
  8
TEAM-NET
 10
-91.156158
 20
-166.098737
 30
764.897841
 70
    64
  0
VERTEX
  5
413
  8
TEAM-NET
 10
-83.042537
 20
-164.259839
 30
763.836153
 70
    64
  0
VERTEX
  5
414
  8
TEAM-NET
 10
-74.879569
 20
-162.592762
 30
762.873666
 70
    64
  0
VERTEX
  5
415
  8
TEAM-NET
 10
-66.672105
 20
-161.098497
 30
762.010951
 70
    64
  0
VERTEX
  5
416
  8
TEAM-NET
 10
-58.425023
 20
-159.777931
 30
761.248522
 70
    64
  0
VERTEX
  5
417
  8
TEAM-NET
 10
-50.143221
 20
-158.631849
 30
760.586831
 70
    64
  0
VERTEX
  5
418
  8
TEAM-NET
 10
-41.831623
 20
-157.660933
 30
760.026273
 70
    64
  0
VERTEX
  5
419
  8
TEAM-NET
 10
-33.495167
 20
-156.865759
 30
759.567179
 70
    64
  0
VERTEX
  5
41A
  8
TEAM-NET
 10
-25.138807
 20
-156.2468
 30
759.209822
 70
    64
  0
VERTEX
  5
41B
  8
TEAM-NET
 10
-16.767508
 20
-155.804423
 30
758.954416
 70
    64
  0
VERTEX
  5
41C
  8
TEAM-NET
 10
-8.386246
 20
-155.538892
 30
758.801112
 70
    64
  0
VERTEX
  5
41D
  8
TEAM-NET
 10
0.0
 20
-155.450364
 30
758.75
 70
    64
  0
VERTEX
  5
41E
  8
TEAM-NET
 10
8.386246
 20
-155.538892
 30
758.801112
 70
    64
  0
VERTEX
  5
41F
  8
TEAM-NET
 10
16.767508
 20
-155.804423
 30
758.954416
 70
    64
  0
VERTEX
  5
420
  8
TEAM-NET
 10
25.138807
 20
-156.2468
 30
759.209822
 70
    64
  0
VERTEX
  5
421
  8
TEAM-NET
 10
33.495167
 20
-156.865759
 30
759.567179
 70
    64
  0
VERTEX
  5
422
  8
TEAM-NET
 10
41.831623
 20
-157.660933
 30
760.026273
 70
    64
  0
VERTEX
  5
423
  8
TEAM-NET
 10
50.143221
 20
-158.631849
 30
760.586831
 70
    64
  0
VERTEX
  5
424
  8
TEAM-NET
 10
58.425023
 20
-159.777931
 30
761.248522
 70
    64
  0
VERTEX
  5
425
  8
TEAM-NET
 10
66.672105
 20
-161.098497
 30
762.010951
 70
    64
  0
VERTEX
  5
426
  8
TEAM-NET
 10
74.879569
 20
-162.592762
 30
762.873666
 70
    64
  0
VERTEX
  5
427
  8
TEAM-NET
 10
83.042537
 20
-164.259839
 30
763.836153
 70
    64
  0
VERTEX
  5
428
  8
TEAM-NET
 10
91.156158
 20
-166.098737
 30
764.897841
 70
    64
  0
VERTEX
  5
429
  8
TEAM-NET
 10
99.21561
 20
-168.108363
 30
766.058099
 70
    64
  0
VERTEX
  5
42A
  8
TEAM-NET
 10
106.189919
 20
-170.020082
 30
767.161831
 70
    64
  0
VERTEX
  5
42B
  8
TEAM-NET
 10
113.099663
 20
-172.10022
 30
768.362799
 70
    64
  0
VERTEX
  5
42C
  8
TEAM-NET
 10
119.939422
 20
-174.347146
 30
769.660063
 70
    64
  0
VERTEX
  5
42D
  8
TEAM-NET
 10
126.703829
 20
-176.759097
 30
771.052603
 70
    64
  0
VERTEX
  5
42E
  8
TEAM-NET
 10
133.387575
 20
-179.33418
 30
772.539328
 70
    64
  0
VERTEX
  5
42F
  8
TEAM-NET
 10
139.985418
 20
-182.070375
 30
774.11907
 70
    64
  0
VERTEX
  5
430
  8
TEAM-NET
 10
146.492179
 20
-184.965534
 30
775.790591
 70
    64
  0
VERTEX
  5
431
  8
TEAM-NET
 10
152.902754
 20
-188.017386
 30
777.552579
 70
    64
  0
VERTEX
  5
432
  8
TEAM-NET
 10
159.212112
 20
-191.223537
 30
779.403651
 70
    64
  0
VERTEX
  5
433
  8
TEAM-NET
 10
165.415303
 20
-194.581471
 30
781.342355
 70
    64
  0
VERTEX
  5
434
  8
TEAM-NET
 10
171.50746
 20
-198.088552
 30
783.36717
 70
    64
  0
VERTEX
  5
435
  8
TEAM-NET
 10
177.483802
 20
-201.74203
 30
785.476506
 70
    64
  0
VERTEX
  5
436
  8
TEAM-NET
 10
183.099423
 20
-205.411227
 30
787.594918
 70
    64
  0
VERTEX
  5
437
  8
TEAM-NET
 10
188.561762
 20
-209.250047
 30
789.811262
 70
    64
  0
VERTEX
  5
438
  8
TEAM-NET
 10
193.863993
 20
-213.253691
 30
792.122767
 70
    64
  0
VERTEX
  5
439
  8
TEAM-NET
 10
198.999487
 20
-217.417155
 30
794.526544
 70
    64
  0
VERTEX
  5
43A
  8
TEAM-NET
 10
203.961824
 20
-221.735234
 30
797.019588
 70
    64
  0
VERTEX
  5
43B
  8
TEAM-NET
 10
208.744802
 20
-226.202531
 30
799.598783
 70
    64
  0
VERTEX
  5
43C
  8
TEAM-NET
 10
213.342442
 20
-230.813462
 30
802.260905
 70
    64
  0
VERTEX
  5
43D
  8
TEAM-NET
 10
217.748997
 20
-235.562263
 30
805.002627
 70
    64
  0
VERTEX
  5
43E
  8
TEAM-NET
 10
221.958958
 20
-240.442998
 30
807.82052
 70
    64
  0
VERTEX
  5
43F
  8
TEAM-NET
 10
225.967064
 20
-245.449565
 30
810.711063
 70
    64
  0
VERTEX
  5
440
  8
TEAM-NET
 10
229.768303
 20
-250.575708
 30
813.670643
 70
    64
  0
VERTEX
  5
441
  8
TEAM-NET
 10
233.357926
 20
-255.815017
 30
816.695559
 70
    64
  0
VERTEX
  5
442
  8
TEAM-NET
 10
235.793585
 20
-259.686118
 30
818.93054
 70
    64
  0
VERTEX
  5
443
  8
TEAM-NET
 10
238.058436
 20
-263.634229
 30
821.209984
 70
    64
  0
VERTEX
  5
444
  8
TEAM-NET
 10
240.149238
 20
-267.653702
 30
823.530627
 70
    64
  0
VERTEX
  5
445
  8
TEAM-NET
 10
242.062998
 20
-271.738783
 30
825.88915
 70
    64
  0
VERTEX
  5
446
  8
TEAM-NET
 10
243.796978
 20
-275.883627
 30
828.282177
 70
    64
  0
VERTEX
  5
447
  8
TEAM-NET
 10
245.348696
 20
-280.082303
 30
830.706284
 70
    64
  0
VERTEX
  5
448
  8
TEAM-NET
 10
246.715932
 20
-284.328801
 30
833.158001
 70
    64
  0
VERTEX
  5
449
  8
TEAM-NET
 10
247.896729
 20
-288.617045
 30
835.633819
 70
    64
  0
VERTEX
  5
44A
  8
TEAM-NET
 10
248.889397
 20
-292.940899
 30
838.130197
 70
    64
  0
VERTEX
  5
44B
  8
TEAM-NET
 10
249.692516
 20
-297.294173
 30
840.643561
 70
    64
  0
VERTEX
  5
44C
  8
TEAM-NET
 10
250.304936
 20
-301.670639
 30
843.170315
 70
    64
  0
VERTEX
  5
44D
  8
TEAM-NET
 10
250.725782
 20
-306.064034
 30
845.706843
 70
    64
  0
VERTEX
  5
44E
  8
TEAM-NET
 10
-250.484524
 20
-302.133893
 30
846.954461
 70
    64
  0
VERTEX
  5
44F
  8
TEAM-NET
 10
-249.976531
 20
-297.499498
 30
845.712678
 70
    64
  0
VERTEX
  5
450
  8
TEAM-NET
 10
-249.296869
 20
-292.885672
 30
844.476408
 70
    64
  0
VERTEX
  5
451
  8
TEAM-NET
 10
-248.44641
 20
-288.298346
 30
843.247237
 70
    64
  0
VERTEX
  5
452
  8
TEAM-NET
 10
-247.426248
 20
-283.743418
 30
842.026748
 70
    64
  0
VERTEX
  5
453
  8
TEAM-NET
 10
-246.237695
 20
-279.226743
 30
840.816508
 70
    64
  0
VERTEX
  5
454
  8
TEAM-NET
 10
-244.882278
 20
-274.754126
 30
839.618074
 70
    64
  0
VERTEX
  5
455
  8
TEAM-NET
 10
-243.36174
 20
-270.331319
 30
838.432987
 70
    64
  0
VERTEX
  5
456
  8
TEAM-NET
 10
-241.678035
 20
-265.964005
 30
837.262769
 70
    64
  0
VERTEX
  5
457
  8
TEAM-NET
 10
-239.833328
 20
-261.657801
 30
836.108925
 70
    64
  0
VERTEX
  5
458
  8
TEAM-NET
 10
-237.829991
 20
-257.418241
 30
834.972938
 70
    64
  0
VERTEX
  5
459
  8
TEAM-NET
 10
-235.670598
 20
-253.250775
 30
833.856269
 70
    64
  0
VERTEX
  5
45A
  8
TEAM-NET
 10
-233.357926
 20
-249.160762
 30
832.760353
 70
    64
  0
VERTEX
  5
45B
  8
TEAM-NET
 10
-229.768303
 20
-243.317071
 30
831.194541
 70
    64
  0
VERTEX
  5
45C
  8
TEAM-NET
 10
-225.967064
 20
-237.599602
 30
829.66255
 70
    64
  0
VERTEX
  5
45D
  8
TEAM-NET
 10
-221.958958
 20
-232.015502
 30
828.166295
 70
    64
  0
VERTEX
  5
45E
  8
TEAM-NET
 10
-217.748997
 20
-226.57175
 30
826.707646
 70
    64
  0
VERTEX
  5
45F
  8
TEAM-NET
 10
-213.342442
 20
-221.275151
 30
825.288426
 70
    64
  0
VERTEX
  5
460
  8
TEAM-NET
 10
-208.744802
 20
-216.132326
 30
823.91041
 70
    64
  0
VERTEX
  5
461
  8
TEAM-NET
 10
-203.961824
 20
-211.149703
 30
822.575321
 70
    64
  0
VERTEX
  5
462
  8
TEAM-NET
 10
-198.999487
 20
-206.333512
 30
821.284826
 70
    64
  0
VERTEX
  5
463
  8
TEAM-NET
 10
-193.863993
 20
-201.689771
 30
820.040539
 70
    64
  0
VERTEX
  5
464
  8
TEAM-NET
 10
-188.561762
 20
-197.224286
 30
818.844016
 70
    64
  0
VERTEX
  5
465
  8
TEAM-NET
 10
-183.099423
 20
-192.942639
 30
817.696753
 70
    64
  0
VERTEX
  5
466
  8
TEAM-NET
 10
-177.483802
 20
-188.850182
 30
816.600182
 70
    64
  0
VERTEX
  5
467
  8
TEAM-NET
 10
-171.50746
 20
-184.775257
 30
815.508309
 70
    64
  0
VERTEX
  5
468
  8
TEAM-NET
 10
-165.415303
 20
-180.863615
 30
814.460188
 70
    64
  0
VERTEX
  5
469
  8
TEAM-NET
 10
-159.212112
 20
-177.118327
 30
813.456641
 70
    64
  0
VERTEX
  5
46A
  8
TEAM-NET
 10
-152.902754
 20
-173.54233
 30
812.498455
 70
    64
  0
VERTEX
  5
46B
  8
TEAM-NET
 10
-146.492179
 20
-170.138431
 30
811.586383
 70
    64
  0
VERTEX
  5
46C
  8
TEAM-NET
 10
-139.985418
 20
-166.909301
 30
810.721141
 70
    64
  0
VERTEX
  5
46D
  8
TEAM-NET
 10
-133.387575
 20
-163.857472
 30
809.903406
 70
    64
  0
VERTEX
  5
46E
  8
TEAM-NET
 10
-126.703829
 20
-160.985341
 30
809.13382
 70
    64
  0
VERTEX
  5
46F
  8
TEAM-NET
 10
-119.939422
 20
-158.295159
 30
808.412988
 70
    64
  0
VERTEX
  5
470
  8
TEAM-NET
 10
-113.099663
 20
-155.789039
 30
807.741475
 70
    64
  0
VERTEX
  5
471
  8
TEAM-NET
 10
-106.189919
 20
-153.468946
 30
807.119808
 70
    64
  0
VERTEX
  5
472
  8
TEAM-NET
 10
-99.21561
 20
-151.3367
 30
806.548475
 70
    64
  0
VERTEX
  5
473
  8
TEAM-NET
 10
-91.156158
 20
-149.095254
 30
805.947881
 70
    64
  0
VERTEX
  5
474
  8
TEAM-NET
 10
-83.042537
 20
-147.04423
 30
805.398311
 70
    64
  0
VERTEX
  5
475
  8
TEAM-NET
 10
-74.879569
 20
-145.184847
 30
804.900091
 70
    64
  0
VERTEX
  5
476
  8
TEAM-NET
 10
-66.672105
 20
-143.51821
 30
804.453517
 70
    64
  0
VERTEX
  5
477
  8
TEAM-NET
 10
-58.425023
 20
-142.04531
 30
804.058854
 70
    64
  0
VERTEX
  5
478
  8
TEAM-NET
 10
-50.143221
 20
-140.767023
 30
803.716338
 70
    64
  0
VERTEX
  5
479
  8
TEAM-NET
 10
-41.831623
 20
-139.684106
 30
803.426172
 70
    64
  0
VERTEX
  5
47A
  8
TEAM-NET
 10
-33.495167
 20
-138.797205
 30
803.188527
 70
    64
  0
VERTEX
  5
47B
  8
TEAM-NET
 10
-25.138807
 20
-138.106845
 30
803.003546
 70
    64
  0
VERTEX
  5
47C
  8
TEAM-NET
 10
-16.767508
 20
-137.613438
 30
802.871338
 70
    64
  0
VERTEX
  5
47D
  8
TEAM-NET
 10
-8.386246
 20
-137.317277
 30
802.791982
 70
    64
  0
VERTEX
  5
47E
  8
TEAM-NET
 10
0.0
 20
-137.218537
 30
802.765524
 70
    64
  0
VERTEX
  5
47F
  8
TEAM-NET
 10
8.386246
 20
-137.317277
 30
802.791982
 70
    64
  0
VERTEX
  5
480
  8
TEAM-NET
 10
16.767508
 20
-137.613438
 30
802.871338
 70
    64
  0
VERTEX
  5
481
  8
TEAM-NET
 10
25.138807
 20
-138.106845
 30
803.003546
 70
    64
  0
VERTEX
  5
482
  8
TEAM-NET
 10
33.495167
 20
-138.797205
 30
803.188527
 70
    64
  0
VERTEX
  5
483
  8
TEAM-NET
 10
41.831623
 20
-139.684106
 30
803.426172
 70
    64
  0
VERTEX
  5
484
  8
TEAM-NET
 10
50.143221
 20
-140.767023
 30
803.716338
 70
    64
  0
VERTEX
  5
485
  8
TEAM-NET
 10
58.425023
 20
-142.04531
 30
804.058854
 70
    64
  0
VERTEX
  5
486
  8
TEAM-NET
 10
66.672105
 20
-143.51821
 30
804.453517
 70
    64
  0
VERTEX
  5
487
  8
TEAM-NET
 10
74.879569
 20
-145.184847
 30
804.900091
 70
    64
  0
VERTEX
  5
488
  8
TEAM-NET
 10
83.042537
 20
-147.04423
 30
805.398311
 70
    64
  0
VERTEX
  5
489
  8
TEAM-NET
 10
91.156158
 20
-149.095254
 30
805.947881
 70
    64
  0
VERTEX
  5
48A
  8
TEAM-NET
 10
99.21561
 20
-151.3367
 30
806.548475
 70
    64
  0
VERTEX
  5
48B
  8
TEAM-NET
 10
106.189919
 20
-153.468946
 30
807.119808
 70
    64
  0
VERTEX
  5
48C
  8
TEAM-NET
 10
113.099663
 20
-155.789039
 30
807.741475
 70
    64
  0
VERTEX
  5
48D
  8
TEAM-NET
 10
119.939422
 20
-158.295159
 30
808.412988
 70
    64
  0
VERTEX
  5
48E
  8
TEAM-NET
 10
126.703829
 20
-160.985341
 30
809.13382
 70
    64
  0
VERTEX
  5
48F
  8
TEAM-NET
 10
133.387575
 20
-163.857472
 30
809.903406
 70
    64
  0
VERTEX
  5
490
  8
TEAM-NET
 10
139.985418
 20
-166.909301
 30
810.721141
 70
    64
  0
VERTEX
  5
491
  8
TEAM-NET
 10
146.492179
 20
-170.138431
 30
811.586383
 70
    64
  0
VERTEX
  5
492
  8
TEAM-NET
 10
152.902754
 20
-173.54233
 30
812.498455
 70
    64
  0
VERTEX
  5
493
  8
TEAM-NET
 10
159.212112
 20
-177.118327
 30
813.456641
 70
    64
  0
VERTEX
  5
494
  8
TEAM-NET
 10
165.415303
 20
-180.863615
 30
814.460188
 70
    64
  0
VERTEX
  5
495
  8
TEAM-NET
 10
171.50746
 20
-184.775257
 30
815.508309
 70
    64
  0
VERTEX
  5
496
  8
TEAM-NET
 10
177.483802
 20
-188.850182
 30
816.600182
 70
    64
  0
VERTEX
  5
497
  8
TEAM-NET
 10
183.099423
 20
-192.942639
 30
817.696753
 70
    64
  0
VERTEX
  5
498
  8
TEAM-NET
 10
188.561762
 20
-197.224286
 30
818.844016
 70
    64
  0
VERTEX
  5
499
  8
TEAM-NET
 10
193.863993
 20
-201.689771
 30
820.040539
 70
    64
  0
VERTEX
  5
49A
  8
TEAM-NET
 10
198.999487
 20
-206.333512
 30
821.284826
 70
    64
  0
VERTEX
  5
49B
  8
TEAM-NET
 10
203.961824
 20
-211.149703
 30
822.575321
 70
    64
  0
VERTEX
  5
49C
  8
TEAM-NET
 10
208.744802
 20
-216.132326
 30
823.91041
 70
    64
  0
VERTEX
  5
49D
  8
TEAM-NET
 10
213.342442
 20
-221.275151
 30
825.288426
 70
    64
  0
VERTEX
  5
49E
  8
TEAM-NET
 10
217.748997
 20
-226.57175
 30
826.707646
 70
    64
  0
VERTEX
  5
49F
  8
TEAM-NET
 10
221.958958
 20
-232.015502
 30
828.166295
 70
    64
  0
VERTEX
  5
4A0
  8
TEAM-NET
 10
225.967064
 20
-237.599602
 30
829.66255
 70
    64
  0
VERTEX
  5
4A1
  8
TEAM-NET
 10
229.768303
 20
-243.317071
 30
831.194541
 70
    64
  0
VERTEX
  5
4A2
  8
TEAM-NET
 10
233.357926
 20
-249.160762
 30
832.760353
 70
    64
  0
VERTEX
  5
4A3
  8
TEAM-NET
 10
235.793585
 20
-253.478413
 30
833.917264
 70
    64
  0
VERTEX
  5
4A4
  8
TEAM-NET
 10
238.058436
 20
-257.88196
 30
835.097191
 70
    64
  0
VERTEX
  5
4A5
  8
TEAM-NET
 10
240.149238
 20
-262.365099
 30
836.298444
 70
    64
  0
VERTEX
  5
4A6
  8
TEAM-NET
 10
242.062998
 20
-266.921415
 30
837.519306
 70
    64
  0
VERTEX
  5
4A7
  8
TEAM-NET
 10
243.796978
 20
-271.544388
 30
838.758028
 70
    64
  0
VERTEX
  5
4A8
  8
TEAM-NET
 10
245.348696
 20
-276.227402
 30
840.012838
 70
    64
  0
VERTEX
  5
4A9
  8
TEAM-NET
 10
246.715932
 20
-280.963756
 30
841.28194
 70
    64
  0
VERTEX
  5
4AA
  8
TEAM-NET
 10
247.896729
 20
-285.74667
 30
842.563518
 70
    64
  0
VERTEX
  5
4AB
  8
TEAM-NET
 10
248.889397
 20
-290.569302
 30
843.855738
 70
    64
  0
VERTEX
  5
4AC
  8
TEAM-NET
 10
249.692516
 20
-295.424749
 30
845.156751
 70
    64
  0
VERTEX
  5
4AD
  8
TEAM-NET
 10
250.304936
 20
-300.306062
 30
846.464695
 70
    64
  0
VERTEX
  5
4AE
  8
TEAM-NET
 10
250.725782
 20
-305.206257
 30
847.777698
 70
    64
  0
VERTEX
  5
4AF
  8
TEAM-NET
 10
-250.484524
 20
-301.73294
 30
850.0
 70
    64
  0
VERTEX
  5
4B0
  8
TEAM-NET
 10
-249.976531
 20
-296.935062
 30
850.0
 70
    64
  0
VERTEX
  5
4B1
  8
TEAM-NET
 10
-249.296869
 20
-292.158477
 30
850.0
 70
    64
  0
VERTEX
  5
4B2
  8
TEAM-NET
 10
-248.44641
 20
-287.409328
 30
850.0
 70
    64
  0
VERTEX
  5
4B3
  8
TEAM-NET
 10
-247.426248
 20
-282.69372
 30
850.0
 70
    64
  0
VERTEX
  5
4B4
  8
TEAM-NET
 10
-246.237695
 20
-278.017713
 30
850.0
 70
    64
  0
VERTEX
  5
4B5
  8
TEAM-NET
 10
-244.882278
 20
-273.38732
 30
850.0
 70
    64
  0
VERTEX
  5
4B6
  8
TEAM-NET
 10
-243.36174
 20
-268.808492
 30
850.0
 70
    64
  0
VERTEX
  5
4B7
  8
TEAM-NET
 10
-241.678035
 20
-264.287117
 30
850.0
 70
    64
  0
VERTEX
  5
4B8
  8
TEAM-NET
 10
-239.833328
 20
-259.829006
 30
850.0
 70
    64
  0
VERTEX
  5
4B9
  8
TEAM-NET
 10
-237.829991
 20
-255.439891
 30
850.0
 70
    64
  0
VERTEX
  5
4BA
  8
TEAM-NET
 10
-235.670598
 20
-251.125413
 30
850.0
 70
    64
  0
VERTEX
  5
4BB
  8
TEAM-NET
 10
-233.357926
 20
-246.891119
 30
850.0
 70
    64
  0
VERTEX
  5
4BC
  8
TEAM-NET
 10
-229.768303
 20
-240.841286
 30
850.0
 70
    64
  0
VERTEX
  5
4BD
  8
TEAM-NET
 10
-225.967064
 20
-234.922126
 30
850.0
 70
    64
  0
VERTEX
  5
4BE
  8
TEAM-NET
 10
-221.958958
 20
-229.14104
 30
850.0
 70
    64
  0
VERTEX
  5
4BF
  8
TEAM-NET
 10
-217.748997
 20
-223.505253
 30
850.0
 70
    64
  0
VERTEX
  5
4C0
  8
TEAM-NET
 10
-213.342442
 20
-218.02181
 30
850.0
 70
    64
  0
VERTEX
  5
4C1
  8
TEAM-NET
 10
-208.744802
 20
-212.697566
 30
850.0
 70
    64
  0
VERTEX
  5
4C2
  8
TEAM-NET
 10
-203.961824
 20
-207.539176
 30
850.0
 70
    64
  0
VERTEX
  5
4C3
  8
TEAM-NET
 10
-198.999487
 20
-202.553087
 30
850.0
 70
    64
  0
VERTEX
  5
4C4
  8
TEAM-NET
 10
-193.863993
 20
-197.745533
 30
850.0
 70
    64
  0
VERTEX
  5
4C5
  8
TEAM-NET
 10
-188.561762
 20
-193.122523
 30
850.0
 70
    64
  0
VERTEX
  5
4C6
  8
TEAM-NET
 10
-183.099423
 20
-188.689836
 30
850.0
 70
    64
  0
VERTEX
  5
4C7
  8
TEAM-NET
 10
-177.483802
 20
-184.453012
 30
850.0
 70
    64
  0
VERTEX
  5
4C8
  8
TEAM-NET
 10
-171.50746
 20
-180.234339
 30
850.0
 70
    64
  0
VERTEX
  5
4C9
  8
TEAM-NET
 10
-165.415303
 20
-176.18471
 30
850.0
 70
    64
  0
VERTEX
  5
4CA
  8
TEAM-NET
 10
-159.212112
 20
-172.307302
 30
850.0
 70
    64
  0
VERTEX
  5
4CB
  8
TEAM-NET
 10
-152.902754
 20
-168.605158
 30
850.0
 70
    64
  0
VERTEX
  5
4CC
  8
TEAM-NET
 10
-146.492179
 20
-165.081183
 30
850.0
 70
    64
  0
VERTEX
  5
4CD
  8
TEAM-NET
 10
-139.985418
 20
-161.738141
 30
850.0
 70
    64
  0
VERTEX
  5
4CE
  8
TEAM-NET
 10
-133.387575
 20
-158.578656
 30
850.0
 70
    64
  0
VERTEX
  5
4CF
  8
TEAM-NET
 10
-126.703829
 20
-155.605206
 30
850.0
 70
    64
  0
VERTEX
  5
4D0
  8
TEAM-NET
 10
-119.939422
 20
-152.820125
 30
850.0
 70
    64
  0
VERTEX
  5
4D1
  8
TEAM-NET
 10
-113.099663
 20
-150.225598
 30
850.0
 70
    64
  0
VERTEX
  5
4D2
  8
TEAM-NET
 10
-106.189919
 20
-147.823661
 30
850.0
 70
    64
  0
VERTEX
  5
4D3
  8
TEAM-NET
 10
-99.21561
 20
-145.616199
 30
850.0
 70
    64
  0
VERTEX
  5
4D4
  8
TEAM-NET
 10
-91.156158
 20
-143.295682
 30
850.0
 70
    64
  0
VERTEX
  5
4D5
  8
TEAM-NET
 10
-83.042537
 20
-141.172306
 30
850.0
 70
    64
  0
VERTEX
  5
4D6
  8
TEAM-NET
 10
-74.879569
 20
-139.247331
 30
850.0
 70
    64
  0
VERTEX
  5
4D7
  8
TEAM-NET
 10
-66.672105
 20
-137.521902
 30
850.0
 70
    64
  0
VERTEX
  5
4D8
  8
TEAM-NET
 10
-58.425023
 20
-135.997044
 30
850.0
 70
    64
  0
VERTEX
  5
4D9
  8
TEAM-NET
 10
-50.143221
 20
-134.673663
 30
850.0
 70
    64
  0
VERTEX
  5
4DA
  8
TEAM-NET
 10
-41.831623
 20
-133.552545
 30
850.0
 70
    64
  0
VERTEX
  5
4DB
  8
TEAM-NET
 10
-33.495167
 20
-132.634357
 30
850.0
 70
    64
  0
VERTEX
  5
4DC
  8
TEAM-NET
 10
-25.138807
 20
-131.919645
 30
850.0
 70
    64
  0
VERTEX
  5
4DD
  8
TEAM-NET
 10
-16.767508
 20
-131.408832
 30
850.0
 70
    64
  0
VERTEX
  5
4DE
  8
TEAM-NET
 10
-8.386246
 20
-131.102223
 30
850.0
 70
    64
  0
VERTEX
  5
4DF
  8
TEAM-NET
 10
0.0
 20
-131.0
 30
850.0
 70
    64
  0
VERTEX
  5
4E0
  8
TEAM-NET
 10
8.386246
 20
-131.102223
 30
850.0
 70
    64
  0
VERTEX
  5
4E1
  8
TEAM-NET
 10
16.767508
 20
-131.408832
 30
850.0
 70
    64
  0
VERTEX
  5
4E2
  8
TEAM-NET
 10
25.138807
 20
-131.919645
 30
850.0
 70
    64
  0
VERTEX
  5
4E3
  8
TEAM-NET
 10
33.495167
 20
-132.634357
 30
850.0
 70
    64
  0
VERTEX
  5
4E4
  8
TEAM-NET
 10
41.831623
 20
-133.552545
 30
850.0
 70
    64
  0
VERTEX
  5
4E5
  8
TEAM-NET
 10
50.143221
 20
-134.673663
 30
850.0
 70
    64
  0
VERTEX
  5
4E6
  8
TEAM-NET
 10
58.425023
 20
-135.997044
 30
850.0
 70
    64
  0
VERTEX
  5
4E7
  8
TEAM-NET
 10
66.672105
 20
-137.521902
 30
850.0
 70
    64
  0
VERTEX
  5
4E8
  8
TEAM-NET
 10
74.879569
 20
-139.247331
 30
850.0
 70
    64
  0
VERTEX
  5
4E9
  8
TEAM-NET
 10
83.042537
 20
-141.172306
 30
850.0
 70
    64
  0
VERTEX
  5
4EA
  8
TEAM-NET
 10
91.156158
 20
-143.295682
 30
850.0
 70
    64
  0
VERTEX
  5
4EB
  8
TEAM-NET
 10
99.21561
 20
-145.616199
 30
850.0
 70
    64
  0
VERTEX
  5
4EC
  8
TEAM-NET
 10
106.189919
 20
-147.823661
 30
850.0
 70
    64
  0
VERTEX
  5
4ED
  8
TEAM-NET
 10
113.099663
 20
-150.225598
 30
850.0
 70
    64
  0
VERTEX
  5
4EE
  8
TEAM-NET
 10
119.939422
 20
-152.820125
 30
850.0
 70
    64
  0
VERTEX
  5
4EF
  8
TEAM-NET
 10
126.703829
 20
-155.605206
 30
850.0
 70
    64
  0
VERTEX
  5
4F0
  8
TEAM-NET
 10
133.387575
 20
-158.578656
 30
850.0
 70
    64
  0
VERTEX
  5
4F1
  8
TEAM-NET
 10
139.985418
 20
-161.738141
 30
850.0
 70
    64
  0
VERTEX
  5
4F2
  8
TEAM-NET
 10
146.492179
 20
-165.081183
 30
850.0
 70
    64
  0
VERTEX
  5
4F3
  8
TEAM-NET
 10
152.902754
 20
-168.605158
 30
850.0
 70
    64
  0
VERTEX
  5
4F4
  8
TEAM-NET
 10
159.212112
 20
-172.307302
 30
850.0
 70
    64
  0
VERTEX
  5
4F5
  8
TEAM-NET
 10
165.415303
 20
-176.18471
 30
850.0
 70
    64
  0
VERTEX
  5
4F6
  8
TEAM-NET
 10
171.50746
 20
-180.234339
 30
850.0
 70
    64
  0
VERTEX
  5
4F7
  8
TEAM-NET
 10
177.483802
 20
-184.453012
 30
850.0
 70
    64
  0
VERTEX
  5
4F8
  8
TEAM-NET
 10
183.099423
 20
-188.689836
 30
850.0
 70
    64
  0
VERTEX
  5
4F9
  8
TEAM-NET
 10
188.561762
 20
-193.122523
 30
850.0
 70
    64
  0
VERTEX
  5
4FA
  8
TEAM-NET
 10
193.863993
 20
-197.745533
 30
850.0
 70
    64
  0
VERTEX
  5
4FB
  8
TEAM-NET
 10
198.999487
 20
-202.553087
 30
850.0
 70
    64
  0
VERTEX
  5
4FC
  8
TEAM-NET
 10
203.961824
 20
-207.539176
 30
850.0
 70
    64
  0
VERTEX
  5
4FD
  8
TEAM-NET
 10
208.744802
 20
-212.697566
 30
850.0
 70
    64
  0
VERTEX
  5
4FE
  8
TEAM-NET
 10
213.342442
 20
-218.02181
 30
850.0
 70
    64
  0
VERTEX
  5
4FF
  8
TEAM-NET
 10
217.748997
 20
-223.505253
 30
850.0
 70
    64
  0
VERTEX
  5
500
  8
TEAM-NET
 10
221.958958
 20
-229.14104
 30
850.0
 70
    64
  0
VERTEX
  5
501
  8
TEAM-NET
 10
225.967064
 20
-234.922126
 30
850.0
 70
    64
  0
VERTEX
  5
502
  8
TEAM-NET
 10
229.768303
 20
-240.841286
 30
850.0
 70
    64
  0
VERTEX
  5
503
  8
TEAM-NET
 10
233.357926
 20
-246.891119
 30
850.0
 70
    64
  0
VERTEX
  5
504
  8
TEAM-NET
 10
235.793585
 20
-251.361081
 30
850.0
 70
    64
  0
VERTEX
  5
505
  8
TEAM-NET
 10
238.058436
 20
-255.919968
 30
850.0
 70
    64
  0
VERTEX
  5
506
  8
TEAM-NET
 10
240.149238
 20
-260.561255
 30
850.0
 70
    64
  0
VERTEX
  5
507
  8
TEAM-NET
 10
242.062998
 20
-265.2783
 30
850.0
 70
    64
  0
VERTEX
  5
508
  8
TEAM-NET
 10
243.796978
 20
-270.064354
 30
850.0
 70
    64
  0
VERTEX
  5
509
  8
TEAM-NET
 10
245.348696
 20
-274.912567
 30
850.0
 70
    64
  0
VERTEX
  5
50A
  8
TEAM-NET
 10
246.715932
 20
-279.816001
 30
850.0
 70
    64
  0
VERTEX
  5
50B
  8
TEAM-NET
 10
247.896729
 20
-284.767639
 30
850.0
 70
    64
  0
VERTEX
  5
50C
  8
TEAM-NET
 10
248.889397
 20
-289.760394
 30
850.0
 70
    64
  0
VERTEX
  5
50D
  8
TEAM-NET
 10
249.692516
 20
-294.787123
 30
850.0
 70
    64
  0
VERTEX
  5
50E
  8
TEAM-NET
 10
250.304936
 20
-299.84063
 30
850.0
 70
    64
  0
VERTEX
  5
50F
  8
TEAM-NET
 10
250.725782
 20
-304.913686
 30
850.0
 70
    64
  0
SEQEND
  5
511
  8
TEAM-NET
  0
LINE
  5
512
  8
TEAM-AXE
 10
20.0
 20
-241.0
 30
660.0
 11
41.0
 21
-241.0
 31
660.0
  0
LINE
  5
515
  8
TEAM-AXE
 10
0.0
 20
-261.0
 30
660.0
 11
0.0
 21
-282.0
 31
660.0
  0
POINT
  5
516
  8
TEAM-AXE
 10
0.0
 20
-258.428959
 30
660.0
  0
LINE
  5
517
  8
TEAM-AXE
 10
-41.0
 20
-241.0
 30
660.0
 11
-20.0
 21
-241.0
 31
660.0
  0
LINE
  5
518
  8
TEAM-AXE
 10
-15.0
 20
-241.0
 30
660.0
 11
15.0
 21
-241.0
 31
660.0
  0
POINT
  5
519
  8
TEAM-AXE
 10
-17.428959
 20
-241.0
 30
660.0
  0
LINE
  5
51A
  8
TEAM-AXE
 10
0.0
 20
-226.0
 30
660.0
 11
0.0
 21
-256.0
 31
660.0
  0
POINT
  5
51B
  8
TEAM-AXE
 10
0.0
 20
-223.571041
 30
660.0
  0
POINT
  5
51C
  8
TEAM-AXE
 10
17.428959
 20
-241.0
 30
660.0
  0
ARC
  5
51D
  8
TEAM-BODY
 10
0.0
 20
-241.0
 30
660.0
 40
25.0
 50
180.0
 51
0.0
  0
ARC
  5
51F
  8
TEAM-BODY
 10
0.0
 20
-241.0
 30
660.0
 40
25.0
 50
0.0
 51
180.0
  0
CIRCLE
  5
520
  8
TEAM-DET1
 10
0.0
 20
-241.0
 30
660.0
 40
35.0
  0
LINE
  5
522
  8
TEAM-AXE
 10
0.0
 20
-200.0
 30
660.0
 11
0.0
 21
-221.0
 31
660.0
  0
LINE
  5
523
  8
TEAM-AXE
 10
158.244323
 20
-480.0
 30
850.0
 11
172.185677
 21
-480.0
 31
850.0
  0
LINE
  5
524
  8
TEAM-AXE
 10
165.215
 20
-473.029323
 30
850.0
 11
165.215
 21
-486.970677
 31
850.0
  0
CIRCLE
  5
525
  8
TEAM-HIDE
 10
165.215
 20
-480.0
 30
850.0
 40
4.785
  0
LINE
  5
528
  8
TEAM-AXE
 10
165.215
 20
-473.029323
 30
850.0
 11
165.215
 21
-486.970677
 31
850.0
  0
LINE
  5
529
  8
TEAM-AXE
 10
172.185677
 20
-480.0
 30
850.0
 11
158.244323
 21
-480.0
 31
850.0
  0
LINE
  5
52A
  8
TEAM-AXE
 10
166.533664
 20
-148.029323
 30
850.0
 11
166.533664
 21
-161.970677
 31
850.0
  0
LINE
  5
52B
  8
TEAM-AXE
 10
166.533664
 20
-148.029323
 30
850.0
 11
166.533664
 21
-161.970677
 31
850.0
  0
LINE
  5
52C
  8
TEAM-AXE
 10
173.504341
 20
-155.0
 30
850.0
 11
159.562987
 21
-155.0
 31
850.0
  0
LINE
  5
52D
  8
TEAM-AXE
 10
159.562987
 20
-155.0
 30
850.0
 11
173.504341
 21
-155.0
 31
850.0
  0
CIRCLE
  5
52E
  8
TEAM-HIDE
 10
166.533664
 20
-155.0
 30
850.0
 40
4.785
  0
POLYLINE
  5
52F
  8
TEAM-DET3
 66
     1
 10
0.0
 20
0.0
 30
850.0
  0
VERTEX
  5
A6B
  8
TEAM-DET3
 10
0.0
 20
-518.858869
 30
850.0
  0
VERTEX
  5
A6C
  8
TEAM-DET3
 10
-8.872906
 20
-518.479826
 30
850.0
  0
VERTEX
  5
A6D
  8
TEAM-DET3
 10
-19.212411
 20
-517.9361
 30
850.0
  0
VERTEX
  5
A6E
  8
TEAM-DET3
 10
-29.308032
 20
-517.30571
 30
850.0
  0
VERTEX
  5
A6F
  8
TEAM-DET3
 10
-39.115953
 20
-516.595478
 30
850.0
  0
VERTEX
  5
A70
  8
TEAM-DET3
 10
-48.592355
 20
-515.812224
 30
850.0
  0
VERTEX
  5
A71
  8
TEAM-DET3
 10
-57.693423
 20
-514.96277
 30
850.0
  0
VERTEX
  5
A72
  8
TEAM-DET3
 10
-66.375339
 20
-514.053937
 30
850.0
  0
VERTEX
  5
A73
  8
TEAM-DET3
 10
-74.594287
 20
-513.092547
 30
850.0
  0
VERTEX
  5
A74
  8
TEAM-DET3
 10
-82.324267
 20
-512.085273
 30
850.0
  0
VERTEX
  5
A75
  8
TEAM-DET3
 10
-89.610552
 20
-511.0382
 30
850.0
  0
VERTEX
  5
A76
  8
TEAM-DET3
 10
-96.516236
 20
-509.957266
 30
850.0
  0
VERTEX
  5
A77
  8
TEAM-DET3
 10
-103.104408
 20
-508.848409
 30
850.0
  0
VERTEX
  5
A78
  8
TEAM-DET3
 10
-109.43816
 20
-507.717568
 30
850.0
  0
VERTEX
  5
A79
  8
TEAM-DET3
 10
-115.580584
 20
-506.57068
 30
850.0
  0
VERTEX
  5
A7A
  8
TEAM-DET3
 10
-121.594771
 20
-505.413682
 30
850.0
  0
VERTEX
  5
A7B
  8
TEAM-DET3
 10
-127.543813
 20
-504.252513
 30
850.0
  0
VERTEX
  5
A7C
  8
TEAM-DET3
 10
-133.473551
 20
-503.086952
 30
850.0
  0
VERTEX
  5
A7D
  8
TEAM-DET3
 10
-139.360822
 20
-501.892143
 30
850.0
  0
VERTEX
  5
A7E
  8
TEAM-DET3
 10
-145.165214
 20
-500.637072
 30
850.0
  0
VERTEX
  5
A7F
  8
TEAM-DET3
 10
-150.846314
 20
-499.290725
 30
850.0
  0
VERTEX
  5
A80
  8
TEAM-DET3
 10
-156.36371
 20
-497.822086
 30
850.0
  0
VERTEX
  5
A81
  8
TEAM-DET3
 10
-161.676988
 20
-496.200141
 30
850.0
  0
VERTEX
  5
A82
  8
TEAM-DET3
 10
-166.745737
 20
-494.393877
 30
850.0
  0
VERTEX
  5
A83
  8
TEAM-DET3
 10
-171.529542
 20
-492.372278
 30
850.0
  0
VERTEX
  5
A84
  8
TEAM-DET3
 10
-176.000963
 20
-490.113004
 30
850.0
  0
VERTEX
  5
A85
  8
TEAM-DET3
 10
-180.184436
 20
-487.628409
 30
850.0
  0
VERTEX
  5
A86
  8
TEAM-DET3
 10
-184.11737
 20
-484.939521
 30
850.0
  0
VERTEX
  5
A87
  8
TEAM-DET3
 10
-187.837173
 20
-482.067368
 30
850.0
  0
VERTEX
  5
A88
  8
TEAM-DET3
 10
-191.381253
 20
-479.032978
 30
850.0
  0
VERTEX
  5
A89
  8
TEAM-DET3
 10
-194.787018
 20
-475.857379
 30
850.0
  0
VERTEX
  5
A8A
  8
TEAM-DET3
 10
-198.091877
 20
-472.5616
 30
850.0
  0
VERTEX
  5
A8B
  8
TEAM-DET3
 10
-201.333237
 20
-469.166667
 30
850.0
  0
VERTEX
  5
A8C
  8
TEAM-DET3
 10
-204.542562
 20
-465.688477
 30
850.0
  0
VERTEX
  5
A8D
  8
TEAM-DET3
 10
-207.727535
 20
-462.122396
 30
850.0
  0
VERTEX
  5
A8E
  8
TEAM-DET3
 10
-210.889896
 20
-458.458659
 30
850.0
  0
VERTEX
  5
A8F
  8
TEAM-DET3
 10
-214.031384
 20
-454.6875
 30
850.0
  0
VERTEX
  5
A90
  8
TEAM-DET3
 10
-217.153737
 20
-450.799154
 30
850.0
  0
VERTEX
  5
A91
  8
TEAM-DET3
 10
-220.258694
 20
-446.783854
 30
850.0
  0
VERTEX
  5
A92
  8
TEAM-DET3
 10
-223.347995
 20
-442.631836
 30
850.0
  0
VERTEX
  5
A93
  8
TEAM-DET3
 10
-226.423379
 20
-438.333333
 30
850.0
  0
VERTEX
  5
A94
  8
TEAM-DET3
 10
-229.484909
 20
-433.870392
 30
850.0
  0
VERTEX
  5
A95
  8
TEAM-DET3
 10
-232.525953
 20
-429.192305
 30
850.0
  0
VERTEX
  5
A96
  8
TEAM-DET3
 10
-235.538203
 20
-424.240175
 30
850.0
  0
VERTEX
  5
A97
  8
TEAM-DET3
 10
-238.513352
 20
-418.955105
 30
850.0
  0
VERTEX
  5
A98
  8
TEAM-DET3
 10
-241.443092
 20
-413.278201
 30
850.0
  0
VERTEX
  5
A99
  8
TEAM-DET3
 10
-244.319115
 20
-407.150564
 30
850.0
  0
VERTEX
  5
A9A
  8
TEAM-DET3
 10
-247.133114
 20
-400.513299
 30
850.0
  0
VERTEX
  5
A9B
  8
TEAM-DET3
 10
-249.87678
 20
-393.30751
 30
850.0
  0
VERTEX
  5
A9C
  8
TEAM-DET3
 10
-252.534913
 20
-385.498915
 30
850.0
  0
VERTEX
  5
A9D
  8
TEAM-DET3
 10
-255.064736
 20
-377.151698
 30
850.0
  0
VERTEX
  5
A9E
  8
TEAM-DET3
 10
-257.416577
 20
-368.354657
 30
850.0
  0
VERTEX
  5
A9F
  8
TEAM-DET3
 10
-259.540765
 20
-359.196591
 30
850.0
  0
VERTEX
  5
AA0
  8
TEAM-DET3
 10
-261.38763
 20
-349.766297
 30
850.0
  0
VERTEX
  5
AA1
  8
TEAM-DET3
 10
-262.907501
 20
-340.152575
 30
850.0
  0
VERTEX
  5
AA2
  8
TEAM-DET3
 10
-264.050706
 20
-330.444223
 30
850.0
  0
VERTEX
  5
AA3
  8
TEAM-DET3
 10
-264.767575
 20
-320.730039
 30
850.0
  0
VERTEX
  5
AA4
  8
TEAM-DET3
 10
-265.016874
 20
-311.086787
 30
850.0
  0
VERTEX
  5
AA5
  8
TEAM-DET3
 10
-264.791122
 20
-301.543089
 30
850.0
  0
VERTEX
  5
AA6
  8
TEAM-DET3
 10
-264.091277
 20
-292.115531
 30
850.0
  0
VERTEX
  5
AA7
  8
TEAM-DET3
 10
-262.918293
 20
-282.820701
 30
850.0
  0
VERTEX
  5
AA8
  8
TEAM-DET3
 10
-261.273129
 20
-273.675185
 30
850.0
  0
VERTEX
  5
AA9
  8
TEAM-DET3
 10
-259.156741
 20
-264.69557
 30
850.0
  0
VERTEX
  5
AAA
  8
TEAM-DET3
 10
-256.570085
 20
-255.898443
 30
850.0
  0
VERTEX
  5
AAB
  8
TEAM-DET3
 10
-253.514118
 20
-247.300391
 30
850.0
  0
VERTEX
  5
AAC
  8
TEAM-DET3
 10
-250.001171
 20
-238.918711
 30
850.0
  0
VERTEX
  5
AAD
  8
TEAM-DET3
 10
-246.089069
 20
-230.77354
 30
850.0
  0
VERTEX
  5
AAE
  8
TEAM-DET3
 10
-241.847015
 20
-222.885727
 30
850.0
  0
VERTEX
  5
AAF
  8
TEAM-DET3
 10
-237.344208
 20
-215.27612
 30
850.0
  0
VERTEX
  5
AB0
  8
TEAM-DET3
 10
-232.649848
 20
-207.965567
 30
850.0
  0
VERTEX
  5
AB1
  8
TEAM-DET3
 10
-227.833137
 20
-200.974916
 30
850.0
  0
VERTEX
  5
AB2
  8
TEAM-DET3
 10
-222.963275
 20
-194.325015
 30
850.0
  0
VERTEX
  5
AB3
  8
TEAM-DET3
 10
-218.109463
 20
-188.036711
 30
850.0
  0
VERTEX
  5
AB4
  8
TEAM-DET3
 10
-213.333426
 20
-182.128985
 30
850.0
  0
VERTEX
  5
AB5
  8
TEAM-DET3
 10
-208.666997
 20
-176.61334
 30
850.0
  0
VERTEX
  5
AB6
  8
TEAM-DET3
 10
-204.134533
 20
-171.499411
 30
850.0
  0
VERTEX
  5
AB7
  8
TEAM-DET3
 10
-199.76039
 20
-166.796831
 30
850.0
  0
VERTEX
  5
AB8
  8
TEAM-DET3
 10
-195.568926
 20
-162.515237
 30
850.0
  0
VERTEX
  5
AB9
  8
TEAM-DET3
 10
-191.584498
 20
-158.664263
 30
850.0
  0
VERTEX
  5
ABA
  8
TEAM-DET3
 10
-187.831463
 20
-155.253544
 30
850.0
  0
VERTEX
  5
ABB
  8
TEAM-DET3
 10
-184.334178
 20
-152.292714
 30
850.0
  0
VERTEX
  5
ABC
  8
TEAM-DET3
 10
-181.104609
 20
-149.781188
 30
850.0
  0
VERTEX
  5
ABD
  8
TEAM-DET3
 10
-178.105147
 20
-147.677504
 30
850.0
  0
VERTEX
  5
ABE
  8
TEAM-DET3
 10
-175.285793
 20
-145.929979
 30
850.0
  0
VERTEX
  5
ABF
  8
TEAM-DET3
 10
-172.596548
 20
-144.486931
 30
850.0
  0
VERTEX
  5
AC0
  8
TEAM-DET3
 10
-169.987412
 20
-143.296677
 30
850.0
  0
VERTEX
  5
AC1
  8
TEAM-DET3
 10
-167.408385
 20
-142.307534
 30
850.0
  0
VERTEX
  5
AC2
  8
TEAM-DET3
 10
-164.809468
 20
-141.467819
 30
850.0
  0
VERTEX
  5
AC3
  8
TEAM-DET3
 10
-162.140661
 20
-140.725851
 30
850.0
  0
VERTEX
  5
AC4
  8
TEAM-DET3
 10
-159.358656
 20
-140.038488
 30
850.0
  0
VERTEX
  5
AC5
  8
TEAM-DET3
 10
-156.446917
 20
-139.396756
 30
850.0
  0
VERTEX
  5
AC6
  8
TEAM-DET3
 10
-153.395598
 20
-138.80022
 30
850.0
  0
VERTEX
  5
AC7
  8
TEAM-DET3
 10
-150.194854
 20
-138.248447
 30
850.0
  0
VERTEX
  5
AC8
  8
TEAM-DET3
 10
-146.834841
 20
-137.741004
 30
850.0
  0
VERTEX
  5
AC9
  8
TEAM-DET3
 10
-143.305713
 20
-137.277457
 30
850.0
  0
VERTEX
  5
ACA
  8
TEAM-DET3
 10
-139.597625
 20
-136.857373
 30
850.0
  0
VERTEX
  5
ACB
  8
TEAM-DET3
 10
-135.700732
 20
-136.480318
 30
850.0
  0
VERTEX
  5
ACC
  8
TEAM-DET3
 10
-131.61862
 20
-136.141022
 30
850.0
  0
VERTEX
  5
ACD
  8
TEAM-DET3
 10
-127.408596
 20
-135.81487
 30
850.0
  0
VERTEX
  5
ACE
  8
TEAM-DET3
 10
-123.141398
 20
-135.47241
 30
850.0
  0
VERTEX
  5
ACF
  8
TEAM-DET3
 10
-118.887764
 20
-135.084188
 30
850.0
  0
VERTEX
  5
AD0
  8
TEAM-DET3
 10
-114.718433
 20
-134.620753
 30
850.0
  0
VERTEX
  5
AD1
  8
TEAM-DET3
 10
-110.704141
 20
-134.052652
 30
850.0
  0
VERTEX
  5
AD2
  8
TEAM-DET3
 10
-106.915627
 20
-133.350433
 30
850.0
  0
VERTEX
  5
AD3
  8
TEAM-DET3
 10
-103.423629
 20
-132.484645
 30
850.0
  0
VERTEX
  5
AD4
  8
TEAM-DET3
 10
-100.274193
 20
-131.435407
 30
850.0
  0
VERTEX
  5
AD5
  8
TEAM-DET3
 10
-97.414602
 20
-130.221135
 30
850.0
  0
VERTEX
  5
AD6
  8
TEAM-DET3
 10
-94.767447
 20
-128.869818
 30
850.0
  0
VERTEX
  5
AD7
  8
TEAM-DET3
 10
-92.255317
 20
-127.409443
 30
850.0
  0
VERTEX
  5
AD8
  8
TEAM-DET3
 10
-89.800803
 20
-125.867998
 30
850.0
  0
VERTEX
  5
AD9
  8
TEAM-DET3
 10
-87.326497
 20
-124.273472
 30
850.0
  0
VERTEX
  5
ADA
  8
TEAM-DET3
 10
-84.754989
 20
-122.653853
 30
850.0
  0
VERTEX
  5
ADB
  8
TEAM-DET3
 10
-82.008869
 20
-121.03713
 30
850.0
  0
VERTEX
  5
ADC
  8
TEAM-DET3
 10
-79.021452
 20
-119.450217
 30
850.0
  0
VERTEX
  5
ADD
  8
TEAM-DET3
 10
-75.768946
 20
-117.915739
 30
850.0
  0
VERTEX
  5
ADE
  8
TEAM-DET3
 10
-72.238283
 20
-116.455248
 30
850.0
  0
VERTEX
  5
ADF
  8
TEAM-DET3
 10
-68.416396
 20
-115.090295
 30
850.0
  0
VERTEX
  5
AE0
  8
TEAM-DET3
 10
-64.290217
 20
-113.842431
 30
850.0
  0
VERTEX
  5
AE1
  8
TEAM-DET3
 10
-59.846677
 20
-112.733207
 30
850.0
  0
VERTEX
  5
AE2
  8
TEAM-DET3
 10
-55.072709
 20
-111.784176
 30
850.0
  0
VERTEX
  5
AE3
  8
TEAM-DET3
 10
-49.955245
 20
-111.016889
 30
850.0
  0
VERTEX
  5
AE4
  8
TEAM-DET3
 10
-44.490824
 20
-110.44432
 30
850.0
  0
VERTEX
  5
AE5
  8
TEAM-DET3
 10
-38.714408
 20
-110.045136
 30
850.0
  0
VERTEX
  5
AE6
  8
TEAM-DET3
 10
-32.67057
 20
-109.789426
 30
850.0
  0
VERTEX
  5
AE7
  8
TEAM-DET3
 10
-26.403879
 20
-109.647281
 30
850.0
  0
VERTEX
  5
AE8
  8
TEAM-DET3
 10
-19.958906
 20
-109.58879
 30
850.0
  0
VERTEX
  5
AE9
  8
TEAM-DET3
 10
-13.380222
 20
-109.584042
 30
850.0
  0
VERTEX
  5
AEA
  8
TEAM-DET3
 10
-6.712396
 20
-109.603127
 30
850.0
  0
VERTEX
  5
AEB
  8
TEAM-DET3
 10
0.0
 20
-109.616136
 30
850.0
  0
SEQEND
  5
AEC
  8
TEAM-DET3
  0
POLYLINE
  5
531
  8
TEAM-BODY
 66
     1
 10
0.0
 20
0.0
 30
850.0
  0
VERTEX
  5
AED
  8
TEAM-BODY
 10
-251.0
 20
-313.5
 30
850.0
 42
-0.130186
  0
VERTEX
  5
AEE
  8
TEAM-BODY
 10
-233.357926
 20
-246.891119
 30
850.0
 42
-0.106471
  0
VERTEX
  5
AEF
  8
TEAM-BODY
 10
-177.483802
 20
-184.453012
 30
850.0
 42
-0.084235
  0
VERTEX
  5
AF0
  8
TEAM-BODY
 10
-99.21561
 20
-145.616199
 30
850.0
 42
-0.073263
  0
VERTEX
  5
AF1
  8
TEAM-BODY
 10
0.0
 20
-131.0
 30
850.0
 42
0.073263
  0
VERTEX
  5
AF2
  8
TEAM-BODY
 10
-99.21561
 20
-145.616199
 30
850.0
 42
0.084235
  0
VERTEX
  5
AF3
  8
TEAM-BODY
 10
-177.483802
 20
-184.453012
 30
850.0
 42
0.106471
  0
VERTEX
  5
AF4
  8
TEAM-BODY
 10
-233.357926
 20
-246.891119
 30
850.0
 42
0.1063
  0
VERTEX
  5
AF5
  8
TEAM-BODY
 10
-250.403132
 20
-300.839903
 30
850.0
 42
0.130186
  0
SEQEND
  5
AF6
  8
TEAM-BODY
  0
TEXT
  5
532
  8
TEAM-TXT
 10
-195.559552
 20
-404.407549
 30
850.0
 40
30.0
  1
team 231027
 41
0.8
 51
15.0
  7
TEAM
  0
LINE
  5
535
  8
TEAM-AXE
 10
-165.215
 20
-486.970677
 30
850.0
 11
-165.215
 21
-473.029323
 31
850.0
  0
LINE
  5
536
  8
TEAM-AXE
 10
-165.215
 20
-486.970677
 30
850.0
 11
-165.215
 21
-473.029323
 31
850.0
  0
LINE
  5
537
  8
TEAM-AXE
 10
-172.185677
 20
-480.0
 30
850.0
 11
-158.244323
 21
-480.0
 31
850.0
  0
LINE
  5
538
  8
TEAM-AXE
 10
-158.244323
 20
-480.0
 30
850.0
 11
-172.185677
 21
-480.0
 31
850.0
  0
CIRCLE
  5
539
  8
TEAM-HIDE
 10
-165.215
 20
-480.0
 30
850.0
 40
4.785
  0
LINE
  5
53A
  8
TEAM-AXE
 10
-173.504341
 20
-155.0
 30
850.0
 11
-159.562987
 21
-155.0
 31
850.0
  0
LINE
  5
53B
  8
TEAM-AXE
 10
-166.533664
 20
-148.029323
 30
850.0
 11
-166.533664
 21
-161.970677
 31
850.0
  0
CIRCLE
  5
53C
  8
TEAM-HIDE
 10
-166.533664
 20
-155.0
 30
850.0
 40
4.785
  0
LINE
  5
53D
  8
TEAM-AXE
 10
-166.533664
 20
-148.029323
 30
850.0
 11
-166.533664
 21
-161.970677
 31
850.0
  0
LINE
  5
53E
  8
TEAM-AXE
 10
-159.562987
 20
-155.0
 30
850.0
 11
-173.504341
 21
-155.0
 31
850.0
  0
POLYLINE
  5
53F
  8
TEAM-DET1
 66
     1
 10
0.0
 20
0.0
 30
850.0
  0
VERTEX
  5
AF7
  8
TEAM-DET1
 10
227.0
 20
-237.0
 30
850.0
 42
0.224217
  0
VERTEX
  5
AF8
  8
TEAM-DET1
 10
0.0
 20
-139.0
 30
850.0
 42
0.224217
  0
VERTEX
  5
AF9
  8
TEAM-DET1
 10
-227.0
 20
-237.0
 30
850.0
  0
SEQEND
  5
AFA
  8
TEAM-DET1
  0
POLYLINE
  5
540
  8
TEAM-BODY
 66
     1
 10
0.0
 20
0.0
 30
850.0
  0
VERTEX
  5
AFB
  8
TEAM-BODY
 10
-250.484524
 20
-325.26706
 30
850.0
 42
0.107985
  0
VERTEX
  5
AFC
  8
TEAM-BODY
 10
-233.357926
 20
-380.108881
 30
850.0
 42
0.106471
  0
VERTEX
  5
AFD
  8
TEAM-BODY
 10
-177.483802
 20
-442.546988
 30
850.0
 42
0.084235
  0
VERTEX
  5
AFE
  8
TEAM-BODY
 10
-99.21561
 20
-481.383801
 30
850.0
 42
0.073263
  0
VERTEX
  5
AFF
  8
TEAM-BODY
 10
0.0
 20
-496.0
 30
850.0
 42
0.073263
  0
VERTEX
  5
B00
  8
TEAM-BODY
 10
99.21561
 20
-481.383801
 30
850.0
 42
0.084235
  0
VERTEX
  5
B01
  8
TEAM-BODY
 10
177.483802
 20
-442.546988
 30
850.0
 42
0.106471
  0
VERTEX
  5
B02
  8
TEAM-BODY
 10
233.357926
 20
-380.108881
 30
850.0
 42
0.113985
  0
VERTEX
  5
B03
  8
TEAM-BODY
 10
250.725782
 20
-322.086314
 30
850.0
 42
0.130186
  0
SEQEND
  5
B04
  8
TEAM-BODY
  0
POLYLINE
  5
541
  8
TEAM-BODY
 66
     1
 10
0.0
 20
0.0
 30
850.0
  0
VERTEX
  5
B05
  8
TEAM-BODY
 10
251.0
 20
-313.5
 30
850.0
 42
-0.130186
  0
VERTEX
  5
B06
  8
TEAM-BODY
 10
233.357926
 20
-380.108881
 30
850.0
 42
-0.106471
  0
VERTEX
  5
B07
  8
TEAM-BODY
 10
177.483802
 20
-442.546988
 30
850.0
 42
-0.084235
  0
VERTEX
  5
B08
  8
TEAM-BODY
 10
99.21561
 20
-481.383801
 30
850.0
 42
-0.073263
  0
VERTEX
  5
B09
  8
TEAM-BODY
 10
0.0
 20
-496.0
 30
850.0
 42
-0.073263
  0
VERTEX
  5
B0A
  8
TEAM-BODY
 10
-99.21561
 20
-481.383801
 30
850.0
 42
-0.084235
  0
VERTEX
  5
B0B
  8
TEAM-BODY
 10
-177.483802
 20
-442.546988
 30
850.0
 42
-0.106471
  0
VERTEX
  5
B0C
  8
TEAM-BODY
 10
-233.357926
 20
-380.108881
 30
850.0
 42
-0.124479
  0
VERTEX
  5
B0D
  8
TEAM-BODY
 10
-250.966054
 20
-316.522356
 30
850.0
 42
-0.130186
  0
SEQEND
  5
B0E
  8
TEAM-BODY
  0
POLYLINE
  5
542
  8
TEAM-DET3
 66
     1
 10
0.0
 20
0.0
 30
850.0
  0
VERTEX
  5
B0F
  8
TEAM-DET3
 10
0.0
 20
-109.407652
 30
850.0
  0
VERTEX
  5
B10
  8
TEAM-DET3
 10
26.403879
 20
-109.647281
 30
850.0
  0
VERTEX
  5
B11
  8
TEAM-DET3
 10
32.67057
 20
-109.789426
 30
850.0
  0
VERTEX
  5
B12
  8
TEAM-DET3
 10
38.714408
 20
-110.045136
 30
850.0
  0
VERTEX
  5
B13
  8
TEAM-DET3
 10
44.490824
 20
-110.44432
 30
850.0
  0
VERTEX
  5
B14
  8
TEAM-DET3
 10
49.955245
 20
-111.016889
 30
850.0
  0
VERTEX
  5
B15
  8
TEAM-DET3
 10
55.072709
 20
-111.784176
 30
850.0
  0
VERTEX
  5
B16
  8
TEAM-DET3
 10
59.846677
 20
-112.733207
 30
850.0
  0
VERTEX
  5
B17
  8
TEAM-DET3
 10
64.290217
 20
-113.842431
 30
850.0
  0
VERTEX
  5
B18
  8
TEAM-DET3
 10
68.416396
 20
-115.090295
 30
850.0
  0
VERTEX
  5
B19
  8
TEAM-DET3
 10
72.238283
 20
-116.455248
 30
850.0
  0
VERTEX
  5
B1A
  8
TEAM-DET3
 10
75.768946
 20
-117.915739
 30
850.0
  0
VERTEX
  5
B1B
  8
TEAM-DET3
 10
79.021452
 20
-119.450217
 30
850.0
  0
VERTEX
  5
B1C
  8
TEAM-DET3
 10
82.008869
 20
-121.03713
 30
850.0
  0
VERTEX
  5
B1D
  8
TEAM-DET3
 10
84.754989
 20
-122.653853
 30
850.0
  0
VERTEX
  5
B1E
  8
TEAM-DET3
 10
87.326497
 20
-124.273472
 30
850.0
  0
VERTEX
  5
B1F
  8
TEAM-DET3
 10
89.800803
 20
-125.867998
 30
850.0
  0
VERTEX
  5
B20
  8
TEAM-DET3
 10
92.255317
 20
-127.409443
 30
850.0
  0
VERTEX
  5
B21
  8
TEAM-DET3
 10
94.767447
 20
-128.869818
 30
850.0
  0
VERTEX
  5
B22
  8
TEAM-DET3
 10
97.414602
 20
-130.221135
 30
850.0
  0
VERTEX
  5
B23
  8
TEAM-DET3
 10
100.274193
 20
-131.435407
 30
850.0
  0
VERTEX
  5
B24
  8
TEAM-DET3
 10
103.423629
 20
-132.484645
 30
850.0
  0
VERTEX
  5
B25
  8
TEAM-DET3
 10
106.915627
 20
-133.350433
 30
850.0
  0
VERTEX
  5
B26
  8
TEAM-DET3
 10
110.704141
 20
-134.052652
 30
850.0
  0
VERTEX
  5
B27
  8
TEAM-DET3
 10
114.718433
 20
-134.620753
 30
850.0
  0
VERTEX
  5
B28
  8
TEAM-DET3
 10
118.887764
 20
-135.084188
 30
850.0
  0
VERTEX
  5
B29
  8
TEAM-DET3
 10
123.141398
 20
-135.47241
 30
850.0
  0
VERTEX
  5
B2A
  8
TEAM-DET3
 10
127.408596
 20
-135.81487
 30
850.0
  0
VERTEX
  5
B2B
  8
TEAM-DET3
 10
131.61862
 20
-136.141022
 30
850.0
  0
VERTEX
  5
B2C
  8
TEAM-DET3
 10
135.700732
 20
-136.480318
 30
850.0
  0
VERTEX
  5
B2D
  8
TEAM-DET3
 10
139.597625
 20
-136.857373
 30
850.0
  0
VERTEX
  5
B2E
  8
TEAM-DET3
 10
143.305713
 20
-137.277457
 30
850.0
  0
VERTEX
  5
B2F
  8
TEAM-DET3
 10
146.834841
 20
-137.741004
 30
850.0
  0
VERTEX
  5
B30
  8
TEAM-DET3
 10
150.194854
 20
-138.248447
 30
850.0
  0
VERTEX
  5
B31
  8
TEAM-DET3
 10
153.395598
 20
-138.80022
 30
850.0
  0
VERTEX
  5
B32
  8
TEAM-DET3
 10
156.446917
 20
-139.396756
 30
850.0
  0
VERTEX
  5
B33
  8
TEAM-DET3
 10
159.358656
 20
-140.038488
 30
850.0
  0
VERTEX
  5
B34
  8
TEAM-DET3
 10
162.140661
 20
-140.725851
 30
850.0
  0
VERTEX
  5
B35
  8
TEAM-DET3
 10
164.809468
 20
-141.467819
 30
850.0
  0
VERTEX
  5
B36
  8
TEAM-DET3
 10
167.408385
 20
-142.307534
 30
850.0
  0
VERTEX
  5
B37
  8
TEAM-DET3
 10
169.987412
 20
-143.296677
 30
850.0
  0
VERTEX
  5
B38
  8
TEAM-DET3
 10
172.596548
 20
-144.486931
 30
850.0
  0
VERTEX
  5
B39
  8
TEAM-DET3
 10
175.285793
 20
-145.929979
 30
850.0
  0
VERTEX
  5
B3A
  8
TEAM-DET3
 10
178.105147
 20
-147.677504
 30
850.0
  0
VERTEX
  5
B3B
  8
TEAM-DET3
 10
181.104609
 20
-149.781188
 30
850.0
  0
VERTEX
  5
B3C
  8
TEAM-DET3
 10
184.334178
 20
-152.292714
 30
850.0
  0
VERTEX
  5
B3D
  8
TEAM-DET3
 10
187.831463
 20
-155.253544
 30
850.0
  0
VERTEX
  5
B3E
  8
TEAM-DET3
 10
191.584498
 20
-158.664263
 30
850.0
  0
VERTEX
  5
B3F
  8
TEAM-DET3
 10
195.568926
 20
-162.515237
 30
850.0
  0
VERTEX
  5
B40
  8
TEAM-DET3
 10
199.76039
 20
-166.796831
 30
850.0
  0
VERTEX
  5
B41
  8
TEAM-DET3
 10
204.134533
 20
-171.499411
 30
850.0
  0
VERTEX
  5
B42
  8
TEAM-DET3
 10
208.666997
 20
-176.61334
 30
850.0
  0
VERTEX
  5
B43
  8
TEAM-DET3
 10
213.333426
 20
-182.128985
 30
850.0
  0
VERTEX
  5
B44
  8
TEAM-DET3
 10
218.109463
 20
-188.036711
 30
850.0
  0
VERTEX
  5
B45
  8
TEAM-DET3
 10
222.963275
 20
-194.325015
 30
850.0
  0
VERTEX
  5
B46
  8
TEAM-DET3
 10
227.833137
 20
-200.974916
 30
850.0
  0
VERTEX
  5
B47
  8
TEAM-DET3
 10
232.649848
 20
-207.965567
 30
850.0
  0
VERTEX
  5
B48
  8
TEAM-DET3
 10
237.344208
 20
-215.27612
 30
850.0
  0
VERTEX
  5
B49
  8
TEAM-DET3
 10
241.847015
 20
-222.885727
 30
850.0
  0
VERTEX
  5
B4A
  8
TEAM-DET3
 10
246.089069
 20
-230.77354
 30
850.0
  0
VERTEX
  5
B4B
  8
TEAM-DET3
 10
250.001171
 20
-238.918711
 30
850.0
  0
VERTEX
  5
B4C
  8
TEAM-DET3
 10
253.514118
 20
-247.300391
 30
850.0
  0
VERTEX
  5
B4D
  8
TEAM-DET3
 10
256.570085
 20
-255.898443
 30
850.0
  0
VERTEX
  5
B4E
  8
TEAM-DET3
 10
259.156741
 20
-264.69557
 30
850.0
  0
VERTEX
  5
B4F
  8
TEAM-DET3
 10
261.273129
 20
-273.675185
 30
850.0
  0
VERTEX
  5
B50
  8
TEAM-DET3
 10
262.918293
 20
-282.820701
 30
850.0
  0
VERTEX
  5
B51
  8
TEAM-DET3
 10
264.091277
 20
-292.115531
 30
850.0
  0
VERTEX
  5
B52
  8
TEAM-DET3
 10
264.791122
 20
-301.543089
 30
850.0
  0
VERTEX
  5
B53
  8
TEAM-DET3
 10
265.016874
 20
-311.086787
 30
850.0
  0
VERTEX
  5
B54
  8
TEAM-DET3
 10
264.767575
 20
-320.730039
 30
850.0
  0
VERTEX
  5
B55
  8
TEAM-DET3
 10
264.050706
 20
-330.444223
 30
850.0
  0
VERTEX
  5
B56
  8
TEAM-DET3
 10
262.907501
 20
-340.152575
 30
850.0
  0
VERTEX
  5
B57
  8
TEAM-DET3
 10
261.38763
 20
-349.766297
 30
850.0
  0
VERTEX
  5
B58
  8
TEAM-DET3
 10
259.540765
 20
-359.196591
 30
850.0
  0
VERTEX
  5
B59
  8
TEAM-DET3
 10
257.416577
 20
-368.354657
 30
850.0
  0
VERTEX
  5
B5A
  8
TEAM-DET3
 10
255.064736
 20
-377.151698
 30
850.0
  0
VERTEX
  5
B5B
  8
TEAM-DET3
 10
252.534913
 20
-385.498915
 30
850.0
  0
VERTEX
  5
B5C
  8
TEAM-DET3
 10
249.87678
 20
-393.30751
 30
850.0
  0
VERTEX
  5
B5D
  8
TEAM-DET3
 10
247.133114
 20
-400.513299
 30
850.0
  0
VERTEX
  5
B5E
  8
TEAM-DET3
 10
244.319115
 20
-407.150564
 30
850.0
  0
VERTEX
  5
B5F
  8
TEAM-DET3
 10
241.443092
 20
-413.278201
 30
850.0
  0
VERTEX
  5
B60
  8
TEAM-DET3
 10
238.513352
 20
-418.955105
 30
850.0
  0
VERTEX
  5
B61
  8
TEAM-DET3
 10
235.538203
 20
-424.240175
 30
850.0
  0
VERTEX
  5
B62
  8
TEAM-DET3
 10
232.525953
 20
-429.192305
 30
850.0
  0
VERTEX
  5
B63
  8
TEAM-DET3
 10
229.484909
 20
-433.870392
 30
850.0
  0
VERTEX
  5
B64
  8
TEAM-DET3
 10
226.423379
 20
-438.333333
 30
850.0
  0
VERTEX
  5
B65
  8
TEAM-DET3
 10
223.347995
 20
-442.631836
 30
850.0
  0
VERTEX
  5
B66
  8
TEAM-DET3
 10
220.258694
 20
-446.783854
 30
850.0
  0
VERTEX
  5
B67
  8
TEAM-DET3
 10
217.153737
 20
-450.799154
 30
850.0
  0
VERTEX
  5
B68
  8
TEAM-DET3
 10
214.031384
 20
-454.6875
 30
850.0
  0
VERTEX
  5
B69
  8
TEAM-DET3
 10
210.889896
 20
-458.458659
 30
850.0
  0
VERTEX
  5
B6A
  8
TEAM-DET3
 10
207.727535
 20
-462.122396
 30
850.0
  0
VERTEX
  5
B6B
  8
TEAM-DET3
 10
204.542562
 20
-465.688477
 30
850.0
  0
VERTEX
  5
B6C
  8
TEAM-DET3
 10
201.333237
 20
-469.166667
 30
850.0
  0
VERTEX
  5
B6D
  8
TEAM-DET3
 10
198.091877
 20
-472.5616
 30
850.0
  0
VERTEX
  5
B6E
  8
TEAM-DET3
 10
194.787018
 20
-475.857379
 30
850.0
  0
VERTEX
  5
B6F
  8
TEAM-DET3
 10
191.381253
 20
-479.032978
 30
850.0
  0
VERTEX
  5
B70
  8
TEAM-DET3
 10
187.837173
 20
-482.067368
 30
850.0
  0
VERTEX
  5
B71
  8
TEAM-DET3
 10
184.11737
 20
-484.939521
 30
850.0
  0
VERTEX
  5
B72
  8
TEAM-DET3
 10
180.184436
 20
-487.628409
 30
850.0
  0
VERTEX
  5
B73
  8
TEAM-DET3
 10
176.000963
 20
-490.113004
 30
850.0
  0
VERTEX
  5
B74
  8
TEAM-DET3
 10
171.529542
 20
-492.372278
 30
850.0
  0
VERTEX
  5
B75
  8
TEAM-DET3
 10
166.745737
 20
-494.393877
 30
850.0
  0
VERTEX
  5
B76
  8
TEAM-DET3
 10
161.676988
 20
-496.200141
 30
850.0
  0
VERTEX
  5
B77
  8
TEAM-DET3
 10
156.36371
 20
-497.822086
 30
850.0
  0
VERTEX
  5
B78
  8
TEAM-DET3
 10
150.846314
 20
-499.290725
 30
850.0
  0
VERTEX
  5
B79
  8
TEAM-DET3
 10
145.165214
 20
-500.637072
 30
850.0
  0
VERTEX
  5
B7A
  8
TEAM-DET3
 10
139.360822
 20
-501.892143
 30
850.0
  0
VERTEX
  5
B7B
  8
TEAM-DET3
 10
133.473551
 20
-503.086952
 30
850.0
  0
VERTEX
  5
B7C
  8
TEAM-DET3
 10
127.543813
 20
-504.252513
 30
850.0
  0
VERTEX
  5
B7D
  8
TEAM-DET3
 10
121.594771
 20
-505.413682
 30
850.0
  0
VERTEX
  5
B7E
  8
TEAM-DET3
 10
115.580584
 20
-506.57068
 30
850.0
  0
VERTEX
  5
B7F
  8
TEAM-DET3
 10
109.43816
 20
-507.717568
 30
850.0
  0
VERTEX
  5
B80
  8
TEAM-DET3
 10
103.104408
 20
-508.848409
 30
850.0
  0
VERTEX
  5
B81
  8
TEAM-DET3
 10
96.516236
 20
-509.957266
 30
850.0
  0
VERTEX
  5
B82
  8
TEAM-DET3
 10
89.610552
 20
-511.0382
 30
850.0
  0
VERTEX
  5
B83
  8
TEAM-DET3
 10
82.324267
 20
-512.085273
 30
850.0
  0
VERTEX
  5
B84
  8
TEAM-DET3
 10
74.594287
 20
-513.092547
 30
850.0
  0
VERTEX
  5
B85
  8
TEAM-DET3
 10
66.375339
 20
-514.053937
 30
850.0
  0
VERTEX
  5
B86
  8
TEAM-DET3
 10
57.693423
 20
-514.96277
 30
850.0
  0
VERTEX
  5
B87
  8
TEAM-DET3
 10
48.592355
 20
-515.812224
 30
850.0
  0
VERTEX
  5
B88
  8
TEAM-DET3
 10
39.115953
 20
-516.595478
 30
850.0
  0
VERTEX
  5
B89
  8
TEAM-DET3
 10
29.308032
 20
-517.30571
 30
850.0
  0
VERTEX
  5
B8A
  8
TEAM-DET3
 10
19.212411
 20
-517.9361
 30
850.0
  0
VERTEX
  5
B8B
  8
TEAM-DET3
 10
8.872906
 20
-518.479826
 30
850.0
  0
VERTEX
  5
B8C
  8
TEAM-DET3
 10
0.0
 20
-518.858869
 30
850.0
  0
SEQEND
  5
B8D
  8
TEAM-DET3
  0
POLYLINE
  5
543
  8
TEAM-BODY
 66
     1
 10
0.0
 20
0.0
 30
850.0
  0
VERTEX
  5
B8E
  8
TEAM-BODY
 10
0.0
 20
-131.0
 30
850.0
 42
-0.073263
  0
VERTEX
  5
B8F
  8
TEAM-BODY
 10
99.21561
 20
-145.616199
 30
850.0
 42
-0.084235
  0
VERTEX
  5
B90
  8
TEAM-BODY
 10
177.483802
 20
-184.453012
 30
850.0
 42
-0.106471
  0
VERTEX
  5
B91
  8
TEAM-BODY
 10
233.357926
 20
-246.891119
 30
850.0
 42
-0.107859
  0
VERTEX
  5
B92
  8
TEAM-BODY
 10
250.478631
 20
-301.666006
 30
850.0
 42
-0.130186
  0
SEQEND
  5
B93
  8
TEAM-BODY
  0
POLYLINE
  5
544
  8
TEAM-BODY
 66
     1
 10
0.0
 20
0.0
 30
850.0
  0
VERTEX
  5
B94
  8
TEAM-BODY
 10
250.874024
 20
-307.678678
 30
850.0
 42
0.119199
  0
VERTEX
  5
B95
  8
TEAM-BODY
 10
233.357926
 20
-246.891119
 30
850.0
 42
0.106471
  0
VERTEX
  5
B96
  8
TEAM-BODY
 10
177.483802
 20
-184.453012
 30
850.0
 42
0.084235
  0
VERTEX
  5
B97
  8
TEAM-BODY
 10
99.21561
 20
-145.616199
 30
850.0
 42
0.073263
  0
VERTEX
  5
B98
  8
TEAM-BODY
 10
0.0
 20
-131.0
 30
850.0
 42
0.073263
  0
SEQEND
  5
B99
  8
TEAM-BODY
  0
ENDSEC
  0
EOF
