  0
SECTION
  2
HEADER
  9
$ACADVER
  1
AC1009
  9
$INSBASE
 10
0.0
 20
0.0
 30
0.0
  9
$EXTMIN
 10
-277.533873
 20
-395.080754
 30
-0.051878
  9
$EXTMAX
 10
277.533878
 20
7.124548
 30
850.051885
  9
$LIMMIN
 10
-277.533873
 20
-395.080754
  9
$LIMMAX
 10
277.533878
 20
7.124548
  9
$ORTHOMODE
 70
     1
  9
$REGENMODE
 70
     1
  9
$FILLMODE
 70
     1
  9
$QTEXTMODE
 70
     0
  9
$MIRRTEXT
 70
     0
  9
$DRAGMODE
 70
     2
  9
$LTSCALE
 40
25.0
  9
$OSMODE
 70
     0
  9
$ATTMODE
 70
     1
  9
$TEXTSIZE
 40
200.0
  9
$TRACEWID
 40
1.0
  9
$TEXTSTYLE
  7
STANDARD
  9
$CLAYER
  8
TEAM-MAS
  9
$CELTYPE
  6
BYLAYER
  9
$CECOLOR
 62
   256
  9
$DIMSCALE
 40
1.0
  9
$DIMASZ
 40
20.0
  9
$DIMEXO
 40
10.0
  9
$DIMDLI
 40
1.0
  9
$DIMRND
 40
0.0
  9
$DIMDLE
 40
0.0
  9
$DIMEXE
 40
1.0
  9
$DIMTP
 40
0.0
  9
$DIMTM
 40
0.0
  9
$DIMTXT
 40
35.0
  9
$DIMCEN
 40
1.0
  9
$DIMTSZ
 40
0.0
  9
$DIMTOL
 70
     0
  9
$DIMLIM
 70
     0
  9
$DIMTIH
 70
     0
  9
$DIMTOH
 70
     0
  9
$DIMSE1
 70
     0
  9
$DIMSE2
 70
     0
  9
$DIMTAD
 70
     0
  9
$DIMZIN
 70
     0
  9
$DIMBLK
  1

  9
$DIMASO
 70
     1
  9
$DIMSHO
 70
     0
  9
$DIMPOST
  1

  9
$DIMAPOST
  1

  9
$DIMALT
 70
     0
  9
$DIMALTD
 70
     2
  9
$DIMALTF
 40
25.4
  9
$DIMLFAC
 40
1.0
  9
$DIMTOFL
 70
     0
  9
$DIMTVP
 40
0.0
  9
$DIMTIX
 70
     0
  9
$DIMSOXD
 70
     0
  9
$DIMSAH
 70
     0
  9
$DIMBLK1
  1

  9
$DIMBLK2
  1

  9
$DIMSTYLE
  2
TEAM
  9
$DIMCLRD
 70
     9
  9
$DIMCLRE
 70
     9
  9
$DIMCLRT
 70
    11
  9
$DIMTFAC
 40
1.0
  9
$DIMGAP
 40
15.0
  9
$LUNITS
 70
     2
  9
$LUPREC
 70
     1
  9
$SKETCHINC
 40
1.0
  9
$FILLETRAD
 40
50.0
  9
$AUNITS
 70
     0
  9
$AUPREC
 70
     0
  9
$MENU
  1
ROPLANS
  9
$ELEVATION
 40
0.0
  9
$PELEVATION
 40
0.0
  9
$THICKNESS
 40
0.0
  9
$LIMCHECK
 70
     0
  9
$BLIPMODE
 70
     1
  9
$CHAMFERA
 40
0.0
  9
$CHAMFERB
 40
0.0
  9
$SKPOLY
 70
     0
  9
$TDCREATE
 40
2450392.957851
  9
$TDUPDATE
 40
2455505.473099
  9
$TDINDWG
 40
2.023557
  9
$TDUSRTIMER
 40
2.023557
  9
$USRTIMER
 70
     1
  9
$ANGBASE
 50
0.0
  9
$ANGDIR
 70
     0
  9
$PDMODE
 70
     0
  9
$PDSIZE
 40
0.0
  9
$PLINEWID
 40
0.0
  9
$COORDS
 70
     2
  9
$SPLFRAME
 70
     0
  9
$SPLINETYPE
 70
     6
  9
$SPLINESEGS
 70
     8
  9
$ATTDIA
 70
     0
  9
$ATTREQ
 70
     0
  9
$HANDLING
 70
     1
  9
$HANDSEED
  5
864
  9
$SURFTAB1
 70
    24
  9
$SURFTAB2
 70
    24
  9
$SURFTYPE
 70
     6
  9
$SURFU
 70
     6
  9
$SURFV
 70
     6
  9
$UCSNAME
  2

  9
$UCSORG
 10
0.0
 20
0.0
 30
0.0
  9
$UCSXDIR
 10
1.0
 20
0.0
 30
0.0
  9
$UCSYDIR
 10
0.0
 20
1.0
 30
0.0
  9
$PUCSNAME
  2

  9
$PUCSORG
 10
0.0
 20
0.0
 30
0.0
  9
$PUCSXDIR
 10
1.0
 20
0.0
 30
0.0
  9
$PUCSYDIR
 10
0.0
 20
1.0
 30
0.0
  9
$USERI1
 70
     0
  9
$USERI2
 70
     0
  9
$USERI3
 70
     0
  9
$USERI4
 70
     0
  9
$USERI5
 70
     0
  9
$USERR1
 40
0.0
  9
$USERR2
 40
0.0
  9
$USERR3
 40
0.0
  9
$USERR4
 40
0.0
  9
$USERR5
 40
0.0
  9
$WORLDVIEW
 70
     1
  9
$SHADEDGE
 70
     0
  9
$SHADEDIF
 70
    70
  9
$TILEMODE
 70
     1
  9
$MAXACTVP
 70
    16
  9
$PLIMCHECK
 70
     0
  9
$PEXTMIN
 10
-0.805942
 20
0.005011
 30
0.0
  9
$PEXTMAX
 10
20.250094
 20
11.356329
 30
0.0
  9
$PLIMMIN
 10
0.0
 20
0.0
  9
$PLIMMAX
 10
12.0
 20
9.0
  9
$UNITMODE
 70
     0
  9
$VISRETAIN
 70
     0
  9
$PLINEGEN
 70
     0
  9
$PSLTSCALE
 70
     0
  0
ENDSEC
  0
SECTION
  2
TABLES
  0
TABLE
  2
VPORT
 70
     2
  0
VPORT
  2
*ACTIVE
 70
     0
 10
0.0
 20
0.0
 11
1.0
 21
1.0
 12
0.000003
 22
-193.978103
 13
0.0
 23
0.0
 14
1.0
 24
1.0
 15
50.0
 25
50.0
 16
0.0
 26
0.0
 36
1.0
 17
0.0
 27
0.0
 37
0.0
 40
404.675345
 41
1.865779
 42
50.0
 43
0.0
 44
0.0
 50
0.0
 51
0.0
 71
     0
 72
   100
 73
     1
 74
     1
 75
     0
 76
     0
 77
     0
 78
     0
  0
ENDTAB
  0
TABLE
  2
LTYPE
 70
     2
  0
LTYPE
  2
CONTINUOUS
 70
     0
  3
Solid Line
 72
    65
 73
     0
 40
0.0
  0
LTYPE
  2
31
 70
     0
  3

 72
    65
 73
     4
 40
2.1
 49
1.5
 49
-0.3
 49
0.0
 49
-0.3
  0
ENDTAB
  0
TABLE
  2
LAYER
 70
     9
  0
LAYER
  2
0
 70
     0
 62
     7
  6
CONTINUOUS
  0
LAYER
  2
TEAM-BODY
 70
     0
 62
     2
  6
CONTINUOUS
  0
LAYER
  2
TEAM-AXE
 70
     0
 62
    10
  6
31
  0
LAYER
  2
TEAM-MAS
 70
     0
 62
     9
  6
CONTINUOUS
  0
LAYER
  2
TEAM-TXT
 70
     0
 62
    11
  6
CONTINUOUS
  0
LAYER
  2
TEAM-DET1
 70
     0
 62
     4
  6
CONTINUOUS
  0
LAYER
  2
TEAM-KAN
 70
     0
 62
     6
  6
CONTINUOUS
  0
LAYER
  2
TEAM-NET
 70
     0
 62
    15
  6
CONTINUOUS
  0
LAYER
  2
TEAM-INSP
 70
     0
 62
     5
  6
CONTINUOUS
  0
ENDTAB
  0
TABLE
  2
STYLE
 70
     2
  0
STYLE
  2
STANDARD
 70
     0
 40
0.0
 41
1.0
 50
0.0
 71
     0
 42
200.0
  3
txt
  4

  0
STYLE
  2
TEAM
 70
     0
 40
0.0
 41
0.8
 50
15.0
 71
     0
 42
7.0
  3
ROMANS.shx
  4

  0
ENDTAB
  0
TABLE
  2
VIEW
 70
     0
  0
ENDTAB
  0
TABLE
  2
UCS
 70
     0
  0
ENDTAB
  0
TABLE
  2
APPID
 70
     1
  0
APPID
  2
ACAD
 70
     0
  0
ENDTAB
  0
TABLE
  2
DIMSTYLE
 70
     1
  0
DIMSTYLE
  2
TEAM
 70
     0
  3

  4

  5

  6

  7

 40
1.0
 41
20.0
 42
10.0
 43
1.0
 44
1.0
 45
0.0
 46
0.0
 47
0.0
 48
0.0
140
35.0
141
1.0
142
0.0
143
25.4
144
1.0
145
0.0
146
1.0
147
15.0
 71
     0
 72
     0
 73
     0
 74
     0
 75
     0
 76
     0
 77
     0
 78
     0
170
     0
171
     2
172
     0
173
     0
174
     0
175
     0
176
     9
177
     9
178
    11
  0
ENDTAB
  0
ENDSEC
  0
SECTION
  2
BLOCKS
  0
BLOCK
  8
0
  2
$MODEL_SPACE
 70
     0
 10
0.0
 20
0.0
 30
0.0
  3
$MODEL_SPACE
  1

  0
ENDBLK
  5
85D
  8
0
  0
BLOCK
 67
     1
  8
0
  2
$PAPER_SPACE
 70
     0
 10
0.0
 20
0.0
 30
0.0
  3
$PAPER_SPACE
  1

  0
ENDBLK
  5
85B
 67
     1
  8
0
  0
ENDSEC
  0
SECTION
  2
ENTITIES
  0
CIRCLE
  5
20
  8
TEAM-INSP
 10
0.0
 20
0.0
 30
0.0
 40
7.1
  0
POLYLINE
  5
22
  8
TEAM-NET
 66
     1
 10
0.0
 20
0.0
 30
0.0
 70
    16
 71
     2
 72
    37
  0
VERTEX
  5
23
  8
TEAM-NET
 10
0.0
 20
-0.000016
 30
815.0
 70
    64
  0
VERTEX
  5
24
  8
TEAM-NET
 10
-25.24218
 20
-0.000016
 30
815.0
 70
    64
  0
VERTEX
  5
25
  8
TEAM-NET
 10
-50.484359
 20
-0.000016
 30
815.0
 70
    64
  0
VERTEX
  5
26
  8
TEAM-NET
 10
-75.726539
 20
-0.000016
 30
815.0
 70
    64
  0
VERTEX
  5
27
  8
TEAM-NET
 10
-100.968719
 20
-0.000016
 30
815.0
 70
    64
  0
VERTEX
  5
28
  8
TEAM-NET
 10
-126.210898
 20
-0.000016
 30
815.0
 70
    64
  0
VERTEX
  5
29
  8
TEAM-NET
 10
-151.453078
 20
-0.000016
 30
815.0
 70
    64
  0
VERTEX
  5
2A
  8
TEAM-NET
 10
-176.695258
 20
-0.000016
 30
815.0
 70
    64
  0
VERTEX
  5
2B
  8
TEAM-NET
 10
-201.937438
 20
-0.000016
 30
815.0
 70
    64
  0
VERTEX
  5
2C
  8
TEAM-NET
 10
-227.179617
 20
-0.000016
 30
815.0
 70
    64
  0
VERTEX
  5
2D
  8
TEAM-NET
 10
-252.390793
 20
-0.59836
 30
815.0
 70
    64
  0
VERTEX
  5
2E
  8
TEAM-NET
 10
-272.825422
 20
-14.035128
 30
815.0
 70
    64
  0
VERTEX
  5
2F
  8
TEAM-NET
 10
-277.5
 20
-38.4287
 30
815.0
 70
    64
  0
VERTEX
  5
30
  8
TEAM-NET
 10
-277.5
 20
-63.67088
 30
815.0
 70
    64
  0
VERTEX
  5
31
  8
TEAM-NET
 10
-277.5
 20
-88.91306
 30
815.0
 70
    64
  0
VERTEX
  5
32
  8
TEAM-NET
 10
-277.5
 20
-114.155239
 30
815.0
 70
    64
  0
VERTEX
  5
33
  8
TEAM-NET
 10
-277.5
 20
-139.397419
 30
815.0
 70
    64
  0
VERTEX
  5
34
  8
TEAM-NET
 10
-277.5
 20
-164.639599
 30
815.0
 70
    64
  0
VERTEX
  5
35
  8
TEAM-NET
 10
-277.5
 20
-189.881779
 30
815.0
 70
    64
  0
VERTEX
  5
36
  8
TEAM-NET
 10
-277.5
 20
-215.123958
 30
815.0
 70
    64
  0
VERTEX
  5
37
  8
TEAM-NET
 10
-277.5
 20
-240.366138
 30
815.0
 70
    64
  0
VERTEX
  5
38
  8
TEAM-NET
 10
-277.5
 20
-265.608318
 30
815.0
 70
    64
  0
VERTEX
  5
39
  8
TEAM-NET
 10
-277.5
 20
-290.850497
 30
815.0
 70
    64
  0
VERTEX
  5
3A
  8
TEAM-NET
 10
-277.5
 20
-316.092677
 30
815.0
 70
    64
  0
VERTEX
  5
3B
  8
TEAM-NET
 10
-277.5
 20
-341.334857
 30
815.0
 70
    64
  0
VERTEX
  5
3C
  8
TEAM-NET
 10
-272.825931
 20
-365.728578
 30
815.0
 70
    64
  0
VERTEX
  5
3D
  8
TEAM-NET
 10
-252.390803
 20
-379.16448
 30
815.0
 70
    64
  0
VERTEX
  5
3E
  8
TEAM-NET
 10
-227.179617
 20
-379.762726
 30
815.0
 70
    64
  0
VERTEX
  5
3F
  8
TEAM-NET
 10
-201.937438
 20
-379.762726
 30
815.0
 70
    64
  0
VERTEX
  5
40
  8
TEAM-NET
 10
-176.695258
 20
-379.762726
 30
815.0
 70
    64
  0
VERTEX
  5
41
  8
TEAM-NET
 10
-151.453078
 20
-379.762726
 30
815.0
 70
    64
  0
VERTEX
  5
42
  8
TEAM-NET
 10
-126.210898
 20
-379.762726
 30
815.0
 70
    64
  0
VERTEX
  5
43
  8
TEAM-NET
 10
-100.968719
 20
-379.762726
 30
815.0
 70
    64
  0
VERTEX
  5
44
  8
TEAM-NET
 10
-75.726539
 20
-379.762726
 30
815.0
 70
    64
  0
VERTEX
  5
45
  8
TEAM-NET
 10
-50.484359
 20
-379.762726
 30
815.0
 70
    64
  0
VERTEX
  5
46
  8
TEAM-NET
 10
-25.24218
 20
-379.762726
 30
815.0
 70
    64
  0
VERTEX
  5
47
  8
TEAM-NET
 10
0.0
 20
-379.762726
 30
815.0
 70
    64
  0
VERTEX
  5
48
  8
TEAM-NET
 10
0.0
 20
-52.591508
 30
735.0
 70
    64
  0
VERTEX
  5
49
  8
TEAM-NET
 10
-19.572482
 20
-52.591508
 30
735.0
 70
    64
  0
VERTEX
  5
4A
  8
TEAM-NET
 10
-39.144964
 20
-52.591508
 30
735.0
 70
    64
  0
VERTEX
  5
4B
  8
TEAM-NET
 10
-58.717446
 20
-52.591508
 30
735.0
 70
    64
  0
VERTEX
  5
4C
  8
TEAM-NET
 10
-78.289928
 20
-52.591508
 30
735.0
 70
    64
  0
VERTEX
  5
4D
  8
TEAM-NET
 10
-97.86241
 20
-52.591508
 30
735.0
 70
    64
  0
VERTEX
  5
4E
  8
TEAM-NET
 10
-117.434892
 20
-52.591508
 30
735.0
 70
    64
  0
VERTEX
  5
4F
  8
TEAM-NET
 10
-137.007374
 20
-52.591508
 30
735.0
 70
    64
  0
VERTEX
  5
50
  8
TEAM-NET
 10
-156.579856
 20
-52.591508
 30
735.0
 70
    64
  0
VERTEX
  5
51
  8
TEAM-NET
 10
-176.152338
 20
-52.591508
 30
735.0
 70
    64
  0
VERTEX
  5
52
  8
TEAM-NET
 10
-195.72482
 20
-52.591508
 30
735.0
 70
    64
  0
VERTEX
  5
53
  8
TEAM-NET
 10
-214.791235
 20
-55.362206
 30
735.0
 70
    64
  0
VERTEX
  5
54
  8
TEAM-NET
 10
-222.974892
 20
-72.122592
 30
735.0
 70
    64
  0
VERTEX
  5
55
  8
TEAM-NET
 10
-222.976563
 20
-91.695071
 30
735.0
 70
    64
  0
VERTEX
  5
56
  8
TEAM-NET
 10
-222.976563
 20
-111.267553
 30
735.0
 70
    64
  0
VERTEX
  5
57
  8
TEAM-NET
 10
-222.976563
 20
-130.840035
 30
735.0
 70
    64
  0
VERTEX
  5
58
  8
TEAM-NET
 10
-222.976563
 20
-150.412517
 30
735.0
 70
    64
  0
VERTEX
  5
59
  8
TEAM-NET
 10
-222.976563
 20
-169.984999
 30
735.0
 70
    64
  0
VERTEX
  5
5A
  8
TEAM-NET
 10
-222.976563
 20
-189.557481
 30
735.0
 70
    64
  0
VERTEX
  5
5B
  8
TEAM-NET
 10
-222.976563
 20
-209.129963
 30
735.0
 70
    64
  0
VERTEX
  5
5C
  8
TEAM-NET
 10
-222.976563
 20
-228.702445
 30
735.0
 70
    64
  0
VERTEX
  5
5D
  8
TEAM-NET
 10
-222.976563
 20
-248.274927
 30
735.0
 70
    64
  0
VERTEX
  5
5E
  8
TEAM-NET
 10
-222.976563
 20
-267.847409
 30
735.0
 70
    64
  0
VERTEX
  5
5F
  8
TEAM-NET
 10
-222.976563
 20
-287.419891
 30
735.0
 70
    64
  0
VERTEX
  5
60
  8
TEAM-NET
 10
-222.974884
 20
-306.99237
 30
735.0
 70
    64
  0
VERTEX
  5
61
  8
TEAM-NET
 10
-214.791231
 20
-323.752874
 30
735.0
 70
    64
  0
VERTEX
  5
62
  8
TEAM-NET
 10
-195.72482
 20
-326.523582
 30
735.0
 70
    64
  0
VERTEX
  5
63
  8
TEAM-NET
 10
-176.152338
 20
-326.523582
 30
735.0
 70
    64
  0
VERTEX
  5
64
  8
TEAM-NET
 10
-156.579856
 20
-326.523582
 30
735.0
 70
    64
  0
VERTEX
  5
65
  8
TEAM-NET
 10
-137.007374
 20
-326.523582
 30
735.0
 70
    64
  0
VERTEX
  5
66
  8
TEAM-NET
 10
-117.434892
 20
-326.523582
 30
735.0
 70
    64
  0
VERTEX
  5
67
  8
TEAM-NET
 10
-97.86241
 20
-326.523582
 30
735.0
 70
    64
  0
VERTEX
  5
68
  8
TEAM-NET
 10
-78.289928
 20
-326.523582
 30
735.0
 70
    64
  0
VERTEX
  5
69
  8
TEAM-NET
 10
-58.717446
 20
-326.523582
 30
735.0
 70
    64
  0
VERTEX
  5
6A
  8
TEAM-NET
 10
-39.144964
 20
-326.523582
 30
735.0
 70
    64
  0
VERTEX
  5
6B
  8
TEAM-NET
 10
-19.572482
 20
-326.523582
 30
735.0
 70
    64
  0
VERTEX
  5
6C
  8
TEAM-NET
 10
0.0
 20
-326.523582
 30
735.0
 70
    64
  0
SEQEND
  5
6E
  8
TEAM-NET
  0
POLYLINE
  5
6F
  8
TEAM-NET
 66
     1
 10
0.0
 20
0.0
 30
0.0
 70
    16
 71
     2
 72
    37
  0
VERTEX
  5
70
  8
TEAM-NET
 10
0.0
 20
-0.000016
 30
815.0
 70
    64
  0
VERTEX
  5
71
  8
TEAM-NET
 10
25.24218
 20
-0.000016
 30
815.0
 70
    64
  0
VERTEX
  5
72
  8
TEAM-NET
 10
50.484359
 20
-0.000016
 30
815.0
 70
    64
  0
VERTEX
  5
73
  8
TEAM-NET
 10
75.726539
 20
-0.000016
 30
815.0
 70
    64
  0
VERTEX
  5
74
  8
TEAM-NET
 10
100.968719
 20
-0.000016
 30
815.0
 70
    64
  0
VERTEX
  5
75
  8
TEAM-NET
 10
126.210898
 20
-0.000016
 30
815.0
 70
    64
  0
VERTEX
  5
76
  8
TEAM-NET
 10
151.453078
 20
-0.000016
 30
815.0
 70
    64
  0
VERTEX
  5
77
  8
TEAM-NET
 10
176.695258
 20
-0.000016
 30
815.0
 70
    64
  0
VERTEX
  5
78
  8
TEAM-NET
 10
201.937438
 20
-0.000016
 30
815.0
 70
    64
  0
VERTEX
  5
79
  8
TEAM-NET
 10
227.179617
 20
-0.000016
 30
815.0
 70
    64
  0
VERTEX
  5
7A
  8
TEAM-NET
 10
252.390793
 20
-0.59836
 30
815.0
 70
    64
  0
VERTEX
  5
7B
  8
TEAM-NET
 10
272.825422
 20
-14.035128
 30
815.0
 70
    64
  0
VERTEX
  5
7C
  8
TEAM-NET
 10
277.5
 20
-38.4287
 30
815.0
 70
    64
  0
VERTEX
  5
7D
  8
TEAM-NET
 10
277.5
 20
-63.67088
 30
815.0
 70
    64
  0
VERTEX
  5
7E
  8
TEAM-NET
 10
277.5
 20
-88.91306
 30
815.0
 70
    64
  0
VERTEX
  5
7F
  8
TEAM-NET
 10
277.5
 20
-114.155239
 30
815.0
 70
    64
  0
VERTEX
  5
80
  8
TEAM-NET
 10
277.5
 20
-139.397419
 30
815.0
 70
    64
  0
VERTEX
  5
81
  8
TEAM-NET
 10
277.5
 20
-164.639599
 30
815.0
 70
    64
  0
VERTEX
  5
82
  8
TEAM-NET
 10
277.5
 20
-189.881779
 30
815.0
 70
    64
  0
VERTEX
  5
83
  8
TEAM-NET
 10
277.5
 20
-215.123958
 30
815.0
 70
    64
  0
VERTEX
  5
84
  8
TEAM-NET
 10
277.5
 20
-240.366138
 30
815.0
 70
    64
  0
VERTEX
  5
85
  8
TEAM-NET
 10
277.5
 20
-265.608318
 30
815.0
 70
    64
  0
VERTEX
  5
86
  8
TEAM-NET
 10
277.5
 20
-290.850497
 30
815.0
 70
    64
  0
VERTEX
  5
87
  8
TEAM-NET
 10
277.5
 20
-316.092677
 30
815.0
 70
    64
  0
VERTEX
  5
88
  8
TEAM-NET
 10
277.5
 20
-341.334857
 30
815.0
 70
    64
  0
VERTEX
  5
89
  8
TEAM-NET
 10
272.825931
 20
-365.728578
 30
815.0
 70
    64
  0
VERTEX
  5
8A
  8
TEAM-NET
 10
252.390803
 20
-379.16448
 30
815.0
 70
    64
  0
VERTEX
  5
8B
  8
TEAM-NET
 10
227.179617
 20
-379.762726
 30
815.0
 70
    64
  0
VERTEX
  5
8C
  8
TEAM-NET
 10
201.937438
 20
-379.762726
 30
815.0
 70
    64
  0
VERTEX
  5
8D
  8
TEAM-NET
 10
176.695258
 20
-379.762726
 30
815.0
 70
    64
  0
VERTEX
  5
8E
  8
TEAM-NET
 10
151.453078
 20
-379.762726
 30
815.0
 70
    64
  0
VERTEX
  5
8F
  8
TEAM-NET
 10
126.210898
 20
-379.762726
 30
815.0
 70
    64
  0
VERTEX
  5
90
  8
TEAM-NET
 10
100.968719
 20
-379.762726
 30
815.0
 70
    64
  0
VERTEX
  5
91
  8
TEAM-NET
 10
75.726539
 20
-379.762726
 30
815.0
 70
    64
  0
VERTEX
  5
92
  8
TEAM-NET
 10
50.484359
 20
-379.762726
 30
815.0
 70
    64
  0
VERTEX
  5
93
  8
TEAM-NET
 10
25.24218
 20
-379.762726
 30
815.0
 70
    64
  0
VERTEX
  5
94
  8
TEAM-NET
 10
0.0
 20
-379.762726
 30
815.0
 70
    64
  0
VERTEX
  5
95
  8
TEAM-NET
 10
0.0
 20
-52.591508
 30
735.0
 70
    64
  0
VERTEX
  5
96
  8
TEAM-NET
 10
19.572482
 20
-52.591508
 30
735.0
 70
    64
  0
VERTEX
  5
97
  8
TEAM-NET
 10
39.144964
 20
-52.591508
 30
735.0
 70
    64
  0
VERTEX
  5
98
  8
TEAM-NET
 10
58.717446
 20
-52.591508
 30
735.0
 70
    64
  0
VERTEX
  5
99
  8
TEAM-NET
 10
78.289928
 20
-52.591508
 30
735.0
 70
    64
  0
VERTEX
  5
9A
  8
TEAM-NET
 10
97.86241
 20
-52.591508
 30
735.0
 70
    64
  0
VERTEX
  5
9B
  8
TEAM-NET
 10
117.434892
 20
-52.591508
 30
735.0
 70
    64
  0
VERTEX
  5
9C
  8
TEAM-NET
 10
137.007374
 20
-52.591508
 30
735.0
 70
    64
  0
VERTEX
  5
9D
  8
TEAM-NET
 10
156.579856
 20
-52.591508
 30
735.0
 70
    64
  0
VERTEX
  5
9E
  8
TEAM-NET
 10
176.152338
 20
-52.591508
 30
735.0
 70
    64
  0
VERTEX
  5
9F
  8
TEAM-NET
 10
195.72482
 20
-52.591508
 30
735.0
 70
    64
  0
VERTEX
  5
A0
  8
TEAM-NET
 10
214.791235
 20
-55.362206
 30
735.0
 70
    64
  0
VERTEX
  5
A1
  8
TEAM-NET
 10
222.974892
 20
-72.122592
 30
735.0
 70
    64
  0
VERTEX
  5
A2
  8
TEAM-NET
 10
222.976563
 20
-91.695071
 30
735.0
 70
    64
  0
VERTEX
  5
A3
  8
TEAM-NET
 10
222.976563
 20
-111.267553
 30
735.0
 70
    64
  0
VERTEX
  5
A4
  8
TEAM-NET
 10
222.976563
 20
-130.840035
 30
735.0
 70
    64
  0
VERTEX
  5
A5
  8
TEAM-NET
 10
222.976563
 20
-150.412517
 30
735.0
 70
    64
  0
VERTEX
  5
A6
  8
TEAM-NET
 10
222.976563
 20
-169.984999
 30
735.0
 70
    64
  0
VERTEX
  5
A7
  8
TEAM-NET
 10
222.976563
 20
-189.557481
 30
735.0
 70
    64
  0
VERTEX
  5
A8
  8
TEAM-NET
 10
222.976563
 20
-209.129963
 30
735.0
 70
    64
  0
VERTEX
  5
A9
  8
TEAM-NET
 10
222.976563
 20
-228.702445
 30
735.0
 70
    64
  0
VERTEX
  5
AA
  8
TEAM-NET
 10
222.976563
 20
-248.274927
 30
735.0
 70
    64
  0
VERTEX
  5
AB
  8
TEAM-NET
 10
222.976563
 20
-267.847409
 30
735.0
 70
    64
  0
VERTEX
  5
AC
  8
TEAM-NET
 10
222.976563
 20
-287.419891
 30
735.0
 70
    64
  0
VERTEX
  5
AD
  8
TEAM-NET
 10
222.974884
 20
-306.99237
 30
735.0
 70
    64
  0
VERTEX
  5
AE
  8
TEAM-NET
 10
214.791231
 20
-323.752874
 30
735.0
 70
    64
  0
VERTEX
  5
AF
  8
TEAM-NET
 10
195.72482
 20
-326.523582
 30
735.0
 70
    64
  0
VERTEX
  5
B0
  8
TEAM-NET
 10
176.152338
 20
-326.523582
 30
735.0
 70
    64
  0
VERTEX
  5
B1
  8
TEAM-NET
 10
156.579856
 20
-326.523582
 30
735.0
 70
    64
  0
VERTEX
  5
B2
  8
TEAM-NET
 10
137.007374
 20
-326.523582
 30
735.0
 70
    64
  0
VERTEX
  5
B3
  8
TEAM-NET
 10
117.434892
 20
-326.523582
 30
735.0
 70
    64
  0
VERTEX
  5
B4
  8
TEAM-NET
 10
97.86241
 20
-326.523582
 30
735.0
 70
    64
  0
VERTEX
  5
B5
  8
TEAM-NET
 10
78.289928
 20
-326.523582
 30
735.0
 70
    64
  0
VERTEX
  5
B6
  8
TEAM-NET
 10
58.717446
 20
-326.523582
 30
735.0
 70
    64
  0
VERTEX
  5
B7
  8
TEAM-NET
 10
39.144964
 20
-326.523582
 30
735.0
 70
    64
  0
VERTEX
  5
B8
  8
TEAM-NET
 10
19.572482
 20
-326.523582
 30
735.0
 70
    64
  0
VERTEX
  5
B9
  8
TEAM-NET
 10
0.0
 20
-326.523582
 30
735.0
 70
    64
  0
SEQEND
  5
BA
  8
TEAM-NET
  0
POLYLINE
  5
BB
  8
TEAM-NET
 66
     1
 10
0.0
 20
0.0
 30
0.0
 70
    16
 71
     2
 72
     7
  0
VERTEX
  5
BC
  8
TEAM-NET
 10
49.44951
 20
-379.897768
 30
815.0
 70
    64
  0
VERTEX
  5
BD
  8
TEAM-NET
 10
41.968236
 20
-384.368484
 30
815.0
 70
    64
  0
VERTEX
  5
BE
  8
TEAM-NET
 10
36.716566
 20
-392.127675
 30
815.0
 70
    64
  0
VERTEX
  5
BF
  8
TEAM-NET
 10
28.23935
 20
-395.056206
 30
815.0
 70
    64
  0
VERTEX
  5
C0
  8
TEAM-NET
 10
18.849228
 20
-395.056206
 30
815.0
 70
    64
  0
VERTEX
  5
C1
  8
TEAM-NET
 10
9.459107
 20
-395.056206
 30
815.0
 70
    64
  0
VERTEX
  5
C2
  8
TEAM-NET
 10
0.068986
 20
-395.056205
 30
815.0
 70
    64
  0
VERTEX
  5
C3
  8
TEAM-NET
 10
49.44951
 20
-326.523582
 30
735.0
 70
    64
  0
VERTEX
  5
C4
  8
TEAM-NET
 10
41.941778
 20
-331.040045
 30
735.0
 70
    64
  0
VERTEX
  5
C5
  8
TEAM-NET
 10
36.641541
 20
-338.827934
 30
735.0
 70
    64
  0
VERTEX
  5
C6
  8
TEAM-NET
 10
28.080811
 20
-341.68202
 30
735.0
 70
    64
  0
VERTEX
  5
C7
  8
TEAM-NET
 10
18.637843
 20
-341.68202
 30
735.0
 70
    64
  0
VERTEX
  5
C8
  8
TEAM-NET
 10
9.194875
 20
-341.68202
 30
735.0
 70
    64
  0
VERTEX
  5
C9
  8
TEAM-NET
 10
-0.248092
 20
-341.682019
 30
735.0
 70
    64
  0
SEQEND
  5
CA
  8
TEAM-NET
  0
POLYLINE
  5
CB
  8
TEAM-NET
 66
     1
 10
0.0
 20
0.0
 30
0.0
 70
    16
 71
     2
 72
     7
  0
VERTEX
  5
CC
  8
TEAM-NET
 10
-49.44951
 20
-326.523582
 30
735.0
 70
    64
  0
VERTEX
  5
CD
  8
TEAM-NET
 10
-41.968236
 20
-330.994298
 30
735.0
 70
    64
  0
VERTEX
  5
CE
  8
TEAM-NET
 10
-36.716566
 20
-338.753489
 30
735.0
 70
    64
  0
VERTEX
  5
CF
  8
TEAM-NET
 10
-28.23935
 20
-341.68202
 30
735.0
 70
    64
  0
VERTEX
  5
D0
  8
TEAM-NET
 10
-18.849228
 20
-341.68202
 30
735.0
 70
    64
  0
VERTEX
  5
D1
  8
TEAM-NET
 10
-9.459107
 20
-341.68202
 30
735.0
 70
    64
  0
VERTEX
  5
D2
  8
TEAM-NET
 10
-0.068986
 20
-341.682019
 30
735.0
 70
    64
  0
VERTEX
  5
D3
  8
TEAM-NET
 10
-49.44951
 20
-379.897768
 30
815.0
 70
    64
  0
VERTEX
  5
D4
  8
TEAM-NET
 10
-41.941778
 20
-384.414231
 30
815.0
 70
    64
  0
VERTEX
  5
D5
  8
TEAM-NET
 10
-36.641541
 20
-392.20212
 30
815.0
 70
    64
  0
VERTEX
  5
D6
  8
TEAM-NET
 10
-28.080811
 20
-395.056206
 30
815.0
 70
    64
  0
VERTEX
  5
D7
  8
TEAM-NET
 10
-18.637843
 20
-395.056206
 30
815.0
 70
    64
  0
VERTEX
  5
D8
  8
TEAM-NET
 10
-9.194875
 20
-395.056206
 30
815.0
 70
    64
  0
VERTEX
  5
D9
  8
TEAM-NET
 10
0.248092
 20
-395.056205
 30
815.0
 70
    64
  0
SEQEND
  5
DA
  8
TEAM-NET
  0
LINE
  5
DB
  8
TEAM-AXE
 10
41.666666
 20
-124.183334
 30
735.0
 11
-41.666666
 21
-124.183334
 31
735.0
  0
CIRCLE
  5
DE
  8
TEAM-DET1
 10
0.0
 20
-124.183334
 30
735.0
 40
40.0
  0
CIRCLE
  5
E0
  8
TEAM-KAN
 10
0.0
 20
-124.183334
 30
735.0
 40
30.0
  0
CIRCLE
  5
E2
  8
TEAM-DET1
 10
0.0
 20
-124.183334
 30
735.0
 40
40.0
  0
LINE
  5
E3
  8
TEAM-AXE
 10
-41.666666
 20
-124.183334
 30
735.0
 11
41.666666
 21
-124.183334
 31
735.0
  0
LINE
  5
E4
  8
TEAM-AXE
 10
0.0
 20
-82.516669
 30
735.0
 11
0.0
 21
-165.85
 31
735.0
  0
POLYLINE
  5
E5
  8
TEAM-BODY
 66
     1
 10
0.0
 20
0.0
 30
0.0
 70
     8
  0
VERTEX
  5
E6
  8
TEAM-BODY
 10
0.0
 20
-52.591508
 30
735.0
 70
    32
  0
VERTEX
  5
E7
  8
TEAM-BODY
 10
-37.19952
 20
-52.591508
 30
735.0
 70
    32
  0
VERTEX
  5
E8
  8
TEAM-BODY
 10
-73.099655
 20
-52.591508
 30
735.0
 70
    32
  0
VERTEX
  5
E9
  8
TEAM-BODY
 10
-105.855253
 20
-52.591508
 30
735.0
 70
    32
  0
VERTEX
  5
EA
  8
TEAM-BODY
 10
-133.894045
 20
-52.591508
 30
735.0
 70
    32
  0
VERTEX
  5
EB
  8
TEAM-BODY
 10
-156.040785
 20
-52.591508
 30
735.0
 70
    32
  0
VERTEX
  5
EC
  8
TEAM-BODY
 10
-172.708324
 20
-52.591508
 30
735.0
 70
    32
  0
VERTEX
  5
ED
  8
TEAM-BODY
 10
-184.706535
 20
-52.591508
 30
735.0
 70
    32
  0
VERTEX
  5
EE
  8
TEAM-BODY
 10
-192.84529
 20
-52.591508
 30
735.0
 70
    32
  0
VERTEX
  5
EF
  8
TEAM-BODY
 10
-197.934464
 20
-52.591508
 30
735.0
 70
    32
  0
VERTEX
  5
F0
  8
TEAM-BODY
 10
-200.783929
 20
-52.591508
 30
735.0
 70
    32
  0
VERTEX
  5
F1
  8
TEAM-BODY
 10
-202.203558
 20
-52.591508
 30
735.0
 70
    32
  0
VERTEX
  5
F2
  8
TEAM-BODY
 10
-203.003225
 20
-52.591508
 30
735.0
 70
    32
  0
VERTEX
  5
F3
  8
TEAM-BODY
 10
-203.853116
 20
-52.594714
 30
735.0
 70
    32
  0
VERTEX
  5
F4
  8
TEAM-BODY
 10
-204.864668
 20
-52.617159
 30
735.0
 70
    32
  0
VERTEX
  5
F5
  8
TEAM-BODY
 10
-206.009631
 20
-52.678081
 30
735.0
 70
    32
  0
VERTEX
  5
F6
  8
TEAM-BODY
 10
-207.259757
 20
-52.796719
 30
735.0
 70
    32
  0
VERTEX
  5
F7
  8
TEAM-BODY
 10
-208.586794
 20
-52.992311
 30
735.0
 70
    32
  0
VERTEX
  5
F8
  8
TEAM-BODY
 10
-209.962494
 20
-53.284097
 30
735.0
 70
    32
  0
VERTEX
  5
F9
  8
TEAM-BODY
 10
-211.358607
 20
-53.691314
 30
735.0
 70
    32
  0
VERTEX
  5
FA
  8
TEAM-BODY
 10
-212.746883
 20
-54.2332
 30
735.0
 70
    32
  0
VERTEX
  5
FB
  8
TEAM-BODY
 10
-214.101327
 20
-54.923332
 30
735.0
 70
    32
  0
VERTEX
  5
FC
  8
TEAM-BODY
 10
-215.404968
 20
-55.752622
 30
735.0
 70
    32
  0
VERTEX
  5
FD
  8
TEAM-BODY
 10
-216.643088
 20
-56.706324
 30
735.0
 70
    32
  0
VERTEX
  5
FE
  8
TEAM-BODY
 10
-217.80097
 20
-57.769687
 30
735.0
 70
    32
  0
VERTEX
  5
FF
  8
TEAM-BODY
 10
-218.863896
 20
-58.927962
 30
735.0
 70
    32
  0
VERTEX
  5
100
  8
TEAM-BODY
 10
-219.81715
 20
-60.166401
 30
735.0
 70
    32
  0
VERTEX
  5
101
  8
TEAM-BODY
 10
-220.646014
 20
-61.470254
 30
735.0
 70
    32
  0
VERTEX
  5
102
  8
TEAM-BODY
 10
-221.33577
 20
-62.824773
 30
735.0
 70
    32
  0
VERTEX
  5
103
  8
TEAM-BODY
 10
-221.87736
 20
-64.212964
 30
735.0
 70
    32
  0
VERTEX
  5
104
  8
TEAM-BODY
 10
-222.284354
 20
-65.608853
 30
735.0
 70
    32
  0
VERTEX
  5
105
  8
TEAM-BODY
 10
-222.575979
 20
-66.984223
 30
735.0
 70
    32
  0
VERTEX
  5
106
  8
TEAM-BODY
 10
-222.771464
 20
-68.310856
 30
735.0
 70
    32
  0
VERTEX
  5
107
  8
TEAM-BODY
 10
-222.890037
 20
-69.560535
 30
735.0
 70
    32
  0
VERTEX
  5
108
  8
TEAM-BODY
 10
-222.950926
 20
-70.705042
 30
735.0
 70
    32
  0
VERTEX
  5
109
  8
TEAM-BODY
 10
-222.973358
 20
-71.716159
 30
735.0
 70
    32
  0
VERTEX
  5
10A
  8
TEAM-BODY
 10
-222.976563
 20
-72.565669
 30
735.0
 70
    32
  0
VERTEX
  5
10B
  8
TEAM-BODY
 10
-222.976563
 20
-73.308859
 30
735.0
 70
    32
  0
VERTEX
  5
10C
  8
TEAM-BODY
 10
-222.976563
 20
-74.335036
 30
735.0
 70
    32
  0
VERTEX
  5
10D
  8
TEAM-BODY
 10
-222.976563
 20
-76.117015
 30
735.0
 70
    32
  0
VERTEX
  5
10E
  8
TEAM-BODY
 10
-222.976563
 20
-79.127607
 30
735.0
 70
    32
  0
VERTEX
  5
10F
  8
TEAM-BODY
 10
-222.976563
 20
-83.839625
 30
735.0
 70
    32
  0
VERTEX
  5
110
  8
TEAM-BODY
 10
-222.976563
 20
-90.725883
 30
735.0
 70
    32
  0
VERTEX
  5
111
  8
TEAM-BODY
 10
-222.976563
 20
-100.259193
 30
735.0
 70
    32
  0
VERTEX
  5
112
  8
TEAM-BODY
 10
-222.976563
 20
-112.912368
 30
735.0
 70
    32
  0
VERTEX
  5
113
  8
TEAM-BODY
 10
-222.976563
 20
-128.929724
 30
735.0
 70
    32
  0
VERTEX
  5
114
  8
TEAM-BODY
 10
-222.976563
 20
-147.641588
 30
735.0
 70
    32
  0
VERTEX
  5
115
  8
TEAM-BODY
 10
-222.976563
 20
-168.149791
 30
735.0
 70
    32
  0
VERTEX
  5
116
  8
TEAM-BODY
 10
-222.976563
 20
-189.556164
 30
735.0
 70
    32
  0
VERTEX
  5
117
  8
TEAM-BODY
 10
-222.976563
 20
-210.962537
 30
735.0
 70
    32
  0
VERTEX
  5
118
  8
TEAM-BODY
 10
-222.976563
 20
-231.47074
 30
735.0
 70
    32
  0
VERTEX
  5
119
  8
TEAM-BODY
 10
-222.976563
 20
-250.182604
 30
735.0
 70
    32
  0
VERTEX
  5
11A
  8
TEAM-BODY
 10
-222.976563
 20
-266.19996
 30
735.0
 70
    32
  0
VERTEX
  5
11B
  8
TEAM-BODY
 10
-222.976563
 20
-278.853136
 30
735.0
 70
    32
  0
VERTEX
  5
11C
  8
TEAM-BODY
 10
-222.976563
 20
-288.386452
 30
735.0
 70
    32
  0
VERTEX
  5
11D
  8
TEAM-BODY
 10
-222.976563
 20
-295.272727
 30
735.0
 70
    32
  0
VERTEX
  5
11E
  8
TEAM-BODY
 10
-222.976563
 20
-299.984778
 30
735.0
 70
    32
  0
VERTEX
  5
11F
  8
TEAM-BODY
 10
-222.976563
 20
-302.995424
 30
735.0
 70
    32
  0
VERTEX
  5
120
  8
TEAM-BODY
 10
-222.976563
 20
-304.777484
 30
735.0
 70
    32
  0
VERTEX
  5
121
  8
TEAM-BODY
 10
-222.976563
 20
-305.803774
 30
735.0
 70
    32
  0
VERTEX
  5
122
  8
TEAM-BODY
 10
-222.976563
 20
-306.547114
 30
735.0
 70
    32
  0
VERTEX
  5
123
  8
TEAM-BODY
 10
-222.973358
 20
-307.396814
 30
735.0
 70
    32
  0
VERTEX
  5
124
  8
TEAM-BODY
 10
-222.950926
 20
-308.408154
 30
735.0
 70
    32
  0
VERTEX
  5
125
  8
TEAM-BODY
 10
-222.890037
 20
-309.552905
 30
735.0
 70
    32
  0
VERTEX
  5
126
  8
TEAM-BODY
 10
-222.771464
 20
-310.802838
 30
735.0
 70
    32
  0
VERTEX
  5
127
  8
TEAM-BODY
 10
-222.575979
 20
-312.129726
 30
735.0
 70
    32
  0
VERTEX
  5
128
  8
TEAM-BODY
 10
-222.284354
 20
-313.505341
 30
735.0
 70
    32
  0
VERTEX
  5
129
  8
TEAM-BODY
 10
-221.87736
 20
-314.901454
 30
735.0
 70
    32
  0
VERTEX
  5
12A
  8
TEAM-BODY
 10
-221.33577
 20
-316.289836
 30
735.0
 70
    32
  0
VERTEX
  5
12B
  8
TEAM-BODY
 10
-220.646014
 20
-317.644507
 30
735.0
 70
    32
  0
VERTEX
  5
12C
  8
TEAM-BODY
 10
-219.81715
 20
-318.948476
 30
735.0
 70
    32
  0
VERTEX
  5
12D
  8
TEAM-BODY
 10
-218.863896
 20
-320.186998
 30
735.0
 70
    32
  0
VERTEX
  5
12E
  8
TEAM-BODY
 10
-217.80097
 20
-321.345331
 30
735.0
 70
    32
  0
VERTEX
  5
12F
  8
TEAM-BODY
 10
-216.643088
 20
-322.40873
 30
735.0
 70
    32
  0
VERTEX
  5
130
  8
TEAM-BODY
 10
-215.404968
 20
-323.362451
 30
735.0
 70
    32
  0
VERTEX
  5
131
  8
TEAM-BODY
 10
-214.101327
 20
-324.19175
 30
735.0
 70
    32
  0
VERTEX
  5
132
  8
TEAM-BODY
 10
-212.746883
 20
-324.881884
 30
735.0
 70
    32
  0
VERTEX
  5
133
  8
TEAM-BODY
 10
-211.358607
 20
-325.423773
 30
735.0
 70
    32
  0
VERTEX
  5
134
  8
TEAM-BODY
 10
-209.962494
 20
-325.830991
 30
735.0
 70
    32
  0
VERTEX
  5
135
  8
TEAM-BODY
 10
-208.586794
 20
-326.122777
 30
735.0
 70
    32
  0
VERTEX
  5
136
  8
TEAM-BODY
 10
-207.259757
 20
-326.31837
 30
735.0
 70
    32
  0
VERTEX
  5
137
  8
TEAM-BODY
 10
-206.009631
 20
-326.437009
 30
735.0
 70
    32
  0
VERTEX
  5
138
  8
TEAM-BODY
 10
-204.864668
 20
-326.497931
 30
735.0
 70
    32
  0
VERTEX
  5
139
  8
TEAM-BODY
 10
-203.853116
 20
-326.520376
 30
735.0
 70
    32
  0
VERTEX
  5
13A
  8
TEAM-BODY
 10
-203.003225
 20
-326.523582
 30
735.0
 70
    32
  0
VERTEX
  5
13B
  8
TEAM-BODY
 10
-202.203558
 20
-326.523582
 30
735.0
 70
    32
  0
VERTEX
  5
13C
  8
TEAM-BODY
 10
-200.783929
 20
-326.523582
 30
735.0
 70
    32
  0
VERTEX
  5
13D
  8
TEAM-BODY
 10
-197.934464
 20
-326.523582
 30
735.0
 70
    32
  0
VERTEX
  5
13E
  8
TEAM-BODY
 10
-192.84529
 20
-326.523582
 30
735.0
 70
    32
  0
VERTEX
  5
13F
  8
TEAM-BODY
 10
-184.706535
 20
-326.523582
 30
735.0
 70
    32
  0
VERTEX
  5
140
  8
TEAM-BODY
 10
-172.708324
 20
-326.523582
 30
735.0
 70
    32
  0
VERTEX
  5
141
  8
TEAM-BODY
 10
-156.040785
 20
-326.523582
 30
735.0
 70
    32
  0
VERTEX
  5
142
  8
TEAM-BODY
 10
-133.894045
 20
-326.523582
 30
735.0
 70
    32
  0
VERTEX
  5
143
  8
TEAM-BODY
 10
-105.855253
 20
-326.523582
 30
735.0
 70
    32
  0
VERTEX
  5
144
  8
TEAM-BODY
 10
-73.099655
 20
-326.523582
 30
735.0
 70
    32
  0
VERTEX
  5
145
  8
TEAM-BODY
 10
-37.19952
 20
-326.523582
 30
735.0
 70
    32
  0
VERTEX
  5
146
  8
TEAM-BODY
 10
0.0
 20
-326.523582
 30
735.0
 70
    32
  0
SEQEND
  5
148
  8
TEAM-BODY
  0
POLYLINE
  5
149
  8
TEAM-BODY
 66
     1
 10
0.0
 20
0.0
 30
0.0
 70
    12
 75
     6
  0
VERTEX
  5
14A
  8
TEAM-BODY
 10
49.44951
 20
-326.523582
 30
735.0
 70
    48
  0
VERTEX
  5
14B
  8
TEAM-BODY
 10
49.44951
 20
-326.523582
 30
735.0
 70
    40
  0
VERTEX
  5
14C
  8
TEAM-BODY
 10
48.327317
 20
-326.552341
 30
735.0
 70
    40
  0
VERTEX
  5
14D
  8
TEAM-BODY
 10
47.326676
 20
-326.643824
 30
735.0
 70
    40
  0
VERTEX
  5
14E
  8
TEAM-BODY
 10
46.435594
 20
-326.805828
 30
735.0
 70
    40
  0
VERTEX
  5
14F
  8
TEAM-BODY
 10
45.642106
 20
-327.04616
 30
735.0
 70
    40
  0
VERTEX
  5
150
  8
TEAM-BODY
 10
44.934189
 20
-327.372621
 30
735.0
 70
    40
  0
VERTEX
  5
151
  8
TEAM-BODY
 10
44.299912
 20
-327.793016
 30
735.0
 70
    40
  0
VERTEX
  5
152
  8
TEAM-BODY
 10
43.727311
 20
-328.315147
 30
735.0
 70
    40
  0
VERTEX
  5
153
  8
TEAM-BODY
 10
43.204362
 20
-328.946818
 30
735.0
 70
    40
  0
VERTEX
  5
154
  8
TEAM-BODY
 10
42.719132
 20
-329.695827
 30
735.0
 70
    40
  0
VERTEX
  5
155
  8
TEAM-BODY
 10
45.888687
 20
-326.523582
 30
735.0
 70
    48
  0
VERTEX
  5
156
  8
TEAM-BODY
 10
44.130296
 20
-327.26498
 30
735.0
 70
    48
  0
VERTEX
  5
157
  8
TEAM-BODY
 10
42.719192
 20
-329.695832
 30
735.0
 70
    48
  0
VERTEX
  5
158
  8
TEAM-BODY
 10
42.719192
 20
-329.695832
 30
735.0
 70
    40
  0
VERTEX
  5
159
  8
TEAM-BODY
 10
41.629257
 20
-331.58042
 30
735.0
 70
    40
  0
VERTEX
  5
15A
  8
TEAM-BODY
 10
40.517137
 20
-333.464847
 30
735.0
 70
    40
  0
VERTEX
  5
15B
  8
TEAM-BODY
 10
39.372697
 20
-335.289958
 30
735.0
 70
    40
  0
VERTEX
  5
15C
  8
TEAM-BODY
 10
38.185777
 20
-336.996594
 30
735.0
 70
    40
  0
VERTEX
  5
15D
  8
TEAM-BODY
 10
36.946244
 20
-338.525589
 30
735.0
 70
    40
  0
VERTEX
  5
15E
  8
TEAM-BODY
 10
35.643968
 20
-339.817789
 30
735.0
 70
    40
  0
VERTEX
  5
15F
  8
TEAM-BODY
 10
34.268815
 20
-340.814035
 30
735.0
 70
    40
  0
VERTEX
  5
160
  8
TEAM-BODY
 10
32.810624
 20
-341.455167
 30
735.0
 70
    40
  0
VERTEX
  5
161
  8
TEAM-BODY
 10
31.259262
 20
-341.682023
 30
735.0
 70
    40
  0
VERTEX
  5
162
  8
TEAM-BODY
 10
39.47255
 20
-335.290675
 30
735.0
 70
    48
  0
VERTEX
  5
163
  8
TEAM-BODY
 10
36.063278
 20
-341.68202
 30
735.0
 70
    48
  0
VERTEX
  5
164
  8
TEAM-BODY
 10
31.259415
 20
-341.68202
 30
735.0
 70
    48
  0
VERTEX
  5
165
  8
TEAM-BODY
 10
31.259415
 20
-341.68202
 30
735.0
 70
    40
  0
VERTEX
  5
166
  8
TEAM-BODY
 10
27.333177
 20
-341.68202
 30
735.0
 70
    40
  0
VERTEX
  5
167
  8
TEAM-BODY
 10
23.737289
 20
-341.68202
 30
735.0
 70
    40
  0
VERTEX
  5
168
  8
TEAM-BODY
 10
20.379563
 20
-341.68202
 30
735.0
 70
    40
  0
VERTEX
  5
169
  8
TEAM-BODY
 10
17.16771
 20
-341.68202
 30
735.0
 70
    40
  0
VERTEX
  5
16A
  8
TEAM-BODY
 10
14.009568
 20
-341.68202
 30
735.0
 70
    40
  0
VERTEX
  5
16B
  8
TEAM-BODY
 10
10.812821
 20
-341.68202
 30
735.0
 70
    40
  0
VERTEX
  5
16C
  8
TEAM-BODY
 10
7.485306
 20
-341.68202
 30
735.0
 70
    40
  0
VERTEX
  5
16D
  8
TEAM-BODY
 10
3.934769
 20
-341.682019
 30
735.0
 70
    40
  0
VERTEX
  5
16E
  8
TEAM-BODY
 10
0.068986
 20
-341.682019
 30
735.0
 70
    40
  0
VERTEX
  5
16F
  8
TEAM-BODY
 10
18.8929
 20
-341.68202
 30
735.0
 70
    48
  0
VERTEX
  5
170
  8
TEAM-BODY
 10
12.231462
 20
-341.68202
 30
735.0
 70
    48
  0
VERTEX
  5
171
  8
TEAM-BODY
 10
0.068925
 20
-341.68202
 30
735.0
 70
    48
  0
SEQEND
  5
172
  8
TEAM-BODY
  0
POLYLINE
  5
173
  8
TEAM-BODY
 66
     1
 10
0.0
 20
0.0
 30
0.0
 70
    12
 75
     6
  0
VERTEX
  5
174
  8
TEAM-BODY
 10
-49.44951
 20
-326.523582
 30
735.0
 70
    48
  0
VERTEX
  5
175
  8
TEAM-BODY
 10
-49.44951
 20
-326.523582
 30
735.0
 70
    40
  0
VERTEX
  5
176
  8
TEAM-BODY
 10
-48.327317
 20
-326.552341
 30
735.0
 70
    40
  0
VERTEX
  5
177
  8
TEAM-BODY
 10
-47.326676
 20
-326.643824
 30
735.0
 70
    40
  0
VERTEX
  5
178
  8
TEAM-BODY
 10
-46.435594
 20
-326.805828
 30
735.0
 70
    40
  0
VERTEX
  5
179
  8
TEAM-BODY
 10
-45.642106
 20
-327.04616
 30
735.0
 70
    40
  0
VERTEX
  5
17A
  8
TEAM-BODY
 10
-44.934189
 20
-327.372621
 30
735.0
 70
    40
  0
VERTEX
  5
17B
  8
TEAM-BODY
 10
-44.299912
 20
-327.793016
 30
735.0
 70
    40
  0
VERTEX
  5
17C
  8
TEAM-BODY
 10
-43.727311
 20
-328.315147
 30
735.0
 70
    40
  0
VERTEX
  5
17D
  8
TEAM-BODY
 10
-43.204362
 20
-328.946818
 30
735.0
 70
    40
  0
VERTEX
  5
17E
  8
TEAM-BODY
 10
-42.719132
 20
-329.695827
 30
735.0
 70
    40
  0
VERTEX
  5
17F
  8
TEAM-BODY
 10
-45.888687
 20
-326.523582
 30
735.0
 70
    48
  0
VERTEX
  5
180
  8
TEAM-BODY
 10
-44.130296
 20
-327.26498
 30
735.0
 70
    48
  0
VERTEX
  5
181
  8
TEAM-BODY
 10
-42.719192
 20
-329.695832
 30
735.0
 70
    48
  0
VERTEX
  5
182
  8
TEAM-BODY
 10
-42.719192
 20
-329.695832
 30
735.0
 70
    40
  0
VERTEX
  5
183
  8
TEAM-BODY
 10
-41.629257
 20
-331.58042
 30
735.0
 70
    40
  0
VERTEX
  5
184
  8
TEAM-BODY
 10
-40.517137
 20
-333.464847
 30
735.0
 70
    40
  0
VERTEX
  5
185
  8
TEAM-BODY
 10
-39.372697
 20
-335.289958
 30
735.0
 70
    40
  0
VERTEX
  5
186
  8
TEAM-BODY
 10
-38.185777
 20
-336.996594
 30
735.0
 70
    40
  0
VERTEX
  5
187
  8
TEAM-BODY
 10
-36.946244
 20
-338.525589
 30
735.0
 70
    40
  0
VERTEX
  5
188
  8
TEAM-BODY
 10
-35.643968
 20
-339.817789
 30
735.0
 70
    40
  0
VERTEX
  5
189
  8
TEAM-BODY
 10
-34.268815
 20
-340.814035
 30
735.0
 70
    40
  0
VERTEX
  5
18A
  8
TEAM-BODY
 10
-32.810624
 20
-341.455167
 30
735.0
 70
    40
  0
VERTEX
  5
18B
  8
TEAM-BODY
 10
-31.259262
 20
-341.682023
 30
735.0
 70
    40
  0
VERTEX
  5
18C
  8
TEAM-BODY
 10
-39.47255
 20
-335.290675
 30
735.0
 70
    48
  0
VERTEX
  5
18D
  8
TEAM-BODY
 10
-36.063278
 20
-341.68202
 30
735.0
 70
    48
  0
VERTEX
  5
18E
  8
TEAM-BODY
 10
-31.259415
 20
-341.68202
 30
735.0
 70
    48
  0
VERTEX
  5
18F
  8
TEAM-BODY
 10
-31.259415
 20
-341.68202
 30
735.0
 70
    40
  0
VERTEX
  5
190
  8
TEAM-BODY
 10
-27.322312
 20
-341.68202
 30
735.0
 70
    40
  0
VERTEX
  5
191
  8
TEAM-BODY
 10
-23.697281
 20
-341.68202
 30
735.0
 70
    40
  0
VERTEX
  5
192
  8
TEAM-BODY
 10
-20.297379
 20
-341.68202
 30
735.0
 70
    40
  0
VERTEX
  5
193
  8
TEAM-BODY
 10
-17.035539
 20
-341.68202
 30
735.0
 70
    40
  0
VERTEX
  5
194
  8
TEAM-BODY
 10
-13.824754
 20
-341.68202
 30
735.0
 70
    40
  0
VERTEX
  5
195
  8
TEAM-BODY
 10
-10.578019
 20
-341.68202
 30
735.0
 70
    40
  0
VERTEX
  5
196
  8
TEAM-BODY
 10
-7.208298
 20
-341.68202
 30
735.0
 70
    40
  0
VERTEX
  5
197
  8
TEAM-BODY
 10
-3.628617
 20
-341.682019
 30
735.0
 70
    40
  0
VERTEX
  5
198
  8
TEAM-BODY
 10
0.248092
 20
-341.682019
 30
735.0
 70
    40
  0
VERTEX
  5
199
  8
TEAM-BODY
 10
-18.8929
 20
-341.68202
 30
735.0
 70
    48
  0
VERTEX
  5
19A
  8
TEAM-BODY
 10
-11.914536
 20
-341.68202
 30
735.0
 70
    48
  0
VERTEX
  5
19B
  8
TEAM-BODY
 10
0.248061
 20
-341.68202
 30
735.0
 70
    48
  0
SEQEND
  5
19C
  8
TEAM-BODY
  0
POLYLINE
  5
19D
  8
TEAM-DET1
 66
     1
 10
0.0
 20
0.0
 30
0.0
 70
    12
 75
     6
  0
VERTEX
  5
19E
  8
TEAM-DET1
 10
-49.44951
 20
-326.523582
 30
735.0
 70
    48
  0
VERTEX
  5
19F
  8
TEAM-DET1
 10
-49.44951
 20
-326.523582
 30
735.0
 70
    40
  0
VERTEX
  5
1A0
  8
TEAM-DET1
 10
-48.327317
 20
-326.552341
 30
735.0
 70
    40
  0
VERTEX
  5
1A1
  8
TEAM-DET1
 10
-47.326676
 20
-326.643824
 30
735.0
 70
    40
  0
VERTEX
  5
1A2
  8
TEAM-DET1
 10
-46.435594
 20
-326.805828
 30
735.0
 70
    40
  0
VERTEX
  5
1A3
  8
TEAM-DET1
 10
-45.642106
 20
-327.04616
 30
735.0
 70
    40
  0
VERTEX
  5
1A4
  8
TEAM-DET1
 10
-44.934189
 20
-327.372621
 30
735.0
 70
    40
  0
VERTEX
  5
1A5
  8
TEAM-DET1
 10
-44.299912
 20
-327.793016
 30
735.0
 70
    40
  0
VERTEX
  5
1A6
  8
TEAM-DET1
 10
-43.727311
 20
-328.315147
 30
735.0
 70
    40
  0
VERTEX
  5
1A7
  8
TEAM-DET1
 10
-43.204362
 20
-328.946818
 30
735.0
 70
    40
  0
VERTEX
  5
1A8
  8
TEAM-DET1
 10
-42.719132
 20
-329.695827
 30
735.0
 70
    40
  0
VERTEX
  5
1A9
  8
TEAM-DET1
 10
-45.888687
 20
-326.523582
 30
735.0
 70
    48
  0
VERTEX
  5
1AA
  8
TEAM-DET1
 10
-44.130296
 20
-327.26498
 30
735.0
 70
    48
  0
VERTEX
  5
1AB
  8
TEAM-DET1
 10
-42.719192
 20
-329.695832
 30
735.0
 70
    48
  0
VERTEX
  5
1AC
  8
TEAM-DET1
 10
-42.719192
 20
-329.695832
 30
735.0
 70
    40
  0
VERTEX
  5
1AD
  8
TEAM-DET1
 10
-41.629257
 20
-331.58042
 30
735.0
 70
    40
  0
VERTEX
  5
1AE
  8
TEAM-DET1
 10
-40.517137
 20
-333.464847
 30
735.0
 70
    40
  0
VERTEX
  5
1AF
  8
TEAM-DET1
 10
-39.372697
 20
-335.289958
 30
735.0
 70
    40
  0
VERTEX
  5
1B0
  8
TEAM-DET1
 10
-38.185777
 20
-336.996594
 30
735.0
 70
    40
  0
VERTEX
  5
1B1
  8
TEAM-DET1
 10
-36.946244
 20
-338.525589
 30
735.0
 70
    40
  0
VERTEX
  5
1B2
  8
TEAM-DET1
 10
-35.643968
 20
-339.817789
 30
735.0
 70
    40
  0
VERTEX
  5
1B3
  8
TEAM-DET1
 10
-34.268815
 20
-340.814035
 30
735.0
 70
    40
  0
VERTEX
  5
1B4
  8
TEAM-DET1
 10
-32.810624
 20
-341.455167
 30
735.0
 70
    40
  0
VERTEX
  5
1B5
  8
TEAM-DET1
 10
-31.259262
 20
-341.682023
 30
735.0
 70
    40
  0
VERTEX
  5
1B6
  8
TEAM-DET1
 10
-39.47255
 20
-335.290675
 30
735.0
 70
    48
  0
VERTEX
  5
1B7
  8
TEAM-DET1
 10
-36.063278
 20
-341.68202
 30
735.0
 70
    48
  0
VERTEX
  5
1B8
  8
TEAM-DET1
 10
-31.259415
 20
-341.68202
 30
735.0
 70
    48
  0
VERTEX
  5
1B9
  8
TEAM-DET1
 10
-31.259415
 20
-341.68202
 30
735.0
 70
    40
  0
VERTEX
  5
1BA
  8
TEAM-DET1
 10
-27.333177
 20
-341.68202
 30
735.0
 70
    40
  0
VERTEX
  5
1BB
  8
TEAM-DET1
 10
-23.737289
 20
-341.68202
 30
735.0
 70
    40
  0
VERTEX
  5
1BC
  8
TEAM-DET1
 10
-20.379563
 20
-341.68202
 30
735.0
 70
    40
  0
VERTEX
  5
1BD
  8
TEAM-DET1
 10
-17.16771
 20
-341.68202
 30
735.0
 70
    40
  0
VERTEX
  5
1BE
  8
TEAM-DET1
 10
-14.009568
 20
-341.68202
 30
735.0
 70
    40
  0
VERTEX
  5
1BF
  8
TEAM-DET1
 10
-10.812821
 20
-341.68202
 30
735.0
 70
    40
  0
VERTEX
  5
1C0
  8
TEAM-DET1
 10
-7.485306
 20
-341.68202
 30
735.0
 70
    40
  0
VERTEX
  5
1C1
  8
TEAM-DET1
 10
-3.934769
 20
-341.682019
 30
735.0
 70
    40
  0
VERTEX
  5
1C2
  8
TEAM-DET1
 10
-0.068986
 20
-341.682019
 30
735.0
 70
    40
  0
VERTEX
  5
1C3
  8
TEAM-DET1
 10
-18.8929
 20
-341.68202
 30
735.0
 70
    48
  0
VERTEX
  5
1C4
  8
TEAM-DET1
 10
-12.231462
 20
-341.68202
 30
735.0
 70
    48
  0
VERTEX
  5
1C5
  8
TEAM-DET1
 10
-0.068925
 20
-341.68202
 30
735.0
 70
    48
  0
SEQEND
  5
1C6
  8
TEAM-DET1
  0
POLYLINE
  5
1C7
  8
TEAM-DET1
 66
     1
 10
0.0
 20
0.0
 30
0.0
 70
    12
 75
     6
  0
VERTEX
  5
1C8
  8
TEAM-DET1
 10
49.44951
 20
-326.523582
 30
735.0
 70
    48
  0
VERTEX
  5
1C9
  8
TEAM-DET1
 10
49.44951
 20
-326.523582
 30
735.0
 70
    40
  0
VERTEX
  5
1CA
  8
TEAM-DET1
 10
48.327317
 20
-326.552341
 30
735.0
 70
    40
  0
VERTEX
  5
1CB
  8
TEAM-DET1
 10
47.326676
 20
-326.643824
 30
735.0
 70
    40
  0
VERTEX
  5
1CC
  8
TEAM-DET1
 10
46.435594
 20
-326.805828
 30
735.0
 70
    40
  0
VERTEX
  5
1CD
  8
TEAM-DET1
 10
45.642106
 20
-327.04616
 30
735.0
 70
    40
  0
VERTEX
  5
1CE
  8
TEAM-DET1
 10
44.934189
 20
-327.372621
 30
735.0
 70
    40
  0
VERTEX
  5
1CF
  8
TEAM-DET1
 10
44.299912
 20
-327.793016
 30
735.0
 70
    40
  0
VERTEX
  5
1D0
  8
TEAM-DET1
 10
43.727311
 20
-328.315147
 30
735.0
 70
    40
  0
VERTEX
  5
1D1
  8
TEAM-DET1
 10
43.204362
 20
-328.946818
 30
735.0
 70
    40
  0
VERTEX
  5
1D2
  8
TEAM-DET1
 10
42.719132
 20
-329.695827
 30
735.0
 70
    40
  0
VERTEX
  5
1D3
  8
TEAM-DET1
 10
45.888687
 20
-326.523582
 30
735.0
 70
    48
  0
VERTEX
  5
1D4
  8
TEAM-DET1
 10
44.130296
 20
-327.26498
 30
735.0
 70
    48
  0
VERTEX
  5
1D5
  8
TEAM-DET1
 10
42.719192
 20
-329.695832
 30
735.0
 70
    48
  0
VERTEX
  5
1D6
  8
TEAM-DET1
 10
42.719192
 20
-329.695832
 30
735.0
 70
    40
  0
VERTEX
  5
1D7
  8
TEAM-DET1
 10
41.629257
 20
-331.58042
 30
735.0
 70
    40
  0
VERTEX
  5
1D8
  8
TEAM-DET1
 10
40.517137
 20
-333.464847
 30
735.0
 70
    40
  0
VERTEX
  5
1D9
  8
TEAM-DET1
 10
39.372697
 20
-335.289958
 30
735.0
 70
    40
  0
VERTEX
  5
1DA
  8
TEAM-DET1
 10
38.185777
 20
-336.996594
 30
735.0
 70
    40
  0
VERTEX
  5
1DB
  8
TEAM-DET1
 10
36.946244
 20
-338.525589
 30
735.0
 70
    40
  0
VERTEX
  5
1DC
  8
TEAM-DET1
 10
35.643968
 20
-339.817789
 30
735.0
 70
    40
  0
VERTEX
  5
1DD
  8
TEAM-DET1
 10
34.268815
 20
-340.814035
 30
735.0
 70
    40
  0
VERTEX
  5
1DE
  8
TEAM-DET1
 10
32.810624
 20
-341.455167
 30
735.0
 70
    40
  0
VERTEX
  5
1DF
  8
TEAM-DET1
 10
31.259262
 20
-341.682023
 30
735.0
 70
    40
  0
VERTEX
  5
1E0
  8
TEAM-DET1
 10
39.47255
 20
-335.290675
 30
735.0
 70
    48
  0
VERTEX
  5
1E1
  8
TEAM-DET1
 10
36.063278
 20
-341.68202
 30
735.0
 70
    48
  0
VERTEX
  5
1E2
  8
TEAM-DET1
 10
31.259415
 20
-341.68202
 30
735.0
 70
    48
  0
VERTEX
  5
1E3
  8
TEAM-DET1
 10
31.259415
 20
-341.68202
 30
735.0
 70
    40
  0
VERTEX
  5
1E4
  8
TEAM-DET1
 10
27.322312
 20
-341.68202
 30
735.0
 70
    40
  0
VERTEX
  5
1E5
  8
TEAM-DET1
 10
23.697281
 20
-341.68202
 30
735.0
 70
    40
  0
VERTEX
  5
1E6
  8
TEAM-DET1
 10
20.297379
 20
-341.68202
 30
735.0
 70
    40
  0
VERTEX
  5
1E7
  8
TEAM-DET1
 10
17.035539
 20
-341.68202
 30
735.0
 70
    40
  0
VERTEX
  5
1E8
  8
TEAM-DET1
 10
13.824754
 20
-341.68202
 30
735.0
 70
    40
  0
VERTEX
  5
1E9
  8
TEAM-DET1
 10
10.578019
 20
-341.68202
 30
735.0
 70
    40
  0
VERTEX
  5
1EA
  8
TEAM-DET1
 10
7.208298
 20
-341.68202
 30
735.0
 70
    40
  0
VERTEX
  5
1EB
  8
TEAM-DET1
 10
3.628617
 20
-341.682019
 30
735.0
 70
    40
  0
VERTEX
  5
1EC
  8
TEAM-DET1
 10
-0.248092
 20
-341.682019
 30
735.0
 70
    40
  0
VERTEX
  5
1ED
  8
TEAM-DET1
 10
18.8929
 20
-341.68202
 30
735.0
 70
    48
  0
VERTEX
  5
1EE
  8
TEAM-DET1
 10
11.914536
 20
-341.68202
 30
735.0
 70
    48
  0
VERTEX
  5
1EF
  8
TEAM-DET1
 10
-0.248061
 20
-341.68202
 30
735.0
 70
    48
  0
SEQEND
  5
1F0
  8
TEAM-DET1
  0
POLYLINE
  5
1F1
  8
TEAM-BODY
 66
     1
 10
0.0
 20
0.0
 30
0.0
 70
     8
  0
VERTEX
  5
1F2
  8
TEAM-BODY
 10
0.0
 20
-52.591508
 30
735.0
 70
    32
  0
VERTEX
  5
1F3
  8
TEAM-BODY
 10
37.19952
 20
-52.591508
 30
735.0
 70
    32
  0
VERTEX
  5
1F4
  8
TEAM-BODY
 10
73.099655
 20
-52.591508
 30
735.0
 70
    32
  0
VERTEX
  5
1F5
  8
TEAM-BODY
 10
105.855253
 20
-52.591508
 30
735.0
 70
    32
  0
VERTEX
  5
1F6
  8
TEAM-BODY
 10
133.894045
 20
-52.591508
 30
735.0
 70
    32
  0
VERTEX
  5
1F7
  8
TEAM-BODY
 10
156.040785
 20
-52.591508
 30
735.0
 70
    32
  0
VERTEX
  5
1F8
  8
TEAM-BODY
 10
172.708324
 20
-52.591508
 30
735.0
 70
    32
  0
VERTEX
  5
1F9
  8
TEAM-BODY
 10
184.706535
 20
-52.591508
 30
735.0
 70
    32
  0
VERTEX
  5
1FA
  8
TEAM-BODY
 10
192.84529
 20
-52.591508
 30
735.0
 70
    32
  0
VERTEX
  5
1FB
  8
TEAM-BODY
 10
197.934464
 20
-52.591508
 30
735.0
 70
    32
  0
VERTEX
  5
1FC
  8
TEAM-BODY
 10
200.783929
 20
-52.591508
 30
735.0
 70
    32
  0
VERTEX
  5
1FD
  8
TEAM-BODY
 10
202.203558
 20
-52.591508
 30
735.0
 70
    32
  0
VERTEX
  5
1FE
  8
TEAM-BODY
 10
203.003225
 20
-52.591508
 30
735.0
 70
    32
  0
VERTEX
  5
1FF
  8
TEAM-BODY
 10
203.853116
 20
-52.594714
 30
735.0
 70
    32
  0
VERTEX
  5
200
  8
TEAM-BODY
 10
204.864668
 20
-52.617159
 30
735.0
 70
    32
  0
VERTEX
  5
201
  8
TEAM-BODY
 10
206.009631
 20
-52.678081
 30
735.0
 70
    32
  0
VERTEX
  5
202
  8
TEAM-BODY
 10
207.259757
 20
-52.796719
 30
735.0
 70
    32
  0
VERTEX
  5
203
  8
TEAM-BODY
 10
208.586794
 20
-52.992311
 30
735.0
 70
    32
  0
VERTEX
  5
204
  8
TEAM-BODY
 10
209.962494
 20
-53.284097
 30
735.0
 70
    32
  0
VERTEX
  5
205
  8
TEAM-BODY
 10
211.358607
 20
-53.691314
 30
735.0
 70
    32
  0
VERTEX
  5
206
  8
TEAM-BODY
 10
212.746883
 20
-54.2332
 30
735.0
 70
    32
  0
VERTEX
  5
207
  8
TEAM-BODY
 10
214.101327
 20
-54.923332
 30
735.0
 70
    32
  0
VERTEX
  5
208
  8
TEAM-BODY
 10
215.404968
 20
-55.752622
 30
735.0
 70
    32
  0
VERTEX
  5
209
  8
TEAM-BODY
 10
216.643088
 20
-56.706324
 30
735.0
 70
    32
  0
VERTEX
  5
20A
  8
TEAM-BODY
 10
217.80097
 20
-57.769687
 30
735.0
 70
    32
  0
VERTEX
  5
20B
  8
TEAM-BODY
 10
218.863896
 20
-58.927962
 30
735.0
 70
    32
  0
VERTEX
  5
20C
  8
TEAM-BODY
 10
219.81715
 20
-60.166401
 30
735.0
 70
    32
  0
VERTEX
  5
20D
  8
TEAM-BODY
 10
220.646014
 20
-61.470254
 30
735.0
 70
    32
  0
VERTEX
  5
20E
  8
TEAM-BODY
 10
221.33577
 20
-62.824773
 30
735.0
 70
    32
  0
VERTEX
  5
20F
  8
TEAM-BODY
 10
221.87736
 20
-64.212964
 30
735.0
 70
    32
  0
VERTEX
  5
210
  8
TEAM-BODY
 10
222.284354
 20
-65.608853
 30
735.0
 70
    32
  0
VERTEX
  5
211
  8
TEAM-BODY
 10
222.575979
 20
-66.984223
 30
735.0
 70
    32
  0
VERTEX
  5
212
  8
TEAM-BODY
 10
222.771464
 20
-68.310856
 30
735.0
 70
    32
  0
VERTEX
  5
213
  8
TEAM-BODY
 10
222.890037
 20
-69.560535
 30
735.0
 70
    32
  0
VERTEX
  5
214
  8
TEAM-BODY
 10
222.950926
 20
-70.705042
 30
735.0
 70
    32
  0
VERTEX
  5
215
  8
TEAM-BODY
 10
222.973358
 20
-71.716159
 30
735.0
 70
    32
  0
VERTEX
  5
216
  8
TEAM-BODY
 10
222.976563
 20
-72.565669
 30
735.0
 70
    32
  0
VERTEX
  5
217
  8
TEAM-BODY
 10
222.976563
 20
-73.308859
 30
735.0
 70
    32
  0
VERTEX
  5
218
  8
TEAM-BODY
 10
222.976563
 20
-74.335036
 30
735.0
 70
    32
  0
VERTEX
  5
219
  8
TEAM-BODY
 10
222.976563
 20
-76.117015
 30
735.0
 70
    32
  0
VERTEX
  5
21A
  8
TEAM-BODY
 10
222.976563
 20
-79.127607
 30
735.0
 70
    32
  0
VERTEX
  5
21B
  8
TEAM-BODY
 10
222.976563
 20
-83.839625
 30
735.0
 70
    32
  0
VERTEX
  5
21C
  8
TEAM-BODY
 10
222.976563
 20
-90.725883
 30
735.0
 70
    32
  0
VERTEX
  5
21D
  8
TEAM-BODY
 10
222.976563
 20
-100.259193
 30
735.0
 70
    32
  0
VERTEX
  5
21E
  8
TEAM-BODY
 10
222.976563
 20
-112.912368
 30
735.0
 70
    32
  0
VERTEX
  5
21F
  8
TEAM-BODY
 10
222.976563
 20
-128.929724
 30
735.0
 70
    32
  0
VERTEX
  5
220
  8
TEAM-BODY
 10
222.976563
 20
-147.641588
 30
735.0
 70
    32
  0
VERTEX
  5
221
  8
TEAM-BODY
 10
222.976563
 20
-168.149791
 30
735.0
 70
    32
  0
VERTEX
  5
222
  8
TEAM-BODY
 10
222.976563
 20
-189.556164
 30
735.0
 70
    32
  0
VERTEX
  5
223
  8
TEAM-BODY
 10
222.976563
 20
-210.962537
 30
735.0
 70
    32
  0
VERTEX
  5
224
  8
TEAM-BODY
 10
222.976563
 20
-231.47074
 30
735.0
 70
    32
  0
VERTEX
  5
225
  8
TEAM-BODY
 10
222.976563
 20
-250.182604
 30
735.0
 70
    32
  0
VERTEX
  5
226
  8
TEAM-BODY
 10
222.976563
 20
-266.19996
 30
735.0
 70
    32
  0
VERTEX
  5
227
  8
TEAM-BODY
 10
222.976563
 20
-278.853136
 30
735.0
 70
    32
  0
VERTEX
  5
228
  8
TEAM-BODY
 10
222.976563
 20
-288.386452
 30
735.0
 70
    32
  0
VERTEX
  5
229
  8
TEAM-BODY
 10
222.976563
 20
-295.272727
 30
735.0
 70
    32
  0
VERTEX
  5
22A
  8
TEAM-BODY
 10
222.976563
 20
-299.984778
 30
735.0
 70
    32
  0
VERTEX
  5
22B
  8
TEAM-BODY
 10
222.976563
 20
-302.995424
 30
735.0
 70
    32
  0
VERTEX
  5
22C
  8
TEAM-BODY
 10
222.976563
 20
-304.777484
 30
735.0
 70
    32
  0
VERTEX
  5
22D
  8
TEAM-BODY
 10
222.976563
 20
-305.803774
 30
735.0
 70
    32
  0
VERTEX
  5
22E
  8
TEAM-BODY
 10
222.976563
 20
-306.547114
 30
735.0
 70
    32
  0
VERTEX
  5
22F
  8
TEAM-BODY
 10
222.973358
 20
-307.396814
 30
735.0
 70
    32
  0
VERTEX
  5
230
  8
TEAM-BODY
 10
222.950926
 20
-308.408154
 30
735.0
 70
    32
  0
VERTEX
  5
231
  8
TEAM-BODY
 10
222.890037
 20
-309.552905
 30
735.0
 70
    32
  0
VERTEX
  5
232
  8
TEAM-BODY
 10
222.771464
 20
-310.802838
 30
735.0
 70
    32
  0
VERTEX
  5
233
  8
TEAM-BODY
 10
222.575979
 20
-312.129726
 30
735.0
 70
    32
  0
VERTEX
  5
234
  8
TEAM-BODY
 10
222.284354
 20
-313.505341
 30
735.0
 70
    32
  0
VERTEX
  5
235
  8
TEAM-BODY
 10
221.87736
 20
-314.901454
 30
735.0
 70
    32
  0
VERTEX
  5
236
  8
TEAM-BODY
 10
221.33577
 20
-316.289836
 30
735.0
 70
    32
  0
VERTEX
  5
237
  8
TEAM-BODY
 10
220.646014
 20
-317.644507
 30
735.0
 70
    32
  0
VERTEX
  5
238
  8
TEAM-BODY
 10
219.81715
 20
-318.948476
 30
735.0
 70
    32
  0
VERTEX
  5
239
  8
TEAM-BODY
 10
218.863896
 20
-320.186998
 30
735.0
 70
    32
  0
VERTEX
  5
23A
  8
TEAM-BODY
 10
217.80097
 20
-321.345331
 30
735.0
 70
    32
  0
VERTEX
  5
23B
  8
TEAM-BODY
 10
216.643088
 20
-322.40873
 30
735.0
 70
    32
  0
VERTEX
  5
23C
  8
TEAM-BODY
 10
215.404968
 20
-323.362451
 30
735.0
 70
    32
  0
VERTEX
  5
23D
  8
TEAM-BODY
 10
214.101327
 20
-324.19175
 30
735.0
 70
    32
  0
VERTEX
  5
23E
  8
TEAM-BODY
 10
212.746883
 20
-324.881884
 30
735.0
 70
    32
  0
VERTEX
  5
23F
  8
TEAM-BODY
 10
211.358607
 20
-325.423773
 30
735.0
 70
    32
  0
VERTEX
  5
240
  8
TEAM-BODY
 10
209.962494
 20
-325.830991
 30
735.0
 70
    32
  0
VERTEX
  5
241
  8
TEAM-BODY
 10
208.586794
 20
-326.122777
 30
735.0
 70
    32
  0
VERTEX
  5
242
  8
TEAM-BODY
 10
207.259757
 20
-326.31837
 30
735.0
 70
    32
  0
VERTEX
  5
243
  8
TEAM-BODY
 10
206.009631
 20
-326.437009
 30
735.0
 70
    32
  0
VERTEX
  5
244
  8
TEAM-BODY
 10
204.864668
 20
-326.497931
 30
735.0
 70
    32
  0
VERTEX
  5
245
  8
TEAM-BODY
 10
203.853116
 20
-326.520376
 30
735.0
 70
    32
  0
VERTEX
  5
246
  8
TEAM-BODY
 10
203.003225
 20
-326.523582
 30
735.0
 70
    32
  0
VERTEX
  5
247
  8
TEAM-BODY
 10
202.203558
 20
-326.523582
 30
735.0
 70
    32
  0
VERTEX
  5
248
  8
TEAM-BODY
 10
200.783929
 20
-326.523582
 30
735.0
 70
    32
  0
VERTEX
  5
249
  8
TEAM-BODY
 10
197.934464
 20
-326.523582
 30
735.0
 70
    32
  0
VERTEX
  5
24A
  8
TEAM-BODY
 10
192.84529
 20
-326.523582
 30
735.0
 70
    32
  0
VERTEX
  5
24B
  8
TEAM-BODY
 10
184.706535
 20
-326.523582
 30
735.0
 70
    32
  0
VERTEX
  5
24C
  8
TEAM-BODY
 10
172.708324
 20
-326.523582
 30
735.0
 70
    32
  0
VERTEX
  5
24D
  8
TEAM-BODY
 10
156.040785
 20
-326.523582
 30
735.0
 70
    32
  0
VERTEX
  5
24E
  8
TEAM-BODY
 10
133.894045
 20
-326.523582
 30
735.0
 70
    32
  0
VERTEX
  5
24F
  8
TEAM-BODY
 10
105.855253
 20
-326.523582
 30
735.0
 70
    32
  0
VERTEX
  5
250
  8
TEAM-BODY
 10
73.099655
 20
-326.523582
 30
735.0
 70
    32
  0
VERTEX
  5
251
  8
TEAM-BODY
 10
37.19952
 20
-326.523582
 30
735.0
 70
    32
  0
VERTEX
  5
252
  8
TEAM-BODY
 10
0.0
 20
-326.523582
 30
735.0
 70
    32
  0
SEQEND
  5
253
  8
TEAM-BODY
  0
POLYLINE
  5
254
  8
TEAM-NET
 66
     1
 10
0.0
 20
0.0
 30
0.0
 70
    16
 71
     2
 72
    37
  0
VERTEX
  5
255
  8
TEAM-NET
 10
0.0
 20
-52.591508
 30
735.0
 70
    64
  0
VERTEX
  5
256
  8
TEAM-NET
 10
19.572482
 20
-52.591508
 30
735.0
 70
    64
  0
VERTEX
  5
257
  8
TEAM-NET
 10
39.144964
 20
-52.591508
 30
735.0
 70
    64
  0
VERTEX
  5
258
  8
TEAM-NET
 10
58.717446
 20
-52.591508
 30
735.0
 70
    64
  0
VERTEX
  5
259
  8
TEAM-NET
 10
78.289928
 20
-52.591508
 30
735.0
 70
    64
  0
VERTEX
  5
25A
  8
TEAM-NET
 10
97.86241
 20
-52.591508
 30
735.0
 70
    64
  0
VERTEX
  5
25B
  8
TEAM-NET
 10
117.434892
 20
-52.591508
 30
735.0
 70
    64
  0
VERTEX
  5
25C
  8
TEAM-NET
 10
137.007374
 20
-52.591508
 30
735.0
 70
    64
  0
VERTEX
  5
25D
  8
TEAM-NET
 10
156.579856
 20
-52.591508
 30
735.0
 70
    64
  0
VERTEX
  5
25E
  8
TEAM-NET
 10
176.152338
 20
-52.591508
 30
735.0
 70
    64
  0
VERTEX
  5
25F
  8
TEAM-NET
 10
195.72482
 20
-52.591508
 30
735.0
 70
    64
  0
VERTEX
  5
260
  8
TEAM-NET
 10
214.791235
 20
-55.362206
 30
735.0
 70
    64
  0
VERTEX
  5
261
  8
TEAM-NET
 10
222.974892
 20
-72.122592
 30
735.0
 70
    64
  0
VERTEX
  5
262
  8
TEAM-NET
 10
222.976563
 20
-91.695071
 30
735.0
 70
    64
  0
VERTEX
  5
263
  8
TEAM-NET
 10
222.976563
 20
-111.267553
 30
735.0
 70
    64
  0
VERTEX
  5
264
  8
TEAM-NET
 10
222.976563
 20
-130.840035
 30
735.0
 70
    64
  0
VERTEX
  5
265
  8
TEAM-NET
 10
222.976563
 20
-150.412517
 30
735.0
 70
    64
  0
VERTEX
  5
266
  8
TEAM-NET
 10
222.976563
 20
-169.984999
 30
735.0
 70
    64
  0
VERTEX
  5
267
  8
TEAM-NET
 10
222.976563
 20
-189.557481
 30
735.0
 70
    64
  0
VERTEX
  5
268
  8
TEAM-NET
 10
222.976563
 20
-209.129963
 30
735.0
 70
    64
  0
VERTEX
  5
269
  8
TEAM-NET
 10
222.976563
 20
-228.702445
 30
735.0
 70
    64
  0
VERTEX
  5
26A
  8
TEAM-NET
 10
222.976563
 20
-248.274927
 30
735.0
 70
    64
  0
VERTEX
  5
26B
  8
TEAM-NET
 10
222.976563
 20
-267.847409
 30
735.0
 70
    64
  0
VERTEX
  5
26C
  8
TEAM-NET
 10
222.976563
 20
-287.419891
 30
735.0
 70
    64
  0
VERTEX
  5
26D
  8
TEAM-NET
 10
222.974884
 20
-306.99237
 30
735.0
 70
    64
  0
VERTEX
  5
26E
  8
TEAM-NET
 10
214.791231
 20
-323.752874
 30
735.0
 70
    64
  0
VERTEX
  5
26F
  8
TEAM-NET
 10
195.72482
 20
-326.523582
 30
735.0
 70
    64
  0
VERTEX
  5
270
  8
TEAM-NET
 10
176.152338
 20
-326.523582
 30
735.0
 70
    64
  0
VERTEX
  5
271
  8
TEAM-NET
 10
156.579856
 20
-326.523582
 30
735.0
 70
    64
  0
VERTEX
  5
272
  8
TEAM-NET
 10
137.007374
 20
-326.523582
 30
735.0
 70
    64
  0
VERTEX
  5
273
  8
TEAM-NET
 10
117.434892
 20
-326.523582
 30
735.0
 70
    64
  0
VERTEX
  5
274
  8
TEAM-NET
 10
97.86241
 20
-326.523582
 30
735.0
 70
    64
  0
VERTEX
  5
275
  8
TEAM-NET
 10
78.289928
 20
-326.523582
 30
735.0
 70
    64
  0
VERTEX
  5
276
  8
TEAM-NET
 10
58.717446
 20
-326.523582
 30
735.0
 70
    64
  0
VERTEX
  5
277
  8
TEAM-NET
 10
39.144964
 20
-326.523582
 30
735.0
 70
    64
  0
VERTEX
  5
278
  8
TEAM-NET
 10
19.572482
 20
-326.523582
 30
735.0
 70
    64
  0
VERTEX
  5
279
  8
TEAM-NET
 10
0.0
 20
-326.523582
 30
735.0
 70
    64
  0
VERTEX
  5
27A
  8
TEAM-NET
 10
0.0
 20
-52.591508
 30
735.0
 70
    64
  0
VERTEX
  5
27B
  8
TEAM-NET
 10
-19.572482
 20
-52.591508
 30
735.0
 70
    64
  0
VERTEX
  5
27C
  8
TEAM-NET
 10
-39.144964
 20
-52.591508
 30
735.0
 70
    64
  0
VERTEX
  5
27D
  8
TEAM-NET
 10
-58.717446
 20
-52.591508
 30
735.0
 70
    64
  0
VERTEX
  5
27E
  8
TEAM-NET
 10
-78.289928
 20
-52.591508
 30
735.0
 70
    64
  0
VERTEX
  5
27F
  8
TEAM-NET
 10
-97.86241
 20
-52.591508
 30
735.0
 70
    64
  0
VERTEX
  5
280
  8
TEAM-NET
 10
-117.434892
 20
-52.591508
 30
735.0
 70
    64
  0
VERTEX
  5
281
  8
TEAM-NET
 10
-137.007374
 20
-52.591508
 30
735.0
 70
    64
  0
VERTEX
  5
282
  8
TEAM-NET
 10
-156.579856
 20
-52.591508
 30
735.0
 70
    64
  0
VERTEX
  5
283
  8
TEAM-NET
 10
-176.152338
 20
-52.591508
 30
735.0
 70
    64
  0
VERTEX
  5
284
  8
TEAM-NET
 10
-195.72482
 20
-52.591508
 30
735.0
 70
    64
  0
VERTEX
  5
285
  8
TEAM-NET
 10
-214.791235
 20
-55.362206
 30
735.0
 70
    64
  0
VERTEX
  5
286
  8
TEAM-NET
 10
-222.974892
 20
-72.122592
 30
735.0
 70
    64
  0
VERTEX
  5
287
  8
TEAM-NET
 10
-222.976563
 20
-91.695071
 30
735.0
 70
    64
  0
VERTEX
  5
288
  8
TEAM-NET
 10
-222.976563
 20
-111.267553
 30
735.0
 70
    64
  0
VERTEX
  5
289
  8
TEAM-NET
 10
-222.976563
 20
-130.840035
 30
735.0
 70
    64
  0
VERTEX
  5
28A
  8
TEAM-NET
 10
-222.976563
 20
-150.412517
 30
735.0
 70
    64
  0
VERTEX
  5
28B
  8
TEAM-NET
 10
-222.976563
 20
-169.984999
 30
735.0
 70
    64
  0
VERTEX
  5
28C
  8
TEAM-NET
 10
-222.976563
 20
-189.557481
 30
735.0
 70
    64
  0
VERTEX
  5
28D
  8
TEAM-NET
 10
-222.976563
 20
-209.129963
 30
735.0
 70
    64
  0
VERTEX
  5
28E
  8
TEAM-NET
 10
-222.976563
 20
-228.702445
 30
735.0
 70
    64
  0
VERTEX
  5
28F
  8
TEAM-NET
 10
-222.976563
 20
-248.274927
 30
735.0
 70
    64
  0
VERTEX
  5
290
  8
TEAM-NET
 10
-222.976563
 20
-267.847409
 30
735.0
 70
    64
  0
VERTEX
  5
291
  8
TEAM-NET
 10
-222.976563
 20
-287.419891
 30
735.0
 70
    64
  0
VERTEX
  5
292
  8
TEAM-NET
 10
-222.974884
 20
-306.99237
 30
735.0
 70
    64
  0
VERTEX
  5
293
  8
TEAM-NET
 10
-214.791231
 20
-323.752874
 30
735.0
 70
    64
  0
VERTEX
  5
294
  8
TEAM-NET
 10
-195.72482
 20
-326.523582
 30
735.0
 70
    64
  0
VERTEX
  5
295
  8
TEAM-NET
 10
-176.152338
 20
-326.523582
 30
735.0
 70
    64
  0
VERTEX
  5
296
  8
TEAM-NET
 10
-156.579856
 20
-326.523582
 30
735.0
 70
    64
  0
VERTEX
  5
297
  8
TEAM-NET
 10
-137.007374
 20
-326.523582
 30
735.0
 70
    64
  0
VERTEX
  5
298
  8
TEAM-NET
 10
-117.434892
 20
-326.523582
 30
735.0
 70
    64
  0
VERTEX
  5
299
  8
TEAM-NET
 10
-97.86241
 20
-326.523582
 30
735.0
 70
    64
  0
VERTEX
  5
29A
  8
TEAM-NET
 10
-78.289928
 20
-326.523582
 30
735.0
 70
    64
  0
VERTEX
  5
29B
  8
TEAM-NET
 10
-58.717446
 20
-326.523582
 30
735.0
 70
    64
  0
VERTEX
  5
29C
  8
TEAM-NET
 10
-39.144964
 20
-326.523582
 30
735.0
 70
    64
  0
VERTEX
  5
29D
  8
TEAM-NET
 10
-19.572482
 20
-326.523582
 30
735.0
 70
    64
  0
VERTEX
  5
29E
  8
TEAM-NET
 10
0.0
 20
-326.523582
 30
735.0
 70
    64
  0
SEQEND
  5
29F
  8
TEAM-NET
  0
POLYLINE
  5
2A0
  8
TEAM-NET
 66
     1
 10
0.0
 20
0.0
 30
0.0
 70
    16
 71
     2
 72
    37
  0
VERTEX
  5
2A1
  8
TEAM-NET
 10
0.0
 20
-0.000016
 30
850.0
 70
    64
  0
VERTEX
  5
2A2
  8
TEAM-NET
 10
-25.24218
 20
-0.000016
 30
850.0
 70
    64
  0
VERTEX
  5
2A3
  8
TEAM-NET
 10
-50.484359
 20
-0.000016
 30
850.0
 70
    64
  0
VERTEX
  5
2A4
  8
TEAM-NET
 10
-75.726539
 20
-0.000016
 30
850.0
 70
    64
  0
VERTEX
  5
2A5
  8
TEAM-NET
 10
-100.968719
 20
-0.000016
 30
850.0
 70
    64
  0
VERTEX
  5
2A6
  8
TEAM-NET
 10
-126.210898
 20
-0.000016
 30
850.0
 70
    64
  0
VERTEX
  5
2A7
  8
TEAM-NET
 10
-151.453078
 20
-0.000016
 30
850.0
 70
    64
  0
VERTEX
  5
2A8
  8
TEAM-NET
 10
-176.695258
 20
-0.000016
 30
850.0
 70
    64
  0
VERTEX
  5
2A9
  8
TEAM-NET
 10
-201.937438
 20
-0.000016
 30
850.0
 70
    64
  0
VERTEX
  5
2AA
  8
TEAM-NET
 10
-227.179617
 20
-0.000016
 30
850.0
 70
    64
  0
VERTEX
  5
2AB
  8
TEAM-NET
 10
-252.390793
 20
-0.59836
 30
850.0
 70
    64
  0
VERTEX
  5
2AC
  8
TEAM-NET
 10
-272.825422
 20
-14.035128
 30
850.0
 70
    64
  0
VERTEX
  5
2AD
  8
TEAM-NET
 10
-277.5
 20
-38.4287
 30
850.0
 70
    64
  0
VERTEX
  5
2AE
  8
TEAM-NET
 10
-277.5
 20
-63.67088
 30
850.0
 70
    64
  0
VERTEX
  5
2AF
  8
TEAM-NET
 10
-277.5
 20
-88.91306
 30
850.0
 70
    64
  0
VERTEX
  5
2B0
  8
TEAM-NET
 10
-277.5
 20
-114.155239
 30
850.0
 70
    64
  0
VERTEX
  5
2B1
  8
TEAM-NET
 10
-277.5
 20
-139.397419
 30
850.0
 70
    64
  0
VERTEX
  5
2B2
  8
TEAM-NET
 10
-277.5
 20
-164.639599
 30
850.0
 70
    64
  0
VERTEX
  5
2B3
  8
TEAM-NET
 10
-277.5
 20
-189.881779
 30
850.0
 70
    64
  0
VERTEX
  5
2B4
  8
TEAM-NET
 10
-277.5
 20
-215.123958
 30
850.0
 70
    64
  0
VERTEX
  5
2B5
  8
TEAM-NET
 10
-277.5
 20
-240.366138
 30
850.0
 70
    64
  0
VERTEX
  5
2B6
  8
TEAM-NET
 10
-277.5
 20
-265.608318
 30
850.0
 70
    64
  0
VERTEX
  5
2B7
  8
TEAM-NET
 10
-277.5
 20
-290.850497
 30
850.0
 70
    64
  0
VERTEX
  5
2B8
  8
TEAM-NET
 10
-277.5
 20
-316.092677
 30
850.0
 70
    64
  0
VERTEX
  5
2B9
  8
TEAM-NET
 10
-277.5
 20
-341.334857
 30
850.0
 70
    64
  0
VERTEX
  5
2BA
  8
TEAM-NET
 10
-272.825931
 20
-365.728578
 30
850.0
 70
    64
  0
VERTEX
  5
2BB
  8
TEAM-NET
 10
-252.390803
 20
-379.16448
 30
850.0
 70
    64
  0
VERTEX
  5
2BC
  8
TEAM-NET
 10
-227.179617
 20
-379.762726
 30
850.0
 70
    64
  0
VERTEX
  5
2BD
  8
TEAM-NET
 10
-201.937438
 20
-379.762726
 30
850.0
 70
    64
  0
VERTEX
  5
2BE
  8
TEAM-NET
 10
-176.695258
 20
-379.762726
 30
850.0
 70
    64
  0
VERTEX
  5
2BF
  8
TEAM-NET
 10
-151.453078
 20
-379.762726
 30
850.0
 70
    64
  0
VERTEX
  5
2C0
  8
TEAM-NET
 10
-126.210898
 20
-379.762726
 30
850.0
 70
    64
  0
VERTEX
  5
2C1
  8
TEAM-NET
 10
-100.968719
 20
-379.762726
 30
850.0
 70
    64
  0
VERTEX
  5
2C2
  8
TEAM-NET
 10
-75.726539
 20
-379.762726
 30
850.0
 70
    64
  0
VERTEX
  5
2C3
  8
TEAM-NET
 10
-50.484359
 20
-379.762726
 30
850.0
 70
    64
  0
VERTEX
  5
2C4
  8
TEAM-NET
 10
-25.24218
 20
-379.762726
 30
850.0
 70
    64
  0
VERTEX
  5
2C5
  8
TEAM-NET
 10
0.0
 20
-379.762726
 30
850.0
 70
    64
  0
VERTEX
  5
2C6
  8
TEAM-NET
 10
0.0
 20
-0.000016
 30
815.0
 70
    64
  0
VERTEX
  5
2C7
  8
TEAM-NET
 10
-25.24218
 20
-0.000016
 30
815.0
 70
    64
  0
VERTEX
  5
2C8
  8
TEAM-NET
 10
-50.484359
 20
-0.000016
 30
815.0
 70
    64
  0
VERTEX
  5
2C9
  8
TEAM-NET
 10
-75.726539
 20
-0.000016
 30
815.0
 70
    64
  0
VERTEX
  5
2CA
  8
TEAM-NET
 10
-100.968719
 20
-0.000016
 30
815.0
 70
    64
  0
VERTEX
  5
2CB
  8
TEAM-NET
 10
-126.210898
 20
-0.000016
 30
815.0
 70
    64
  0
VERTEX
  5
2CC
  8
TEAM-NET
 10
-151.453078
 20
-0.000016
 30
815.0
 70
    64
  0
VERTEX
  5
2CD
  8
TEAM-NET
 10
-176.695258
 20
-0.000016
 30
815.0
 70
    64
  0
VERTEX
  5
2CE
  8
TEAM-NET
 10
-201.937438
 20
-0.000016
 30
815.0
 70
    64
  0
VERTEX
  5
2CF
  8
TEAM-NET
 10
-227.179617
 20
-0.000016
 30
815.0
 70
    64
  0
VERTEX
  5
2D0
  8
TEAM-NET
 10
-252.390793
 20
-0.59836
 30
815.0
 70
    64
  0
VERTEX
  5
2D1
  8
TEAM-NET
 10
-272.825422
 20
-14.035128
 30
815.0
 70
    64
  0
VERTEX
  5
2D2
  8
TEAM-NET
 10
-277.5
 20
-38.4287
 30
815.0
 70
    64
  0
VERTEX
  5
2D3
  8
TEAM-NET
 10
-277.5
 20
-63.67088
 30
815.0
 70
    64
  0
VERTEX
  5
2D4
  8
TEAM-NET
 10
-277.5
 20
-88.91306
 30
815.0
 70
    64
  0
VERTEX
  5
2D5
  8
TEAM-NET
 10
-277.5
 20
-114.155239
 30
815.0
 70
    64
  0
VERTEX
  5
2D6
  8
TEAM-NET
 10
-277.5
 20
-139.397419
 30
815.0
 70
    64
  0
VERTEX
  5
2D7
  8
TEAM-NET
 10
-277.5
 20
-164.639599
 30
815.0
 70
    64
  0
VERTEX
  5
2D8
  8
TEAM-NET
 10
-277.5
 20
-189.881779
 30
815.0
 70
    64
  0
VERTEX
  5
2D9
  8
TEAM-NET
 10
-277.5
 20
-215.123958
 30
815.0
 70
    64
  0
VERTEX
  5
2DA
  8
TEAM-NET
 10
-277.5
 20
-240.366138
 30
815.0
 70
    64
  0
VERTEX
  5
2DB
  8
TEAM-NET
 10
-277.5
 20
-265.608318
 30
815.0
 70
    64
  0
VERTEX
  5
2DC
  8
TEAM-NET
 10
-277.5
 20
-290.850497
 30
815.0
 70
    64
  0
VERTEX
  5
2DD
  8
TEAM-NET
 10
-277.5
 20
-316.092677
 30
815.0
 70
    64
  0
VERTEX
  5
2DE
  8
TEAM-NET
 10
-277.5
 20
-341.334857
 30
815.0
 70
    64
  0
VERTEX
  5
2DF
  8
TEAM-NET
 10
-272.825931
 20
-365.728578
 30
815.0
 70
    64
  0
VERTEX
  5
2E0
  8
TEAM-NET
 10
-252.390803
 20
-379.16448
 30
815.0
 70
    64
  0
VERTEX
  5
2E1
  8
TEAM-NET
 10
-227.179617
 20
-379.762726
 30
815.0
 70
    64
  0
VERTEX
  5
2E2
  8
TEAM-NET
 10
-201.937438
 20
-379.762726
 30
815.0
 70
    64
  0
VERTEX
  5
2E3
  8
TEAM-NET
 10
-176.695258
 20
-379.762726
 30
815.0
 70
    64
  0
VERTEX
  5
2E4
  8
TEAM-NET
 10
-151.453078
 20
-379.762726
 30
815.0
 70
    64
  0
VERTEX
  5
2E5
  8
TEAM-NET
 10
-126.210898
 20
-379.762726
 30
815.0
 70
    64
  0
VERTEX
  5
2E6
  8
TEAM-NET
 10
-100.968719
 20
-379.762726
 30
815.0
 70
    64
  0
VERTEX
  5
2E7
  8
TEAM-NET
 10
-75.726539
 20
-379.762726
 30
815.0
 70
    64
  0
VERTEX
  5
2E8
  8
TEAM-NET
 10
-50.484359
 20
-379.762726
 30
815.0
 70
    64
  0
VERTEX
  5
2E9
  8
TEAM-NET
 10
-25.24218
 20
-379.762726
 30
815.0
 70
    64
  0
VERTEX
  5
2EA
  8
TEAM-NET
 10
0.0
 20
-379.762726
 30
815.0
 70
    64
  0
SEQEND
  5
2EB
  8
TEAM-NET
  0
POLYLINE
  5
2EC
  8
TEAM-NET
 66
     1
 10
0.0
 20
0.0
 30
0.0
 70
    16
 71
     2
 72
    37
  0
VERTEX
  5
2ED
  8
TEAM-NET
 10
0.0
 20
-0.000016
 30
850.0
 70
    64
  0
VERTEX
  5
2EE
  8
TEAM-NET
 10
25.24218
 20
-0.000016
 30
850.0
 70
    64
  0
VERTEX
  5
2EF
  8
TEAM-NET
 10
50.484359
 20
-0.000016
 30
850.0
 70
    64
  0
VERTEX
  5
2F0
  8
TEAM-NET
 10
75.726539
 20
-0.000016
 30
850.0
 70
    64
  0
VERTEX
  5
2F1
  8
TEAM-NET
 10
100.968719
 20
-0.000016
 30
850.0
 70
    64
  0
VERTEX
  5
2F2
  8
TEAM-NET
 10
126.210898
 20
-0.000016
 30
850.0
 70
    64
  0
VERTEX
  5
2F3
  8
TEAM-NET
 10
151.453078
 20
-0.000016
 30
850.0
 70
    64
  0
VERTEX
  5
2F4
  8
TEAM-NET
 10
176.695258
 20
-0.000016
 30
850.0
 70
    64
  0
VERTEX
  5
2F5
  8
TEAM-NET
 10
201.937438
 20
-0.000016
 30
850.0
 70
    64
  0
VERTEX
  5
2F6
  8
TEAM-NET
 10
227.179617
 20
-0.000016
 30
850.0
 70
    64
  0
VERTEX
  5
2F7
  8
TEAM-NET
 10
252.390793
 20
-0.59836
 30
850.0
 70
    64
  0
VERTEX
  5
2F8
  8
TEAM-NET
 10
272.825422
 20
-14.035128
 30
850.0
 70
    64
  0
VERTEX
  5
2F9
  8
TEAM-NET
 10
277.5
 20
-38.4287
 30
850.0
 70
    64
  0
VERTEX
  5
2FA
  8
TEAM-NET
 10
277.5
 20
-63.67088
 30
850.0
 70
    64
  0
VERTEX
  5
2FB
  8
TEAM-NET
 10
277.5
 20
-88.91306
 30
850.0
 70
    64
  0
VERTEX
  5
2FC
  8
TEAM-NET
 10
277.5
 20
-114.155239
 30
850.0
 70
    64
  0
VERTEX
  5
2FD
  8
TEAM-NET
 10
277.5
 20
-139.397419
 30
850.0
 70
    64
  0
VERTEX
  5
2FE
  8
TEAM-NET
 10
277.5
 20
-164.639599
 30
850.0
 70
    64
  0
VERTEX
  5
2FF
  8
TEAM-NET
 10
277.5
 20
-189.881779
 30
850.0
 70
    64
  0
VERTEX
  5
300
  8
TEAM-NET
 10
277.5
 20
-215.123958
 30
850.0
 70
    64
  0
VERTEX
  5
301
  8
TEAM-NET
 10
277.5
 20
-240.366138
 30
850.0
 70
    64
  0
VERTEX
  5
302
  8
TEAM-NET
 10
277.5
 20
-265.608318
 30
850.0
 70
    64
  0
VERTEX
  5
303
  8
TEAM-NET
 10
277.5
 20
-290.850497
 30
850.0
 70
    64
  0
VERTEX
  5
304
  8
TEAM-NET
 10
277.5
 20
-316.092677
 30
850.0
 70
    64
  0
VERTEX
  5
305
  8
TEAM-NET
 10
277.5
 20
-341.334857
 30
850.0
 70
    64
  0
VERTEX
  5
306
  8
TEAM-NET
 10
272.825931
 20
-365.728578
 30
850.0
 70
    64
  0
VERTEX
  5
307
  8
TEAM-NET
 10
252.390803
 20
-379.16448
 30
850.0
 70
    64
  0
VERTEX
  5
308
  8
TEAM-NET
 10
227.179617
 20
-379.762726
 30
850.0
 70
    64
  0
VERTEX
  5
309
  8
TEAM-NET
 10
201.937438
 20
-379.762726
 30
850.0
 70
    64
  0
VERTEX
  5
30A
  8
TEAM-NET
 10
176.695258
 20
-379.762726
 30
850.0
 70
    64
  0
VERTEX
  5
30B
  8
TEAM-NET
 10
151.453078
 20
-379.762726
 30
850.0
 70
    64
  0
VERTEX
  5
30C
  8
TEAM-NET
 10
126.210898
 20
-379.762726
 30
850.0
 70
    64
  0
VERTEX
  5
30D
  8
TEAM-NET
 10
100.968719
 20
-379.762726
 30
850.0
 70
    64
  0
VERTEX
  5
30E
  8
TEAM-NET
 10
75.726539
 20
-379.762726
 30
850.0
 70
    64
  0
VERTEX
  5
30F
  8
TEAM-NET
 10
50.484359
 20
-379.762726
 30
850.0
 70
    64
  0
VERTEX
  5
310
  8
TEAM-NET
 10
25.24218
 20
-379.762726
 30
850.0
 70
    64
  0
VERTEX
  5
311
  8
TEAM-NET
 10
0.0
 20
-379.762726
 30
850.0
 70
    64
  0
VERTEX
  5
312
  8
TEAM-NET
 10
0.0
 20
-0.000016
 30
815.0
 70
    64
  0
VERTEX
  5
313
  8
TEAM-NET
 10
25.24218
 20
-0.000016
 30
815.0
 70
    64
  0
VERTEX
  5
314
  8
TEAM-NET
 10
50.484359
 20
-0.000016
 30
815.0
 70
    64
  0
VERTEX
  5
315
  8
TEAM-NET
 10
75.726539
 20
-0.000016
 30
815.0
 70
    64
  0
VERTEX
  5
316
  8
TEAM-NET
 10
100.968719
 20
-0.000016
 30
815.0
 70
    64
  0
VERTEX
  5
317
  8
TEAM-NET
 10
126.210898
 20
-0.000016
 30
815.0
 70
    64
  0
VERTEX
  5
318
  8
TEAM-NET
 10
151.453078
 20
-0.000016
 30
815.0
 70
    64
  0
VERTEX
  5
319
  8
TEAM-NET
 10
176.695258
 20
-0.000016
 30
815.0
 70
    64
  0
VERTEX
  5
31A
  8
TEAM-NET
 10
201.937438
 20
-0.000016
 30
815.0
 70
    64
  0
VERTEX
  5
31B
  8
TEAM-NET
 10
227.179617
 20
-0.000016
 30
815.0
 70
    64
  0
VERTEX
  5
31C
  8
TEAM-NET
 10
252.390793
 20
-0.59836
 30
815.0
 70
    64
  0
VERTEX
  5
31D
  8
TEAM-NET
 10
272.825422
 20
-14.035128
 30
815.0
 70
    64
  0
VERTEX
  5
31E
  8
TEAM-NET
 10
277.5
 20
-38.4287
 30
815.0
 70
    64
  0
VERTEX
  5
31F
  8
TEAM-NET
 10
277.5
 20
-63.67088
 30
815.0
 70
    64
  0
VERTEX
  5
320
  8
TEAM-NET
 10
277.5
 20
-88.91306
 30
815.0
 70
    64
  0
VERTEX
  5
321
  8
TEAM-NET
 10
277.5
 20
-114.155239
 30
815.0
 70
    64
  0
VERTEX
  5
322
  8
TEAM-NET
 10
277.5
 20
-139.397419
 30
815.0
 70
    64
  0
VERTEX
  5
323
  8
TEAM-NET
 10
277.5
 20
-164.639599
 30
815.0
 70
    64
  0
VERTEX
  5
324
  8
TEAM-NET
 10
277.5
 20
-189.881779
 30
815.0
 70
    64
  0
VERTEX
  5
325
  8
TEAM-NET
 10
277.5
 20
-215.123958
 30
815.0
 70
    64
  0
VERTEX
  5
326
  8
TEAM-NET
 10
277.5
 20
-240.366138
 30
815.0
 70
    64
  0
VERTEX
  5
327
  8
TEAM-NET
 10
277.5
 20
-265.608318
 30
815.0
 70
    64
  0
VERTEX
  5
328
  8
TEAM-NET
 10
277.5
 20
-290.850497
 30
815.0
 70
    64
  0
VERTEX
  5
329
  8
TEAM-NET
 10
277.5
 20
-316.092677
 30
815.0
 70
    64
  0
VERTEX
  5
32A
  8
TEAM-NET
 10
277.5
 20
-341.334857
 30
815.0
 70
    64
  0
VERTEX
  5
32B
  8
TEAM-NET
 10
272.825931
 20
-365.728578
 30
815.0
 70
    64
  0
VERTEX
  5
32C
  8
TEAM-NET
 10
252.390803
 20
-379.16448
 30
815.0
 70
    64
  0
VERTEX
  5
32D
  8
TEAM-NET
 10
227.179617
 20
-379.762726
 30
815.0
 70
    64
  0
VERTEX
  5
32E
  8
TEAM-NET
 10
201.937438
 20
-379.762726
 30
815.0
 70
    64
  0
VERTEX
  5
32F
  8
TEAM-NET
 10
176.695258
 20
-379.762726
 30
815.0
 70
    64
  0
VERTEX
  5
330
  8
TEAM-NET
 10
151.453078
 20
-379.762726
 30
815.0
 70
    64
  0
VERTEX
  5
331
  8
TEAM-NET
 10
126.210898
 20
-379.762726
 30
815.0
 70
    64
  0
VERTEX
  5
332
  8
TEAM-NET
 10
100.968719
 20
-379.762726
 30
815.0
 70
    64
  0
VERTEX
  5
333
  8
TEAM-NET
 10
75.726539
 20
-379.762726
 30
815.0
 70
    64
  0
VERTEX
  5
334
  8
TEAM-NET
 10
50.484359
 20
-379.762726
 30
815.0
 70
    64
  0
VERTEX
  5
335
  8
TEAM-NET
 10
25.24218
 20
-379.762726
 30
815.0
 70
    64
  0
VERTEX
  5
336
  8
TEAM-NET
 10
0.0
 20
-379.762726
 30
815.0
 70
    64
  0
SEQEND
  5
337
  8
TEAM-NET
  0
POLYLINE
  5
338
  8
TEAM-NET
 66
     1
 10
0.0
 20
0.0
 30
0.0
 70
    16
 71
     2
 72
     7
  0
VERTEX
  5
339
  8
TEAM-NET
 10
49.44951
 20
-379.897768
 30
850.0
 70
    64
  0
VERTEX
  5
33A
  8
TEAM-NET
 10
41.941778
 20
-384.414231
 30
850.0
 70
    64
  0
VERTEX
  5
33B
  8
TEAM-NET
 10
36.641541
 20
-392.20212
 30
850.0
 70
    64
  0
VERTEX
  5
33C
  8
TEAM-NET
 10
28.080811
 20
-395.056206
 30
850.0
 70
    64
  0
VERTEX
  5
33D
  8
TEAM-NET
 10
18.637843
 20
-395.056206
 30
850.0
 70
    64
  0
VERTEX
  5
33E
  8
TEAM-NET
 10
9.194875
 20
-395.056206
 30
850.0
 70
    64
  0
VERTEX
  5
33F
  8
TEAM-NET
 10
-0.248092
 20
-395.056205
 30
850.0
 70
    64
  0
VERTEX
  5
340
  8
TEAM-NET
 10
49.44951
 20
-379.897768
 30
815.0
 70
    64
  0
VERTEX
  5
341
  8
TEAM-NET
 10
41.968236
 20
-384.368484
 30
815.0
 70
    64
  0
VERTEX
  5
342
  8
TEAM-NET
 10
36.716566
 20
-392.127675
 30
815.0
 70
    64
  0
VERTEX
  5
343
  8
TEAM-NET
 10
28.23935
 20
-395.056206
 30
815.0
 70
    64
  0
VERTEX
  5
344
  8
TEAM-NET
 10
18.849228
 20
-395.056206
 30
815.0
 70
    64
  0
VERTEX
  5
345
  8
TEAM-NET
 10
9.459107
 20
-395.056206
 30
815.0
 70
    64
  0
VERTEX
  5
346
  8
TEAM-NET
 10
0.068986
 20
-395.056205
 30
815.0
 70
    64
  0
SEQEND
  5
347
  8
TEAM-NET
  0
POLYLINE
  5
348
  8
TEAM-NET
 66
     1
 10
0.0
 20
0.0
 30
0.0
 70
    16
 71
     2
 72
     7
  0
VERTEX
  5
349
  8
TEAM-NET
 10
-49.44951
 20
-379.897768
 30
815.0
 70
    64
  0
VERTEX
  5
34A
  8
TEAM-NET
 10
-41.941778
 20
-384.414231
 30
815.0
 70
    64
  0
VERTEX
  5
34B
  8
TEAM-NET
 10
-36.641541
 20
-392.20212
 30
815.0
 70
    64
  0
VERTEX
  5
34C
  8
TEAM-NET
 10
-28.080811
 20
-395.056206
 30
815.0
 70
    64
  0
VERTEX
  5
34D
  8
TEAM-NET
 10
-18.637843
 20
-395.056206
 30
815.0
 70
    64
  0
VERTEX
  5
34E
  8
TEAM-NET
 10
-9.194875
 20
-395.056206
 30
815.0
 70
    64
  0
VERTEX
  5
34F
  8
TEAM-NET
 10
0.248092
 20
-395.056205
 30
815.0
 70
    64
  0
VERTEX
  5
350
  8
TEAM-NET
 10
-49.44951
 20
-379.897768
 30
850.0
 70
    64
  0
VERTEX
  5
351
  8
TEAM-NET
 10
-41.968236
 20
-384.368484
 30
850.0
 70
    64
  0
VERTEX
  5
352
  8
TEAM-NET
 10
-36.716566
 20
-392.127675
 30
850.0
 70
    64
  0
VERTEX
  5
353
  8
TEAM-NET
 10
-28.23935
 20
-395.056206
 30
850.0
 70
    64
  0
VERTEX
  5
354
  8
TEAM-NET
 10
-18.849228
 20
-395.056206
 30
850.0
 70
    64
  0
VERTEX
  5
355
  8
TEAM-NET
 10
-9.459107
 20
-395.056206
 30
850.0
 70
    64
  0
VERTEX
  5
356
  8
TEAM-NET
 10
-0.068986
 20
-395.056205
 30
850.0
 70
    64
  0
SEQEND
  5
357
  8
TEAM-NET
  0
POLYLINE
  5
358
  8
TEAM-BODY
 66
     1
 10
0.0
 20
0.0
 30
0.0
 70
     8
  0
VERTEX
  5
359
  8
TEAM-BODY
 10
0.0
 20
-0.000016
 30
815.0
 70
    32
  0
VERTEX
  5
35A
  8
TEAM-BODY
 10
-0.001341
 20
-0.000016
 30
815.0
 70
    32
  0
VERTEX
  5
35B
  8
TEAM-BODY
 10
-44.68925
 20
-0.000016
 30
815.0
 70
    32
  0
VERTEX
  5
35C
  8
TEAM-BODY
 10
-87.502143
 20
-0.000016
 30
815.0
 70
    32
  0
VERTEX
  5
35D
  8
TEAM-BODY
 10
-126.565001
 20
-0.000016
 30
815.0
 70
    32
  0
VERTEX
  5
35E
  8
TEAM-BODY
 10
-160.002807
 20
-0.000016
 30
815.0
 70
    32
  0
VERTEX
  5
35F
  8
TEAM-BODY
 10
-186.416038
 20
-0.000016
 30
815.0
 70
    32
  0
VERTEX
  5
360
  8
TEAM-BODY
 10
-206.307147
 20
-0.000016
 30
815.0
 70
    32
  0
VERTEX
  5
361
  8
TEAM-BODY
 10
-220.654077
 20
-0.000016
 30
815.0
 70
    32
  0
VERTEX
  5
362
  8
TEAM-BODY
 10
-230.434775
 20
-0.000016
 30
815.0
 70
    32
  0
VERTEX
  5
363
  8
TEAM-BODY
 10
-236.627186
 20
-0.000016
 30
815.0
 70
    32
  0
VERTEX
  5
364
  8
TEAM-BODY
 10
-240.209256
 20
-0.000016
 30
815.0
 70
    32
  0
VERTEX
  5
365
  8
TEAM-BODY
 10
-242.158929
 20
-0.000016
 30
815.0
 70
    32
  0
VERTEX
  5
366
  8
TEAM-BODY
 10
-243.454152
 20
-0.000016
 30
815.0
 70
    32
  0
VERTEX
  5
367
  8
TEAM-BODY
 10
-244.901867
 20
-0.005481
 30
815.0
 70
    32
  0
VERTEX
  5
368
  8
TEAM-BODY
 10
-246.625001
 20
-0.04374
 30
815.0
 70
    32
  0
VERTEX
  5
369
  8
TEAM-BODY
 10
-248.57548
 20
-0.147584
 30
815.0
 70
    32
  0
VERTEX
  5
36A
  8
TEAM-BODY
 10
-250.705227
 20
-0.349808
 30
815.0
 70
    32
  0
VERTEX
  5
36B
  8
TEAM-BODY
 10
-252.966168
 20
-0.683204
 30
815.0
 70
    32
  0
VERTEX
  5
36C
  8
TEAM-BODY
 10
-255.310228
 20
-1.180565
 30
815.0
 70
    32
  0
VERTEX
  5
36D
  8
TEAM-BODY
 10
-257.68933
 20
-1.874685
 30
815.0
 70
    32
  0
VERTEX
  5
36E
  8
TEAM-BODY
 10
-260.0554
 20
-2.798355
 30
815.0
 70
    32
  0
VERTEX
  5
36F
  8
TEAM-BODY
 10
-262.364182
 20
-3.974715
 30
815.0
 70
    32
  0
VERTEX
  5
370
  8
TEAM-BODY
 10
-264.586696
 20
-5.388281
 30
815.0
 70
    32
  0
VERTEX
  5
371
  8
TEAM-BODY
 10
-266.697782
 20
-7.013914
 30
815.0
 70
    32
  0
VERTEX
  5
372
  8
TEAM-BODY
 10
-268.672281
 20
-8.826476
 30
815.0
 70
    32
  0
VERTEX
  5
373
  8
TEAM-BODY
 10
-270.485032
 20
-10.800828
 30
815.0
 70
    32
  0
VERTEX
  5
374
  8
TEAM-BODY
 10
-272.110876
 20
-12.911833
 30
815.0
 70
    32
  0
VERTEX
  5
375
  8
TEAM-BODY
 10
-273.524653
 20
-15.13435
 30
815.0
 70
    32
  0
VERTEX
  5
376
  8
TEAM-BODY
 10
-274.701203
 20
-17.443243
 30
815.0
 70
    32
  0
VERTEX
  5
377
  8
TEAM-BODY
 10
-275.625024
 20
-19.809544
 30
815.0
 70
    32
  0
VERTEX
  5
378
  8
TEAM-BODY
 10
-276.319257
 20
-22.18898
 30
815.0
 70
    32
  0
VERTEX
  5
379
  8
TEAM-BODY
 10
-276.8167
 20
-24.533448
 30
815.0
 70
    32
  0
VERTEX
  5
37A
  8
TEAM-BODY
 10
-277.15015
 20
-26.794846
 30
815.0
 70
    32
  0
VERTEX
  5
37B
  8
TEAM-BODY
 10
-277.352407
 20
-28.925072
 30
815.0
 70
    32
  0
VERTEX
  5
37C
  8
TEAM-BODY
 10
-277.456269
 20
-30.876023
 30
815.0
 70
    32
  0
VERTEX
  5
37D
  8
TEAM-BODY
 10
-277.494534
 20
-32.599598
 30
815.0
 70
    32
  0
VERTEX
  5
37E
  8
TEAM-BODY
 10
-277.5
 20
-34.047694
 30
815.0
 70
    32
  0
VERTEX
  5
37F
  8
TEAM-BODY
 10
-277.5
 20
-35.286176
 30
815.0
 70
    32
  0
VERTEX
  5
380
  8
TEAM-BODY
 10
-277.5
 20
-36.836766
 30
815.0
 70
    32
  0
VERTEX
  5
381
  8
TEAM-BODY
 10
-277.5
 20
-39.335157
 30
815.0
 70
    32
  0
VERTEX
  5
382
  8
TEAM-BODY
 10
-277.5
 20
-43.417038
 30
815.0
 70
    32
  0
VERTEX
  5
383
  8
TEAM-BODY
 10
-277.5
 20
-49.7181
 30
815.0
 70
    32
  0
VERTEX
  5
384
  8
TEAM-BODY
 10
-277.5
 20
-58.874034
 30
815.0
 70
    32
  0
VERTEX
  5
385
  8
TEAM-BODY
 10
-277.5
 20
-71.520529
 30
815.0
 70
    32
  0
VERTEX
  5
386
  8
TEAM-BODY
 10
-277.5
 20
-88.293276
 30
815.0
 70
    32
  0
VERTEX
  5
387
  8
TEAM-BODY
 10
-277.5
 20
-109.523603
 30
815.0
 70
    32
  0
VERTEX
  5
388
  8
TEAM-BODY
 10
-277.5
 20
-134.325387
 30
815.0
 70
    32
  0
VERTEX
  5
389
  8
TEAM-BODY
 10
-277.5
 20
-161.508142
 30
815.0
 70
    32
  0
VERTEX
  5
38A
  8
TEAM-BODY
 10
-277.5
 20
-189.881383
 30
815.0
 70
    32
  0
VERTEX
  5
38B
  8
TEAM-BODY
 10
-277.5
 20
-218.254623
 30
815.0
 70
    32
  0
VERTEX
  5
38C
  8
TEAM-BODY
 10
-277.5
 20
-245.437378
 30
815.0
 70
    32
  0
VERTEX
  5
38D
  8
TEAM-BODY
 10
-277.5
 20
-270.239162
 30
815.0
 70
    32
  0
VERTEX
  5
38E
  8
TEAM-BODY
 10
-277.5
 20
-291.469489
 30
815.0
 70
    32
  0
VERTEX
  5
38F
  8
TEAM-BODY
 10
-277.5
 20
-308.242237
 30
815.0
 70
    32
  0
VERTEX
  5
390
  8
TEAM-BODY
 10
-277.5
 20
-320.888739
 30
815.0
 70
    32
  0
VERTEX
  5
391
  8
TEAM-BODY
 10
-277.5
 20
-330.044689
 30
815.0
 70
    32
  0
VERTEX
  5
392
  8
TEAM-BODY
 10
-277.5
 20
-336.345784
 30
815.0
 70
    32
  0
VERTEX
  5
393
  8
TEAM-BODY
 10
-277.5
 20
-340.427721
 30
815.0
 70
    32
  0
VERTEX
  5
394
  8
TEAM-BODY
 10
-277.5
 20
-342.926193
 30
815.0
 70
    32
  0
VERTEX
  5
395
  8
TEAM-BODY
 10
-277.5
 20
-344.476898
 30
815.0
 70
    32
  0
VERTEX
  5
396
  8
TEAM-BODY
 10
-277.5
 20
-345.715531
 30
815.0
 70
    32
  0
VERTEX
  5
397
  8
TEAM-BODY
 10
-277.494534
 20
-347.163819
 30
815.0
 70
    32
  0
VERTEX
  5
398
  8
TEAM-BODY
 10
-277.456269
 20
-348.887613
 30
815.0
 70
    32
  0
VERTEX
  5
399
  8
TEAM-BODY
 10
-277.352407
 20
-350.838794
 30
815.0
 70
    32
  0
VERTEX
  5
39A
  8
TEAM-BODY
 10
-277.15015
 20
-352.969243
 30
815.0
 70
    32
  0
VERTEX
  5
39B
  8
TEAM-BODY
 10
-276.8167
 20
-355.230843
 30
815.0
 70
    32
  0
VERTEX
  5
39C
  8
TEAM-BODY
 10
-276.319257
 20
-357.575475
 30
815.0
 70
    32
  0
VERTEX
  5
39D
  8
TEAM-BODY
 10
-275.625024
 20
-359.955021
 30
815.0
 70
    32
  0
VERTEX
  5
39E
  8
TEAM-BODY
 10
-274.701203
 20
-362.321362
 30
815.0
 70
    32
  0
VERTEX
  5
39F
  8
TEAM-BODY
 10
-273.524653
 20
-364.630212
 30
815.0
 70
    32
  0
VERTEX
  5
3A0
  8
TEAM-BODY
 10
-272.110876
 20
-366.852617
 30
815.0
 70
    32
  0
VERTEX
  5
3A1
  8
TEAM-BODY
 10
-270.485032
 20
-368.963455
 30
815.0
 70
    32
  0
VERTEX
  5
3A2
  8
TEAM-BODY
 10
-268.672281
 20
-370.937602
 30
815.0
 70
    32
  0
VERTEX
  5
3A3
  8
TEAM-BODY
 10
-266.697782
 20
-372.749938
 30
815.0
 70
    32
  0
VERTEX
  5
3A4
  8
TEAM-BODY
 10
-264.586696
 20
-374.37534
 30
815.0
 70
    32
  0
VERTEX
  5
3A5
  8
TEAM-BODY
 10
-262.364182
 20
-375.788685
 30
815.0
 70
    32
  0
VERTEX
  5
3A6
  8
TEAM-BODY
 10
-260.0554
 20
-376.964851
 30
815.0
 70
    32
  0
VERTEX
  5
3A7
  8
TEAM-BODY
 10
-257.68933
 20
-377.888369
 30
815.0
 70
    32
  0
VERTEX
  5
3A8
  8
TEAM-BODY
 10
-255.310228
 20
-378.582373
 30
815.0
 70
    32
  0
VERTEX
  5
3A9
  8
TEAM-BODY
 10
-252.966168
 20
-379.079652
 30
815.0
 70
    32
  0
VERTEX
  5
3AA
  8
TEAM-BODY
 10
-250.705227
 20
-379.412992
 30
815.0
 70
    32
  0
VERTEX
  5
3AB
  8
TEAM-BODY
 10
-248.57548
 20
-379.615182
 30
815.0
 70
    32
  0
VERTEX
  5
3AC
  8
TEAM-BODY
 10
-246.625001
 20
-379.71901
 30
815.0
 70
    32
  0
VERTEX
  5
3AD
  8
TEAM-BODY
 10
-244.901867
 20
-379.757262
 30
815.0
 70
    32
  0
VERTEX
  5
3AE
  8
TEAM-BODY
 10
-243.454152
 20
-379.762726
 30
815.0
 70
    32
  0
VERTEX
  5
3AF
  8
TEAM-BODY
 10
-242.158929
 20
-379.762726
 30
815.0
 70
    32
  0
VERTEX
  5
3B0
  8
TEAM-BODY
 10
-240.209256
 20
-379.762726
 30
815.0
 70
    32
  0
VERTEX
  5
3B1
  8
TEAM-BODY
 10
-236.627186
 20
-379.762726
 30
815.0
 70
    32
  0
VERTEX
  5
3B2
  8
TEAM-BODY
 10
-230.434775
 20
-379.762726
 30
815.0
 70
    32
  0
VERTEX
  5
3B3
  8
TEAM-BODY
 10
-220.654077
 20
-379.762726
 30
815.0
 70
    32
  0
VERTEX
  5
3B4
  8
TEAM-BODY
 10
-206.307147
 20
-379.762726
 30
815.0
 70
    32
  0
VERTEX
  5
3B5
  8
TEAM-BODY
 10
-186.416038
 20
-379.762726
 30
815.0
 70
    32
  0
VERTEX
  5
3B6
  8
TEAM-BODY
 10
-160.002807
 20
-379.762726
 30
815.0
 70
    32
  0
VERTEX
  5
3B7
  8
TEAM-BODY
 10
-126.565001
 20
-379.762726
 30
815.0
 70
    32
  0
VERTEX
  5
3B8
  8
TEAM-BODY
 10
-87.502143
 20
-379.762726
 30
815.0
 70
    32
  0
VERTEX
  5
3B9
  8
TEAM-BODY
 10
-44.68925
 20
-379.762726
 30
815.0
 70
    32
  0
VERTEX
  5
3BA
  8
TEAM-BODY
 10
-0.001341
 20
-379.762726
 30
815.0
 70
    32
  0
VERTEX
  5
3BB
  8
TEAM-BODY
 10
0.0
 20
-379.762726
 30
815.0
 70
    32
  0
SEQEND
  5
3BC
  8
TEAM-BODY
  0
POLYLINE
  5
3BD
  8
TEAM-BODY
 66
     1
 10
0.0
 20
0.0
 30
0.0
 70
    12
 75
     6
  0
VERTEX
  5
3BE
  8
TEAM-BODY
 10
-49.44951
 20
-379.897768
 30
815.0
 70
    48
  0
VERTEX
  5
3BF
  8
TEAM-BODY
 10
-49.44951
 20
-379.897768
 30
815.0
 70
    40
  0
VERTEX
  5
3C0
  8
TEAM-BODY
 10
-48.327317
 20
-379.926527
 30
815.0
 70
    40
  0
VERTEX
  5
3C1
  8
TEAM-BODY
 10
-47.326676
 20
-380.01801
 30
815.0
 70
    40
  0
VERTEX
  5
3C2
  8
TEAM-BODY
 10
-46.435594
 20
-380.180014
 30
815.0
 70
    40
  0
VERTEX
  5
3C3
  8
TEAM-BODY
 10
-45.642106
 20
-380.420346
 30
815.0
 70
    40
  0
VERTEX
  5
3C4
  8
TEAM-BODY
 10
-44.934189
 20
-380.746807
 30
815.0
 70
    40
  0
VERTEX
  5
3C5
  8
TEAM-BODY
 10
-44.299912
 20
-381.167203
 30
815.0
 70
    40
  0
VERTEX
  5
3C6
  8
TEAM-BODY
 10
-43.727311
 20
-381.689333
 30
815.0
 70
    40
  0
VERTEX
  5
3C7
  8
TEAM-BODY
 10
-43.204362
 20
-382.321004
 30
815.0
 70
    40
  0
VERTEX
  5
3C8
  8
TEAM-BODY
 10
-42.719132
 20
-383.070014
 30
815.0
 70
    40
  0
VERTEX
  5
3C9
  8
TEAM-BODY
 10
-45.888687
 20
-379.897768
 30
815.0
 70
    48
  0
VERTEX
  5
3CA
  8
TEAM-BODY
 10
-44.130296
 20
-380.639166
 30
815.0
 70
    48
  0
VERTEX
  5
3CB
  8
TEAM-BODY
 10
-42.719192
 20
-383.070018
 30
815.0
 70
    48
  0
VERTEX
  5
3CC
  8
TEAM-BODY
 10
-42.719192
 20
-383.070018
 30
815.0
 70
    40
  0
VERTEX
  5
3CD
  8
TEAM-BODY
 10
-41.629257
 20
-384.954606
 30
815.0
 70
    40
  0
VERTEX
  5
3CE
  8
TEAM-BODY
 10
-40.517137
 20
-386.839034
 30
815.0
 70
    40
  0
VERTEX
  5
3CF
  8
TEAM-BODY
 10
-39.372697
 20
-388.664144
 30
815.0
 70
    40
  0
VERTEX
  5
3D0
  8
TEAM-BODY
 10
-38.185777
 20
-390.37078
 30
815.0
 70
    40
  0
VERTEX
  5
3D1
  8
TEAM-BODY
 10
-36.946244
 20
-391.899775
 30
815.0
 70
    40
  0
VERTEX
  5
3D2
  8
TEAM-BODY
 10
-35.643968
 20
-393.191975
 30
815.0
 70
    40
  0
VERTEX
  5
3D3
  8
TEAM-BODY
 10
-34.268815
 20
-394.188222
 30
815.0
 70
    40
  0
VERTEX
  5
3D4
  8
TEAM-BODY
 10
-32.810624
 20
-394.829353
 30
815.0
 70
    40
  0
VERTEX
  5
3D5
  8
TEAM-BODY
 10
-31.259262
 20
-395.056209
 30
815.0
 70
    40
  0
VERTEX
  5
3D6
  8
TEAM-BODY
 10
-39.47255
 20
-388.664861
 30
815.0
 70
    48
  0
VERTEX
  5
3D7
  8
TEAM-BODY
 10
-36.063278
 20
-395.056206
 30
815.0
 70
    48
  0
VERTEX
  5
3D8
  8
TEAM-BODY
 10
-31.259415
 20
-395.056206
 30
815.0
 70
    48
  0
VERTEX
  5
3D9
  8
TEAM-BODY
 10
-31.259415
 20
-395.056206
 30
815.0
 70
    40
  0
VERTEX
  5
3DA
  8
TEAM-BODY
 10
-27.333177
 20
-395.056206
 30
815.0
 70
    40
  0
VERTEX
  5
3DB
  8
TEAM-BODY
 10
-23.737289
 20
-395.056206
 30
815.0
 70
    40
  0
VERTEX
  5
3DC
  8
TEAM-BODY
 10
-20.379563
 20
-395.056206
 30
815.0
 70
    40
  0
VERTEX
  5
3DD
  8
TEAM-BODY
 10
-17.16771
 20
-395.056206
 30
815.0
 70
    40
  0
VERTEX
  5
3DE
  8
TEAM-BODY
 10
-14.009568
 20
-395.056206
 30
815.0
 70
    40
  0
VERTEX
  5
3DF
  8
TEAM-BODY
 10
-10.812821
 20
-395.056206
 30
815.0
 70
    40
  0
VERTEX
  5
3E0
  8
TEAM-BODY
 10
-7.485306
 20
-395.056206
 30
815.0
 70
    40
  0
VERTEX
  5
3E1
  8
TEAM-BODY
 10
-3.934769
 20
-395.056205
 30
815.0
 70
    40
  0
VERTEX
  5
3E2
  8
TEAM-BODY
 10
-0.068986
 20
-395.056205
 30
815.0
 70
    40
  0
VERTEX
  5
3E3
  8
TEAM-BODY
 10
-18.8929
 20
-395.056206
 30
815.0
 70
    48
  0
VERTEX
  5
3E4
  8
TEAM-BODY
 10
-12.231462
 20
-395.056206
 30
815.0
 70
    48
  0
VERTEX
  5
3E5
  8
TEAM-BODY
 10
-0.068925
 20
-395.056206
 30
815.0
 70
    48
  0
SEQEND
  5
3E6
  8
TEAM-BODY
  0
POLYLINE
  5
3E7
  8
TEAM-BODY
 66
     1
 10
0.0
 20
0.0
 30
0.0
 70
    12
 75
     6
  0
VERTEX
  5
3E8
  8
TEAM-BODY
 10
49.44951
 20
-379.897768
 30
815.0
 70
    48
  0
VERTEX
  5
3E9
  8
TEAM-BODY
 10
49.44951
 20
-379.897768
 30
815.0
 70
    40
  0
VERTEX
  5
3EA
  8
TEAM-BODY
 10
48.327317
 20
-379.926527
 30
815.0
 70
    40
  0
VERTEX
  5
3EB
  8
TEAM-BODY
 10
47.326676
 20
-380.01801
 30
815.0
 70
    40
  0
VERTEX
  5
3EC
  8
TEAM-BODY
 10
46.435594
 20
-380.180014
 30
815.0
 70
    40
  0
VERTEX
  5
3ED
  8
TEAM-BODY
 10
45.642106
 20
-380.420346
 30
815.0
 70
    40
  0
VERTEX
  5
3EE
  8
TEAM-BODY
 10
44.934189
 20
-380.746807
 30
815.0
 70
    40
  0
VERTEX
  5
3EF
  8
TEAM-BODY
 10
44.299912
 20
-381.167203
 30
815.0
 70
    40
  0
VERTEX
  5
3F0
  8
TEAM-BODY
 10
43.727311
 20
-381.689333
 30
815.0
 70
    40
  0
VERTEX
  5
3F1
  8
TEAM-BODY
 10
43.204362
 20
-382.321004
 30
815.0
 70
    40
  0
VERTEX
  5
3F2
  8
TEAM-BODY
 10
42.719132
 20
-383.070014
 30
815.0
 70
    40
  0
VERTEX
  5
3F3
  8
TEAM-BODY
 10
45.888687
 20
-379.897768
 30
815.0
 70
    48
  0
VERTEX
  5
3F4
  8
TEAM-BODY
 10
44.130296
 20
-380.639166
 30
815.0
 70
    48
  0
VERTEX
  5
3F5
  8
TEAM-BODY
 10
42.719192
 20
-383.070018
 30
815.0
 70
    48
  0
VERTEX
  5
3F6
  8
TEAM-BODY
 10
42.719192
 20
-383.070018
 30
815.0
 70
    40
  0
VERTEX
  5
3F7
  8
TEAM-BODY
 10
41.629257
 20
-384.954606
 30
815.0
 70
    40
  0
VERTEX
  5
3F8
  8
TEAM-BODY
 10
40.517137
 20
-386.839034
 30
815.0
 70
    40
  0
VERTEX
  5
3F9
  8
TEAM-BODY
 10
39.372697
 20
-388.664144
 30
815.0
 70
    40
  0
VERTEX
  5
3FA
  8
TEAM-BODY
 10
38.185777
 20
-390.37078
 30
815.0
 70
    40
  0
VERTEX
  5
3FB
  8
TEAM-BODY
 10
36.946244
 20
-391.899775
 30
815.0
 70
    40
  0
VERTEX
  5
3FC
  8
TEAM-BODY
 10
35.643968
 20
-393.191975
 30
815.0
 70
    40
  0
VERTEX
  5
3FD
  8
TEAM-BODY
 10
34.268815
 20
-394.188222
 30
815.0
 70
    40
  0
VERTEX
  5
3FE
  8
TEAM-BODY
 10
32.810624
 20
-394.829353
 30
815.0
 70
    40
  0
VERTEX
  5
3FF
  8
TEAM-BODY
 10
31.259262
 20
-395.056209
 30
815.0
 70
    40
  0
VERTEX
  5
400
  8
TEAM-BODY
 10
39.47255
 20
-388.664861
 30
815.0
 70
    48
  0
VERTEX
  5
401
  8
TEAM-BODY
 10
36.063278
 20
-395.056206
 30
815.0
 70
    48
  0
VERTEX
  5
402
  8
TEAM-BODY
 10
31.259415
 20
-395.056206
 30
815.0
 70
    48
  0
VERTEX
  5
403
  8
TEAM-BODY
 10
31.259415
 20
-395.056206
 30
815.0
 70
    40
  0
VERTEX
  5
404
  8
TEAM-BODY
 10
27.322312
 20
-395.056206
 30
815.0
 70
    40
  0
VERTEX
  5
405
  8
TEAM-BODY
 10
23.697281
 20
-395.056206
 30
815.0
 70
    40
  0
VERTEX
  5
406
  8
TEAM-BODY
 10
20.297379
 20
-395.056206
 30
815.0
 70
    40
  0
VERTEX
  5
407
  8
TEAM-BODY
 10
17.035539
 20
-395.056206
 30
815.0
 70
    40
  0
VERTEX
  5
408
  8
TEAM-BODY
 10
13.824754
 20
-395.056206
 30
815.0
 70
    40
  0
VERTEX
  5
409
  8
TEAM-BODY
 10
10.578019
 20
-395.056206
 30
815.0
 70
    40
  0
VERTEX
  5
40A
  8
TEAM-BODY
 10
7.208298
 20
-395.056206
 30
815.0
 70
    40
  0
VERTEX
  5
40B
  8
TEAM-BODY
 10
3.628617
 20
-395.056205
 30
815.0
 70
    40
  0
VERTEX
  5
40C
  8
TEAM-BODY
 10
-0.248092
 20
-395.056205
 30
815.0
 70
    40
  0
VERTEX
  5
40D
  8
TEAM-BODY
 10
18.8929
 20
-395.056206
 30
815.0
 70
    48
  0
VERTEX
  5
40E
  8
TEAM-BODY
 10
11.914536
 20
-395.056206
 30
815.0
 70
    48
  0
VERTEX
  5
40F
  8
TEAM-BODY
 10
-0.248061
 20
-395.056206
 30
815.0
 70
    48
  0
SEQEND
  5
410
  8
TEAM-BODY
  0
POLYLINE
  5
411
  8
TEAM-DET1
 66
     1
 10
0.0
 20
0.0
 30
0.0
 70
    12
 75
     6
  0
VERTEX
  5
412
  8
TEAM-DET1
 10
49.44951
 20
-379.897768
 30
815.0
 70
    48
  0
VERTEX
  5
413
  8
TEAM-DET1
 10
49.44951
 20
-379.897768
 30
815.0
 70
    40
  0
VERTEX
  5
414
  8
TEAM-DET1
 10
48.327317
 20
-379.926527
 30
815.0
 70
    40
  0
VERTEX
  5
415
  8
TEAM-DET1
 10
47.326676
 20
-380.01801
 30
815.0
 70
    40
  0
VERTEX
  5
416
  8
TEAM-DET1
 10
46.435594
 20
-380.180014
 30
815.0
 70
    40
  0
VERTEX
  5
417
  8
TEAM-DET1
 10
45.642106
 20
-380.420346
 30
815.0
 70
    40
  0
VERTEX
  5
418
  8
TEAM-DET1
 10
44.934189
 20
-380.746807
 30
815.0
 70
    40
  0
VERTEX
  5
419
  8
TEAM-DET1
 10
44.299912
 20
-381.167203
 30
815.0
 70
    40
  0
VERTEX
  5
41A
  8
TEAM-DET1
 10
43.727311
 20
-381.689333
 30
815.0
 70
    40
  0
VERTEX
  5
41B
  8
TEAM-DET1
 10
43.204362
 20
-382.321004
 30
815.0
 70
    40
  0
VERTEX
  5
41C
  8
TEAM-DET1
 10
42.719132
 20
-383.070014
 30
815.0
 70
    40
  0
VERTEX
  5
41D
  8
TEAM-DET1
 10
45.888687
 20
-379.897768
 30
815.0
 70
    48
  0
VERTEX
  5
41E
  8
TEAM-DET1
 10
44.130296
 20
-380.639166
 30
815.0
 70
    48
  0
VERTEX
  5
41F
  8
TEAM-DET1
 10
42.719192
 20
-383.070018
 30
815.0
 70
    48
  0
VERTEX
  5
420
  8
TEAM-DET1
 10
42.719192
 20
-383.070018
 30
815.0
 70
    40
  0
VERTEX
  5
421
  8
TEAM-DET1
 10
41.629257
 20
-384.954606
 30
815.0
 70
    40
  0
VERTEX
  5
422
  8
TEAM-DET1
 10
40.517137
 20
-386.839034
 30
815.0
 70
    40
  0
VERTEX
  5
423
  8
TEAM-DET1
 10
39.372697
 20
-388.664144
 30
815.0
 70
    40
  0
VERTEX
  5
424
  8
TEAM-DET1
 10
38.185777
 20
-390.37078
 30
815.0
 70
    40
  0
VERTEX
  5
425
  8
TEAM-DET1
 10
36.946244
 20
-391.899775
 30
815.0
 70
    40
  0
VERTEX
  5
426
  8
TEAM-DET1
 10
35.643968
 20
-393.191975
 30
815.0
 70
    40
  0
VERTEX
  5
427
  8
TEAM-DET1
 10
34.268815
 20
-394.188222
 30
815.0
 70
    40
  0
VERTEX
  5
428
  8
TEAM-DET1
 10
32.810624
 20
-394.829353
 30
815.0
 70
    40
  0
VERTEX
  5
429
  8
TEAM-DET1
 10
31.259262
 20
-395.056209
 30
815.0
 70
    40
  0
VERTEX
  5
42A
  8
TEAM-DET1
 10
39.47255
 20
-388.664861
 30
815.0
 70
    48
  0
VERTEX
  5
42B
  8
TEAM-DET1
 10
36.063278
 20
-395.056206
 30
815.0
 70
    48
  0
VERTEX
  5
42C
  8
TEAM-DET1
 10
31.259415
 20
-395.056206
 30
815.0
 70
    48
  0
VERTEX
  5
42D
  8
TEAM-DET1
 10
31.259415
 20
-395.056206
 30
815.0
 70
    40
  0
VERTEX
  5
42E
  8
TEAM-DET1
 10
27.333177
 20
-395.056206
 30
815.0
 70
    40
  0
VERTEX
  5
42F
  8
TEAM-DET1
 10
23.737289
 20
-395.056206
 30
815.0
 70
    40
  0
VERTEX
  5
430
  8
TEAM-DET1
 10
20.379563
 20
-395.056206
 30
815.0
 70
    40
  0
VERTEX
  5
431
  8
TEAM-DET1
 10
17.16771
 20
-395.056206
 30
815.0
 70
    40
  0
VERTEX
  5
432
  8
TEAM-DET1
 10
14.009568
 20
-395.056206
 30
815.0
 70
    40
  0
VERTEX
  5
433
  8
TEAM-DET1
 10
10.812821
 20
-395.056206
 30
815.0
 70
    40
  0
VERTEX
  5
434
  8
TEAM-DET1
 10
7.485306
 20
-395.056206
 30
815.0
 70
    40
  0
VERTEX
  5
435
  8
TEAM-DET1
 10
3.934769
 20
-395.056205
 30
815.0
 70
    40
  0
VERTEX
  5
436
  8
TEAM-DET1
 10
0.068986
 20
-395.056205
 30
815.0
 70
    40
  0
VERTEX
  5
437
  8
TEAM-DET1
 10
18.8929
 20
-395.056206
 30
815.0
 70
    48
  0
VERTEX
  5
438
  8
TEAM-DET1
 10
12.231462
 20
-395.056206
 30
815.0
 70
    48
  0
VERTEX
  5
439
  8
TEAM-DET1
 10
0.068925
 20
-395.056206
 30
815.0
 70
    48
  0
SEQEND
  5
43A
  8
TEAM-DET1
  0
POLYLINE
  5
43B
  8
TEAM-DET1
 66
     1
 10
0.0
 20
0.0
 30
0.0
 70
    12
 75
     6
  0
VERTEX
  5
43C
  8
TEAM-DET1
 10
-49.44951
 20
-379.897768
 30
815.0
 70
    48
  0
VERTEX
  5
43D
  8
TEAM-DET1
 10
-49.44951
 20
-379.897768
 30
815.0
 70
    40
  0
VERTEX
  5
43E
  8
TEAM-DET1
 10
-48.327317
 20
-379.926527
 30
815.0
 70
    40
  0
VERTEX
  5
43F
  8
TEAM-DET1
 10
-47.326676
 20
-380.01801
 30
815.0
 70
    40
  0
VERTEX
  5
440
  8
TEAM-DET1
 10
-46.435594
 20
-380.180014
 30
815.0
 70
    40
  0
VERTEX
  5
441
  8
TEAM-DET1
 10
-45.642106
 20
-380.420346
 30
815.0
 70
    40
  0
VERTEX
  5
442
  8
TEAM-DET1
 10
-44.934189
 20
-380.746807
 30
815.0
 70
    40
  0
VERTEX
  5
443
  8
TEAM-DET1
 10
-44.299912
 20
-381.167203
 30
815.0
 70
    40
  0
VERTEX
  5
444
  8
TEAM-DET1
 10
-43.727311
 20
-381.689333
 30
815.0
 70
    40
  0
VERTEX
  5
445
  8
TEAM-DET1
 10
-43.204362
 20
-382.321004
 30
815.0
 70
    40
  0
VERTEX
  5
446
  8
TEAM-DET1
 10
-42.719132
 20
-383.070014
 30
815.0
 70
    40
  0
VERTEX
  5
447
  8
TEAM-DET1
 10
-45.888687
 20
-379.897768
 30
815.0
 70
    48
  0
VERTEX
  5
448
  8
TEAM-DET1
 10
-44.130296
 20
-380.639166
 30
815.0
 70
    48
  0
VERTEX
  5
449
  8
TEAM-DET1
 10
-42.719192
 20
-383.070018
 30
815.0
 70
    48
  0
VERTEX
  5
44A
  8
TEAM-DET1
 10
-42.719192
 20
-383.070018
 30
815.0
 70
    40
  0
VERTEX
  5
44B
  8
TEAM-DET1
 10
-41.629257
 20
-384.954606
 30
815.0
 70
    40
  0
VERTEX
  5
44C
  8
TEAM-DET1
 10
-40.517137
 20
-386.839034
 30
815.0
 70
    40
  0
VERTEX
  5
44D
  8
TEAM-DET1
 10
-39.372697
 20
-388.664144
 30
815.0
 70
    40
  0
VERTEX
  5
44E
  8
TEAM-DET1
 10
-38.185777
 20
-390.37078
 30
815.0
 70
    40
  0
VERTEX
  5
44F
  8
TEAM-DET1
 10
-36.946244
 20
-391.899775
 30
815.0
 70
    40
  0
VERTEX
  5
450
  8
TEAM-DET1
 10
-35.643968
 20
-393.191975
 30
815.0
 70
    40
  0
VERTEX
  5
451
  8
TEAM-DET1
 10
-34.268815
 20
-394.188222
 30
815.0
 70
    40
  0
VERTEX
  5
452
  8
TEAM-DET1
 10
-32.810624
 20
-394.829353
 30
815.0
 70
    40
  0
VERTEX
  5
453
  8
TEAM-DET1
 10
-31.259262
 20
-395.056209
 30
815.0
 70
    40
  0
VERTEX
  5
454
  8
TEAM-DET1
 10
-39.47255
 20
-388.664861
 30
815.0
 70
    48
  0
VERTEX
  5
455
  8
TEAM-DET1
 10
-36.063278
 20
-395.056206
 30
815.0
 70
    48
  0
VERTEX
  5
456
  8
TEAM-DET1
 10
-31.259415
 20
-395.056206
 30
815.0
 70
    48
  0
VERTEX
  5
457
  8
TEAM-DET1
 10
-31.259415
 20
-395.056206
 30
815.0
 70
    40
  0
VERTEX
  5
458
  8
TEAM-DET1
 10
-27.322312
 20
-395.056206
 30
815.0
 70
    40
  0
VERTEX
  5
459
  8
TEAM-DET1
 10
-23.697281
 20
-395.056206
 30
815.0
 70
    40
  0
VERTEX
  5
45A
  8
TEAM-DET1
 10
-20.297379
 20
-395.056206
 30
815.0
 70
    40
  0
VERTEX
  5
45B
  8
TEAM-DET1
 10
-17.035539
 20
-395.056206
 30
815.0
 70
    40
  0
VERTEX
  5
45C
  8
TEAM-DET1
 10
-13.824754
 20
-395.056206
 30
815.0
 70
    40
  0
VERTEX
  5
45D
  8
TEAM-DET1
 10
-10.578019
 20
-395.056206
 30
815.0
 70
    40
  0
VERTEX
  5
45E
  8
TEAM-DET1
 10
-7.208298
 20
-395.056206
 30
815.0
 70
    40
  0
VERTEX
  5
45F
  8
TEAM-DET1
 10
-3.628617
 20
-395.056205
 30
815.0
 70
    40
  0
VERTEX
  5
460
  8
TEAM-DET1
 10
0.248092
 20
-395.056205
 30
815.0
 70
    40
  0
VERTEX
  5
461
  8
TEAM-DET1
 10
-18.8929
 20
-395.056206
 30
815.0
 70
    48
  0
VERTEX
  5
462
  8
TEAM-DET1
 10
-11.914536
 20
-395.056206
 30
815.0
 70
    48
  0
VERTEX
  5
463
  8
TEAM-DET1
 10
0.248061
 20
-395.056206
 30
815.0
 70
    48
  0
SEQEND
  5
464
  8
TEAM-DET1
  0
POLYLINE
  5
465
  8
TEAM-DET1
 66
     1
 10
0.0
 20
0.0
 30
0.0
 70
    12
 75
     6
  0
VERTEX
  5
466
  8
TEAM-DET1
 10
12.058182
 20
-355.104794
 30
815.0
 70
    48
  0
VERTEX
  5
467
  8
TEAM-DET1
 10
12.058182
 20
-355.104794
 30
815.0
 70
    40
  0
VERTEX
  5
468
  8
TEAM-DET1
 10
11.938429
 20
-355.785796
 30
815.0
 70
    40
  0
VERTEX
  5
469
  8
TEAM-DET1
 10
11.601934
 20
-356.366656
 30
815.0
 70
    40
  0
VERTEX
  5
46A
  8
TEAM-DET1
 10
11.082843
 20
-356.856364
 30
815.0
 70
    40
  0
VERTEX
  5
46B
  8
TEAM-DET1
 10
10.415304
 20
-357.263916
 30
815.0
 70
    40
  0
VERTEX
  5
46C
  8
TEAM-DET1
 10
9.633464
 20
-357.598304
 30
815.0
 70
    40
  0
VERTEX
  5
46D
  8
TEAM-DET1
 10
8.771468
 20
-357.868521
 30
815.0
 70
    40
  0
VERTEX
  5
46E
  8
TEAM-DET1
 10
7.863464
 20
-358.083561
 30
815.0
 70
    40
  0
VERTEX
  5
46F
  8
TEAM-DET1
 10
6.943599
 20
-358.252418
 30
815.0
 70
    40
  0
VERTEX
  5
470
  8
TEAM-DET1
 10
6.039864
 20
-358.383359
 30
815.0
 70
    40
  0
VERTEX
  5
471
  8
TEAM-DET1
 10
5.155628
 20
-358.481759
 30
815.0
 70
    40
  0
VERTEX
  5
472
  8
TEAM-DET1
 10
4.288106
 20
-358.552266
 30
815.0
 70
    40
  0
VERTEX
  5
473
  8
TEAM-DET1
 10
3.434511
 20
-358.599529
 30
815.0
 70
    40
  0
VERTEX
  5
474
  8
TEAM-DET1
 10
2.592058
 20
-358.628197
 30
815.0
 70
    40
  0
VERTEX
  5
475
  8
TEAM-DET1
 10
1.757959
 20
-358.642918
 30
815.0
 70
    40
  0
VERTEX
  5
476
  8
TEAM-DET1
 10
0.92943
 20
-358.648342
 30
815.0
 70
    40
  0
VERTEX
  5
477
  8
TEAM-DET1
 10
0.103684
 20
-358.649117
 30
815.0
 70
    40
  0
VERTEX
  5
478
  8
TEAM-DET1
 10
-0.721193
 20
-358.6486
 30
815.0
 70
    40
  0
VERTEX
  5
479
  8
TEAM-DET1
 10
-1.543632
 20
-358.644984
 30
815.0
 70
    40
  0
VERTEX
  5
47A
  8
TEAM-DET1
 10
-2.361188
 20
-358.63517
 30
815.0
 70
    40
  0
VERTEX
  5
47B
  8
TEAM-DET1
 10
-3.171421
 20
-358.616058
 30
815.0
 70
    40
  0
VERTEX
  5
47C
  8
TEAM-DET1
 10
-3.971888
 20
-358.58455
 30
815.0
 70
    40
  0
VERTEX
  5
47D
  8
TEAM-DET1
 10
-4.760147
 20
-358.537545
 30
815.0
 70
    40
  0
VERTEX
  5
47E
  8
TEAM-DET1
 10
-5.533756
 20
-358.471945
 30
815.0
 70
    40
  0
VERTEX
  5
47F
  8
TEAM-DET1
 10
-6.290272
 20
-358.384651
 30
815.0
 70
    40
  0
VERTEX
  5
480
  8
TEAM-DET1
 10
-7.026326
 20
-358.273475
 30
815.0
 70
    40
  0
VERTEX
  5
481
  8
TEAM-DET1
 10
-7.734833
 20
-358.13988
 30
815.0
 70
    40
  0
VERTEX
  5
482
  8
TEAM-DET1
 10
-8.407783
 20
-357.986243
 30
815.0
 70
    40
  0
VERTEX
  5
483
  8
TEAM-DET1
 10
-9.037163
 20
-357.814937
 30
815.0
 70
    40
  0
VERTEX
  5
484
  8
TEAM-DET1
 10
-9.614963
 20
-357.628337
 30
815.0
 70
    40
  0
VERTEX
  5
485
  8
TEAM-DET1
 10
-10.13317
 20
-357.42882
 30
815.0
 70
    40
  0
VERTEX
  5
486
  8
TEAM-DET1
 10
-10.583773
 20
-357.21876
 30
815.0
 70
    40
  0
VERTEX
  5
487
  8
TEAM-DET1
 10
-10.95876
 20
-357.000532
 30
815.0
 70
    40
  0
VERTEX
  5
488
  8
TEAM-DET1
 10
-11.253197
 20
-356.776236
 30
815.0
 70
    40
  0
VERTEX
  5
489
  8
TEAM-DET1
 10
-11.474461
 20
-356.546871
 30
815.0
 70
    40
  0
VERTEX
  5
48A
  8
TEAM-DET1
 10
-11.633004
 20
-356.31316
 30
815.0
 70
    40
  0
VERTEX
  5
48B
  8
TEAM-DET1
 10
-11.739281
 20
-356.075827
 30
815.0
 70
    40
  0
VERTEX
  5
48C
  8
TEAM-DET1
 10
-11.803743
 20
-355.835595
 30
815.0
 70
    40
  0
VERTEX
  5
48D
  8
TEAM-DET1
 10
-11.836846
 20
-355.593187
 30
815.0
 70
    40
  0
VERTEX
  5
48E
  8
TEAM-DET1
 10
-11.849041
 20
-355.349328
 30
815.0
 70
    40
  0
VERTEX
  5
48F
  8
TEAM-DET1
 10
-11.850783
 20
-355.10474
 30
815.0
 70
    40
  0
VERTEX
  5
490
  8
TEAM-DET1
 10
-11.849041
 20
-354.860148
 30
815.0
 70
    40
  0
VERTEX
  5
491
  8
TEAM-DET1
 10
-11.836846
 20
-354.616276
 30
815.0
 70
    40
  0
VERTEX
  5
492
  8
TEAM-DET1
 10
-11.803743
 20
-354.373849
 30
815.0
 70
    40
  0
VERTEX
  5
493
  8
TEAM-DET1
 10
-11.739281
 20
-354.133594
 30
815.0
 70
    40
  0
VERTEX
  5
494
  8
TEAM-DET1
 10
-11.633004
 20
-353.896235
 30
815.0
 70
    40
  0
VERTEX
  5
495
  8
TEAM-DET1
 10
-11.474461
 20
-353.662497
 30
815.0
 70
    40
  0
VERTEX
  5
496
  8
TEAM-DET1
 10
-11.253197
 20
-353.433107
 30
815.0
 70
    40
  0
VERTEX
  5
497
  8
TEAM-DET1
 10
-10.95876
 20
-353.208789
 30
815.0
 70
    40
  0
VERTEX
  5
498
  8
TEAM-DET1
 10
-10.583773
 20
-352.990544
 30
815.0
 70
    40
  0
VERTEX
  5
499
  8
TEAM-DET1
 10
-10.13317
 20
-352.780471
 30
815.0
 70
    40
  0
VERTEX
  5
49A
  8
TEAM-DET1
 10
-9.614963
 20
-352.580944
 30
815.0
 70
    40
  0
VERTEX
  5
49B
  8
TEAM-DET1
 10
-9.037163
 20
-352.394339
 30
815.0
 70
    40
  0
VERTEX
  5
49C
  8
TEAM-DET1
 10
-8.407783
 20
-352.223029
 30
815.0
 70
    40
  0
VERTEX
  5
49D
  8
TEAM-DET1
 10
-7.734833
 20
-352.06939
 30
815.0
 70
    40
  0
VERTEX
  5
49E
  8
TEAM-DET1
 10
-7.026326
 20
-351.935795
 30
815.0
 70
    40
  0
VERTEX
  5
49F
  8
TEAM-DET1
 10
-6.290272
 20
-351.82462
 30
815.0
 70
    40
  0
VERTEX
  5
4A0
  8
TEAM-DET1
 10
-5.533756
 20
-351.737326
 30
815.0
 70
    40
  0
VERTEX
  5
4A1
  8
TEAM-DET1
 10
-4.760147
 20
-351.671726
 30
815.0
 70
    40
  0
VERTEX
  5
4A2
  8
TEAM-DET1
 10
-3.971888
 20
-351.624721
 30
815.0
 70
    40
  0
VERTEX
  5
4A3
  8
TEAM-DET1
 10
-3.171421
 20
-351.593213
 30
815.0
 70
    40
  0
VERTEX
  5
4A4
  8
TEAM-DET1
 10
-2.361188
 20
-351.574101
 30
815.0
 70
    40
  0
VERTEX
  5
4A5
  8
TEAM-DET1
 10
-1.543632
 20
-351.564287
 30
815.0
 70
    40
  0
VERTEX
  5
4A6
  8
TEAM-DET1
 10
-0.721193
 20
-351.560671
 30
815.0
 70
    40
  0
VERTEX
  5
4A7
  8
TEAM-DET1
 10
0.103684
 20
-351.560155
 30
815.0
 70
    40
  0
VERTEX
  5
4A8
  8
TEAM-DET1
 10
0.92943
 20
-351.560929
 30
815.0
 70
    40
  0
VERTEX
  5
4A9
  8
TEAM-DET1
 10
1.757959
 20
-351.566353
 30
815.0
 70
    40
  0
VERTEX
  5
4AA
  8
TEAM-DET1
 10
2.592058
 20
-351.581074
 30
815.0
 70
    40
  0
VERTEX
  5
4AB
  8
TEAM-DET1
 10
3.434511
 20
-351.609742
 30
815.0
 70
    40
  0
VERTEX
  5
4AC
  8
TEAM-DET1
 10
4.288106
 20
-351.657005
 30
815.0
 70
    40
  0
VERTEX
  5
4AD
  8
TEAM-DET1
 10
5.155628
 20
-351.727511
 30
815.0
 70
    40
  0
VERTEX
  5
4AE
  8
TEAM-DET1
 10
6.039864
 20
-351.825911
 30
815.0
 70
    40
  0
VERTEX
  5
4AF
  8
TEAM-DET1
 10
6.943599
 20
-351.956852
 30
815.0
 70
    40
  0
VERTEX
  5
4B0
  8
TEAM-DET1
 10
7.863464
 20
-352.125709
 30
815.0
 70
    40
  0
VERTEX
  5
4B1
  8
TEAM-DET1
 10
8.771468
 20
-352.340753
 30
815.0
 70
    40
  0
VERTEX
  5
4B2
  8
TEAM-DET1
 10
9.633464
 20
-352.610982
 30
815.0
 70
    40
  0
VERTEX
  5
4B3
  8
TEAM-DET1
 10
10.415304
 20
-352.945392
 30
815.0
 70
    40
  0
VERTEX
  5
4B4
  8
TEAM-DET1
 10
11.082843
 20
-353.352981
 30
815.0
 70
    40
  0
VERTEX
  5
4B5
  8
TEAM-DET1
 10
11.601934
 20
-353.842747
 30
815.0
 70
    40
  0
VERTEX
  5
4B6
  8
TEAM-DET1
 10
11.938429
 20
-354.423685
 30
815.0
 70
    40
  0
VERTEX
  5
4B7
  8
TEAM-DET1
 10
12.058182
 20
-355.104794
 30
815.0
 70
    40
  0
VERTEX
  5
4B8
  8
TEAM-DET1
 10
12.058182
 20
-357.062321
 30
815.0
 70
    48
  0
VERTEX
  5
4B9
  8
TEAM-DET1
 10
6.705888
 20
-358.649117
 30
815.0
 70
    48
  0
VERTEX
  5
4BA
  8
TEAM-DET1
 10
0.103715
 20
-358.649117
 30
815.0
 70
    48
  0
VERTEX
  5
4BB
  8
TEAM-DET1
 10
-6.498642
 20
-358.649117
 30
815.0
 70
    48
  0
VERTEX
  5
4BC
  8
TEAM-DET1
 10
-11.850784
 20
-357.062321
 30
815.0
 70
    48
  0
VERTEX
  5
4BD
  8
TEAM-DET1
 10
-11.850784
 20
-355.104794
 30
815.0
 70
    48
  0
VERTEX
  5
4BE
  8
TEAM-DET1
 10
-11.850784
 20
-353.146946
 30
815.0
 70
    48
  0
VERTEX
  5
4BF
  8
TEAM-DET1
 10
-6.498642
 20
-351.560155
 30
815.0
 70
    48
  0
VERTEX
  5
4C0
  8
TEAM-DET1
 10
0.103715
 20
-351.560155
 30
815.0
 70
    48
  0
VERTEX
  5
4C1
  8
TEAM-DET1
 10
6.705888
 20
-351.560155
 30
815.0
 70
    48
  0
VERTEX
  5
4C2
  8
TEAM-DET1
 10
12.058182
 20
-353.146946
 30
815.0
 70
    48
  0
VERTEX
  5
4C3
  8
TEAM-DET1
 10
12.058182
 20
-355.104794
 30
815.0
 70
    48
  0
SEQEND
  5
4C4
  8
TEAM-DET1
  0
POLYLINE
  5
4C5
  8
TEAM-BODY
 66
     1
 10
0.0
 20
0.0
 30
0.0
 70
     8
  0
VERTEX
  5
4C6
  8
TEAM-BODY
 10
0.0
 20
-0.000016
 30
815.0
 70
    32
  0
VERTEX
  5
4C7
  8
TEAM-BODY
 10
0.001341
 20
-0.000016
 30
815.0
 70
    32
  0
VERTEX
  5
4C8
  8
TEAM-BODY
 10
44.68925
 20
-0.000016
 30
815.0
 70
    32
  0
VERTEX
  5
4C9
  8
TEAM-BODY
 10
87.502143
 20
-0.000016
 30
815.0
 70
    32
  0
VERTEX
  5
4CA
  8
TEAM-BODY
 10
126.565001
 20
-0.000016
 30
815.0
 70
    32
  0
VERTEX
  5
4CB
  8
TEAM-BODY
 10
160.002807
 20
-0.000016
 30
815.0
 70
    32
  0
VERTEX
  5
4CC
  8
TEAM-BODY
 10
186.416038
 20
-0.000016
 30
815.0
 70
    32
  0
VERTEX
  5
4CD
  8
TEAM-BODY
 10
206.307147
 20
-0.000016
 30
815.0
 70
    32
  0
VERTEX
  5
4CE
  8
TEAM-BODY
 10
220.654077
 20
-0.000016
 30
815.0
 70
    32
  0
VERTEX
  5
4CF
  8
TEAM-BODY
 10
230.434775
 20
-0.000016
 30
815.0
 70
    32
  0
VERTEX
  5
4D0
  8
TEAM-BODY
 10
236.627186
 20
-0.000016
 30
815.0
 70
    32
  0
VERTEX
  5
4D1
  8
TEAM-BODY
 10
240.209256
 20
-0.000016
 30
815.0
 70
    32
  0
VERTEX
  5
4D2
  8
TEAM-BODY
 10
242.158929
 20
-0.000016
 30
815.0
 70
    32
  0
VERTEX
  5
4D3
  8
TEAM-BODY
 10
243.454152
 20
-0.000016
 30
815.0
 70
    32
  0
VERTEX
  5
4D4
  8
TEAM-BODY
 10
244.901867
 20
-0.005481
 30
815.0
 70
    32
  0
VERTEX
  5
4D5
  8
TEAM-BODY
 10
246.625001
 20
-0.04374
 30
815.0
 70
    32
  0
VERTEX
  5
4D6
  8
TEAM-BODY
 10
248.57548
 20
-0.147584
 30
815.0
 70
    32
  0
VERTEX
  5
4D7
  8
TEAM-BODY
 10
250.705227
 20
-0.349808
 30
815.0
 70
    32
  0
VERTEX
  5
4D8
  8
TEAM-BODY
 10
252.966168
 20
-0.683204
 30
815.0
 70
    32
  0
VERTEX
  5
4D9
  8
TEAM-BODY
 10
255.310228
 20
-1.180565
 30
815.0
 70
    32
  0
VERTEX
  5
4DA
  8
TEAM-BODY
 10
257.68933
 20
-1.874685
 30
815.0
 70
    32
  0
VERTEX
  5
4DB
  8
TEAM-BODY
 10
260.0554
 20
-2.798355
 30
815.0
 70
    32
  0
VERTEX
  5
4DC
  8
TEAM-BODY
 10
262.364182
 20
-3.974715
 30
815.0
 70
    32
  0
VERTEX
  5
4DD
  8
TEAM-BODY
 10
264.586696
 20
-5.388281
 30
815.0
 70
    32
  0
VERTEX
  5
4DE
  8
TEAM-BODY
 10
266.697782
 20
-7.013914
 30
815.0
 70
    32
  0
VERTEX
  5
4DF
  8
TEAM-BODY
 10
268.672281
 20
-8.826476
 30
815.0
 70
    32
  0
VERTEX
  5
4E0
  8
TEAM-BODY
 10
270.485032
 20
-10.800828
 30
815.0
 70
    32
  0
VERTEX
  5
4E1
  8
TEAM-BODY
 10
272.110876
 20
-12.911833
 30
815.0
 70
    32
  0
VERTEX
  5
4E2
  8
TEAM-BODY
 10
273.524653
 20
-15.13435
 30
815.0
 70
    32
  0
VERTEX
  5
4E3
  8
TEAM-BODY
 10
274.701203
 20
-17.443243
 30
815.0
 70
    32
  0
VERTEX
  5
4E4
  8
TEAM-BODY
 10
275.625024
 20
-19.809544
 30
815.0
 70
    32
  0
VERTEX
  5
4E5
  8
TEAM-BODY
 10
276.319257
 20
-22.18898
 30
815.0
 70
    32
  0
VERTEX
  5
4E6
  8
TEAM-BODY
 10
276.8167
 20
-24.533448
 30
815.0
 70
    32
  0
VERTEX
  5
4E7
  8
TEAM-BODY
 10
277.15015
 20
-26.794846
 30
815.0
 70
    32
  0
VERTEX
  5
4E8
  8
TEAM-BODY
 10
277.352407
 20
-28.925072
 30
815.0
 70
    32
  0
VERTEX
  5
4E9
  8
TEAM-BODY
 10
277.456269
 20
-30.876023
 30
815.0
 70
    32
  0
VERTEX
  5
4EA
  8
TEAM-BODY
 10
277.494534
 20
-32.599598
 30
815.0
 70
    32
  0
VERTEX
  5
4EB
  8
TEAM-BODY
 10
277.5
 20
-34.047694
 30
815.0
 70
    32
  0
VERTEX
  5
4EC
  8
TEAM-BODY
 10
277.5
 20
-35.286176
 30
815.0
 70
    32
  0
VERTEX
  5
4ED
  8
TEAM-BODY
 10
277.5
 20
-36.836766
 30
815.0
 70
    32
  0
VERTEX
  5
4EE
  8
TEAM-BODY
 10
277.5
 20
-39.335157
 30
815.0
 70
    32
  0
VERTEX
  5
4EF
  8
TEAM-BODY
 10
277.5
 20
-43.417038
 30
815.0
 70
    32
  0
VERTEX
  5
4F0
  8
TEAM-BODY
 10
277.5
 20
-49.7181
 30
815.0
 70
    32
  0
VERTEX
  5
4F1
  8
TEAM-BODY
 10
277.5
 20
-58.874034
 30
815.0
 70
    32
  0
VERTEX
  5
4F2
  8
TEAM-BODY
 10
277.5
 20
-71.520529
 30
815.0
 70
    32
  0
VERTEX
  5
4F3
  8
TEAM-BODY
 10
277.5
 20
-88.293276
 30
815.0
 70
    32
  0
VERTEX
  5
4F4
  8
TEAM-BODY
 10
277.5
 20
-109.523603
 30
815.0
 70
    32
  0
VERTEX
  5
4F5
  8
TEAM-BODY
 10
277.5
 20
-134.325387
 30
815.0
 70
    32
  0
VERTEX
  5
4F6
  8
TEAM-BODY
 10
277.5
 20
-161.508142
 30
815.0
 70
    32
  0
VERTEX
  5
4F7
  8
TEAM-BODY
 10
277.5
 20
-189.881383
 30
815.0
 70
    32
  0
VERTEX
  5
4F8
  8
TEAM-BODY
 10
277.5
 20
-218.254623
 30
815.0
 70
    32
  0
VERTEX
  5
4F9
  8
TEAM-BODY
 10
277.5
 20
-245.437378
 30
815.0
 70
    32
  0
VERTEX
  5
4FA
  8
TEAM-BODY
 10
277.5
 20
-270.239162
 30
815.0
 70
    32
  0
VERTEX
  5
4FB
  8
TEAM-BODY
 10
277.5
 20
-291.469489
 30
815.0
 70
    32
  0
VERTEX
  5
4FC
  8
TEAM-BODY
 10
277.5
 20
-308.242237
 30
815.0
 70
    32
  0
VERTEX
  5
4FD
  8
TEAM-BODY
 10
277.5
 20
-320.888739
 30
815.0
 70
    32
  0
VERTEX
  5
4FE
  8
TEAM-BODY
 10
277.5
 20
-330.044689
 30
815.0
 70
    32
  0
VERTEX
  5
4FF
  8
TEAM-BODY
 10
277.5
 20
-336.345784
 30
815.0
 70
    32
  0
VERTEX
  5
500
  8
TEAM-BODY
 10
277.5
 20
-340.427721
 30
815.0
 70
    32
  0
VERTEX
  5
501
  8
TEAM-BODY
 10
277.5
 20
-342.926193
 30
815.0
 70
    32
  0
VERTEX
  5
502
  8
TEAM-BODY
 10
277.5
 20
-344.476898
 30
815.0
 70
    32
  0
VERTEX
  5
503
  8
TEAM-BODY
 10
277.5
 20
-345.715531
 30
815.0
 70
    32
  0
VERTEX
  5
504
  8
TEAM-BODY
 10
277.494534
 20
-347.163819
 30
815.0
 70
    32
  0
VERTEX
  5
505
  8
TEAM-BODY
 10
277.456269
 20
-348.887613
 30
815.0
 70
    32
  0
VERTEX
  5
506
  8
TEAM-BODY
 10
277.352407
 20
-350.838794
 30
815.0
 70
    32
  0
VERTEX
  5
507
  8
TEAM-BODY
 10
277.15015
 20
-352.969243
 30
815.0
 70
    32
  0
VERTEX
  5
508
  8
TEAM-BODY
 10
276.8167
 20
-355.230843
 30
815.0
 70
    32
  0
VERTEX
  5
509
  8
TEAM-BODY
 10
276.319257
 20
-357.575475
 30
815.0
 70
    32
  0
VERTEX
  5
50A
  8
TEAM-BODY
 10
275.625024
 20
-359.955021
 30
815.0
 70
    32
  0
VERTEX
  5
50B
  8
TEAM-BODY
 10
274.701203
 20
-362.321362
 30
815.0
 70
    32
  0
VERTEX
  5
50C
  8
TEAM-BODY
 10
273.524653
 20
-364.630212
 30
815.0
 70
    32
  0
VERTEX
  5
50D
  8
TEAM-BODY
 10
272.110876
 20
-366.852617
 30
815.0
 70
    32
  0
VERTEX
  5
50E
  8
TEAM-BODY
 10
270.485032
 20
-368.963455
 30
815.0
 70
    32
  0
VERTEX
  5
50F
  8
TEAM-BODY
 10
268.672281
 20
-370.937602
 30
815.0
 70
    32
  0
VERTEX
  5
510
  8
TEAM-BODY
 10
266.697782
 20
-372.749938
 30
815.0
 70
    32
  0
VERTEX
  5
511
  8
TEAM-BODY
 10
264.586696
 20
-374.37534
 30
815.0
 70
    32
  0
VERTEX
  5
512
  8
TEAM-BODY
 10
262.364182
 20
-375.788685
 30
815.0
 70
    32
  0
VERTEX
  5
513
  8
TEAM-BODY
 10
260.0554
 20
-376.964851
 30
815.0
 70
    32
  0
VERTEX
  5
514
  8
TEAM-BODY
 10
257.68933
 20
-377.888369
 30
815.0
 70
    32
  0
VERTEX
  5
515
  8
TEAM-BODY
 10
255.310228
 20
-378.582373
 30
815.0
 70
    32
  0
VERTEX
  5
516
  8
TEAM-BODY
 10
252.966168
 20
-379.079652
 30
815.0
 70
    32
  0
VERTEX
  5
517
  8
TEAM-BODY
 10
250.705227
 20
-379.412992
 30
815.0
 70
    32
  0
VERTEX
  5
518
  8
TEAM-BODY
 10
248.57548
 20
-379.615182
 30
815.0
 70
    32
  0
VERTEX
  5
519
  8
TEAM-BODY
 10
246.625001
 20
-379.71901
 30
815.0
 70
    32
  0
VERTEX
  5
51A
  8
TEAM-BODY
 10
244.901867
 20
-379.757262
 30
815.0
 70
    32
  0
VERTEX
  5
51B
  8
TEAM-BODY
 10
243.454152
 20
-379.762726
 30
815.0
 70
    32
  0
VERTEX
  5
51C
  8
TEAM-BODY
 10
242.158929
 20
-379.762726
 30
815.0
 70
    32
  0
VERTEX
  5
51D
  8
TEAM-BODY
 10
240.209256
 20
-379.762726
 30
815.0
 70
    32
  0
VERTEX
  5
51E
  8
TEAM-BODY
 10
236.627186
 20
-379.762726
 30
815.0
 70
    32
  0
VERTEX
  5
51F
  8
TEAM-BODY
 10
230.434775
 20
-379.762726
 30
815.0
 70
    32
  0
VERTEX
  5
520
  8
TEAM-BODY
 10
220.654077
 20
-379.762726
 30
815.0
 70
    32
  0
VERTEX
  5
521
  8
TEAM-BODY
 10
206.307147
 20
-379.762726
 30
815.0
 70
    32
  0
VERTEX
  5
522
  8
TEAM-BODY
 10
186.416038
 20
-379.762726
 30
815.0
 70
    32
  0
VERTEX
  5
523
  8
TEAM-BODY
 10
160.002807
 20
-379.762726
 30
815.0
 70
    32
  0
VERTEX
  5
524
  8
TEAM-BODY
 10
126.565001
 20
-379.762726
 30
815.0
 70
    32
  0
VERTEX
  5
525
  8
TEAM-BODY
 10
87.502143
 20
-379.762726
 30
815.0
 70
    32
  0
VERTEX
  5
526
  8
TEAM-BODY
 10
44.68925
 20
-379.762726
 30
815.0
 70
    32
  0
VERTEX
  5
527
  8
TEAM-BODY
 10
0.001341
 20
-379.762726
 30
815.0
 70
    32
  0
VERTEX
  5
528
  8
TEAM-BODY
 10
0.0
 20
-379.762726
 30
815.0
 70
    32
  0
SEQEND
  5
529
  8
TEAM-BODY
  0
POLYLINE
  5
52A
  8
TEAM-BODY
 66
     1
 10
0.0
 20
0.0
 30
0.0
 70
    12
 75
     6
  0
VERTEX
  5
52B
  8
TEAM-BODY
 10
49.44951
 20
-379.897768
 30
850.0
 70
    48
  0
VERTEX
  5
52C
  8
TEAM-BODY
 10
49.44951
 20
-379.897768
 30
850.0
 70
    40
  0
VERTEX
  5
52D
  8
TEAM-BODY
 10
48.327317
 20
-379.926527
 30
850.0
 70
    40
  0
VERTEX
  5
52E
  8
TEAM-BODY
 10
47.326676
 20
-380.01801
 30
850.0
 70
    40
  0
VERTEX
  5
52F
  8
TEAM-BODY
 10
46.435594
 20
-380.180014
 30
850.0
 70
    40
  0
VERTEX
  5
530
  8
TEAM-BODY
 10
45.642106
 20
-380.420346
 30
850.0
 70
    40
  0
VERTEX
  5
531
  8
TEAM-BODY
 10
44.934189
 20
-380.746807
 30
850.0
 70
    40
  0
VERTEX
  5
532
  8
TEAM-BODY
 10
44.299912
 20
-381.167203
 30
850.0
 70
    40
  0
VERTEX
  5
533
  8
TEAM-BODY
 10
43.727311
 20
-381.689333
 30
850.0
 70
    40
  0
VERTEX
  5
534
  8
TEAM-BODY
 10
43.204362
 20
-382.321004
 30
850.0
 70
    40
  0
VERTEX
  5
535
  8
TEAM-BODY
 10
42.719132
 20
-383.070014
 30
850.0
 70
    40
  0
VERTEX
  5
536
  8
TEAM-BODY
 10
45.888687
 20
-379.897768
 30
850.0
 70
    48
  0
VERTEX
  5
537
  8
TEAM-BODY
 10
44.130296
 20
-380.639166
 30
850.0
 70
    48
  0
VERTEX
  5
538
  8
TEAM-BODY
 10
42.719192
 20
-383.070018
 30
850.0
 70
    48
  0
VERTEX
  5
539
  8
TEAM-BODY
 10
42.719192
 20
-383.070018
 30
850.0
 70
    40
  0
VERTEX
  5
53A
  8
TEAM-BODY
 10
41.629257
 20
-384.954606
 30
850.0
 70
    40
  0
VERTEX
  5
53B
  8
TEAM-BODY
 10
40.517137
 20
-386.839034
 30
850.0
 70
    40
  0
VERTEX
  5
53C
  8
TEAM-BODY
 10
39.372697
 20
-388.664144
 30
850.0
 70
    40
  0
VERTEX
  5
53D
  8
TEAM-BODY
 10
38.185777
 20
-390.37078
 30
850.0
 70
    40
  0
VERTEX
  5
53E
  8
TEAM-BODY
 10
36.946244
 20
-391.899775
 30
850.0
 70
    40
  0
VERTEX
  5
53F
  8
TEAM-BODY
 10
35.643968
 20
-393.191975
 30
850.0
 70
    40
  0
VERTEX
  5
540
  8
TEAM-BODY
 10
34.268815
 20
-394.188222
 30
850.0
 70
    40
  0
VERTEX
  5
541
  8
TEAM-BODY
 10
32.810624
 20
-394.829353
 30
850.0
 70
    40
  0
VERTEX
  5
542
  8
TEAM-BODY
 10
31.259262
 20
-395.056209
 30
850.0
 70
    40
  0
VERTEX
  5
543
  8
TEAM-BODY
 10
39.47255
 20
-388.664861
 30
850.0
 70
    48
  0
VERTEX
  5
544
  8
TEAM-BODY
 10
36.063278
 20
-395.056206
 30
850.0
 70
    48
  0
VERTEX
  5
545
  8
TEAM-BODY
 10
31.259415
 20
-395.056206
 30
850.0
 70
    48
  0
VERTEX
  5
546
  8
TEAM-BODY
 10
31.259415
 20
-395.056206
 30
850.0
 70
    40
  0
VERTEX
  5
547
  8
TEAM-BODY
 10
27.333177
 20
-395.056206
 30
850.0
 70
    40
  0
VERTEX
  5
548
  8
TEAM-BODY
 10
23.737289
 20
-395.056206
 30
850.0
 70
    40
  0
VERTEX
  5
549
  8
TEAM-BODY
 10
20.379563
 20
-395.056206
 30
850.0
 70
    40
  0
VERTEX
  5
54A
  8
TEAM-BODY
 10
17.16771
 20
-395.056206
 30
850.0
 70
    40
  0
VERTEX
  5
54B
  8
TEAM-BODY
 10
14.009568
 20
-395.056206
 30
850.0
 70
    40
  0
VERTEX
  5
54C
  8
TEAM-BODY
 10
10.812821
 20
-395.056206
 30
850.0
 70
    40
  0
VERTEX
  5
54D
  8
TEAM-BODY
 10
7.485306
 20
-395.056206
 30
850.0
 70
    40
  0
VERTEX
  5
54E
  8
TEAM-BODY
 10
3.934769
 20
-395.056205
 30
850.0
 70
    40
  0
VERTEX
  5
54F
  8
TEAM-BODY
 10
0.068986
 20
-395.056205
 30
850.0
 70
    40
  0
VERTEX
  5
550
  8
TEAM-BODY
 10
18.8929
 20
-395.056206
 30
850.0
 70
    48
  0
VERTEX
  5
551
  8
TEAM-BODY
 10
12.231462
 20
-395.056206
 30
850.0
 70
    48
  0
VERTEX
  5
552
  8
TEAM-BODY
 10
0.068925
 20
-395.056206
 30
850.0
 70
    48
  0
SEQEND
  5
553
  8
TEAM-BODY
  0
POLYLINE
  5
554
  8
TEAM-BODY
 66
     1
 10
0.0
 20
0.0
 30
0.0
 70
     8
  0
VERTEX
  5
555
  8
TEAM-BODY
 10
0.0
 20
-0.000016
 30
850.0
 70
    32
  0
VERTEX
  5
556
  8
TEAM-BODY
 10
-0.001341
 20
-0.000016
 30
850.0
 70
    32
  0
VERTEX
  5
557
  8
TEAM-BODY
 10
-44.68925
 20
-0.000016
 30
850.0
 70
    32
  0
VERTEX
  5
558
  8
TEAM-BODY
 10
-87.502143
 20
-0.000016
 30
850.0
 70
    32
  0
VERTEX
  5
559
  8
TEAM-BODY
 10
-126.565001
 20
-0.000016
 30
850.0
 70
    32
  0
VERTEX
  5
55A
  8
TEAM-BODY
 10
-160.002807
 20
-0.000016
 30
850.0
 70
    32
  0
VERTEX
  5
55B
  8
TEAM-BODY
 10
-186.416038
 20
-0.000016
 30
850.0
 70
    32
  0
VERTEX
  5
55C
  8
TEAM-BODY
 10
-206.307147
 20
-0.000016
 30
850.0
 70
    32
  0
VERTEX
  5
55D
  8
TEAM-BODY
 10
-220.654077
 20
-0.000016
 30
850.0
 70
    32
  0
VERTEX
  5
55E
  8
TEAM-BODY
 10
-230.434775
 20
-0.000016
 30
850.0
 70
    32
  0
VERTEX
  5
55F
  8
TEAM-BODY
 10
-236.627186
 20
-0.000016
 30
850.0
 70
    32
  0
VERTEX
  5
560
  8
TEAM-BODY
 10
-240.209256
 20
-0.000016
 30
850.0
 70
    32
  0
VERTEX
  5
561
  8
TEAM-BODY
 10
-242.158929
 20
-0.000016
 30
850.0
 70
    32
  0
VERTEX
  5
562
  8
TEAM-BODY
 10
-243.454152
 20
-0.000016
 30
850.0
 70
    32
  0
VERTEX
  5
563
  8
TEAM-BODY
 10
-244.901867
 20
-0.005481
 30
850.0
 70
    32
  0
VERTEX
  5
564
  8
TEAM-BODY
 10
-246.625001
 20
-0.04374
 30
850.0
 70
    32
  0
VERTEX
  5
565
  8
TEAM-BODY
 10
-248.57548
 20
-0.147584
 30
850.0
 70
    32
  0
VERTEX
  5
566
  8
TEAM-BODY
 10
-250.705227
 20
-0.349808
 30
850.0
 70
    32
  0
VERTEX
  5
567
  8
TEAM-BODY
 10
-252.966168
 20
-0.683204
 30
850.0
 70
    32
  0
VERTEX
  5
568
  8
TEAM-BODY
 10
-255.310228
 20
-1.180565
 30
850.0
 70
    32
  0
VERTEX
  5
569
  8
TEAM-BODY
 10
-257.68933
 20
-1.874685
 30
850.0
 70
    32
  0
VERTEX
  5
56A
  8
TEAM-BODY
 10
-260.0554
 20
-2.798355
 30
850.0
 70
    32
  0
VERTEX
  5
56B
  8
TEAM-BODY
 10
-262.364182
 20
-3.974715
 30
850.0
 70
    32
  0
VERTEX
  5
56C
  8
TEAM-BODY
 10
-264.586696
 20
-5.388281
 30
850.0
 70
    32
  0
VERTEX
  5
56D
  8
TEAM-BODY
 10
-266.697782
 20
-7.013914
 30
850.0
 70
    32
  0
VERTEX
  5
56E
  8
TEAM-BODY
 10
-268.672281
 20
-8.826476
 30
850.0
 70
    32
  0
VERTEX
  5
56F
  8
TEAM-BODY
 10
-270.485032
 20
-10.800828
 30
850.0
 70
    32
  0
VERTEX
  5
570
  8
TEAM-BODY
 10
-272.110876
 20
-12.911833
 30
850.0
 70
    32
  0
VERTEX
  5
571
  8
TEAM-BODY
 10
-273.524653
 20
-15.13435
 30
850.0
 70
    32
  0
VERTEX
  5
572
  8
TEAM-BODY
 10
-274.701203
 20
-17.443243
 30
850.0
 70
    32
  0
VERTEX
  5
573
  8
TEAM-BODY
 10
-275.625024
 20
-19.809544
 30
850.0
 70
    32
  0
VERTEX
  5
574
  8
TEAM-BODY
 10
-276.319257
 20
-22.18898
 30
850.0
 70
    32
  0
VERTEX
  5
575
  8
TEAM-BODY
 10
-276.8167
 20
-24.533448
 30
850.0
 70
    32
  0
VERTEX
  5
576
  8
TEAM-BODY
 10
-277.15015
 20
-26.794846
 30
850.0
 70
    32
  0
VERTEX
  5
577
  8
TEAM-BODY
 10
-277.352407
 20
-28.925072
 30
850.0
 70
    32
  0
VERTEX
  5
578
  8
TEAM-BODY
 10
-277.456269
 20
-30.876023
 30
850.0
 70
    32
  0
VERTEX
  5
579
  8
TEAM-BODY
 10
-277.494534
 20
-32.599598
 30
850.0
 70
    32
  0
VERTEX
  5
57A
  8
TEAM-BODY
 10
-277.5
 20
-34.047694
 30
850.0
 70
    32
  0
VERTEX
  5
57B
  8
TEAM-BODY
 10
-277.5
 20
-35.286176
 30
850.0
 70
    32
  0
VERTEX
  5
57C
  8
TEAM-BODY
 10
-277.5
 20
-36.836766
 30
850.0
 70
    32
  0
VERTEX
  5
57D
  8
TEAM-BODY
 10
-277.5
 20
-39.335157
 30
850.0
 70
    32
  0
VERTEX
  5
57E
  8
TEAM-BODY
 10
-277.5
 20
-43.417038
 30
850.0
 70
    32
  0
VERTEX
  5
57F
  8
TEAM-BODY
 10
-277.5
 20
-49.7181
 30
850.0
 70
    32
  0
VERTEX
  5
580
  8
TEAM-BODY
 10
-277.5
 20
-58.874034
 30
850.0
 70
    32
  0
VERTEX
  5
581
  8
TEAM-BODY
 10
-277.5
 20
-71.520529
 30
850.0
 70
    32
  0
VERTEX
  5
582
  8
TEAM-BODY
 10
-277.5
 20
-88.293276
 30
850.0
 70
    32
  0
VERTEX
  5
583
  8
TEAM-BODY
 10
-277.5
 20
-109.523603
 30
850.0
 70
    32
  0
VERTEX
  5
584
  8
TEAM-BODY
 10
-277.5
 20
-134.325387
 30
850.0
 70
    32
  0
VERTEX
  5
585
  8
TEAM-BODY
 10
-277.5
 20
-161.508142
 30
850.0
 70
    32
  0
VERTEX
  5
586
  8
TEAM-BODY
 10
-277.5
 20
-189.881383
 30
850.0
 70
    32
  0
VERTEX
  5
587
  8
TEAM-BODY
 10
-277.5
 20
-218.254623
 30
850.0
 70
    32
  0
VERTEX
  5
588
  8
TEAM-BODY
 10
-277.5
 20
-245.437378
 30
850.0
 70
    32
  0
VERTEX
  5
589
  8
TEAM-BODY
 10
-277.5
 20
-270.239162
 30
850.0
 70
    32
  0
VERTEX
  5
58A
  8
TEAM-BODY
 10
-277.5
 20
-291.469489
 30
850.0
 70
    32
  0
VERTEX
  5
58B
  8
TEAM-BODY
 10
-277.5
 20
-308.242237
 30
850.0
 70
    32
  0
VERTEX
  5
58C
  8
TEAM-BODY
 10
-277.5
 20
-320.888739
 30
850.0
 70
    32
  0
VERTEX
  5
58D
  8
TEAM-BODY
 10
-277.5
 20
-330.044689
 30
850.0
 70
    32
  0
VERTEX
  5
58E
  8
TEAM-BODY
 10
-277.5
 20
-336.345784
 30
850.0
 70
    32
  0
VERTEX
  5
58F
  8
TEAM-BODY
 10
-277.5
 20
-340.427721
 30
850.0
 70
    32
  0
VERTEX
  5
590
  8
TEAM-BODY
 10
-277.5
 20
-342.926193
 30
850.0
 70
    32
  0
VERTEX
  5
591
  8
TEAM-BODY
 10
-277.5
 20
-344.476898
 30
850.0
 70
    32
  0
VERTEX
  5
592
  8
TEAM-BODY
 10
-277.5
 20
-345.715531
 30
850.0
 70
    32
  0
VERTEX
  5
593
  8
TEAM-BODY
 10
-277.494534
 20
-347.163819
 30
850.0
 70
    32
  0
VERTEX
  5
594
  8
TEAM-BODY
 10
-277.456269
 20
-348.887613
 30
850.0
 70
    32
  0
VERTEX
  5
595
  8
TEAM-BODY
 10
-277.352407
 20
-350.838794
 30
850.0
 70
    32
  0
VERTEX
  5
596
  8
TEAM-BODY
 10
-277.15015
 20
-352.969243
 30
850.0
 70
    32
  0
VERTEX
  5
597
  8
TEAM-BODY
 10
-276.8167
 20
-355.230843
 30
850.0
 70
    32
  0
VERTEX
  5
598
  8
TEAM-BODY
 10
-276.319257
 20
-357.575475
 30
850.0
 70
    32
  0
VERTEX
  5
599
  8
TEAM-BODY
 10
-275.625024
 20
-359.955021
 30
850.0
 70
    32
  0
VERTEX
  5
59A
  8
TEAM-BODY
 10
-274.701203
 20
-362.321362
 30
850.0
 70
    32
  0
VERTEX
  5
59B
  8
TEAM-BODY
 10
-273.524653
 20
-364.630212
 30
850.0
 70
    32
  0
VERTEX
  5
59C
  8
TEAM-BODY
 10
-272.110876
 20
-366.852617
 30
850.0
 70
    32
  0
VERTEX
  5
59D
  8
TEAM-BODY
 10
-270.485032
 20
-368.963455
 30
850.0
 70
    32
  0
VERTEX
  5
59E
  8
TEAM-BODY
 10
-268.672281
 20
-370.937602
 30
850.0
 70
    32
  0
VERTEX
  5
59F
  8
TEAM-BODY
 10
-266.697782
 20
-372.749938
 30
850.0
 70
    32
  0
VERTEX
  5
5A0
  8
TEAM-BODY
 10
-264.586696
 20
-374.37534
 30
850.0
 70
    32
  0
VERTEX
  5
5A1
  8
TEAM-BODY
 10
-262.364182
 20
-375.788685
 30
850.0
 70
    32
  0
VERTEX
  5
5A2
  8
TEAM-BODY
 10
-260.0554
 20
-376.964851
 30
850.0
 70
    32
  0
VERTEX
  5
5A3
  8
TEAM-BODY
 10
-257.68933
 20
-377.888369
 30
850.0
 70
    32
  0
VERTEX
  5
5A4
  8
TEAM-BODY
 10
-255.310228
 20
-378.582373
 30
850.0
 70
    32
  0
VERTEX
  5
5A5
  8
TEAM-BODY
 10
-252.966168
 20
-379.079652
 30
850.0
 70
    32
  0
VERTEX
  5
5A6
  8
TEAM-BODY
 10
-250.705227
 20
-379.412992
 30
850.0
 70
    32
  0
VERTEX
  5
5A7
  8
TEAM-BODY
 10
-248.57548
 20
-379.615182
 30
850.0
 70
    32
  0
VERTEX
  5
5A8
  8
TEAM-BODY
 10
-246.625001
 20
-379.71901
 30
850.0
 70
    32
  0
VERTEX
  5
5A9
  8
TEAM-BODY
 10
-244.901867
 20
-379.757262
 30
850.0
 70
    32
  0
VERTEX
  5
5AA
  8
TEAM-BODY
 10
-243.454152
 20
-379.762726
 30
850.0
 70
    32
  0
VERTEX
  5
5AB
  8
TEAM-BODY
 10
-242.158929
 20
-379.762726
 30
850.0
 70
    32
  0
VERTEX
  5
5AC
  8
TEAM-BODY
 10
-240.209256
 20
-379.762726
 30
850.0
 70
    32
  0
VERTEX
  5
5AD
  8
TEAM-BODY
 10
-236.627186
 20
-379.762726
 30
850.0
 70
    32
  0
VERTEX
  5
5AE
  8
TEAM-BODY
 10
-230.434775
 20
-379.762726
 30
850.0
 70
    32
  0
VERTEX
  5
5AF
  8
TEAM-BODY
 10
-220.654077
 20
-379.762726
 30
850.0
 70
    32
  0
VERTEX
  5
5B0
  8
TEAM-BODY
 10
-206.307147
 20
-379.762726
 30
850.0
 70
    32
  0
VERTEX
  5
5B1
  8
TEAM-BODY
 10
-186.416038
 20
-379.762726
 30
850.0
 70
    32
  0
VERTEX
  5
5B2
  8
TEAM-BODY
 10
-160.002807
 20
-379.762726
 30
850.0
 70
    32
  0
VERTEX
  5
5B3
  8
TEAM-BODY
 10
-126.565001
 20
-379.762726
 30
850.0
 70
    32
  0
VERTEX
  5
5B4
  8
TEAM-BODY
 10
-87.502143
 20
-379.762726
 30
850.0
 70
    32
  0
VERTEX
  5
5B5
  8
TEAM-BODY
 10
-44.68925
 20
-379.762726
 30
850.0
 70
    32
  0
VERTEX
  5
5B6
  8
TEAM-BODY
 10
-0.001341
 20
-379.762726
 30
850.0
 70
    32
  0
VERTEX
  5
5B7
  8
TEAM-BODY
 10
0.0
 20
-379.762726
 30
850.0
 70
    32
  0
SEQEND
  5
5B8
  8
TEAM-BODY
  0
POLYLINE
  5
5B9
  8
TEAM-BODY
 66
     1
 10
0.0
 20
0.0
 30
0.0
 70
     8
  0
VERTEX
  5
5BA
  8
TEAM-BODY
 10
0.0
 20
-13.502061
 30
850.0
 70
    32
  0
VERTEX
  5
5BB
  8
TEAM-BODY
 10
-43.578061
 20
-13.502061
 30
850.0
 70
    32
  0
VERTEX
  5
5BC
  8
TEAM-BODY
 10
-85.777875
 20
-13.502061
 30
850.0
 70
    32
  0
VERTEX
  5
5BD
  8
TEAM-BODY
 10
-124.281354
 20
-13.502061
 30
850.0
 70
    32
  0
VERTEX
  5
5BE
  8
TEAM-BODY
 10
-157.240333
 20
-13.502061
 30
850.0
 70
    32
  0
VERTEX
  5
5BF
  8
TEAM-BODY
 10
-183.273384
 20
-13.502061
 30
850.0
 70
    32
  0
VERTEX
  5
5C0
  8
TEAM-BODY
 10
-202.866047
 20
-13.502061
 30
850.0
 70
    32
  0
VERTEX
  5
5C1
  8
TEAM-BODY
 10
-216.970601
 20
-13.502061
 30
850.0
 70
    32
  0
VERTEX
  5
5C2
  8
TEAM-BODY
 10
-226.539324
 20
-13.502061
 30
850.0
 70
    32
  0
VERTEX
  5
5C3
  8
TEAM-BODY
 10
-232.524497
 20
-13.502061
 30
850.0
 70
    32
  0
VERTEX
  5
5C4
  8
TEAM-BODY
 10
-235.878399
 20
-13.502061
 30
850.0
 70
    32
  0
VERTEX
  5
5C5
  8
TEAM-BODY
 10
-237.553308
 20
-13.502061
 30
850.0
 70
    32
  0
VERTEX
  5
5C6
  8
TEAM-BODY
 10
-238.501506
 20
-13.502061
 30
850.0
 70
    32
  0
VERTEX
  5
5C7
  8
TEAM-BODY
 10
-239.510964
 20
-13.505869
 30
850.0
 70
    32
  0
VERTEX
  5
5C8
  8
TEAM-BODY
 10
-240.712432
 20
-13.532528
 30
850.0
 70
    32
  0
VERTEX
  5
5C9
  8
TEAM-BODY
 10
-242.072352
 20
-13.604888
 30
850.0
 70
    32
  0
VERTEX
  5
5CA
  8
TEAM-BODY
 10
-243.557167
 20
-13.745801
 30
850.0
 70
    32
  0
VERTEX
  5
5CB
  8
TEAM-BODY
 10
-245.133321
 20
-13.978115
 30
850.0
 70
    32
  0
VERTEX
  5
5CC
  8
TEAM-BODY
 10
-246.767256
 20
-14.324683
 30
850.0
 70
    32
  0
VERTEX
  5
5CD
  8
TEAM-BODY
 10
-248.425414
 20
-14.808355
 30
850.0
 70
    32
  0
VERTEX
  5
5CE
  8
TEAM-BODY
 10
-250.07424
 20
-15.451981
 30
850.0
 70
    32
  0
VERTEX
  5
5CF
  8
TEAM-BODY
 10
-251.682855
 20
-16.271684
 30
850.0
 70
    32
  0
VERTEX
  5
5D0
  8
TEAM-BODY
 10
-253.231106
 20
-17.25667
 30
850.0
 70
    32
  0
VERTEX
  5
5D1
  8
TEAM-BODY
 10
-254.701521
 20
-18.389418
 30
850.0
 70
    32
  0
VERTEX
  5
5D2
  8
TEAM-BODY
 10
-256.076625
 20
-19.652407
 30
850.0
 70
    32
  0
VERTEX
  5
5D3
  8
TEAM-BODY
 10
-257.338946
 20
-21.028116
 30
850.0
 70
    32
  0
VERTEX
  5
5D4
  8
TEAM-BODY
 10
-258.47101
 20
-22.499022
 30
850.0
 70
    32
  0
VERTEX
  5
5D5
  8
TEAM-BODY
 10
-259.455344
 20
-24.047605
 30
850.0
 70
    32
  0
VERTEX
  5
5D6
  8
TEAM-BODY
 10
-260.274476
 20
-25.656342
 30
850.0
 70
    32
  0
VERTEX
  5
5D7
  8
TEAM-BODY
 10
-260.917649
 20
-27.305049
 30
850.0
 70
    32
  0
VERTEX
  5
5D8
  8
TEAM-BODY
 10
-261.40098
 20
-28.96288
 30
850.0
 70
    32
  0
VERTEX
  5
5D9
  8
TEAM-BODY
 10
-261.747303
 20
-30.596326
 30
850.0
 70
    32
  0
VERTEX
  5
5DA
  8
TEAM-BODY
 10
-261.979455
 20
-32.171879
 30
850.0
 70
    32
  0
VERTEX
  5
5DB
  8
TEAM-BODY
 10
-262.120268
 20
-33.65603
 30
850.0
 70
    32
  0
VERTEX
  5
5DC
  8
TEAM-BODY
 10
-262.192577
 20
-35.015269
 30
850.0
 70
    32
  0
VERTEX
  5
5DD
  8
TEAM-BODY
 10
-262.219217
 20
-36.216087
 30
850.0
 70
    32
  0
VERTEX
  5
5DE
  8
TEAM-BODY
 10
-262.223023
 20
-37.224976
 30
850.0
 70
    32
  0
VERTEX
  5
5DF
  8
TEAM-BODY
 10
-262.223023
 20
-38.116369
 30
850.0
 70
    32
  0
VERTEX
  5
5E0
  8
TEAM-BODY
 10
-262.223023
 20
-39.396472
 30
850.0
 70
    32
  0
VERTEX
  5
5E1
  8
TEAM-BODY
 10
-262.223023
 20
-41.679431
 30
850.0
 70
    32
  0
VERTEX
  5
5E2
  8
TEAM-BODY
 10
-262.223023
 20
-45.579396
 30
850.0
 70
    32
  0
VERTEX
  5
5E3
  8
TEAM-BODY
 10
-262.223023
 20
-51.710513
 30
850.0
 70
    32
  0
VERTEX
  5
5E4
  8
TEAM-BODY
 10
-262.223023
 20
-60.686931
 30
850.0
 70
    32
  0
VERTEX
  5
5E5
  8
TEAM-BODY
 10
-262.223023
 20
-73.122798
 30
850.0
 70
    32
  0
VERTEX
  5
5E6
  8
TEAM-BODY
 10
-262.223023
 20
-89.632261
 30
850.0
 70
    32
  0
VERTEX
  5
5E7
  8
TEAM-BODY
 10
-262.223023
 20
-110.531788
 30
850.0
 70
    32
  0
VERTEX
  5
5E8
  8
TEAM-BODY
 10
-262.223023
 20
-134.947123
 30
850.0
 70
    32
  0
VERTEX
  5
5E9
  8
TEAM-BODY
 10
-262.223023
 20
-161.706331
 30
850.0
 70
    32
  0
VERTEX
  5
5EA
  8
TEAM-BODY
 10
-262.223023
 20
-189.637474
 30
850.0
 70
    32
  0
VERTEX
  5
5EB
  8
TEAM-BODY
 10
-262.223023
 20
-217.568618
 30
850.0
 70
    32
  0
VERTEX
  5
5EC
  8
TEAM-BODY
 10
-262.223023
 20
-244.327826
 30
850.0
 70
    32
  0
VERTEX
  5
5ED
  8
TEAM-BODY
 10
-262.223023
 20
-268.743161
 30
850.0
 70
    32
  0
VERTEX
  5
5EE
  8
TEAM-BODY
 10
-262.223023
 20
-289.642688
 30
850.0
 70
    32
  0
VERTEX
  5
5EF
  8
TEAM-BODY
 10
-262.223023
 20
-306.152151
 30
850.0
 70
    32
  0
VERTEX
  5
5F0
  8
TEAM-BODY
 10
-262.223023
 20
-318.588018
 30
850.0
 70
    32
  0
VERTEX
  5
5F1
  8
TEAM-BODY
 10
-262.223023
 20
-327.564436
 30
850.0
 70
    32
  0
VERTEX
  5
5F2
  8
TEAM-BODY
 10
-262.223023
 20
-333.695553
 30
850.0
 70
    32
  0
VERTEX
  5
5F3
  8
TEAM-BODY
 10
-262.223023
 20
-337.595517
 30
850.0
 70
    32
  0
VERTEX
  5
5F4
  8
TEAM-BODY
 10
-262.223023
 20
-339.878476
 30
850.0
 70
    32
  0
VERTEX
  5
5F5
  8
TEAM-BODY
 10
-262.223023
 20
-341.158577
 30
850.0
 70
    32
  0
VERTEX
  5
5F6
  8
TEAM-BODY
 10
-262.223023
 20
-342.049969
 30
850.0
 70
    32
  0
VERTEX
  5
5F7
  8
TEAM-BODY
 10
-262.219217
 20
-343.058855
 30
850.0
 70
    32
  0
VERTEX
  5
5F8
  8
TEAM-BODY
 10
-262.192577
 20
-344.259666
 30
850.0
 70
    32
  0
VERTEX
  5
5F9
  8
TEAM-BODY
 10
-262.120268
 20
-345.618885
 30
850.0
 70
    32
  0
VERTEX
  5
5FA
  8
TEAM-BODY
 10
-261.979455
 20
-347.103001
 30
850.0
 70
    32
  0
VERTEX
  5
5FB
  8
TEAM-BODY
 10
-261.747303
 20
-348.678497
 30
850.0
 70
    32
  0
VERTEX
  5
5FC
  8
TEAM-BODY
 10
-261.40098
 20
-350.31186
 30
850.0
 70
    32
  0
VERTEX
  5
5FD
  8
TEAM-BODY
 10
-260.917649
 20
-351.969575
 30
850.0
 70
    32
  0
VERTEX
  5
5FE
  8
TEAM-BODY
 10
-260.274476
 20
-353.618129
 30
850.0
 70
    32
  0
VERTEX
  5
5FF
  8
TEAM-BODY
 10
-259.455344
 20
-355.226673
 30
850.0
 70
    32
  0
VERTEX
  5
600
  8
TEAM-BODY
 10
-258.47101
 20
-356.775031
 30
850.0
 70
    32
  0
VERTEX
  5
601
  8
TEAM-BODY
 10
-257.338946
 20
-358.245691
 30
850.0
 70
    32
  0
VERTEX
  5
602
  8
TEAM-BODY
 10
-256.076625
 20
-359.621142
 30
850.0
 70
    32
  0
VERTEX
  5
603
  8
TEAM-BODY
 10
-254.701521
 20
-360.883875
 30
850.0
 70
    32
  0
VERTEX
  5
604
  8
TEAM-BODY
 10
-253.231106
 20
-362.016377
 30
850.0
 70
    32
  0
VERTEX
  5
605
  8
TEAM-BODY
 10
-251.682855
 20
-363.001139
 30
850.0
 70
    32
  0
VERTEX
  5
606
  8
TEAM-BODY
 10
-250.07424
 20
-363.82065
 30
850.0
 70
    32
  0
VERTEX
  5
607
  8
TEAM-BODY
 10
-248.425414
 20
-364.464124
 30
850.0
 70
    32
  0
VERTEX
  5
608
  8
TEAM-BODY
 10
-246.767256
 20
-364.947682
 30
850.0
 70
    32
  0
VERTEX
  5
609
  8
TEAM-BODY
 10
-245.133321
 20
-365.294169
 30
850.0
 70
    32
  0
VERTEX
  5
60A
  8
TEAM-BODY
 10
-243.557167
 20
-365.526429
 30
850.0
 70
    32
  0
VERTEX
  5
60B
  8
TEAM-BODY
 10
-242.072352
 20
-365.667308
 30
850.0
 70
    32
  0
VERTEX
  5
60C
  8
TEAM-BODY
 10
-240.712432
 20
-365.739651
 30
850.0
 70
    32
  0
VERTEX
  5
60D
  8
TEAM-BODY
 10
-239.510964
 20
-365.766304
 30
850.0
 70
    32
  0
VERTEX
  5
60E
  8
TEAM-BODY
 10
-238.501506
 20
-365.770112
 30
850.0
 70
    32
  0
VERTEX
  5
60F
  8
TEAM-BODY
 10
-237.553308
 20
-365.770112
 30
850.0
 70
    32
  0
VERTEX
  5
610
  8
TEAM-BODY
 10
-235.878399
 20
-365.770112
 30
850.0
 70
    32
  0
VERTEX
  5
611
  8
TEAM-BODY
 10
-232.524497
 20
-365.770112
 30
850.0
 70
    32
  0
VERTEX
  5
612
  8
TEAM-BODY
 10
-226.539324
 20
-365.770112
 30
850.0
 70
    32
  0
VERTEX
  5
613
  8
TEAM-BODY
 10
-216.970601
 20
-365.770112
 30
850.0
 70
    32
  0
VERTEX
  5
614
  8
TEAM-BODY
 10
-202.866047
 20
-365.770112
 30
850.0
 70
    32
  0
VERTEX
  5
615
  8
TEAM-BODY
 10
-183.273384
 20
-365.770112
 30
850.0
 70
    32
  0
VERTEX
  5
616
  8
TEAM-BODY
 10
-157.240333
 20
-365.770112
 30
850.0
 70
    32
  0
VERTEX
  5
617
  8
TEAM-BODY
 10
-124.281354
 20
-365.770112
 30
850.0
 70
    32
  0
VERTEX
  5
618
  8
TEAM-BODY
 10
-85.777875
 20
-365.770112
 30
850.0
 70
    32
  0
VERTEX
  5
619
  8
TEAM-BODY
 10
-43.578061
 20
-365.770112
 30
850.0
 70
    32
  0
VERTEX
  5
61A
  8
TEAM-BODY
 10
0.0
 20
-365.770112
 30
850.0
 70
    32
  0
SEQEND
  5
61B
  8
TEAM-BODY
  0
POLYLINE
  5
61C
  8
TEAM-BODY
 66
     1
 10
0.0
 20
0.0
 30
0.0
 70
    12
 75
     6
  0
VERTEX
  5
61D
  8
TEAM-BODY
 10
-49.44951
 20
-379.897768
 30
850.0
 70
    48
  0
VERTEX
  5
61E
  8
TEAM-BODY
 10
-49.44951
 20
-379.897768
 30
850.0
 70
    40
  0
VERTEX
  5
61F
  8
TEAM-BODY
 10
-48.327317
 20
-379.926527
 30
850.0
 70
    40
  0
VERTEX
  5
620
  8
TEAM-BODY
 10
-47.326676
 20
-380.01801
 30
850.0
 70
    40
  0
VERTEX
  5
621
  8
TEAM-BODY
 10
-46.435594
 20
-380.180014
 30
850.0
 70
    40
  0
VERTEX
  5
622
  8
TEAM-BODY
 10
-45.642106
 20
-380.420346
 30
850.0
 70
    40
  0
VERTEX
  5
623
  8
TEAM-BODY
 10
-44.934189
 20
-380.746807
 30
850.0
 70
    40
  0
VERTEX
  5
624
  8
TEAM-BODY
 10
-44.299912
 20
-381.167203
 30
850.0
 70
    40
  0
VERTEX
  5
625
  8
TEAM-BODY
 10
-43.727311
 20
-381.689333
 30
850.0
 70
    40
  0
VERTEX
  5
626
  8
TEAM-BODY
 10
-43.204362
 20
-382.321004
 30
850.0
 70
    40
  0
VERTEX
  5
627
  8
TEAM-BODY
 10
-42.719132
 20
-383.070014
 30
850.0
 70
    40
  0
VERTEX
  5
628
  8
TEAM-BODY
 10
-45.888687
 20
-379.897768
 30
850.0
 70
    48
  0
VERTEX
  5
629
  8
TEAM-BODY
 10
-44.130296
 20
-380.639166
 30
850.0
 70
    48
  0
VERTEX
  5
62A
  8
TEAM-BODY
 10
-42.719192
 20
-383.070018
 30
850.0
 70
    48
  0
VERTEX
  5
62B
  8
TEAM-BODY
 10
-42.719192
 20
-383.070018
 30
850.0
 70
    40
  0
VERTEX
  5
62C
  8
TEAM-BODY
 10
-41.629257
 20
-384.954606
 30
850.0
 70
    40
  0
VERTEX
  5
62D
  8
TEAM-BODY
 10
-40.517137
 20
-386.839034
 30
850.0
 70
    40
  0
VERTEX
  5
62E
  8
TEAM-BODY
 10
-39.372697
 20
-388.664144
 30
850.0
 70
    40
  0
VERTEX
  5
62F
  8
TEAM-BODY
 10
-38.185777
 20
-390.37078
 30
850.0
 70
    40
  0
VERTEX
  5
630
  8
TEAM-BODY
 10
-36.946244
 20
-391.899775
 30
850.0
 70
    40
  0
VERTEX
  5
631
  8
TEAM-BODY
 10
-35.643968
 20
-393.191975
 30
850.0
 70
    40
  0
VERTEX
  5
632
  8
TEAM-BODY
 10
-34.268815
 20
-394.188222
 30
850.0
 70
    40
  0
VERTEX
  5
633
  8
TEAM-BODY
 10
-32.810624
 20
-394.829353
 30
850.0
 70
    40
  0
VERTEX
  5
634
  8
TEAM-BODY
 10
-31.259262
 20
-395.056209
 30
850.0
 70
    40
  0
VERTEX
  5
635
  8
TEAM-BODY
 10
-39.47255
 20
-388.664861
 30
850.0
 70
    48
  0
VERTEX
  5
636
  8
TEAM-BODY
 10
-36.063278
 20
-395.056206
 30
850.0
 70
    48
  0
VERTEX
  5
637
  8
TEAM-BODY
 10
-31.259415
 20
-395.056206
 30
850.0
 70
    48
  0
VERTEX
  5
638
  8
TEAM-BODY
 10
-31.259415
 20
-395.056206
 30
850.0
 70
    40
  0
VERTEX
  5
639
  8
TEAM-BODY
 10
-27.322312
 20
-395.056206
 30
850.0
 70
    40
  0
VERTEX
  5
63A
  8
TEAM-BODY
 10
-23.697281
 20
-395.056206
 30
850.0
 70
    40
  0
VERTEX
  5
63B
  8
TEAM-BODY
 10
-20.297379
 20
-395.056206
 30
850.0
 70
    40
  0
VERTEX
  5
63C
  8
TEAM-BODY
 10
-17.035539
 20
-395.056206
 30
850.0
 70
    40
  0
VERTEX
  5
63D
  8
TEAM-BODY
 10
-13.824754
 20
-395.056206
 30
850.0
 70
    40
  0
VERTEX
  5
63E
  8
TEAM-BODY
 10
-10.578019
 20
-395.056206
 30
850.0
 70
    40
  0
VERTEX
  5
63F
  8
TEAM-BODY
 10
-7.208298
 20
-395.056206
 30
850.0
 70
    40
  0
VERTEX
  5
640
  8
TEAM-BODY
 10
-3.628617
 20
-395.056205
 30
850.0
 70
    40
  0
VERTEX
  5
641
  8
TEAM-BODY
 10
0.248092
 20
-395.056205
 30
850.0
 70
    40
  0
VERTEX
  5
642
  8
TEAM-BODY
 10
-18.8929
 20
-395.056206
 30
850.0
 70
    48
  0
VERTEX
  5
643
  8
TEAM-BODY
 10
-11.914536
 20
-395.056206
 30
850.0
 70
    48
  0
VERTEX
  5
644
  8
TEAM-BODY
 10
0.248061
 20
-395.056206
 30
850.0
 70
    48
  0
SEQEND
  5
645
  8
TEAM-BODY
  0
POLYLINE
  5
646
  8
TEAM-DET1
 66
     1
 10
0.0
 20
0.0
 30
0.0
 70
    12
 75
     6
  0
VERTEX
  5
647
  8
TEAM-DET1
 10
49.44951
 20
-379.897768
 30
850.0
 70
    48
  0
VERTEX
  5
648
  8
TEAM-DET1
 10
49.44951
 20
-379.897768
 30
850.0
 70
    40
  0
VERTEX
  5
649
  8
TEAM-DET1
 10
48.327317
 20
-379.926527
 30
850.0
 70
    40
  0
VERTEX
  5
64A
  8
TEAM-DET1
 10
47.326676
 20
-380.01801
 30
850.0
 70
    40
  0
VERTEX
  5
64B
  8
TEAM-DET1
 10
46.435594
 20
-380.180014
 30
850.0
 70
    40
  0
VERTEX
  5
64C
  8
TEAM-DET1
 10
45.642106
 20
-380.420346
 30
850.0
 70
    40
  0
VERTEX
  5
64D
  8
TEAM-DET1
 10
44.934189
 20
-380.746807
 30
850.0
 70
    40
  0
VERTEX
  5
64E
  8
TEAM-DET1
 10
44.299912
 20
-381.167203
 30
850.0
 70
    40
  0
VERTEX
  5
64F
  8
TEAM-DET1
 10
43.727311
 20
-381.689333
 30
850.0
 70
    40
  0
VERTEX
  5
650
  8
TEAM-DET1
 10
43.204362
 20
-382.321004
 30
850.0
 70
    40
  0
VERTEX
  5
651
  8
TEAM-DET1
 10
42.719132
 20
-383.070014
 30
850.0
 70
    40
  0
VERTEX
  5
652
  8
TEAM-DET1
 10
45.888687
 20
-379.897768
 30
850.0
 70
    48
  0
VERTEX
  5
653
  8
TEAM-DET1
 10
44.130296
 20
-380.639166
 30
850.0
 70
    48
  0
VERTEX
  5
654
  8
TEAM-DET1
 10
42.719192
 20
-383.070018
 30
850.0
 70
    48
  0
VERTEX
  5
655
  8
TEAM-DET1
 10
42.719192
 20
-383.070018
 30
850.0
 70
    40
  0
VERTEX
  5
656
  8
TEAM-DET1
 10
41.629257
 20
-384.954606
 30
850.0
 70
    40
  0
VERTEX
  5
657
  8
TEAM-DET1
 10
40.517137
 20
-386.839034
 30
850.0
 70
    40
  0
VERTEX
  5
658
  8
TEAM-DET1
 10
39.372697
 20
-388.664144
 30
850.0
 70
    40
  0
VERTEX
  5
659
  8
TEAM-DET1
 10
38.185777
 20
-390.37078
 30
850.0
 70
    40
  0
VERTEX
  5
65A
  8
TEAM-DET1
 10
36.946244
 20
-391.899775
 30
850.0
 70
    40
  0
VERTEX
  5
65B
  8
TEAM-DET1
 10
35.643968
 20
-393.191975
 30
850.0
 70
    40
  0
VERTEX
  5
65C
  8
TEAM-DET1
 10
34.268815
 20
-394.188222
 30
850.0
 70
    40
  0
VERTEX
  5
65D
  8
TEAM-DET1
 10
32.810624
 20
-394.829353
 30
850.0
 70
    40
  0
VERTEX
  5
65E
  8
TEAM-DET1
 10
31.259262
 20
-395.056209
 30
850.0
 70
    40
  0
VERTEX
  5
65F
  8
TEAM-DET1
 10
39.47255
 20
-388.664861
 30
850.0
 70
    48
  0
VERTEX
  5
660
  8
TEAM-DET1
 10
36.063278
 20
-395.056206
 30
850.0
 70
    48
  0
VERTEX
  5
661
  8
TEAM-DET1
 10
31.259415
 20
-395.056206
 30
850.0
 70
    48
  0
VERTEX
  5
662
  8
TEAM-DET1
 10
31.259415
 20
-395.056206
 30
850.0
 70
    40
  0
VERTEX
  5
663
  8
TEAM-DET1
 10
27.322312
 20
-395.056206
 30
850.0
 70
    40
  0
VERTEX
  5
664
  8
TEAM-DET1
 10
23.697281
 20
-395.056206
 30
850.0
 70
    40
  0
VERTEX
  5
665
  8
TEAM-DET1
 10
20.297379
 20
-395.056206
 30
850.0
 70
    40
  0
VERTEX
  5
666
  8
TEAM-DET1
 10
17.035539
 20
-395.056206
 30
850.0
 70
    40
  0
VERTEX
  5
667
  8
TEAM-DET1
 10
13.824754
 20
-395.056206
 30
850.0
 70
    40
  0
VERTEX
  5
668
  8
TEAM-DET1
 10
10.578019
 20
-395.056206
 30
850.0
 70
    40
  0
VERTEX
  5
669
  8
TEAM-DET1
 10
7.208298
 20
-395.056206
 30
850.0
 70
    40
  0
VERTEX
  5
66A
  8
TEAM-DET1
 10
3.628617
 20
-395.056205
 30
850.0
 70
    40
  0
VERTEX
  5
66B
  8
TEAM-DET1
 10
-0.248092
 20
-395.056205
 30
850.0
 70
    40
  0
VERTEX
  5
66C
  8
TEAM-DET1
 10
18.8929
 20
-395.056206
 30
850.0
 70
    48
  0
VERTEX
  5
66D
  8
TEAM-DET1
 10
11.914536
 20
-395.056206
 30
850.0
 70
    48
  0
VERTEX
  5
66E
  8
TEAM-DET1
 10
-0.248061
 20
-395.056206
 30
850.0
 70
    48
  0
SEQEND
  5
66F
  8
TEAM-DET1
  0
POLYLINE
  5
670
  8
TEAM-DET1
 66
     1
 10
0.0
 20
0.0
 30
0.0
 70
    12
 75
     6
  0
VERTEX
  5
671
  8
TEAM-DET1
 10
-49.44951
 20
-379.897768
 30
850.0
 70
    48
  0
VERTEX
  5
672
  8
TEAM-DET1
 10
-49.44951
 20
-379.897768
 30
850.0
 70
    40
  0
VERTEX
  5
673
  8
TEAM-DET1
 10
-48.327317
 20
-379.926527
 30
850.0
 70
    40
  0
VERTEX
  5
674
  8
TEAM-DET1
 10
-47.326676
 20
-380.01801
 30
850.0
 70
    40
  0
VERTEX
  5
675
  8
TEAM-DET1
 10
-46.435594
 20
-380.180014
 30
850.0
 70
    40
  0
VERTEX
  5
676
  8
TEAM-DET1
 10
-45.642106
 20
-380.420346
 30
850.0
 70
    40
  0
VERTEX
  5
677
  8
TEAM-DET1
 10
-44.934189
 20
-380.746807
 30
850.0
 70
    40
  0
VERTEX
  5
678
  8
TEAM-DET1
 10
-44.299912
 20
-381.167203
 30
850.0
 70
    40
  0
VERTEX
  5
679
  8
TEAM-DET1
 10
-43.727311
 20
-381.689333
 30
850.0
 70
    40
  0
VERTEX
  5
67A
  8
TEAM-DET1
 10
-43.204362
 20
-382.321004
 30
850.0
 70
    40
  0
VERTEX
  5
67B
  8
TEAM-DET1
 10
-42.719132
 20
-383.070014
 30
850.0
 70
    40
  0
VERTEX
  5
67C
  8
TEAM-DET1
 10
-45.888687
 20
-379.897768
 30
850.0
 70
    48
  0
VERTEX
  5
67D
  8
TEAM-DET1
 10
-44.130296
 20
-380.639166
 30
850.0
 70
    48
  0
VERTEX
  5
67E
  8
TEAM-DET1
 10
-42.719192
 20
-383.070018
 30
850.0
 70
    48
  0
VERTEX
  5
67F
  8
TEAM-DET1
 10
-42.719192
 20
-383.070018
 30
850.0
 70
    40
  0
VERTEX
  5
680
  8
TEAM-DET1
 10
-41.629257
 20
-384.954606
 30
850.0
 70
    40
  0
VERTEX
  5
681
  8
TEAM-DET1
 10
-40.517137
 20
-386.839034
 30
850.0
 70
    40
  0
VERTEX
  5
682
  8
TEAM-DET1
 10
-39.372697
 20
-388.664144
 30
850.0
 70
    40
  0
VERTEX
  5
683
  8
TEAM-DET1
 10
-38.185777
 20
-390.37078
 30
850.0
 70
    40
  0
VERTEX
  5
684
  8
TEAM-DET1
 10
-36.946244
 20
-391.899775
 30
850.0
 70
    40
  0
VERTEX
  5
685
  8
TEAM-DET1
 10
-35.643968
 20
-393.191975
 30
850.0
 70
    40
  0
VERTEX
  5
686
  8
TEAM-DET1
 10
-34.268815
 20
-394.188222
 30
850.0
 70
    40
  0
VERTEX
  5
687
  8
TEAM-DET1
 10
-32.810624
 20
-394.829353
 30
850.0
 70
    40
  0
VERTEX
  5
688
  8
TEAM-DET1
 10
-31.259262
 20
-395.056209
 30
850.0
 70
    40
  0
VERTEX
  5
689
  8
TEAM-DET1
 10
-39.47255
 20
-388.664861
 30
850.0
 70
    48
  0
VERTEX
  5
68A
  8
TEAM-DET1
 10
-36.063278
 20
-395.056206
 30
850.0
 70
    48
  0
VERTEX
  5
68B
  8
TEAM-DET1
 10
-31.259415
 20
-395.056206
 30
850.0
 70
    48
  0
VERTEX
  5
68C
  8
TEAM-DET1
 10
-31.259415
 20
-395.056206
 30
850.0
 70
    40
  0
VERTEX
  5
68D
  8
TEAM-DET1
 10
-27.333177
 20
-395.056206
 30
850.0
 70
    40
  0
VERTEX
  5
68E
  8
TEAM-DET1
 10
-23.737289
 20
-395.056206
 30
850.0
 70
    40
  0
VERTEX
  5
68F
  8
TEAM-DET1
 10
-20.379563
 20
-395.056206
 30
850.0
 70
    40
  0
VERTEX
  5
690
  8
TEAM-DET1
 10
-17.16771
 20
-395.056206
 30
850.0
 70
    40
  0
VERTEX
  5
691
  8
TEAM-DET1
 10
-14.009568
 20
-395.056206
 30
850.0
 70
    40
  0
VERTEX
  5
692
  8
TEAM-DET1
 10
-10.812821
 20
-395.056206
 30
850.0
 70
    40
  0
VERTEX
  5
693
  8
TEAM-DET1
 10
-7.485306
 20
-395.056206
 30
850.0
 70
    40
  0
VERTEX
  5
694
  8
TEAM-DET1
 10
-3.934769
 20
-395.056205
 30
850.0
 70
    40
  0
VERTEX
  5
695
  8
TEAM-DET1
 10
-0.068986
 20
-395.056205
 30
850.0
 70
    40
  0
VERTEX
  5
696
  8
TEAM-DET1
 10
-18.8929
 20
-395.056206
 30
850.0
 70
    48
  0
VERTEX
  5
697
  8
TEAM-DET1
 10
-12.231462
 20
-395.056206
 30
850.0
 70
    48
  0
VERTEX
  5
698
  8
TEAM-DET1
 10
-0.068925
 20
-395.056206
 30
850.0
 70
    48
  0
SEQEND
  5
699
  8
TEAM-DET1
  0
POLYLINE
  5
69A
  8
TEAM-NET
 66
     1
 10
0.0
 20
0.0
 30
0.0
 70
    16
 71
     2
 72
    37
  0
VERTEX
  5
69B
  8
TEAM-NET
 10
0.0
 20
-13.502061
 30
850.0
 70
    64
  0
VERTEX
  5
69C
  8
TEAM-NET
 10
-23.84924
 20
-13.502061
 30
850.0
 70
    64
  0
VERTEX
  5
69D
  8
TEAM-NET
 10
-47.69848
 20
-13.502061
 30
850.0
 70
    64
  0
VERTEX
  5
69E
  8
TEAM-NET
 10
-71.547721
 20
-13.502061
 30
850.0
 70
    64
  0
VERTEX
  5
69F
  8
TEAM-NET
 10
-95.396961
 20
-13.502061
 30
850.0
 70
    64
  0
VERTEX
  5
6A0
  8
TEAM-NET
 10
-119.246201
 20
-13.502061
 30
850.0
 70
    64
  0
VERTEX
  5
6A1
  8
TEAM-NET
 10
-143.095441
 20
-13.502061
 30
850.0
 70
    64
  0
VERTEX
  5
6A2
  8
TEAM-NET
 10
-166.944682
 20
-13.502061
 30
850.0
 70
    64
  0
VERTEX
  5
6A3
  8
TEAM-NET
 10
-190.793922
 20
-13.502061
 30
850.0
 70
    64
  0
VERTEX
  5
6A4
  8
TEAM-NET
 10
-214.643162
 20
-13.502061
 30
850.0
 70
    64
  0
VERTEX
  5
6A5
  8
TEAM-NET
 10
-238.492402
 20
-13.502061
 30
850.0
 70
    64
  0
VERTEX
  5
6A6
  8
TEAM-NET
 10
-258.968817
 20
-23.282185
 30
850.0
 70
    64
  0
VERTEX
  5
6A7
  8
TEAM-NET
 10
-262.223023
 20
-46.541106
 30
850.0
 70
    64
  0
VERTEX
  5
6A8
  8
TEAM-NET
 10
-262.223023
 20
-70.390346
 30
850.0
 70
    64
  0
VERTEX
  5
6A9
  8
TEAM-NET
 10
-262.223023
 20
-94.239587
 30
850.0
 70
    64
  0
VERTEX
  5
6AA
  8
TEAM-NET
 10
-262.223023
 20
-118.088827
 30
850.0
 70
    64
  0
VERTEX
  5
6AB
  8
TEAM-NET
 10
-262.223023
 20
-141.938067
 30
850.0
 70
    64
  0
VERTEX
  5
6AC
  8
TEAM-NET
 10
-262.223023
 20
-165.787307
 30
850.0
 70
    64
  0
VERTEX
  5
6AD
  8
TEAM-NET
 10
-262.223023
 20
-189.636548
 30
850.0
 70
    64
  0
VERTEX
  5
6AE
  8
TEAM-NET
 10
-262.223023
 20
-213.485788
 30
850.0
 70
    64
  0
VERTEX
  5
6AF
  8
TEAM-NET
 10
-262.223023
 20
-237.335028
 30
850.0
 70
    64
  0
VERTEX
  5
6B0
  8
TEAM-NET
 10
-262.223023
 20
-261.184268
 30
850.0
 70
    64
  0
VERTEX
  5
6B1
  8
TEAM-NET
 10
-262.223023
 20
-285.033508
 30
850.0
 70
    64
  0
VERTEX
  5
6B2
  8
TEAM-NET
 10
-262.223023
 20
-308.882749
 30
850.0
 70
    64
  0
VERTEX
  5
6B3
  8
TEAM-NET
 10
-262.223023
 20
-332.731989
 30
850.0
 70
    64
  0
VERTEX
  5
6B4
  8
TEAM-NET
 10
-258.969422
 20
-355.991029
 30
850.0
 70
    64
  0
VERTEX
  5
6B5
  8
TEAM-NET
 10
-238.492402
 20
-365.770112
 30
850.0
 70
    64
  0
VERTEX
  5
6B6
  8
TEAM-NET
 10
-214.643162
 20
-365.770112
 30
850.0
 70
    64
  0
VERTEX
  5
6B7
  8
TEAM-NET
 10
-190.793922
 20
-365.770112
 30
850.0
 70
    64
  0
VERTEX
  5
6B8
  8
TEAM-NET
 10
-166.944682
 20
-365.770112
 30
850.0
 70
    64
  0
VERTEX
  5
6B9
  8
TEAM-NET
 10
-143.095441
 20
-365.770112
 30
850.0
 70
    64
  0
VERTEX
  5
6BA
  8
TEAM-NET
 10
-119.246201
 20
-365.770112
 30
850.0
 70
    64
  0
VERTEX
  5
6BB
  8
TEAM-NET
 10
-95.396961
 20
-365.770112
 30
850.0
 70
    64
  0
VERTEX
  5
6BC
  8
TEAM-NET
 10
-71.547721
 20
-365.770112
 30
850.0
 70
    64
  0
VERTEX
  5
6BD
  8
TEAM-NET
 10
-47.69848
 20
-365.770112
 30
850.0
 70
    64
  0
VERTEX
  5
6BE
  8
TEAM-NET
 10
-23.84924
 20
-365.770112
 30
850.0
 70
    64
  0
VERTEX
  5
6BF
  8
TEAM-NET
 10
0.0
 20
-365.770112
 30
850.0
 70
    64
  0
VERTEX
  5
6C0
  8
TEAM-NET
 10
0.0
 20
-0.000016
 30
850.0
 70
    64
  0
VERTEX
  5
6C1
  8
TEAM-NET
 10
-25.24218
 20
-0.000016
 30
850.0
 70
    64
  0
VERTEX
  5
6C2
  8
TEAM-NET
 10
-50.484359
 20
-0.000016
 30
850.0
 70
    64
  0
VERTEX
  5
6C3
  8
TEAM-NET
 10
-75.726539
 20
-0.000016
 30
850.0
 70
    64
  0
VERTEX
  5
6C4
  8
TEAM-NET
 10
-100.968719
 20
-0.000016
 30
850.0
 70
    64
  0
VERTEX
  5
6C5
  8
TEAM-NET
 10
-126.210898
 20
-0.000016
 30
850.0
 70
    64
  0
VERTEX
  5
6C6
  8
TEAM-NET
 10
-151.453078
 20
-0.000016
 30
850.0
 70
    64
  0
VERTEX
  5
6C7
  8
TEAM-NET
 10
-176.695258
 20
-0.000016
 30
850.0
 70
    64
  0
VERTEX
  5
6C8
  8
TEAM-NET
 10
-201.937438
 20
-0.000016
 30
850.0
 70
    64
  0
VERTEX
  5
6C9
  8
TEAM-NET
 10
-227.179617
 20
-0.000016
 30
850.0
 70
    64
  0
VERTEX
  5
6CA
  8
TEAM-NET
 10
-252.390793
 20
-0.59836
 30
850.0
 70
    64
  0
VERTEX
  5
6CB
  8
TEAM-NET
 10
-272.825422
 20
-14.035128
 30
850.0
 70
    64
  0
VERTEX
  5
6CC
  8
TEAM-NET
 10
-277.5
 20
-38.4287
 30
850.0
 70
    64
  0
VERTEX
  5
6CD
  8
TEAM-NET
 10
-277.5
 20
-63.67088
 30
850.0
 70
    64
  0
VERTEX
  5
6CE
  8
TEAM-NET
 10
-277.5
 20
-88.91306
 30
850.0
 70
    64
  0
VERTEX
  5
6CF
  8
TEAM-NET
 10
-277.5
 20
-114.155239
 30
850.0
 70
    64
  0
VERTEX
  5
6D0
  8
TEAM-NET
 10
-277.5
 20
-139.397419
 30
850.0
 70
    64
  0
VERTEX
  5
6D1
  8
TEAM-NET
 10
-277.5
 20
-164.639599
 30
850.0
 70
    64
  0
VERTEX
  5
6D2
  8
TEAM-NET
 10
-277.5
 20
-189.881779
 30
850.0
 70
    64
  0
VERTEX
  5
6D3
  8
TEAM-NET
 10
-277.5
 20
-215.123958
 30
850.0
 70
    64
  0
VERTEX
  5
6D4
  8
TEAM-NET
 10
-277.5
 20
-240.366138
 30
850.0
 70
    64
  0
VERTEX
  5
6D5
  8
TEAM-NET
 10
-277.5
 20
-265.608318
 30
850.0
 70
    64
  0
VERTEX
  5
6D6
  8
TEAM-NET
 10
-277.5
 20
-290.850497
 30
850.0
 70
    64
  0
VERTEX
  5
6D7
  8
TEAM-NET
 10
-277.5
 20
-316.092677
 30
850.0
 70
    64
  0
VERTEX
  5
6D8
  8
TEAM-NET
 10
-277.5
 20
-341.334857
 30
850.0
 70
    64
  0
VERTEX
  5
6D9
  8
TEAM-NET
 10
-272.825931
 20
-365.728578
 30
850.0
 70
    64
  0
VERTEX
  5
6DA
  8
TEAM-NET
 10
-252.390803
 20
-379.16448
 30
850.0
 70
    64
  0
VERTEX
  5
6DB
  8
TEAM-NET
 10
-227.179617
 20
-379.762726
 30
850.0
 70
    64
  0
VERTEX
  5
6DC
  8
TEAM-NET
 10
-201.937438
 20
-379.762726
 30
850.0
 70
    64
  0
VERTEX
  5
6DD
  8
TEAM-NET
 10
-176.695258
 20
-379.762726
 30
850.0
 70
    64
  0
VERTEX
  5
6DE
  8
TEAM-NET
 10
-151.453078
 20
-379.762726
 30
850.0
 70
    64
  0
VERTEX
  5
6DF
  8
TEAM-NET
 10
-126.210898
 20
-379.762726
 30
850.0
 70
    64
  0
VERTEX
  5
6E0
  8
TEAM-NET
 10
-100.968719
 20
-379.762726
 30
850.0
 70
    64
  0
VERTEX
  5
6E1
  8
TEAM-NET
 10
-75.726539
 20
-379.762726
 30
850.0
 70
    64
  0
VERTEX
  5
6E2
  8
TEAM-NET
 10
-50.484359
 20
-379.762726
 30
850.0
 70
    64
  0
VERTEX
  5
6E3
  8
TEAM-NET
 10
-25.24218
 20
-379.762726
 30
850.0
 70
    64
  0
VERTEX
  5
6E4
  8
TEAM-NET
 10
0.0
 20
-379.762726
 30
850.0
 70
    64
  0
SEQEND
  5
6E5
  8
TEAM-NET
  0
TEXT
  5
6E6
  8
TEAM-TXT
 10
-219.892134
 20
-211.874611
 30
850.0
 40
24.999999
  1
team 231036
 41
0.8
 51
15.0
  7
TEAM
  0
POLYLINE
  5
6E9
  8
TEAM-BODY
 66
     1
 10
0.0
 20
0.0
 30
0.0
 70
     8
  0
VERTEX
  5
6EA
  8
TEAM-BODY
 10
0.0
 20
-13.502061
 30
850.0
 70
    32
  0
VERTEX
  5
6EB
  8
TEAM-BODY
 10
43.578061
 20
-13.502061
 30
850.0
 70
    32
  0
VERTEX
  5
6EC
  8
TEAM-BODY
 10
85.777875
 20
-13.502061
 30
850.0
 70
    32
  0
VERTEX
  5
6ED
  8
TEAM-BODY
 10
124.281354
 20
-13.502061
 30
850.0
 70
    32
  0
VERTEX
  5
6EE
  8
TEAM-BODY
 10
157.240333
 20
-13.502061
 30
850.0
 70
    32
  0
VERTEX
  5
6EF
  8
TEAM-BODY
 10
183.273384
 20
-13.502061
 30
850.0
 70
    32
  0
VERTEX
  5
6F0
  8
TEAM-BODY
 10
202.866047
 20
-13.502061
 30
850.0
 70
    32
  0
VERTEX
  5
6F1
  8
TEAM-BODY
 10
216.970601
 20
-13.502061
 30
850.0
 70
    32
  0
VERTEX
  5
6F2
  8
TEAM-BODY
 10
226.539324
 20
-13.502061
 30
850.0
 70
    32
  0
VERTEX
  5
6F3
  8
TEAM-BODY
 10
232.524497
 20
-13.502061
 30
850.0
 70
    32
  0
VERTEX
  5
6F4
  8
TEAM-BODY
 10
235.878399
 20
-13.502061
 30
850.0
 70
    32
  0
VERTEX
  5
6F5
  8
TEAM-BODY
 10
237.553308
 20
-13.502061
 30
850.0
 70
    32
  0
VERTEX
  5
6F6
  8
TEAM-BODY
 10
238.501506
 20
-13.502061
 30
850.0
 70
    32
  0
VERTEX
  5
6F7
  8
TEAM-BODY
 10
239.510964
 20
-13.505869
 30
850.0
 70
    32
  0
VERTEX
  5
6F8
  8
TEAM-BODY
 10
240.712432
 20
-13.532528
 30
850.0
 70
    32
  0
VERTEX
  5
6F9
  8
TEAM-BODY
 10
242.072352
 20
-13.604888
 30
850.0
 70
    32
  0
VERTEX
  5
6FA
  8
TEAM-BODY
 10
243.557167
 20
-13.745801
 30
850.0
 70
    32
  0
VERTEX
  5
6FB
  8
TEAM-BODY
 10
245.133321
 20
-13.978115
 30
850.0
 70
    32
  0
VERTEX
  5
6FC
  8
TEAM-BODY
 10
246.767256
 20
-14.324683
 30
850.0
 70
    32
  0
VERTEX
  5
6FD
  8
TEAM-BODY
 10
248.425414
 20
-14.808355
 30
850.0
 70
    32
  0
VERTEX
  5
6FE
  8
TEAM-BODY
 10
250.07424
 20
-15.451981
 30
850.0
 70
    32
  0
VERTEX
  5
6FF
  8
TEAM-BODY
 10
251.682855
 20
-16.271684
 30
850.0
 70
    32
  0
VERTEX
  5
700
  8
TEAM-BODY
 10
253.231106
 20
-17.25667
 30
850.0
 70
    32
  0
VERTEX
  5
701
  8
TEAM-BODY
 10
254.701521
 20
-18.389418
 30
850.0
 70
    32
  0
VERTEX
  5
702
  8
TEAM-BODY
 10
256.076625
 20
-19.652407
 30
850.0
 70
    32
  0
VERTEX
  5
703
  8
TEAM-BODY
 10
257.338946
 20
-21.028116
 30
850.0
 70
    32
  0
VERTEX
  5
704
  8
TEAM-BODY
 10
258.47101
 20
-22.499022
 30
850.0
 70
    32
  0
VERTEX
  5
705
  8
TEAM-BODY
 10
259.455344
 20
-24.047605
 30
850.0
 70
    32
  0
VERTEX
  5
706
  8
TEAM-BODY
 10
260.274476
 20
-25.656342
 30
850.0
 70
    32
  0
VERTEX
  5
707
  8
TEAM-BODY
 10
260.917649
 20
-27.305049
 30
850.0
 70
    32
  0
VERTEX
  5
708
  8
TEAM-BODY
 10
261.40098
 20
-28.96288
 30
850.0
 70
    32
  0
VERTEX
  5
709
  8
TEAM-BODY
 10
261.747303
 20
-30.596326
 30
850.0
 70
    32
  0
VERTEX
  5
70A
  8
TEAM-BODY
 10
261.979455
 20
-32.171879
 30
850.0
 70
    32
  0
VERTEX
  5
70B
  8
TEAM-BODY
 10
262.120268
 20
-33.65603
 30
850.0
 70
    32
  0
VERTEX
  5
70C
  8
TEAM-BODY
 10
262.192577
 20
-35.015269
 30
850.0
 70
    32
  0
VERTEX
  5
70D
  8
TEAM-BODY
 10
262.219217
 20
-36.216087
 30
850.0
 70
    32
  0
VERTEX
  5
70E
  8
TEAM-BODY
 10
262.223023
 20
-37.224976
 30
850.0
 70
    32
  0
VERTEX
  5
70F
  8
TEAM-BODY
 10
262.223023
 20
-38.116369
 30
850.0
 70
    32
  0
VERTEX
  5
710
  8
TEAM-BODY
 10
262.223023
 20
-39.396472
 30
850.0
 70
    32
  0
VERTEX
  5
711
  8
TEAM-BODY
 10
262.223023
 20
-41.679431
 30
850.0
 70
    32
  0
VERTEX
  5
712
  8
TEAM-BODY
 10
262.223023
 20
-45.579396
 30
850.0
 70
    32
  0
VERTEX
  5
713
  8
TEAM-BODY
 10
262.223023
 20
-51.710513
 30
850.0
 70
    32
  0
VERTEX
  5
714
  8
TEAM-BODY
 10
262.223023
 20
-60.686931
 30
850.0
 70
    32
  0
VERTEX
  5
715
  8
TEAM-BODY
 10
262.223023
 20
-73.122798
 30
850.0
 70
    32
  0
VERTEX
  5
716
  8
TEAM-BODY
 10
262.223023
 20
-89.632261
 30
850.0
 70
    32
  0
VERTEX
  5
717
  8
TEAM-BODY
 10
262.223023
 20
-110.531788
 30
850.0
 70
    32
  0
VERTEX
  5
718
  8
TEAM-BODY
 10
262.223023
 20
-134.947123
 30
850.0
 70
    32
  0
VERTEX
  5
719
  8
TEAM-BODY
 10
262.223023
 20
-161.706331
 30
850.0
 70
    32
  0
VERTEX
  5
71A
  8
TEAM-BODY
 10
262.223023
 20
-189.637474
 30
850.0
 70
    32
  0
VERTEX
  5
71B
  8
TEAM-BODY
 10
262.223023
 20
-217.568618
 30
850.0
 70
    32
  0
VERTEX
  5
71C
  8
TEAM-BODY
 10
262.223023
 20
-244.327826
 30
850.0
 70
    32
  0
VERTEX
  5
71D
  8
TEAM-BODY
 10
262.223023
 20
-268.743161
 30
850.0
 70
    32
  0
VERTEX
  5
71E
  8
TEAM-BODY
 10
262.223023
 20
-289.642688
 30
850.0
 70
    32
  0
VERTEX
  5
71F
  8
TEAM-BODY
 10
262.223023
 20
-306.152151
 30
850.0
 70
    32
  0
VERTEX
  5
720
  8
TEAM-BODY
 10
262.223023
 20
-318.588018
 30
850.0
 70
    32
  0
VERTEX
  5
721
  8
TEAM-BODY
 10
262.223023
 20
-327.564436
 30
850.0
 70
    32
  0
VERTEX
  5
722
  8
TEAM-BODY
 10
262.223023
 20
-333.695553
 30
850.0
 70
    32
  0
VERTEX
  5
723
  8
TEAM-BODY
 10
262.223023
 20
-337.595517
 30
850.0
 70
    32
  0
VERTEX
  5
724
  8
TEAM-BODY
 10
262.223023
 20
-339.878476
 30
850.0
 70
    32
  0
VERTEX
  5
725
  8
TEAM-BODY
 10
262.223023
 20
-341.158577
 30
850.0
 70
    32
  0
VERTEX
  5
726
  8
TEAM-BODY
 10
262.223023
 20
-342.049969
 30
850.0
 70
    32
  0
VERTEX
  5
727
  8
TEAM-BODY
 10
262.219217
 20
-343.058855
 30
850.0
 70
    32
  0
VERTEX
  5
728
  8
TEAM-BODY
 10
262.192577
 20
-344.259666
 30
850.0
 70
    32
  0
VERTEX
  5
729
  8
TEAM-BODY
 10
262.120268
 20
-345.618885
 30
850.0
 70
    32
  0
VERTEX
  5
72A
  8
TEAM-BODY
 10
261.979455
 20
-347.103001
 30
850.0
 70
    32
  0
VERTEX
  5
72B
  8
TEAM-BODY
 10
261.747303
 20
-348.678497
 30
850.0
 70
    32
  0
VERTEX
  5
72C
  8
TEAM-BODY
 10
261.40098
 20
-350.31186
 30
850.0
 70
    32
  0
VERTEX
  5
72D
  8
TEAM-BODY
 10
260.917649
 20
-351.969575
 30
850.0
 70
    32
  0
VERTEX
  5
72E
  8
TEAM-BODY
 10
260.274476
 20
-353.618129
 30
850.0
 70
    32
  0
VERTEX
  5
72F
  8
TEAM-BODY
 10
259.455344
 20
-355.226673
 30
850.0
 70
    32
  0
VERTEX
  5
730
  8
TEAM-BODY
 10
258.47101
 20
-356.775031
 30
850.0
 70
    32
  0
VERTEX
  5
731
  8
TEAM-BODY
 10
257.338946
 20
-358.245691
 30
850.0
 70
    32
  0
VERTEX
  5
732
  8
TEAM-BODY
 10
256.076625
 20
-359.621142
 30
850.0
 70
    32
  0
VERTEX
  5
733
  8
TEAM-BODY
 10
254.701521
 20
-360.883875
 30
850.0
 70
    32
  0
VERTEX
  5
734
  8
TEAM-BODY
 10
253.231106
 20
-362.016377
 30
850.0
 70
    32
  0
VERTEX
  5
735
  8
TEAM-BODY
 10
251.682855
 20
-363.001139
 30
850.0
 70
    32
  0
VERTEX
  5
736
  8
TEAM-BODY
 10
250.07424
 20
-363.82065
 30
850.0
 70
    32
  0
VERTEX
  5
737
  8
TEAM-BODY
 10
248.425414
 20
-364.464124
 30
850.0
 70
    32
  0
VERTEX
  5
738
  8
TEAM-BODY
 10
246.767256
 20
-364.947682
 30
850.0
 70
    32
  0
VERTEX
  5
739
  8
TEAM-BODY
 10
245.133321
 20
-365.294169
 30
850.0
 70
    32
  0
VERTEX
  5
73A
  8
TEAM-BODY
 10
243.557167
 20
-365.526429
 30
850.0
 70
    32
  0
VERTEX
  5
73B
  8
TEAM-BODY
 10
242.072352
 20
-365.667308
 30
850.0
 70
    32
  0
VERTEX
  5
73C
  8
TEAM-BODY
 10
240.712432
 20
-365.739651
 30
850.0
 70
    32
  0
VERTEX
  5
73D
  8
TEAM-BODY
 10
239.510964
 20
-365.766304
 30
850.0
 70
    32
  0
VERTEX
  5
73E
  8
TEAM-BODY
 10
238.501506
 20
-365.770112
 30
850.0
 70
    32
  0
VERTEX
  5
73F
  8
TEAM-BODY
 10
237.553308
 20
-365.770112
 30
850.0
 70
    32
  0
VERTEX
  5
740
  8
TEAM-BODY
 10
235.878399
 20
-365.770112
 30
850.0
 70
    32
  0
VERTEX
  5
741
  8
TEAM-BODY
 10
232.524497
 20
-365.770112
 30
850.0
 70
    32
  0
VERTEX
  5
742
  8
TEAM-BODY
 10
226.539324
 20
-365.770112
 30
850.0
 70
    32
  0
VERTEX
  5
743
  8
TEAM-BODY
 10
216.970601
 20
-365.770112
 30
850.0
 70
    32
  0
VERTEX
  5
744
  8
TEAM-BODY
 10
202.866047
 20
-365.770112
 30
850.0
 70
    32
  0
VERTEX
  5
745
  8
TEAM-BODY
 10
183.273384
 20
-365.770112
 30
850.0
 70
    32
  0
VERTEX
  5
746
  8
TEAM-BODY
 10
157.240333
 20
-365.770112
 30
850.0
 70
    32
  0
VERTEX
  5
747
  8
TEAM-BODY
 10
124.281354
 20
-365.770112
 30
850.0
 70
    32
  0
VERTEX
  5
748
  8
TEAM-BODY
 10
85.777875
 20
-365.770112
 30
850.0
 70
    32
  0
VERTEX
  5
749
  8
TEAM-BODY
 10
43.578061
 20
-365.770112
 30
850.0
 70
    32
  0
VERTEX
  5
74A
  8
TEAM-BODY
 10
0.0
 20
-365.770112
 30
850.0
 70
    32
  0
SEQEND
  5
74B
  8
TEAM-BODY
  0
POLYLINE
  5
74C
  8
TEAM-BODY
 66
     1
 10
0.0
 20
0.0
 30
0.0
 70
     8
  0
VERTEX
  5
74D
  8
TEAM-BODY
 10
0.0
 20
-0.000016
 30
850.0
 70
    32
  0
VERTEX
  5
74E
  8
TEAM-BODY
 10
0.001341
 20
-0.000016
 30
850.0
 70
    32
  0
VERTEX
  5
74F
  8
TEAM-BODY
 10
44.68925
 20
-0.000016
 30
850.0
 70
    32
  0
VERTEX
  5
750
  8
TEAM-BODY
 10
87.502143
 20
-0.000016
 30
850.0
 70
    32
  0
VERTEX
  5
751
  8
TEAM-BODY
 10
126.565001
 20
-0.000016
 30
850.0
 70
    32
  0
VERTEX
  5
752
  8
TEAM-BODY
 10
160.002807
 20
-0.000016
 30
850.0
 70
    32
  0
VERTEX
  5
753
  8
TEAM-BODY
 10
186.416038
 20
-0.000016
 30
850.0
 70
    32
  0
VERTEX
  5
754
  8
TEAM-BODY
 10
206.307147
 20
-0.000016
 30
850.0
 70
    32
  0
VERTEX
  5
755
  8
TEAM-BODY
 10
220.654077
 20
-0.000016
 30
850.0
 70
    32
  0
VERTEX
  5
756
  8
TEAM-BODY
 10
230.434775
 20
-0.000016
 30
850.0
 70
    32
  0
VERTEX
  5
757
  8
TEAM-BODY
 10
236.627186
 20
-0.000016
 30
850.0
 70
    32
  0
VERTEX
  5
758
  8
TEAM-BODY
 10
240.209256
 20
-0.000016
 30
850.0
 70
    32
  0
VERTEX
  5
759
  8
TEAM-BODY
 10
242.158929
 20
-0.000016
 30
850.0
 70
    32
  0
VERTEX
  5
75A
  8
TEAM-BODY
 10
243.454152
 20
-0.000016
 30
850.0
 70
    32
  0
VERTEX
  5
75B
  8
TEAM-BODY
 10
244.901867
 20
-0.005481
 30
850.0
 70
    32
  0
VERTEX
  5
75C
  8
TEAM-BODY
 10
246.625001
 20
-0.04374
 30
850.0
 70
    32
  0
VERTEX
  5
75D
  8
TEAM-BODY
 10
248.57548
 20
-0.147584
 30
850.0
 70
    32
  0
VERTEX
  5
75E
  8
TEAM-BODY
 10
250.705227
 20
-0.349808
 30
850.0
 70
    32
  0
VERTEX
  5
75F
  8
TEAM-BODY
 10
252.966168
 20
-0.683204
 30
850.0
 70
    32
  0
VERTEX
  5
760
  8
TEAM-BODY
 10
255.310228
 20
-1.180565
 30
850.0
 70
    32
  0
VERTEX
  5
761
  8
TEAM-BODY
 10
257.68933
 20
-1.874685
 30
850.0
 70
    32
  0
VERTEX
  5
762
  8
TEAM-BODY
 10
260.0554
 20
-2.798355
 30
850.0
 70
    32
  0
VERTEX
  5
763
  8
TEAM-BODY
 10
262.364182
 20
-3.974715
 30
850.0
 70
    32
  0
VERTEX
  5
764
  8
TEAM-BODY
 10
264.586696
 20
-5.388281
 30
850.0
 70
    32
  0
VERTEX
  5
765
  8
TEAM-BODY
 10
266.697782
 20
-7.013914
 30
850.0
 70
    32
  0
VERTEX
  5
766
  8
TEAM-BODY
 10
268.672281
 20
-8.826476
 30
850.0
 70
    32
  0
VERTEX
  5
767
  8
TEAM-BODY
 10
270.485032
 20
-10.800828
 30
850.0
 70
    32
  0
VERTEX
  5
768
  8
TEAM-BODY
 10
272.110876
 20
-12.911833
 30
850.0
 70
    32
  0
VERTEX
  5
769
  8
TEAM-BODY
 10
273.524653
 20
-15.13435
 30
850.0
 70
    32
  0
VERTEX
  5
76A
  8
TEAM-BODY
 10
274.701203
 20
-17.443243
 30
850.0
 70
    32
  0
VERTEX
  5
76B
  8
TEAM-BODY
 10
275.625024
 20
-19.809544
 30
850.0
 70
    32
  0
VERTEX
  5
76C
  8
TEAM-BODY
 10
276.319257
 20
-22.18898
 30
850.0
 70
    32
  0
VERTEX
  5
76D
  8
TEAM-BODY
 10
276.8167
 20
-24.533448
 30
850.0
 70
    32
  0
VERTEX
  5
76E
  8
TEAM-BODY
 10
277.15015
 20
-26.794846
 30
850.0
 70
    32
  0
VERTEX
  5
76F
  8
TEAM-BODY
 10
277.352407
 20
-28.925072
 30
850.0
 70
    32
  0
VERTEX
  5
770
  8
TEAM-BODY
 10
277.456269
 20
-30.876023
 30
850.0
 70
    32
  0
VERTEX
  5
771
  8
TEAM-BODY
 10
277.494534
 20
-32.599598
 30
850.0
 70
    32
  0
VERTEX
  5
772
  8
TEAM-BODY
 10
277.5
 20
-34.047694
 30
850.0
 70
    32
  0
VERTEX
  5
773
  8
TEAM-BODY
 10
277.5
 20
-35.286176
 30
850.0
 70
    32
  0
VERTEX
  5
774
  8
TEAM-BODY
 10
277.5
 20
-36.836766
 30
850.0
 70
    32
  0
VERTEX
  5
775
  8
TEAM-BODY
 10
277.5
 20
-39.335157
 30
850.0
 70
    32
  0
VERTEX
  5
776
  8
TEAM-BODY
 10
277.5
 20
-43.417038
 30
850.0
 70
    32
  0
VERTEX
  5
777
  8
TEAM-BODY
 10
277.5
 20
-49.7181
 30
850.0
 70
    32
  0
VERTEX
  5
778
  8
TEAM-BODY
 10
277.5
 20
-58.874034
 30
850.0
 70
    32
  0
VERTEX
  5
779
  8
TEAM-BODY
 10
277.5
 20
-71.520529
 30
850.0
 70
    32
  0
VERTEX
  5
77A
  8
TEAM-BODY
 10
277.5
 20
-88.293276
 30
850.0
 70
    32
  0
VERTEX
  5
77B
  8
TEAM-BODY
 10
277.5
 20
-109.523603
 30
850.0
 70
    32
  0
VERTEX
  5
77C
  8
TEAM-BODY
 10
277.5
 20
-134.325387
 30
850.0
 70
    32
  0
VERTEX
  5
77D
  8
TEAM-BODY
 10
277.5
 20
-161.508142
 30
850.0
 70
    32
  0
VERTEX
  5
77E
  8
TEAM-BODY
 10
277.5
 20
-189.881383
 30
850.0
 70
    32
  0
VERTEX
  5
77F
  8
TEAM-BODY
 10
277.5
 20
-218.254623
 30
850.0
 70
    32
  0
VERTEX
  5
780
  8
TEAM-BODY
 10
277.5
 20
-245.437378
 30
850.0
 70
    32
  0
VERTEX
  5
781
  8
TEAM-BODY
 10
277.5
 20
-270.239162
 30
850.0
 70
    32
  0
VERTEX
  5
782
  8
TEAM-BODY
 10
277.5
 20
-291.469489
 30
850.0
 70
    32
  0
VERTEX
  5
783
  8
TEAM-BODY
 10
277.5
 20
-308.242237
 30
850.0
 70
    32
  0
VERTEX
  5
784
  8
TEAM-BODY
 10
277.5
 20
-320.888739
 30
850.0
 70
    32
  0
VERTEX
  5
785
  8
TEAM-BODY
 10
277.5
 20
-330.044689
 30
850.0
 70
    32
  0
VERTEX
  5
786
  8
TEAM-BODY
 10
277.5
 20
-336.345784
 30
850.0
 70
    32
  0
VERTEX
  5
787
  8
TEAM-BODY
 10
277.5
 20
-340.427721
 30
850.0
 70
    32
  0
VERTEX
  5
788
  8
TEAM-BODY
 10
277.5
 20
-342.926193
 30
850.0
 70
    32
  0
VERTEX
  5
789
  8
TEAM-BODY
 10
277.5
 20
-344.476898
 30
850.0
 70
    32
  0
VERTEX
  5
78A
  8
TEAM-BODY
 10
277.5
 20
-345.715531
 30
850.0
 70
    32
  0
VERTEX
  5
78B
  8
TEAM-BODY
 10
277.494534
 20
-347.163819
 30
850.0
 70
    32
  0
VERTEX
  5
78C
  8
TEAM-BODY
 10
277.456269
 20
-348.887613
 30
850.0
 70
    32
  0
VERTEX
  5
78D
  8
TEAM-BODY
 10
277.352407
 20
-350.838794
 30
850.0
 70
    32
  0
VERTEX
  5
78E
  8
TEAM-BODY
 10
277.15015
 20
-352.969243
 30
850.0
 70
    32
  0
VERTEX
  5
78F
  8
TEAM-BODY
 10
276.8167
 20
-355.230843
 30
850.0
 70
    32
  0
VERTEX
  5
790
  8
TEAM-BODY
 10
276.319257
 20
-357.575475
 30
850.0
 70
    32
  0
VERTEX
  5
791
  8
TEAM-BODY
 10
275.625024
 20
-359.955021
 30
850.0
 70
    32
  0
VERTEX
  5
792
  8
TEAM-BODY
 10
274.701203
 20
-362.321362
 30
850.0
 70
    32
  0
VERTEX
  5
793
  8
TEAM-BODY
 10
273.524653
 20
-364.630212
 30
850.0
 70
    32
  0
VERTEX
  5
794
  8
TEAM-BODY
 10
272.110876
 20
-366.852617
 30
850.0
 70
    32
  0
VERTEX
  5
795
  8
TEAM-BODY
 10
270.485032
 20
-368.963455
 30
850.0
 70
    32
  0
VERTEX
  5
796
  8
TEAM-BODY
 10
268.672281
 20
-370.937602
 30
850.0
 70
    32
  0
VERTEX
  5
797
  8
TEAM-BODY
 10
266.697782
 20
-372.749938
 30
850.0
 70
    32
  0
VERTEX
  5
798
  8
TEAM-BODY
 10
264.586696
 20
-374.37534
 30
850.0
 70
    32
  0
VERTEX
  5
799
  8
TEAM-BODY
 10
262.364182
 20
-375.788685
 30
850.0
 70
    32
  0
VERTEX
  5
79A
  8
TEAM-BODY
 10
260.0554
 20
-376.964851
 30
850.0
 70
    32
  0
VERTEX
  5
79B
  8
TEAM-BODY
 10
257.68933
 20
-377.888369
 30
850.0
 70
    32
  0
VERTEX
  5
79C
  8
TEAM-BODY
 10
255.310228
 20
-378.582373
 30
850.0
 70
    32
  0
VERTEX
  5
79D
  8
TEAM-BODY
 10
252.966168
 20
-379.079652
 30
850.0
 70
    32
  0
VERTEX
  5
79E
  8
TEAM-BODY
 10
250.705227
 20
-379.412992
 30
850.0
 70
    32
  0
VERTEX
  5
79F
  8
TEAM-BODY
 10
248.57548
 20
-379.615182
 30
850.0
 70
    32
  0
VERTEX
  5
7A0
  8
TEAM-BODY
 10
246.625001
 20
-379.71901
 30
850.0
 70
    32
  0
VERTEX
  5
7A1
  8
TEAM-BODY
 10
244.901867
 20
-379.757262
 30
850.0
 70
    32
  0
VERTEX
  5
7A2
  8
TEAM-BODY
 10
243.454152
 20
-379.762726
 30
850.0
 70
    32
  0
VERTEX
  5
7A3
  8
TEAM-BODY
 10
242.158929
 20
-379.762726
 30
850.0
 70
    32
  0
VERTEX
  5
7A4
  8
TEAM-BODY
 10
240.209256
 20
-379.762726
 30
850.0
 70
    32
  0
VERTEX
  5
7A5
  8
TEAM-BODY
 10
236.627186
 20
-379.762726
 30
850.0
 70
    32
  0
VERTEX
  5
7A6
  8
TEAM-BODY
 10
230.434775
 20
-379.762726
 30
850.0
 70
    32
  0
VERTEX
  5
7A7
  8
TEAM-BODY
 10
220.654077
 20
-379.762726
 30
850.0
 70
    32
  0
VERTEX
  5
7A8
  8
TEAM-BODY
 10
206.307147
 20
-379.762726
 30
850.0
 70
    32
  0
VERTEX
  5
7A9
  8
TEAM-BODY
 10
186.416038
 20
-379.762726
 30
850.0
 70
    32
  0
VERTEX
  5
7AA
  8
TEAM-BODY
 10
160.002807
 20
-379.762726
 30
850.0
 70
    32
  0
VERTEX
  5
7AB
  8
TEAM-BODY
 10
126.565001
 20
-379.762726
 30
850.0
 70
    32
  0
VERTEX
  5
7AC
  8
TEAM-BODY
 10
87.502143
 20
-379.762726
 30
850.0
 70
    32
  0
VERTEX
  5
7AD
  8
TEAM-BODY
 10
44.68925
 20
-379.762726
 30
850.0
 70
    32
  0
VERTEX
  5
7AE
  8
TEAM-BODY
 10
0.001341
 20
-379.762726
 30
850.0
 70
    32
  0
VERTEX
  5
7AF
  8
TEAM-BODY
 10
0.0
 20
-379.762726
 30
850.0
 70
    32
  0
SEQEND
  5
7B0
  8
TEAM-BODY
  0
POLYLINE
  5
7B1
  8
TEAM-NET
 66
     1
 10
0.0
 20
0.0
 30
0.0
 70
    16
 71
     2
 72
    37
  0
VERTEX
  5
7B2
  8
TEAM-NET
 10
0.0
 20
-13.502061
 30
850.0
 70
    64
  0
VERTEX
  5
7B3
  8
TEAM-NET
 10
23.84924
 20
-13.502061
 30
850.0
 70
    64
  0
VERTEX
  5
7B4
  8
TEAM-NET
 10
47.69848
 20
-13.502061
 30
850.0
 70
    64
  0
VERTEX
  5
7B5
  8
TEAM-NET
 10
71.547721
 20
-13.502061
 30
850.0
 70
    64
  0
VERTEX
  5
7B6
  8
TEAM-NET
 10
95.396961
 20
-13.502061
 30
850.0
 70
    64
  0
VERTEX
  5
7B7
  8
TEAM-NET
 10
119.246201
 20
-13.502061
 30
850.0
 70
    64
  0
VERTEX
  5
7B8
  8
TEAM-NET
 10
143.095441
 20
-13.502061
 30
850.0
 70
    64
  0
VERTEX
  5
7B9
  8
TEAM-NET
 10
166.944682
 20
-13.502061
 30
850.0
 70
    64
  0
VERTEX
  5
7BA
  8
TEAM-NET
 10
190.793922
 20
-13.502061
 30
850.0
 70
    64
  0
VERTEX
  5
7BB
  8
TEAM-NET
 10
214.643162
 20
-13.502061
 30
850.0
 70
    64
  0
VERTEX
  5
7BC
  8
TEAM-NET
 10
238.492402
 20
-13.502061
 30
850.0
 70
    64
  0
VERTEX
  5
7BD
  8
TEAM-NET
 10
258.968817
 20
-23.282185
 30
850.0
 70
    64
  0
VERTEX
  5
7BE
  8
TEAM-NET
 10
262.223023
 20
-46.541106
 30
850.0
 70
    64
  0
VERTEX
  5
7BF
  8
TEAM-NET
 10
262.223023
 20
-70.390346
 30
850.0
 70
    64
  0
VERTEX
  5
7C0
  8
TEAM-NET
 10
262.223023
 20
-94.239587
 30
850.0
 70
    64
  0
VERTEX
  5
7C1
  8
TEAM-NET
 10
262.223023
 20
-118.088827
 30
850.0
 70
    64
  0
VERTEX
  5
7C2
  8
TEAM-NET
 10
262.223023
 20
-141.938067
 30
850.0
 70
    64
  0
VERTEX
  5
7C3
  8
TEAM-NET
 10
262.223023
 20
-165.787307
 30
850.0
 70
    64
  0
VERTEX
  5
7C4
  8
TEAM-NET
 10
262.223023
 20
-189.636548
 30
850.0
 70
    64
  0
VERTEX
  5
7C5
  8
TEAM-NET
 10
262.223023
 20
-213.485788
 30
850.0
 70
    64
  0
VERTEX
  5
7C6
  8
TEAM-NET
 10
262.223023
 20
-237.335028
 30
850.0
 70
    64
  0
VERTEX
  5
7C7
  8
TEAM-NET
 10
262.223023
 20
-261.184268
 30
850.0
 70
    64
  0
VERTEX
  5
7C8
  8
TEAM-NET
 10
262.223023
 20
-285.033508
 30
850.0
 70
    64
  0
VERTEX
  5
7C9
  8
TEAM-NET
 10
262.223023
 20
-308.882749
 30
850.0
 70
    64
  0
VERTEX
  5
7CA
  8
TEAM-NET
 10
262.223023
 20
-332.731989
 30
850.0
 70
    64
  0
VERTEX
  5
7CB
  8
TEAM-NET
 10
258.969422
 20
-355.991029
 30
850.0
 70
    64
  0
VERTEX
  5
7CC
  8
TEAM-NET
 10
238.492402
 20
-365.770112
 30
850.0
 70
    64
  0
VERTEX
  5
7CD
  8
TEAM-NET
 10
214.643162
 20
-365.770112
 30
850.0
 70
    64
  0
VERTEX
  5
7CE
  8
TEAM-NET
 10
190.793922
 20
-365.770112
 30
850.0
 70
    64
  0
VERTEX
  5
7CF
  8
TEAM-NET
 10
166.944682
 20
-365.770112
 30
850.0
 70
    64
  0
VERTEX
  5
7D0
  8
TEAM-NET
 10
143.095441
 20
-365.770112
 30
850.0
 70
    64
  0
VERTEX
  5
7D1
  8
TEAM-NET
 10
119.246201
 20
-365.770112
 30
850.0
 70
    64
  0
VERTEX
  5
7D2
  8
TEAM-NET
 10
95.396961
 20
-365.770112
 30
850.0
 70
    64
  0
VERTEX
  5
7D3
  8
TEAM-NET
 10
71.547721
 20
-365.770112
 30
850.0
 70
    64
  0
VERTEX
  5
7D4
  8
TEAM-NET
 10
47.69848
 20
-365.770112
 30
850.0
 70
    64
  0
VERTEX
  5
7D5
  8
TEAM-NET
 10
23.84924
 20
-365.770112
 30
850.0
 70
    64
  0
VERTEX
  5
7D6
  8
TEAM-NET
 10
0.0
 20
-365.770112
 30
850.0
 70
    64
  0
VERTEX
  5
7D7
  8
TEAM-NET
 10
0.0
 20
-0.000016
 30
850.0
 70
    64
  0
VERTEX
  5
7D8
  8
TEAM-NET
 10
25.24218
 20
-0.000016
 30
850.0
 70
    64
  0
VERTEX
  5
7D9
  8
TEAM-NET
 10
50.484359
 20
-0.000016
 30
850.0
 70
    64
  0
VERTEX
  5
7DA
  8
TEAM-NET
 10
75.726539
 20
-0.000016
 30
850.0
 70
    64
  0
VERTEX
  5
7DB
  8
TEAM-NET
 10
100.968719
 20
-0.000016
 30
850.0
 70
    64
  0
VERTEX
  5
7DC
  8
TEAM-NET
 10
126.210898
 20
-0.000016
 30
850.0
 70
    64
  0
VERTEX
  5
7DD
  8
TEAM-NET
 10
151.453078
 20
-0.000016
 30
850.0
 70
    64
  0
VERTEX
  5
7DE
  8
TEAM-NET
 10
176.695258
 20
-0.000016
 30
850.0
 70
    64
  0
VERTEX
  5
7DF
  8
TEAM-NET
 10
201.937438
 20
-0.000016
 30
850.0
 70
    64
  0
VERTEX
  5
7E0
  8
TEAM-NET
 10
227.179617
 20
-0.000016
 30
850.0
 70
    64
  0
VERTEX
  5
7E1
  8
TEAM-NET
 10
252.390793
 20
-0.59836
 30
850.0
 70
    64
  0
VERTEX
  5
7E2
  8
TEAM-NET
 10
272.825422
 20
-14.035128
 30
850.0
 70
    64
  0
VERTEX
  5
7E3
  8
TEAM-NET
 10
277.5
 20
-38.4287
 30
850.0
 70
    64
  0
VERTEX
  5
7E4
  8
TEAM-NET
 10
277.5
 20
-63.67088
 30
850.0
 70
    64
  0
VERTEX
  5
7E5
  8
TEAM-NET
 10
277.5
 20
-88.91306
 30
850.0
 70
    64
  0
VERTEX
  5
7E6
  8
TEAM-NET
 10
277.5
 20
-114.155239
 30
850.0
 70
    64
  0
VERTEX
  5
7E7
  8
TEAM-NET
 10
277.5
 20
-139.397419
 30
850.0
 70
    64
  0
VERTEX
  5
7E8
  8
TEAM-NET
 10
277.5
 20
-164.639599
 30
850.0
 70
    64
  0
VERTEX
  5
7E9
  8
TEAM-NET
 10
277.5
 20
-189.881779
 30
850.0
 70
    64
  0
VERTEX
  5
7EA
  8
TEAM-NET
 10
277.5
 20
-215.123958
 30
850.0
 70
    64
  0
VERTEX
  5
7EB
  8
TEAM-NET
 10
277.5
 20
-240.366138
 30
850.0
 70
    64
  0
VERTEX
  5
7EC
  8
TEAM-NET
 10
277.5
 20
-265.608318
 30
850.0
 70
    64
  0
VERTEX
  5
7ED
  8
TEAM-NET
 10
277.5
 20
-290.850497
 30
850.0
 70
    64
  0
VERTEX
  5
7EE
  8
TEAM-NET
 10
277.5
 20
-316.092677
 30
850.0
 70
    64
  0
VERTEX
  5
7EF
  8
TEAM-NET
 10
277.5
 20
-341.334857
 30
850.0
 70
    64
  0
VERTEX
  5
7F0
  8
TEAM-NET
 10
272.825931
 20
-365.728578
 30
850.0
 70
    64
  0
VERTEX
  5
7F1
  8
TEAM-NET
 10
252.390803
 20
-379.16448
 30
850.0
 70
    64
  0
VERTEX
  5
7F2
  8
TEAM-NET
 10
227.179617
 20
-379.762726
 30
850.0
 70
    64
  0
VERTEX
  5
7F3
  8
TEAM-NET
 10
201.937438
 20
-379.762726
 30
850.0
 70
    64
  0
VERTEX
  5
7F4
  8
TEAM-NET
 10
176.695258
 20
-379.762726
 30
850.0
 70
    64
  0
VERTEX
  5
7F5
  8
TEAM-NET
 10
151.453078
 20
-379.762726
 30
850.0
 70
    64
  0
VERTEX
  5
7F6
  8
TEAM-NET
 10
126.210898
 20
-379.762726
 30
850.0
 70
    64
  0
VERTEX
  5
7F7
  8
TEAM-NET
 10
100.968719
 20
-379.762726
 30
850.0
 70
    64
  0
VERTEX
  5
7F8
  8
TEAM-NET
 10
75.726539
 20
-379.762726
 30
850.0
 70
    64
  0
VERTEX
  5
7F9
  8
TEAM-NET
 10
50.484359
 20
-379.762726
 30
850.0
 70
    64
  0
VERTEX
  5
7FA
  8
TEAM-NET
 10
25.24218
 20
-379.762726
 30
850.0
 70
    64
  0
VERTEX
  5
7FB
  8
TEAM-NET
 10
0.0
 20
-379.762726
 30
850.0
 70
    64
  0
SEQEND
  5
7FC
  8
TEAM-NET
  0
ENDSEC
  0
EOF
