  0
SECTION
  2
HEADER
  9
$ACADVER
  1
AC1009
  9
$INSBASE
 10
0.0
 20
0.0
 30
0.0
  9
$EXTMIN
 10
-290.039184
 20
-580.028087
 30
-850.012962
  9
$EXTMAX
 10
290.038242
 20
10.023256
 30
0.025946
  9
$LIMMIN
 10
-290.039184
 20
-580.028087
  9
$LIMMAX
 10
290.038242
 20
10.023256
  9
$ORTHOMODE
 70
     1
  9
$REGENMODE
 70
     1
  9
$FILLMODE
 70
     1
  9
$QTEXTMODE
 70
     0
  9
$MIRRTEXT
 70
     0
  9
$DRAGMODE
 70
     2
  9
$LTSCALE
 40
50.0
  9
$OSMODE
 70
     0
  9
$ATTMODE
 70
     1
  9
$TEXTSIZE
 40
200.0
  9
$TRACEWID
 40
1.0
  9
$TEXTSTYLE
  7
STANDARD
  9
$CLAYER
  8
TEAM-MAS
  9
$CELTYPE
  6
BYLAYER
  9
$CECOLOR
 62
   256
  9
$DIMSCALE
 40
0.0
  9
$DIMASZ
 40
20.0
  9
$DIMEXO
 40
10.0
  9
$DIMDLI
 40
1.0
  9
$DIMRND
 40
0.0
  9
$DIMDLE
 40
0.0
  9
$DIMEXE
 40
1.0
  9
$DIMTP
 40
0.0
  9
$DIMTM
 40
0.0
  9
$DIMTXT
 40
35.0
  9
$DIMCEN
 40
1.0
  9
$DIMTSZ
 40
0.0
  9
$DIMTOL
 70
     0
  9
$DIMLIM
 70
     0
  9
$DIMTIH
 70
     0
  9
$DIMTOH
 70
     0
  9
$DIMSE1
 70
     0
  9
$DIMSE2
 70
     0
  9
$DIMTAD
 70
     0
  9
$DIMZIN
 70
     0
  9
$DIMBLK
  1

  9
$DIMASO
 70
     1
  9
$DIMSHO
 70
     0
  9
$DIMPOST
  1

  9
$DIMAPOST
  1

  9
$DIMALT
 70
     0
  9
$DIMALTD
 70
     2
  9
$DIMALTF
 40
25.4
  9
$DIMLFAC
 40
1.0
  9
$DIMTOFL
 70
     0
  9
$DIMTVP
 40
0.0
  9
$DIMTIX
 70
     0
  9
$DIMSOXD
 70
     0
  9
$DIMSAH
 70
     0
  9
$DIMBLK1
  1

  9
$DIMBLK2
  1

  9
$DIMSTYLE
  2
TEAM
  9
$DIMCLRD
 70
     9
  9
$DIMCLRE
 70
     9
  9
$DIMCLRT
 70
    11
  9
$DIMTFAC
 40
1.0
  9
$DIMGAP
 40
7.0
  9
$LUNITS
 70
     2
  9
$LUPREC
 70
     1
  9
$SKETCHINC
 40
1.0
  9
$FILLETRAD
 40
10.0
  9
$AUNITS
 70
     0
  9
$AUPREC
 70
     0
  9
$MENU
  1
ROPLANS
  9
$ELEVATION
 40
0.0
  9
$PELEVATION
 40
0.0
  9
$THICKNESS
 40
0.0
  9
$LIMCHECK
 70
     0
  9
$BLIPMODE
 70
     1
  9
$CHAMFERA
 40
0.0
  9
$CHAMFERB
 40
0.0
  9
$SKPOLY
 70
     0
  9
$TDCREATE
 40
2450392.957851
  9
$TDUPDATE
 40
2456203.941022
  9
$TDINDWG
 40
2.322858
  9
$TDUSRTIMER
 40
2.322858
  9
$USRTIMER
 70
     1
  9
$ANGBASE
 50
0.0
  9
$ANGDIR
 70
     0
  9
$PDMODE
 70
     0
  9
$PDSIZE
 40
0.0
  9
$PLINEWID
 40
0.0
  9
$COORDS
 70
     2
  9
$SPLFRAME
 70
     0
  9
$SPLINETYPE
 70
     6
  9
$SPLINESEGS
 70
     8
  9
$ATTDIA
 70
     0
  9
$ATTREQ
 70
     0
  9
$HANDLING
 70
     1
  9
$HANDSEED
  5
212
  9
$SURFTAB1
 70
    36
  9
$SURFTAB2
 70
    36
  9
$SURFTYPE
 70
     6
  9
$SURFU
 70
     6
  9
$SURFV
 70
     6
  9
$UCSNAME
  2

  9
$UCSORG
 10
0.0
 20
0.0
 30
0.0
  9
$UCSXDIR
 10
1.0
 20
0.0
 30
0.0
  9
$UCSYDIR
 10
0.0
 20
1.0
 30
0.0
  9
$PUCSNAME
  2

  9
$PUCSORG
 10
0.0
 20
0.0
 30
0.0
  9
$PUCSXDIR
 10
1.0
 20
0.0
 30
0.0
  9
$PUCSYDIR
 10
0.0
 20
1.0
 30
0.0
  9
$USERI1
 70
     0
  9
$USERI2
 70
     0
  9
$USERI3
 70
     0
  9
$USERI4
 70
     0
  9
$USERI5
 70
     0
  9
$USERR1
 40
0.0
  9
$USERR2
 40
0.0
  9
$USERR3
 40
0.0
  9
$USERR4
 40
0.0
  9
$USERR5
 40
0.0
  9
$WORLDVIEW
 70
     1
  9
$SHADEDGE
 70
     0
  9
$SHADEDIF
 70
    70
  9
$TILEMODE
 70
     1
  9
$MAXACTVP
 70
    16
  9
$PLIMCHECK
 70
     0
  9
$PEXTMIN
 10
-0.805942
 20
0.005011
 30
0.0
  9
$PEXTMAX
 10
20.250094
 20
11.356329
 30
0.0
  9
$PLIMMIN
 10
0.0
 20
0.0
  9
$PLIMMAX
 10
12.0
 20
9.0
  9
$UNITMODE
 70
     0
  9
$VISRETAIN
 70
     0
  9
$PLINEGEN
 70
     0
  9
$PSLTSCALE
 70
     0
  0
ENDSEC
  0
SECTION
  2
TABLES
  0
TABLE
  2
VPORT
 70
     2
  0
VPORT
  2
*ACTIVE
 70
     0
 10
0.0
 20
0.0
 11
1.0
 21
1.0
 12
-0.000471
 22
-285.002416
 13
0.0
 23
0.0
 14
1.0
 24
1.0
 15
50.0
 25
50.0
 16
0.0
 26
0.0
 36
1.0
 17
0.0
 27
0.0
 37
0.0
 40
593.766251
 41
1.911765
 42
50.0
 43
0.0
 44
0.0
 50
0.0
 51
0.0
 71
     0
 72
   100
 73
     1
 74
     1
 75
     0
 76
     0
 77
     0
 78
     0
  0
ENDTAB
  0
TABLE
  2
LTYPE
 70
     2
  0
LTYPE
  2
CONTINUOUS
 70
     0
  3
Solid Line
 72
    65
 73
     0
 40
0.0
  0
LTYPE
  2
31
 70
     0
  3

 72
    65
 73
     4
 40
2.1
 49
1.5
 49
-0.3
 49
0.0
 49
-0.3
  0
ENDTAB
  0
TABLE
  2
LAYER
 70
    10
  0
LAYER
  2
0
 70
     0
 62
     7
  6
CONTINUOUS
  0
LAYER
  2
TEAM-BODY
 70
     0
 62
     2
  6
CONTINUOUS
  0
LAYER
  2
TEAM-AXE
 70
     0
 62
    10
  6
31
  0
LAYER
  2
TEAM-MAS
 70
     0
 62
     9
  6
CONTINUOUS
  0
LAYER
  2
TEAM-TXT
 70
     0
 62
    11
  6
CONTINUOUS
  0
LAYER
  2
TEAM-DET1
 70
     0
 62
     4
  6
CONTINUOUS
  0
LAYER
  2
TEAM-KAN
 70
     0
 62
     6
  6
CONTINUOUS
  0
LAYER
  2
TEAM-DET3
 70
     0
 62
    14
  6
CONTINUOUS
  0
LAYER
  2
TEAM-NET
 70
     0
 62
    15
  6
CONTINUOUS
  0
LAYER
  2
TEAM-INSP
 70
     0
 62
     5
  6
CONTINUOUS
  0
ENDTAB
  0
TABLE
  2
STYLE
 70
     2
  0
STYLE
  2
STANDARD
 70
     0
 40
0.0
 41
1.0
 50
0.0
 71
     0
 42
200.0
  3
txt
  4

  0
STYLE
  2
TEAM
 70
     0
 40
0.0
 41
0.8
 50
15.0
 71
     0
 42
7.0
  3
ROMANS.shx
  4

  0
ENDTAB
  0
TABLE
  2
VIEW
 70
     0
  0
ENDTAB
  0
TABLE
  2
UCS
 70
     0
  0
ENDTAB
  0
TABLE
  2
APPID
 70
     1
  0
APPID
  2
ACAD
 70
     0
  0
ENDTAB
  0
TABLE
  2
DIMSTYLE
 70
     1
  0
DIMSTYLE
  2
TEAM
 70
     0
  3

  4

  5

  6

  7

 40
0.0
 41
20.0
 42
10.0
 43
1.0
 44
1.0
 45
0.0
 46
0.0
 47
0.0
 48
0.0
140
35.0
141
1.0
142
0.0
143
25.4
144
1.0
145
0.0
146
1.0
147
7.0
 71
     0
 72
     0
 73
     0
 74
     0
 75
     0
 76
     0
 77
     0
 78
     0
170
     0
171
     2
172
     0
173
     0
174
     0
175
     0
176
     9
177
     9
178
    11
  0
ENDTAB
  0
ENDSEC
  0
SECTION
  2
BLOCKS
  0
BLOCK
  8
0
  2
$MODEL_SPACE
 70
     0
 10
0.0
 20
0.0
 30
0.0
  3
$MODEL_SPACE
  1

  0
ENDBLK
  5
20B
  8
0
  0
BLOCK
 67
     1
  8
0
  2
$PAPER_SPACE
 70
     0
 10
0.0
 20
0.0
 30
0.0
  3
$PAPER_SPACE
  1

  0
ENDBLK
  5
209
 67
     1
  8
0
  0
ENDSEC
  0
SECTION
  2
ENTITIES
  0
POLYLINE
  5
20
  8
TEAM-NET
 66
     1
 10
0.0
 20
0.0
 30
0.0
 70
    48
 71
     2
 72
    32
  0
VERTEX
  5
21
  8
TEAM-NET
 10
290.0
 20
-290.0
 30
0.0
 70
    64
  0
VERTEX
  5
22
  8
TEAM-NET
 10
284.427731
 20
-233.423807
 30
0.0
 70
    64
  0
VERTEX
  5
23
  8
TEAM-NET
 10
267.925064
 20
-179.021805
 30
0.0
 70
    64
  0
VERTEX
  5
24
  8
TEAM-NET
 10
241.126188
 20
-128.884632
 30
0.0
 70
    64
  0
VERTEX
  5
25
  8
TEAM-NET
 10
205.060967
 20
-84.939033
 30
0.0
 70
    64
  0
VERTEX
  5
26
  8
TEAM-NET
 10
161.115368
 20
-48.873812
 30
0.0
 70
    64
  0
VERTEX
  5
27
  8
TEAM-NET
 10
110.978195
 20
-22.074936
 30
0.0
 70
    64
  0
VERTEX
  5
28
  8
TEAM-NET
 10
56.576193
 20
-5.572269
 30
0.0
 70
    64
  0
VERTEX
  5
29
  8
TEAM-NET
 10
0.0
 20
0.0
 30
0.0
 70
    64
  0
VERTEX
  5
2A
  8
TEAM-NET
 10
-56.576193
 20
-5.572269
 30
0.0
 70
    64
  0
VERTEX
  5
2B
  8
TEAM-NET
 10
-110.978195
 20
-22.074936
 30
0.0
 70
    64
  0
VERTEX
  5
2C
  8
TEAM-NET
 10
-161.115368
 20
-48.873812
 30
0.0
 70
    64
  0
VERTEX
  5
2D
  8
TEAM-NET
 10
-205.060967
 20
-84.939033
 30
0.0
 70
    64
  0
VERTEX
  5
2E
  8
TEAM-NET
 10
-241.126188
 20
-128.884632
 30
0.0
 70
    64
  0
VERTEX
  5
2F
  8
TEAM-NET
 10
-267.925064
 20
-179.021805
 30
0.0
 70
    64
  0
VERTEX
  5
30
  8
TEAM-NET
 10
-284.427731
 20
-233.423807
 30
0.0
 70
    64
  0
VERTEX
  5
31
  8
TEAM-NET
 10
-290.0
 20
-290.0
 30
0.0
 70
    64
  0
VERTEX
  5
32
  8
TEAM-NET
 10
-284.427731
 20
-346.576193
 30
0.0
 70
    64
  0
VERTEX
  5
33
  8
TEAM-NET
 10
-267.925064
 20
-400.978195
 30
0.0
 70
    64
  0
VERTEX
  5
34
  8
TEAM-NET
 10
-241.126188
 20
-451.115368
 30
0.0
 70
    64
  0
VERTEX
  5
35
  8
TEAM-NET
 10
-205.060967
 20
-495.060967
 30
0.0
 70
    64
  0
VERTEX
  5
36
  8
TEAM-NET
 10
-161.115368
 20
-531.126188
 30
0.0
 70
    64
  0
VERTEX
  5
37
  8
TEAM-NET
 10
-110.978195
 20
-557.925064
 30
0.0
 70
    64
  0
VERTEX
  5
38
  8
TEAM-NET
 10
-56.576193
 20
-574.427731
 30
0.0
 70
    64
  0
VERTEX
  5
39
  8
TEAM-NET
 10
0.0
 20
-580.0
 30
0.0
 70
    64
  0
VERTEX
  5
3A
  8
TEAM-NET
 10
56.576193
 20
-574.427731
 30
0.0
 70
    64
  0
VERTEX
  5
3B
  8
TEAM-NET
 10
110.978195
 20
-557.925064
 30
0.0
 70
    64
  0
VERTEX
  5
3C
  8
TEAM-NET
 10
161.115368
 20
-531.126188
 30
0.0
 70
    64
  0
VERTEX
  5
3D
  8
TEAM-NET
 10
205.060967
 20
-495.060967
 30
0.0
 70
    64
  0
VERTEX
  5
3E
  8
TEAM-NET
 10
241.126188
 20
-451.115368
 30
0.0
 70
    64
  0
VERTEX
  5
3F
  8
TEAM-NET
 10
267.925064
 20
-400.978195
 30
0.0
 70
    64
  0
VERTEX
  5
40
  8
TEAM-NET
 10
284.427731
 20
-346.576193
 30
0.0
 70
    64
  0
VERTEX
  5
41
  8
TEAM-NET
 10
190.0
 20
-290.0
 30
-850.0
 70
    64
  0
VERTEX
  5
42
  8
TEAM-NET
 10
186.349203
 20
-252.932839
 30
-850.0
 70
    64
  0
VERTEX
  5
43
  8
TEAM-NET
 10
175.537111
 20
-217.290148
 30
-850.0
 70
    64
  0
VERTEX
  5
44
  8
TEAM-NET
 10
157.979226
 20
-184.441656
 30
-850.0
 70
    64
  0
VERTEX
  5
45
  8
TEAM-NET
 10
134.350288
 20
-155.649712
 30
-850.0
 70
    64
  0
VERTEX
  5
46
  8
TEAM-NET
 10
105.558344
 20
-132.020774
 30
-850.0
 70
    64
  0
VERTEX
  5
47
  8
TEAM-NET
 10
72.709852
 20
-114.462889
 30
-850.0
 70
    64
  0
VERTEX
  5
48
  8
TEAM-NET
 10
37.067161
 20
-103.650797
 30
-850.0
 70
    64
  0
VERTEX
  5
49
  8
TEAM-NET
 10
0.0
 20
-100.0
 30
-850.0
 70
    64
  0
VERTEX
  5
4A
  8
TEAM-NET
 10
-37.067161
 20
-103.650797
 30
-850.0
 70
    64
  0
VERTEX
  5
4B
  8
TEAM-NET
 10
-72.709852
 20
-114.462889
 30
-850.0
 70
    64
  0
VERTEX
  5
4C
  8
TEAM-NET
 10
-105.558344
 20
-132.020774
 30
-850.0
 70
    64
  0
VERTEX
  5
4D
  8
TEAM-NET
 10
-134.350288
 20
-155.649712
 30
-850.0
 70
    64
  0
VERTEX
  5
4E
  8
TEAM-NET
 10
-157.979226
 20
-184.441656
 30
-850.0
 70
    64
  0
VERTEX
  5
4F
  8
TEAM-NET
 10
-175.537111
 20
-217.290148
 30
-850.0
 70
    64
  0
VERTEX
  5
50
  8
TEAM-NET
 10
-186.349203
 20
-252.932839
 30
-850.0
 70
    64
  0
VERTEX
  5
51
  8
TEAM-NET
 10
-190.0
 20
-290.0
 30
-850.0
 70
    64
  0
VERTEX
  5
52
  8
TEAM-NET
 10
-186.349203
 20
-327.067161
 30
-850.0
 70
    64
  0
VERTEX
  5
53
  8
TEAM-NET
 10
-175.537111
 20
-362.709852
 30
-850.0
 70
    64
  0
VERTEX
  5
54
  8
TEAM-NET
 10
-157.979226
 20
-395.558344
 30
-850.0
 70
    64
  0
VERTEX
  5
55
  8
TEAM-NET
 10
-134.350288
 20
-424.350288
 30
-850.0
 70
    64
  0
VERTEX
  5
56
  8
TEAM-NET
 10
-105.558344
 20
-447.979226
 30
-850.0
 70
    64
  0
VERTEX
  5
57
  8
TEAM-NET
 10
-72.709852
 20
-465.537111
 30
-850.0
 70
    64
  0
VERTEX
  5
58
  8
TEAM-NET
 10
-37.067161
 20
-476.349203
 30
-850.0
 70
    64
  0
VERTEX
  5
59
  8
TEAM-NET
 10
0.0
 20
-480.0
 30
-850.0
 70
    64
  0
VERTEX
  5
5A
  8
TEAM-NET
 10
37.067161
 20
-476.349203
 30
-850.0
 70
    64
  0
VERTEX
  5
5B
  8
TEAM-NET
 10
72.709852
 20
-465.537111
 30
-850.0
 70
    64
  0
VERTEX
  5
5C
  8
TEAM-NET
 10
105.558344
 20
-447.979226
 30
-850.0
 70
    64
  0
VERTEX
  5
5D
  8
TEAM-NET
 10
134.350288
 20
-424.350288
 30
-850.0
 70
    64
  0
VERTEX
  5
5E
  8
TEAM-NET
 10
157.979226
 20
-395.558344
 30
-850.0
 70
    64
  0
VERTEX
  5
5F
  8
TEAM-NET
 10
175.537111
 20
-362.709852
 30
-850.0
 70
    64
  0
VERTEX
  5
60
  8
TEAM-NET
 10
186.349203
 20
-327.067161
 30
-850.0
 70
    64
  0
SEQEND
  5
62
  8
TEAM-NET
  0
CIRCLE
  5
63
  8
TEAM-INSP
 10
0.0
 20
0.0
 30
-850.0
 40
10.0
  0
CIRCLE
  5
65
  8
TEAM-DET3
 10
0.0
 20
-290.0
 30
-850.0
 40
190.0
  0
POLYLINE
  5
67
  8
TEAM-NET
 66
     1
 10
0.0
 20
0.0
 30
0.0
 70
    17
 71
    20
 72
    11
  0
VERTEX
  5
68
  8
TEAM-NET
 10
-209.954557
 20
-330.0
 30
0.0
 70
    64
  0
VERTEX
  5
69
  8
TEAM-NET
 10
-201.31005
 20
-330.0
 30
-27.433864
 70
    64
  0
VERTEX
  5
6A
  8
TEAM-NET
 10
-189.098333
 20
-330.0
 30
-53.476491
 70
    64
  0
VERTEX
  5
6B
  8
TEAM-NET
 10
-173.535799
 20
-330.0
 30
-77.666405
 70
    64
  0
VERTEX
  5
6C
  8
TEAM-NET
 10
-154.898215
 20
-330.0
 30
-99.574962
 70
    64
  0
VERTEX
  5
6D
  8
TEAM-NET
 10
-133.515838
 20
-330.0
 30
-118.813943
 70
    64
  0
VERTEX
  5
6E
  8
TEAM-NET
 10
-109.767564
 20
-330.0
 30
-135.042434
 70
    64
  0
VERTEX
  5
6F
  8
TEAM-NET
 10
-84.074212
 20
-330.0
 30
-147.972866
 70
    64
  0
VERTEX
  5
70
  8
TEAM-NET
 10
-56.891067
 20
-330.0
 30
-157.376112
 70
    64
  0
VERTEX
  5
71
  8
TEAM-NET
 10
-28.699813
 20
-330.0
 30
-163.085547
 70
    64
  0
VERTEX
  5
72
  8
TEAM-NET
 10
0.0
 20
-330.0
 30
-165.0
 70
    64
  0
VERTEX
  5
73
  8
TEAM-NET
 10
-199.67865
 20
-265.120474
 30
0.0
 70
    64
  0
VERTEX
  5
74
  8
TEAM-NET
 10
-191.457235
 20
-267.791773
 30
-27.433864
 70
    64
  0
VERTEX
  5
75
  8
TEAM-NET
 10
-179.843202
 20
-271.565401
 30
-53.476491
 70
    64
  0
VERTEX
  5
76
  8
TEAM-NET
 10
-165.042352
 20
-276.374489
 30
-77.666405
 70
    64
  0
VERTEX
  5
77
  8
TEAM-NET
 10
-147.316957
 20
-282.133819
 30
-99.574962
 70
    64
  0
VERTEX
  5
78
  8
TEAM-NET
 10
-126.981108
 20
-288.741337
 30
-118.813943
 70
    64
  0
VERTEX
  5
79
  8
TEAM-NET
 10
-104.395157
 20
-296.079957
 30
-135.042434
 70
    64
  0
VERTEX
  5
7A
  8
TEAM-NET
 10
-79.959327
 20
-304.01964
 30
-147.972866
 70
    64
  0
VERTEX
  5
7B
  8
TEAM-NET
 10
-54.10662
 20
-312.419694
 30
-157.376112
 70
    64
  0
VERTEX
  5
7C
  8
TEAM-NET
 10
-27.295145
 20
-321.13127
 30
-163.085547
 70
    64
  0
VERTEX
  5
7D
  8
TEAM-NET
 10
0.0
 20
-330.0
 30
-165.0
 70
    64
  0
VERTEX
  5
7E
  8
TEAM-NET
 10
-169.856805
 20
-206.591807
 30
0.0
 70
    64
  0
VERTEX
  5
7F
  8
TEAM-NET
 10
-162.863251
 20
-211.672922
 30
-27.433864
 70
    64
  0
VERTEX
  5
80
  8
TEAM-NET
 10
-152.983765
 20
-218.850789
 30
-53.476491
 70
    64
  0
VERTEX
  5
81
  8
TEAM-NET
 10
-140.39341
 20
-227.998217
 30
-77.666405
 70
    64
  0
VERTEX
  5
82
  8
TEAM-NET
 10
-125.315288
 20
-238.953114
 30
-99.574962
 70
    64
  0
VERTEX
  5
83
  8
TEAM-NET
 10
-108.016582
 20
-251.521359
 30
-118.813943
 70
    64
  0
VERTEX
  5
84
  8
TEAM-NET
 10
-88.803825
 20
-265.480245
 30
-135.042434
 70
    64
  0
VERTEX
  5
85
  8
TEAM-NET
 10
-68.017466
 20
-280.582418
 30
-147.972866
 70
    64
  0
VERTEX
  5
86
  8
TEAM-NET
 10
-46.02584
 20
-296.56027
 30
-157.376112
 70
    64
  0
VERTEX
  5
87
  8
TEAM-NET
 10
-23.218637
 20
-313.130673
 30
-163.085547
 70
    64
  0
VERTEX
  5
88
  8
TEAM-NET
 10
0.0
 20
-330.0
 30
-165.0
 70
    64
  0
VERTEX
  5
89
  8
TEAM-NET
 10
-123.408193
 20
-160.143195
 30
0.0
 70
    64
  0
VERTEX
  5
8A
  8
TEAM-NET
 10
-118.327078
 20
-167.136749
 30
-27.433864
 70
    64
  0
VERTEX
  5
8B
  8
TEAM-NET
 10
-111.149211
 20
-177.016235
 30
-53.476491
 70
    64
  0
VERTEX
  5
8C
  8
TEAM-NET
 10
-102.001783
 20
-189.60659
 30
-77.666405
 70
    64
  0
VERTEX
  5
8D
  8
TEAM-NET
 10
-91.046886
 20
-204.684712
 30
-99.574962
 70
    64
  0
VERTEX
  5
8E
  8
TEAM-NET
 10
-78.478641
 20
-221.983418
 30
-118.813943
 70
    64
  0
VERTEX
  5
8F
  8
TEAM-NET
 10
-64.519755
 20
-241.196175
 30
-135.042434
 70
    64
  0
VERTEX
  5
90
  8
TEAM-NET
 10
-49.417582
 20
-261.982534
 30
-147.972866
 70
    64
  0
VERTEX
  5
91
  8
TEAM-NET
 10
-33.43973
 20
-283.97416
 30
-157.376112
 70
    64
  0
VERTEX
  5
92
  8
TEAM-NET
 10
-16.869327
 20
-306.781363
 30
-163.085547
 70
    64
  0
VERTEX
  5
93
  8
TEAM-NET
 10
0.0
 20
-330.0
 30
-165.0
 70
    64
  0
VERTEX
  5
94
  8
TEAM-NET
 10
-64.879526
 20
-130.32135
 30
0.0
 70
    64
  0
VERTEX
  5
95
  8
TEAM-NET
 10
-62.208227
 20
-138.542765
 30
-27.433864
 70
    64
  0
VERTEX
  5
96
  8
TEAM-NET
 10
-58.434599
 20
-150.156798
 30
-53.476491
 70
    64
  0
VERTEX
  5
97
  8
TEAM-NET
 10
-53.625511
 20
-164.957648
 30
-77.666405
 70
    64
  0
VERTEX
  5
98
  8
TEAM-NET
 10
-47.866181
 20
-182.683043
 30
-99.574962
 70
    64
  0
VERTEX
  5
99
  8
TEAM-NET
 10
-41.258663
 20
-203.018892
 30
-118.813943
 70
    64
  0
VERTEX
  5
9A
  8
TEAM-NET
 10
-33.920043
 20
-225.604843
 30
-135.042434
 70
    64
  0
VERTEX
  5
9B
  8
TEAM-NET
 10
-25.98036
 20
-250.040673
 30
-147.972866
 70
    64
  0
VERTEX
  5
9C
  8
TEAM-NET
 10
-17.580306
 20
-275.89338
 30
-157.376112
 70
    64
  0
VERTEX
  5
9D
  8
TEAM-NET
 10
-8.86873
 20
-302.704855
 30
-163.085547
 70
    64
  0
VERTEX
  5
9E
  8
TEAM-NET
 10
0.0
 20
-330.0
 30
-165.0
 70
    64
  0
VERTEX
  5
9F
  8
TEAM-NET
 10
0.0
 20
-120.045443
 30
0.0
 70
    64
  0
VERTEX
  5
A0
  8
TEAM-NET
 10
0.0
 20
-128.68995
 30
-27.433864
 70
    64
  0
VERTEX
  5
A1
  8
TEAM-NET
 10
0.0
 20
-140.901667
 30
-53.476491
 70
    64
  0
VERTEX
  5
A2
  8
TEAM-NET
 10
0.0
 20
-156.464201
 30
-77.666405
 70
    64
  0
VERTEX
  5
A3
  8
TEAM-NET
 10
0.0
 20
-175.101785
 30
-99.574962
 70
    64
  0
VERTEX
  5
A4
  8
TEAM-NET
 10
0.0
 20
-196.484162
 30
-118.813943
 70
    64
  0
VERTEX
  5
A5
  8
TEAM-NET
 10
0.0
 20
-220.232436
 30
-135.042434
 70
    64
  0
VERTEX
  5
A6
  8
TEAM-NET
 10
0.0
 20
-245.925788
 30
-147.972866
 70
    64
  0
VERTEX
  5
A7
  8
TEAM-NET
 10
0.0
 20
-273.108933
 30
-157.376112
 70
    64
  0
VERTEX
  5
A8
  8
TEAM-NET
 10
0.0
 20
-301.300187
 30
-163.085547
 70
    64
  0
VERTEX
  5
A9
  8
TEAM-NET
 10
0.0
 20
-330.0
 30
-165.0
 70
    64
  0
VERTEX
  5
AA
  8
TEAM-NET
 10
64.879526
 20
-130.32135
 30
0.0
 70
    64
  0
VERTEX
  5
AB
  8
TEAM-NET
 10
62.208227
 20
-138.542765
 30
-27.433864
 70
    64
  0
VERTEX
  5
AC
  8
TEAM-NET
 10
58.434599
 20
-150.156798
 30
-53.476491
 70
    64
  0
VERTEX
  5
AD
  8
TEAM-NET
 10
53.625511
 20
-164.957648
 30
-77.666405
 70
    64
  0
VERTEX
  5
AE
  8
TEAM-NET
 10
47.866181
 20
-182.683043
 30
-99.574962
 70
    64
  0
VERTEX
  5
AF
  8
TEAM-NET
 10
41.258663
 20
-203.018892
 30
-118.813943
 70
    64
  0
VERTEX
  5
B0
  8
TEAM-NET
 10
33.920043
 20
-225.604843
 30
-135.042434
 70
    64
  0
VERTEX
  5
B1
  8
TEAM-NET
 10
25.98036
 20
-250.040673
 30
-147.972866
 70
    64
  0
VERTEX
  5
B2
  8
TEAM-NET
 10
17.580306
 20
-275.89338
 30
-157.376112
 70
    64
  0
VERTEX
  5
B3
  8
TEAM-NET
 10
8.86873
 20
-302.704855
 30
-163.085547
 70
    64
  0
VERTEX
  5
B4
  8
TEAM-NET
 10
0.0
 20
-330.0
 30
-165.0
 70
    64
  0
VERTEX
  5
B5
  8
TEAM-NET
 10
123.408193
 20
-160.143195
 30
0.0
 70
    64
  0
VERTEX
  5
B6
  8
TEAM-NET
 10
118.327078
 20
-167.136749
 30
-27.433864
 70
    64
  0
VERTEX
  5
B7
  8
TEAM-NET
 10
111.149211
 20
-177.016235
 30
-53.476491
 70
    64
  0
VERTEX
  5
B8
  8
TEAM-NET
 10
102.001783
 20
-189.60659
 30
-77.666405
 70
    64
  0
VERTEX
  5
B9
  8
TEAM-NET
 10
91.046886
 20
-204.684712
 30
-99.574962
 70
    64
  0
VERTEX
  5
BA
  8
TEAM-NET
 10
78.478641
 20
-221.983418
 30
-118.813943
 70
    64
  0
VERTEX
  5
BB
  8
TEAM-NET
 10
64.519755
 20
-241.196175
 30
-135.042434
 70
    64
  0
VERTEX
  5
BC
  8
TEAM-NET
 10
49.417582
 20
-261.982534
 30
-147.972866
 70
    64
  0
VERTEX
  5
BD
  8
TEAM-NET
 10
33.43973
 20
-283.97416
 30
-157.376112
 70
    64
  0
VERTEX
  5
BE
  8
TEAM-NET
 10
16.869327
 20
-306.781363
 30
-163.085547
 70
    64
  0
VERTEX
  5
BF
  8
TEAM-NET
 10
0.0
 20
-330.0
 30
-165.0
 70
    64
  0
VERTEX
  5
C0
  8
TEAM-NET
 10
169.856805
 20
-206.591807
 30
0.0
 70
    64
  0
VERTEX
  5
C1
  8
TEAM-NET
 10
162.863251
 20
-211.672922
 30
-27.433864
 70
    64
  0
VERTEX
  5
C2
  8
TEAM-NET
 10
152.983765
 20
-218.850789
 30
-53.476491
 70
    64
  0
VERTEX
  5
C3
  8
TEAM-NET
 10
140.39341
 20
-227.998217
 30
-77.666405
 70
    64
  0
VERTEX
  5
C4
  8
TEAM-NET
 10
125.315288
 20
-238.953114
 30
-99.574962
 70
    64
  0
VERTEX
  5
C5
  8
TEAM-NET
 10
108.016582
 20
-251.521359
 30
-118.813943
 70
    64
  0
VERTEX
  5
C6
  8
TEAM-NET
 10
88.803825
 20
-265.480245
 30
-135.042434
 70
    64
  0
VERTEX
  5
C7
  8
TEAM-NET
 10
68.017466
 20
-280.582418
 30
-147.972866
 70
    64
  0
VERTEX
  5
C8
  8
TEAM-NET
 10
46.02584
 20
-296.56027
 30
-157.376112
 70
    64
  0
VERTEX
  5
C9
  8
TEAM-NET
 10
23.218637
 20
-313.130673
 30
-163.085547
 70
    64
  0
VERTEX
  5
CA
  8
TEAM-NET
 10
0.0
 20
-330.0
 30
-165.0
 70
    64
  0
VERTEX
  5
CB
  8
TEAM-NET
 10
199.67865
 20
-265.120474
 30
0.0
 70
    64
  0
VERTEX
  5
CC
  8
TEAM-NET
 10
191.457235
 20
-267.791773
 30
-27.433864
 70
    64
  0
VERTEX
  5
CD
  8
TEAM-NET
 10
179.843202
 20
-271.565401
 30
-53.476491
 70
    64
  0
VERTEX
  5
CE
  8
TEAM-NET
 10
165.042352
 20
-276.374489
 30
-77.666405
 70
    64
  0
VERTEX
  5
CF
  8
TEAM-NET
 10
147.316957
 20
-282.133819
 30
-99.574962
 70
    64
  0
VERTEX
  5
D0
  8
TEAM-NET
 10
126.981108
 20
-288.741337
 30
-118.813943
 70
    64
  0
VERTEX
  5
D1
  8
TEAM-NET
 10
104.395157
 20
-296.079957
 30
-135.042434
 70
    64
  0
VERTEX
  5
D2
  8
TEAM-NET
 10
79.959327
 20
-304.01964
 30
-147.972866
 70
    64
  0
VERTEX
  5
D3
  8
TEAM-NET
 10
54.10662
 20
-312.419694
 30
-157.376112
 70
    64
  0
VERTEX
  5
D4
  8
TEAM-NET
 10
27.295145
 20
-321.13127
 30
-163.085547
 70
    64
  0
VERTEX
  5
D5
  8
TEAM-NET
 10
0.0
 20
-330.0
 30
-165.0
 70
    64
  0
VERTEX
  5
D6
  8
TEAM-NET
 10
209.954557
 20
-330.0
 30
0.0
 70
    64
  0
VERTEX
  5
D7
  8
TEAM-NET
 10
201.31005
 20
-330.0
 30
-27.433864
 70
    64
  0
VERTEX
  5
D8
  8
TEAM-NET
 10
189.098333
 20
-330.0
 30
-53.476491
 70
    64
  0
VERTEX
  5
D9
  8
TEAM-NET
 10
173.535799
 20
-330.0
 30
-77.666405
 70
    64
  0
VERTEX
  5
DA
  8
TEAM-NET
 10
154.898215
 20
-330.0
 30
-99.574962
 70
    64
  0
VERTEX
  5
DB
  8
TEAM-NET
 10
133.515838
 20
-330.0
 30
-118.813943
 70
    64
  0
VERTEX
  5
DC
  8
TEAM-NET
 10
109.767564
 20
-330.0
 30
-135.042434
 70
    64
  0
VERTEX
  5
DD
  8
TEAM-NET
 10
84.074212
 20
-330.0
 30
-147.972866
 70
    64
  0
VERTEX
  5
DE
  8
TEAM-NET
 10
56.891067
 20
-330.0
 30
-157.376112
 70
    64
  0
VERTEX
  5
DF
  8
TEAM-NET
 10
28.699813
 20
-330.0
 30
-163.085547
 70
    64
  0
VERTEX
  5
E0
  8
TEAM-NET
 10
0.0
 20
-330.0
 30
-165.0
 70
    64
  0
VERTEX
  5
E1
  8
TEAM-NET
 10
199.67865
 20
-394.879526
 30
0.0
 70
    64
  0
VERTEX
  5
E2
  8
TEAM-NET
 10
191.457235
 20
-392.208227
 30
-27.433864
 70
    64
  0
VERTEX
  5
E3
  8
TEAM-NET
 10
179.843202
 20
-388.434599
 30
-53.476491
 70
    64
  0
VERTEX
  5
E4
  8
TEAM-NET
 10
165.042352
 20
-383.625511
 30
-77.666405
 70
    64
  0
VERTEX
  5
E5
  8
TEAM-NET
 10
147.316957
 20
-377.866181
 30
-99.574962
 70
    64
  0
VERTEX
  5
E6
  8
TEAM-NET
 10
126.981108
 20
-371.258663
 30
-118.813943
 70
    64
  0
VERTEX
  5
E7
  8
TEAM-NET
 10
104.395157
 20
-363.920043
 30
-135.042434
 70
    64
  0
VERTEX
  5
E8
  8
TEAM-NET
 10
79.959327
 20
-355.98036
 30
-147.972866
 70
    64
  0
VERTEX
  5
E9
  8
TEAM-NET
 10
54.10662
 20
-347.580306
 30
-157.376112
 70
    64
  0
VERTEX
  5
EA
  8
TEAM-NET
 10
27.295145
 20
-338.86873
 30
-163.085547
 70
    64
  0
VERTEX
  5
EB
  8
TEAM-NET
 10
0.0
 20
-330.0
 30
-165.0
 70
    64
  0
VERTEX
  5
EC
  8
TEAM-NET
 10
169.856805
 20
-453.408193
 30
0.0
 70
    64
  0
VERTEX
  5
ED
  8
TEAM-NET
 10
162.863251
 20
-448.327078
 30
-27.433864
 70
    64
  0
VERTEX
  5
EE
  8
TEAM-NET
 10
152.983765
 20
-441.149211
 30
-53.476491
 70
    64
  0
VERTEX
  5
EF
  8
TEAM-NET
 10
140.39341
 20
-432.001783
 30
-77.666405
 70
    64
  0
VERTEX
  5
F0
  8
TEAM-NET
 10
125.315288
 20
-421.046886
 30
-99.574962
 70
    64
  0
VERTEX
  5
F1
  8
TEAM-NET
 10
108.016582
 20
-408.478641
 30
-118.813943
 70
    64
  0
VERTEX
  5
F2
  8
TEAM-NET
 10
88.803825
 20
-394.519755
 30
-135.042434
 70
    64
  0
VERTEX
  5
F3
  8
TEAM-NET
 10
68.017466
 20
-379.417582
 30
-147.972866
 70
    64
  0
VERTEX
  5
F4
  8
TEAM-NET
 10
46.02584
 20
-363.43973
 30
-157.376112
 70
    64
  0
VERTEX
  5
F5
  8
TEAM-NET
 10
23.218637
 20
-346.869327
 30
-163.085547
 70
    64
  0
VERTEX
  5
F6
  8
TEAM-NET
 10
0.0
 20
-330.0
 30
-165.0
 70
    64
  0
VERTEX
  5
F7
  8
TEAM-NET
 10
123.408193
 20
-499.856805
 30
0.0
 70
    64
  0
VERTEX
  5
F8
  8
TEAM-NET
 10
118.327078
 20
-492.863251
 30
-27.433864
 70
    64
  0
VERTEX
  5
F9
  8
TEAM-NET
 10
111.149211
 20
-482.983765
 30
-53.476491
 70
    64
  0
VERTEX
  5
FA
  8
TEAM-NET
 10
102.001783
 20
-470.39341
 30
-77.666405
 70
    64
  0
VERTEX
  5
FB
  8
TEAM-NET
 10
91.046886
 20
-455.315288
 30
-99.574962
 70
    64
  0
VERTEX
  5
FC
  8
TEAM-NET
 10
78.478641
 20
-438.016582
 30
-118.813943
 70
    64
  0
VERTEX
  5
FD
  8
TEAM-NET
 10
64.519755
 20
-418.803825
 30
-135.042434
 70
    64
  0
VERTEX
  5
FE
  8
TEAM-NET
 10
49.417582
 20
-398.017466
 30
-147.972866
 70
    64
  0
VERTEX
  5
FF
  8
TEAM-NET
 10
33.43973
 20
-376.02584
 30
-157.376112
 70
    64
  0
VERTEX
  5
100
  8
TEAM-NET
 10
16.869327
 20
-353.218637
 30
-163.085547
 70
    64
  0
VERTEX
  5
101
  8
TEAM-NET
 10
0.0
 20
-330.0
 30
-165.0
 70
    64
  0
VERTEX
  5
102
  8
TEAM-NET
 10
64.879526
 20
-529.67865
 30
0.0
 70
    64
  0
VERTEX
  5
103
  8
TEAM-NET
 10
62.208227
 20
-521.457235
 30
-27.433864
 70
    64
  0
VERTEX
  5
104
  8
TEAM-NET
 10
58.434599
 20
-509.843202
 30
-53.476491
 70
    64
  0
VERTEX
  5
105
  8
TEAM-NET
 10
53.625511
 20
-495.042352
 30
-77.666405
 70
    64
  0
VERTEX
  5
106
  8
TEAM-NET
 10
47.866181
 20
-477.316957
 30
-99.574962
 70
    64
  0
VERTEX
  5
107
  8
TEAM-NET
 10
41.258663
 20
-456.981108
 30
-118.813943
 70
    64
  0
VERTEX
  5
108
  8
TEAM-NET
 10
33.920043
 20
-434.395157
 30
-135.042434
 70
    64
  0
VERTEX
  5
109
  8
TEAM-NET
 10
25.98036
 20
-409.959327
 30
-147.972866
 70
    64
  0
VERTEX
  5
10A
  8
TEAM-NET
 10
17.580306
 20
-384.10662
 30
-157.376112
 70
    64
  0
VERTEX
  5
10B
  8
TEAM-NET
 10
8.86873
 20
-357.295145
 30
-163.085547
 70
    64
  0
VERTEX
  5
10C
  8
TEAM-NET
 10
0.0
 20
-330.0
 30
-165.0
 70
    64
  0
VERTEX
  5
10D
  8
TEAM-NET
 10
0.0
 20
-539.954557
 30
0.0
 70
    64
  0
VERTEX
  5
10E
  8
TEAM-NET
 10
0.0
 20
-531.31005
 30
-27.433864
 70
    64
  0
VERTEX
  5
10F
  8
TEAM-NET
 10
0.0
 20
-519.098333
 30
-53.476491
 70
    64
  0
VERTEX
  5
110
  8
TEAM-NET
 10
0.0
 20
-503.535799
 30
-77.666405
 70
    64
  0
VERTEX
  5
111
  8
TEAM-NET
 10
0.0
 20
-484.898215
 30
-99.574962
 70
    64
  0
VERTEX
  5
112
  8
TEAM-NET
 10
0.0
 20
-463.515838
 30
-118.813943
 70
    64
  0
VERTEX
  5
113
  8
TEAM-NET
 10
0.0
 20
-439.767564
 30
-135.042434
 70
    64
  0
VERTEX
  5
114
  8
TEAM-NET
 10
0.0
 20
-414.074212
 30
-147.972866
 70
    64
  0
VERTEX
  5
115
  8
TEAM-NET
 10
0.0
 20
-386.891067
 30
-157.376112
 70
    64
  0
VERTEX
  5
116
  8
TEAM-NET
 10
0.0
 20
-358.699813
 30
-163.085547
 70
    64
  0
VERTEX
  5
117
  8
TEAM-NET
 10
0.0
 20
-330.0
 30
-165.0
 70
    64
  0
VERTEX
  5
118
  8
TEAM-NET
 10
-64.879526
 20
-529.67865
 30
0.0
 70
    64
  0
VERTEX
  5
119
  8
TEAM-NET
 10
-62.208227
 20
-521.457235
 30
-27.433864
 70
    64
  0
VERTEX
  5
11A
  8
TEAM-NET
 10
-58.434599
 20
-509.843202
 30
-53.476491
 70
    64
  0
VERTEX
  5
11B
  8
TEAM-NET
 10
-53.625511
 20
-495.042352
 30
-77.666405
 70
    64
  0
VERTEX
  5
11C
  8
TEAM-NET
 10
-47.866181
 20
-477.316957
 30
-99.574962
 70
    64
  0
VERTEX
  5
11D
  8
TEAM-NET
 10
-41.258663
 20
-456.981108
 30
-118.813943
 70
    64
  0
VERTEX
  5
11E
  8
TEAM-NET
 10
-33.920043
 20
-434.395157
 30
-135.042434
 70
    64
  0
VERTEX
  5
11F
  8
TEAM-NET
 10
-25.98036
 20
-409.959327
 30
-147.972866
 70
    64
  0
VERTEX
  5
120
  8
TEAM-NET
 10
-17.580306
 20
-384.10662
 30
-157.376112
 70
    64
  0
VERTEX
  5
121
  8
TEAM-NET
 10
-8.86873
 20
-357.295145
 30
-163.085547
 70
    64
  0
VERTEX
  5
122
  8
TEAM-NET
 10
0.0
 20
-330.0
 30
-165.0
 70
    64
  0
VERTEX
  5
123
  8
TEAM-NET
 10
-123.408193
 20
-499.856805
 30
0.0
 70
    64
  0
VERTEX
  5
124
  8
TEAM-NET
 10
-118.327078
 20
-492.863251
 30
-27.433864
 70
    64
  0
VERTEX
  5
125
  8
TEAM-NET
 10
-111.149211
 20
-482.983765
 30
-53.476491
 70
    64
  0
VERTEX
  5
126
  8
TEAM-NET
 10
-102.001783
 20
-470.39341
 30
-77.666405
 70
    64
  0
VERTEX
  5
127
  8
TEAM-NET
 10
-91.046886
 20
-455.315288
 30
-99.574962
 70
    64
  0
VERTEX
  5
128
  8
TEAM-NET
 10
-78.478641
 20
-438.016582
 30
-118.813943
 70
    64
  0
VERTEX
  5
129
  8
TEAM-NET
 10
-64.519755
 20
-418.803825
 30
-135.042434
 70
    64
  0
VERTEX
  5
12A
  8
TEAM-NET
 10
-49.417582
 20
-398.017466
 30
-147.972866
 70
    64
  0
VERTEX
  5
12B
  8
TEAM-NET
 10
-33.43973
 20
-376.02584
 30
-157.376112
 70
    64
  0
VERTEX
  5
12C
  8
TEAM-NET
 10
-16.869327
 20
-353.218637
 30
-163.085547
 70
    64
  0
VERTEX
  5
12D
  8
TEAM-NET
 10
0.0
 20
-330.0
 30
-165.0
 70
    64
  0
VERTEX
  5
12E
  8
TEAM-NET
 10
-169.856805
 20
-453.408193
 30
0.0
 70
    64
  0
VERTEX
  5
12F
  8
TEAM-NET
 10
-162.863251
 20
-448.327078
 30
-27.433864
 70
    64
  0
VERTEX
  5
130
  8
TEAM-NET
 10
-152.983765
 20
-441.149211
 30
-53.476491
 70
    64
  0
VERTEX
  5
131
  8
TEAM-NET
 10
-140.39341
 20
-432.001783
 30
-77.666405
 70
    64
  0
VERTEX
  5
132
  8
TEAM-NET
 10
-125.315288
 20
-421.046886
 30
-99.574962
 70
    64
  0
VERTEX
  5
133
  8
TEAM-NET
 10
-108.016582
 20
-408.478641
 30
-118.813943
 70
    64
  0
VERTEX
  5
134
  8
TEAM-NET
 10
-88.803825
 20
-394.519755
 30
-135.042434
 70
    64
  0
VERTEX
  5
135
  8
TEAM-NET
 10
-68.017466
 20
-379.417582
 30
-147.972866
 70
    64
  0
VERTEX
  5
136
  8
TEAM-NET
 10
-46.02584
 20
-363.43973
 30
-157.376112
 70
    64
  0
VERTEX
  5
137
  8
TEAM-NET
 10
-23.218637
 20
-346.869327
 30
-163.085547
 70
    64
  0
VERTEX
  5
138
  8
TEAM-NET
 10
0.0
 20
-330.0
 30
-165.0
 70
    64
  0
VERTEX
  5
139
  8
TEAM-NET
 10
-199.67865
 20
-394.879526
 30
0.0
 70
    64
  0
VERTEX
  5
13A
  8
TEAM-NET
 10
-191.457235
 20
-392.208227
 30
-27.433864
 70
    64
  0
VERTEX
  5
13B
  8
TEAM-NET
 10
-179.843202
 20
-388.434599
 30
-53.476491
 70
    64
  0
VERTEX
  5
13C
  8
TEAM-NET
 10
-165.042352
 20
-383.625511
 30
-77.666405
 70
    64
  0
VERTEX
  5
13D
  8
TEAM-NET
 10
-147.316957
 20
-377.866181
 30
-99.574962
 70
    64
  0
VERTEX
  5
13E
  8
TEAM-NET
 10
-126.981108
 20
-371.258663
 30
-118.813943
 70
    64
  0
VERTEX
  5
13F
  8
TEAM-NET
 10
-104.395157
 20
-363.920043
 30
-135.042434
 70
    64
  0
VERTEX
  5
140
  8
TEAM-NET
 10
-79.959327
 20
-355.98036
 30
-147.972866
 70
    64
  0
VERTEX
  5
141
  8
TEAM-NET
 10
-54.10662
 20
-347.580306
 30
-157.376112
 70
    64
  0
VERTEX
  5
142
  8
TEAM-NET
 10
-27.295145
 20
-338.86873
 30
-163.085547
 70
    64
  0
VERTEX
  5
143
  8
TEAM-NET
 10
0.0
 20
-330.0
 30
-165.0
 70
    64
  0
SEQEND
  5
144
  8
TEAM-NET
  0
CIRCLE
  5
145
  8
TEAM-KAN
 10
0.0
 20
-330.0
 30
-155.0
 40
20.0
  0
CIRCLE
  5
147
  8
TEAM-KAN
 10
0.0
 20
-330.0
 30
-155.0
 40
30.0
  0
CIRCLE
  5
148
  8
TEAM-KAN
 10
0.0
 20
-330.0
 30
-165.0
 40
20.0
  0
CIRCLE
  5
149
  8
TEAM-KAN
 10
0.0
 20
-330.0
 30
-165.0
 40
30.0
  0
POLYLINE
  5
14A
  8
TEAM-KAN
 66
     1
 10
0.0
 20
0.0
 30
0.0
 70
    48
 71
     2
 72
    32
  0
VERTEX
  5
14B
  8
TEAM-KAN
 10
30.0
 20
-330.0
 30
-155.0
 70
    64
  0
VERTEX
  5
14C
  8
TEAM-KAN
 10
29.423558
 20
-324.14729
 30
-155.0
 70
    64
  0
VERTEX
  5
14D
  8
TEAM-KAN
 10
27.716386
 20
-318.519497
 30
-155.0
 70
    64
  0
VERTEX
  5
14E
  8
TEAM-KAN
 10
24.944088
 20
-313.332893
 30
-155.0
 70
    64
  0
VERTEX
  5
14F
  8
TEAM-KAN
 10
21.213203
 20
-308.786797
 30
-155.0
 70
    64
  0
VERTEX
  5
150
  8
TEAM-KAN
 10
16.667107
 20
-305.055912
 30
-155.0
 70
    64
  0
VERTEX
  5
151
  8
TEAM-KAN
 10
11.480503
 20
-302.283614
 30
-155.0
 70
    64
  0
VERTEX
  5
152
  8
TEAM-KAN
 10
5.85271
 20
-300.576442
 30
-155.0
 70
    64
  0
VERTEX
  5
153
  8
TEAM-KAN
 10
0.0
 20
-300.0
 30
-155.0
 70
    64
  0
VERTEX
  5
154
  8
TEAM-KAN
 10
-5.85271
 20
-300.576442
 30
-155.0
 70
    64
  0
VERTEX
  5
155
  8
TEAM-KAN
 10
-11.480503
 20
-302.283614
 30
-155.0
 70
    64
  0
VERTEX
  5
156
  8
TEAM-KAN
 10
-16.667107
 20
-305.055912
 30
-155.0
 70
    64
  0
VERTEX
  5
157
  8
TEAM-KAN
 10
-21.213203
 20
-308.786797
 30
-155.0
 70
    64
  0
VERTEX
  5
158
  8
TEAM-KAN
 10
-24.944088
 20
-313.332893
 30
-155.0
 70
    64
  0
VERTEX
  5
159
  8
TEAM-KAN
 10
-27.716386
 20
-318.519497
 30
-155.0
 70
    64
  0
VERTEX
  5
15A
  8
TEAM-KAN
 10
-29.423558
 20
-324.14729
 30
-155.0
 70
    64
  0
VERTEX
  5
15B
  8
TEAM-KAN
 10
-30.0
 20
-330.0
 30
-155.0
 70
    64
  0
VERTEX
  5
15C
  8
TEAM-KAN
 10
-29.423558
 20
-335.85271
 30
-155.0
 70
    64
  0
VERTEX
  5
15D
  8
TEAM-KAN
 10
-27.716386
 20
-341.480503
 30
-155.0
 70
    64
  0
VERTEX
  5
15E
  8
TEAM-KAN
 10
-24.944088
 20
-346.667107
 30
-155.0
 70
    64
  0
VERTEX
  5
15F
  8
TEAM-KAN
 10
-21.213203
 20
-351.213203
 30
-155.0
 70
    64
  0
VERTEX
  5
160
  8
TEAM-KAN
 10
-16.667107
 20
-354.944088
 30
-155.0
 70
    64
  0
VERTEX
  5
161
  8
TEAM-KAN
 10
-11.480503
 20
-357.716386
 30
-155.0
 70
    64
  0
VERTEX
  5
162
  8
TEAM-KAN
 10
-5.85271
 20
-359.423558
 30
-155.0
 70
    64
  0
VERTEX
  5
163
  8
TEAM-KAN
 10
0.0
 20
-360.0
 30
-155.0
 70
    64
  0
VERTEX
  5
164
  8
TEAM-KAN
 10
5.85271
 20
-359.423558
 30
-155.0
 70
    64
  0
VERTEX
  5
165
  8
TEAM-KAN
 10
11.480503
 20
-357.716386
 30
-155.0
 70
    64
  0
VERTEX
  5
166
  8
TEAM-KAN
 10
16.667107
 20
-354.944088
 30
-155.0
 70
    64
  0
VERTEX
  5
167
  8
TEAM-KAN
 10
21.213203
 20
-351.213203
 30
-155.0
 70
    64
  0
VERTEX
  5
168
  8
TEAM-KAN
 10
24.944088
 20
-346.667107
 30
-155.0
 70
    64
  0
VERTEX
  5
169
  8
TEAM-KAN
 10
27.716386
 20
-341.480503
 30
-155.0
 70
    64
  0
VERTEX
  5
16A
  8
TEAM-KAN
 10
29.423558
 20
-335.85271
 30
-155.0
 70
    64
  0
VERTEX
  5
16B
  8
TEAM-KAN
 10
30.0
 20
-330.0
 30
-165.0
 70
    64
  0
VERTEX
  5
16C
  8
TEAM-KAN
 10
29.423558
 20
-324.14729
 30
-165.0
 70
    64
  0
VERTEX
  5
16D
  8
TEAM-KAN
 10
27.716386
 20
-318.519497
 30
-165.0
 70
    64
  0
VERTEX
  5
16E
  8
TEAM-KAN
 10
24.944088
 20
-313.332893
 30
-165.0
 70
    64
  0
VERTEX
  5
16F
  8
TEAM-KAN
 10
21.213203
 20
-308.786797
 30
-165.0
 70
    64
  0
VERTEX
  5
170
  8
TEAM-KAN
 10
16.667107
 20
-305.055912
 30
-165.0
 70
    64
  0
VERTEX
  5
171
  8
TEAM-KAN
 10
11.480503
 20
-302.283614
 30
-165.0
 70
    64
  0
VERTEX
  5
172
  8
TEAM-KAN
 10
5.85271
 20
-300.576442
 30
-165.0
 70
    64
  0
VERTEX
  5
173
  8
TEAM-KAN
 10
0.0
 20
-300.0
 30
-165.0
 70
    64
  0
VERTEX
  5
174
  8
TEAM-KAN
 10
-5.85271
 20
-300.576442
 30
-165.0
 70
    64
  0
VERTEX
  5
175
  8
TEAM-KAN
 10
-11.480503
 20
-302.283614
 30
-165.0
 70
    64
  0
VERTEX
  5
176
  8
TEAM-KAN
 10
-16.667107
 20
-305.055912
 30
-165.0
 70
    64
  0
VERTEX
  5
177
  8
TEAM-KAN
 10
-21.213203
 20
-308.786797
 30
-165.0
 70
    64
  0
VERTEX
  5
178
  8
TEAM-KAN
 10
-24.944088
 20
-313.332893
 30
-165.0
 70
    64
  0
VERTEX
  5
179
  8
TEAM-KAN
 10
-27.716386
 20
-318.519497
 30
-165.0
 70
    64
  0
VERTEX
  5
17A
  8
TEAM-KAN
 10
-29.423558
 20
-324.14729
 30
-165.0
 70
    64
  0
VERTEX
  5
17B
  8
TEAM-KAN
 10
-30.0
 20
-330.0
 30
-165.0
 70
    64
  0
VERTEX
  5
17C
  8
TEAM-KAN
 10
-29.423558
 20
-335.85271
 30
-165.0
 70
    64
  0
VERTEX
  5
17D
  8
TEAM-KAN
 10
-27.716386
 20
-341.480503
 30
-165.0
 70
    64
  0
VERTEX
  5
17E
  8
TEAM-KAN
 10
-24.944088
 20
-346.667107
 30
-165.0
 70
    64
  0
VERTEX
  5
17F
  8
TEAM-KAN
 10
-21.213203
 20
-351.213203
 30
-165.0
 70
    64
  0
VERTEX
  5
180
  8
TEAM-KAN
 10
-16.667107
 20
-354.944088
 30
-165.0
 70
    64
  0
VERTEX
  5
181
  8
TEAM-KAN
 10
-11.480503
 20
-357.716386
 30
-165.0
 70
    64
  0
VERTEX
  5
182
  8
TEAM-KAN
 10
-5.85271
 20
-359.423558
 30
-165.0
 70
    64
  0
VERTEX
  5
183
  8
TEAM-KAN
 10
0.0
 20
-360.0
 30
-165.0
 70
    64
  0
VERTEX
  5
184
  8
TEAM-KAN
 10
5.85271
 20
-359.423558
 30
-165.0
 70
    64
  0
VERTEX
  5
185
  8
TEAM-KAN
 10
11.480503
 20
-357.716386
 30
-165.0
 70
    64
  0
VERTEX
  5
186
  8
TEAM-KAN
 10
16.667107
 20
-354.944088
 30
-165.0
 70
    64
  0
VERTEX
  5
187
  8
TEAM-KAN
 10
21.213203
 20
-351.213203
 30
-165.0
 70
    64
  0
VERTEX
  5
188
  8
TEAM-KAN
 10
24.944088
 20
-346.667107
 30
-165.0
 70
    64
  0
VERTEX
  5
189
  8
TEAM-KAN
 10
27.716386
 20
-341.480503
 30
-165.0
 70
    64
  0
VERTEX
  5
18A
  8
TEAM-KAN
 10
29.423558
 20
-335.85271
 30
-165.0
 70
    64
  0
SEQEND
  5
18B
  8
TEAM-KAN
  0
TEXT
  5
18C
  8
TEAM-TXT
 10
-126.354514
 20
-226.021054
 30
0.0
 40
30.0
  1
team 232008
 41
0.8
 51
15.0
  7
TEAM
  0
LINE
  5
18F
  8
TEAM-AXE
 10
-21.0
 20
-64.25985
 30
0.0
 11
21.0
 21
-64.25985
 31
0.0
  0
LINE
  5
192
  8
TEAM-AXE
 10
0.0
 20
-43.25985
 30
0.0
 11
0.0
 21
-85.25985
 31
0.0
  0
ARC
  5
193
  8
TEAM-DET1
 10
0.0
 20
-64.25985
 30
0.0
 40
13.5
 50
0.0
 51
180.0
  0
ARC
  5
195
  8
TEAM-DET1
 10
0.0
 20
-64.25985
 30
0.0
 40
13.5
 50
180.0
 51
0.0
  0
ARC
  5
196
  8
TEAM-BODY
 10
0.0
 20
-290.0
 30
0.0
 40
290.0
 50
269.99451
 51
269.988225
  0
ARC
  5
198
  8
TEAM-DET1
 10
0.0
 20
-330.0
 30
0.0
 40
209.954557
 50
90.001193
 51
89.994886
  0
POLYLINE
  5
199
  8
TEAM-NET
 66
     1
 10
0.0
 20
0.0
 30
0.0
 70
    48
 71
     2
 72
    32
  0
VERTEX
  5
19A
  8
TEAM-NET
 10
209.954557
 20
-330.0
 30
0.0
 70
    64
  0
VERTEX
  5
19B
  8
TEAM-NET
 10
205.920339
 20
-289.039898
 30
0.0
 70
    64
  0
VERTEX
  5
19C
  8
TEAM-NET
 10
193.972718
 20
-249.653869
 30
0.0
 70
    64
  0
VERTEX
  5
19D
  8
TEAM-NET
 10
174.570834
 20
-213.355498
 30
0.0
 70
    64
  0
VERTEX
  5
19E
  8
TEAM-NET
 10
148.460291
 20
-181.539709
 30
0.0
 70
    64
  0
VERTEX
  5
19F
  8
TEAM-NET
 10
116.644502
 20
-155.429166
 30
0.0
 70
    64
  0
VERTEX
  5
1A0
  8
TEAM-NET
 10
80.346131
 20
-136.027282
 30
0.0
 70
    64
  0
VERTEX
  5
1A1
  8
TEAM-NET
 10
40.960102
 20
-124.079661
 30
0.0
 70
    64
  0
VERTEX
  5
1A2
  8
TEAM-NET
 10
0.0
 20
-120.045443
 30
0.0
 70
    64
  0
VERTEX
  5
1A3
  8
TEAM-NET
 10
-40.960102
 20
-124.079661
 30
0.0
 70
    64
  0
VERTEX
  5
1A4
  8
TEAM-NET
 10
-80.346131
 20
-136.027282
 30
0.0
 70
    64
  0
VERTEX
  5
1A5
  8
TEAM-NET
 10
-116.644502
 20
-155.429166
 30
0.0
 70
    64
  0
VERTEX
  5
1A6
  8
TEAM-NET
 10
-148.460291
 20
-181.539709
 30
0.0
 70
    64
  0
VERTEX
  5
1A7
  8
TEAM-NET
 10
-174.570834
 20
-213.355498
 30
0.0
 70
    64
  0
VERTEX
  5
1A8
  8
TEAM-NET
 10
-193.972718
 20
-249.653869
 30
0.0
 70
    64
  0
VERTEX
  5
1A9
  8
TEAM-NET
 10
-205.920339
 20
-289.039898
 30
0.0
 70
    64
  0
VERTEX
  5
1AA
  8
TEAM-NET
 10
-209.954557
 20
-330.0
 30
0.0
 70
    64
  0
VERTEX
  5
1AB
  8
TEAM-NET
 10
-205.920339
 20
-370.960102
 30
0.0
 70
    64
  0
VERTEX
  5
1AC
  8
TEAM-NET
 10
-193.972718
 20
-410.346131
 30
0.0
 70
    64
  0
VERTEX
  5
1AD
  8
TEAM-NET
 10
-174.570834
 20
-446.644502
 30
0.0
 70
    64
  0
VERTEX
  5
1AE
  8
TEAM-NET
 10
-148.460291
 20
-478.460291
 30
0.0
 70
    64
  0
VERTEX
  5
1AF
  8
TEAM-NET
 10
-116.644502
 20
-504.570834
 30
0.0
 70
    64
  0
VERTEX
  5
1B0
  8
TEAM-NET
 10
-80.346131
 20
-523.972718
 30
0.0
 70
    64
  0
VERTEX
  5
1B1
  8
TEAM-NET
 10
-40.960102
 20
-535.920339
 30
0.0
 70
    64
  0
VERTEX
  5
1B2
  8
TEAM-NET
 10
0.0
 20
-539.954557
 30
0.0
 70
    64
  0
VERTEX
  5
1B3
  8
TEAM-NET
 10
40.960102
 20
-535.920339
 30
0.0
 70
    64
  0
VERTEX
  5
1B4
  8
TEAM-NET
 10
80.346131
 20
-523.972718
 30
0.0
 70
    64
  0
VERTEX
  5
1B5
  8
TEAM-NET
 10
116.644502
 20
-504.570834
 30
0.0
 70
    64
  0
VERTEX
  5
1B6
  8
TEAM-NET
 10
148.460291
 20
-478.460291
 30
0.0
 70
    64
  0
VERTEX
  5
1B7
  8
TEAM-NET
 10
174.570834
 20
-446.644502
 30
0.0
 70
    64
  0
VERTEX
  5
1B8
  8
TEAM-NET
 10
193.972718
 20
-410.346131
 30
0.0
 70
    64
  0
VERTEX
  5
1B9
  8
TEAM-NET
 10
205.920339
 20
-370.960102
 30
0.0
 70
    64
  0
VERTEX
  5
1BA
  8
TEAM-NET
 10
290.0
 20
-290.0
 30
0.0
 70
    64
  0
VERTEX
  5
1BB
  8
TEAM-NET
 10
284.427731
 20
-233.423807
 30
0.0
 70
    64
  0
VERTEX
  5
1BC
  8
TEAM-NET
 10
267.925064
 20
-179.021805
 30
0.0
 70
    64
  0
VERTEX
  5
1BD
  8
TEAM-NET
 10
241.126188
 20
-128.884632
 30
0.0
 70
    64
  0
VERTEX
  5
1BE
  8
TEAM-NET
 10
205.060967
 20
-84.939033
 30
0.0
 70
    64
  0
VERTEX
  5
1BF
  8
TEAM-NET
 10
161.115368
 20
-48.873812
 30
0.0
 70
    64
  0
VERTEX
  5
1C0
  8
TEAM-NET
 10
110.978195
 20
-22.074936
 30
0.0
 70
    64
  0
VERTEX
  5
1C1
  8
TEAM-NET
 10
56.576193
 20
-5.572269
 30
0.0
 70
    64
  0
VERTEX
  5
1C2
  8
TEAM-NET
 10
0.0
 20
0.0
 30
0.0
 70
    64
  0
VERTEX
  5
1C3
  8
TEAM-NET
 10
-56.576193
 20
-5.572269
 30
0.0
 70
    64
  0
VERTEX
  5
1C4
  8
TEAM-NET
 10
-110.978195
 20
-22.074936
 30
0.0
 70
    64
  0
VERTEX
  5
1C5
  8
TEAM-NET
 10
-161.115368
 20
-48.873812
 30
0.0
 70
    64
  0
VERTEX
  5
1C6
  8
TEAM-NET
 10
-205.060967
 20
-84.939033
 30
0.0
 70
    64
  0
VERTEX
  5
1C7
  8
TEAM-NET
 10
-241.126188
 20
-128.884632
 30
0.0
 70
    64
  0
VERTEX
  5
1C8
  8
TEAM-NET
 10
-267.925064
 20
-179.021805
 30
0.0
 70
    64
  0
VERTEX
  5
1C9
  8
TEAM-NET
 10
-284.427731
 20
-233.423807
 30
0.0
 70
    64
  0
VERTEX
  5
1CA
  8
TEAM-NET
 10
-290.0
 20
-290.0
 30
0.0
 70
    64
  0
VERTEX
  5
1CB
  8
TEAM-NET
 10
-284.427731
 20
-346.576193
 30
0.0
 70
    64
  0
VERTEX
  5
1CC
  8
TEAM-NET
 10
-267.925064
 20
-400.978195
 30
0.0
 70
    64
  0
VERTEX
  5
1CD
  8
TEAM-NET
 10
-241.126188
 20
-451.115368
 30
0.0
 70
    64
  0
VERTEX
  5
1CE
  8
TEAM-NET
 10
-205.060967
 20
-495.060967
 30
0.0
 70
    64
  0
VERTEX
  5
1CF
  8
TEAM-NET
 10
-161.115368
 20
-531.126188
 30
0.0
 70
    64
  0
VERTEX
  5
1D0
  8
TEAM-NET
 10
-110.978195
 20
-557.925064
 30
0.0
 70
    64
  0
VERTEX
  5
1D1
  8
TEAM-NET
 10
-56.576193
 20
-574.427731
 30
0.0
 70
    64
  0
VERTEX
  5
1D2
  8
TEAM-NET
 10
0.0
 20
-580.0
 30
0.0
 70
    64
  0
VERTEX
  5
1D3
  8
TEAM-NET
 10
56.576193
 20
-574.427731
 30
0.0
 70
    64
  0
VERTEX
  5
1D4
  8
TEAM-NET
 10
110.978195
 20
-557.925064
 30
0.0
 70
    64
  0
VERTEX
  5
1D5
  8
TEAM-NET
 10
161.115368
 20
-531.126188
 30
0.0
 70
    64
  0
VERTEX
  5
1D6
  8
TEAM-NET
 10
205.060967
 20
-495.060967
 30
0.0
 70
    64
  0
VERTEX
  5
1D7
  8
TEAM-NET
 10
241.126188
 20
-451.115368
 30
0.0
 70
    64
  0
VERTEX
  5
1D8
  8
TEAM-NET
 10
267.925064
 20
-400.978195
 30
0.0
 70
    64
  0
VERTEX
  5
1D9
  8
TEAM-NET
 10
284.427731
 20
-346.576193
 30
0.0
 70
    64
  0
SEQEND
  5
1DA
  8
TEAM-NET
  0
ENDSEC
  0
EOF
