  0
SECTION
  2
HEADER
  9
$ACADVER
  1
AC1009
  9
$INSBASE
 10
0.0
 20
0.0
 30
0.0
  9
$EXTMIN
 10
-277.607118
 20
-467.520699
 30
-0.032407
  9
$EXTMAX
 10
275.783385
 20
10.014522
 30
1062.015798
  9
$LIMMIN
 10
-277.607118
 20
-467.520699
  9
$LIMMAX
 10
275.783385
 20
10.014522
  9
$ORTHOMODE
 70
     1
  9
$REGENMODE
 70
     1
  9
$FILLMODE
 70
     1
  9
$QTEXTMODE
 70
     0
  9
$MIRRTEXT
 70
     0
  9
$DRAGMODE
 70
     2
  9
$LTSCALE
 40
25.0
  9
$OSMODE
 70
     0
  9
$ATTMODE
 70
     1
  9
$TEXTSIZE
 40
200.0
  9
$TRACEWID
 40
1.0
  9
$TEXTSTYLE
  7
STANDARD
  9
$CLAYER
  8
TEAM-MAS
  9
$CELTYPE
  6
BYLAYER
  9
$CECOLOR
 62
   256
  9
$DIMSCALE
 40
0.0
  9
$DIMASZ
 40
20.0
  9
$DIMEXO
 40
10.0
  9
$DIMDLI
 40
1.0
  9
$DIMRND
 40
0.0
  9
$DIMDLE
 40
0.0
  9
$DIMEXE
 40
1.0
  9
$DIMTP
 40
0.0
  9
$DIMTM
 40
0.0
  9
$DIMTXT
 40
35.0
  9
$DIMCEN
 40
1.0
  9
$DIMTSZ
 40
0.0
  9
$DIMTOL
 70
     0
  9
$DIMLIM
 70
     0
  9
$DIMTIH
 70
     0
  9
$DIMTOH
 70
     0
  9
$DIMSE1
 70
     0
  9
$DIMSE2
 70
     0
  9
$DIMTAD
 70
     0
  9
$DIMZIN
 70
     0
  9
$DIMBLK
  1

  9
$DIMASO
 70
     1
  9
$DIMSHO
 70
     0
  9
$DIMPOST
  1

  9
$DIMAPOST
  1

  9
$DIMALT
 70
     0
  9
$DIMALTD
 70
     2
  9
$DIMALTF
 40
25.4
  9
$DIMLFAC
 40
1.0
  9
$DIMTOFL
 70
     0
  9
$DIMTVP
 40
0.0
  9
$DIMTIX
 70
     0
  9
$DIMSOXD
 70
     0
  9
$DIMSAH
 70
     0
  9
$DIMBLK1
  1

  9
$DIMBLK2
  1

  9
$DIMSTYLE
  2
TEAM
  9
$DIMCLRD
 70
     9
  9
$DIMCLRE
 70
     9
  9
$DIMCLRT
 70
    11
  9
$DIMTFAC
 40
1.0
  9
$DIMGAP
 40
15.0
  9
$LUNITS
 70
     2
  9
$LUPREC
 70
     1
  9
$SKETCHINC
 40
1.0
  9
$FILLETRAD
 40
50.0
  9
$AUNITS
 70
     0
  9
$AUPREC
 70
     0
  9
$MENU
  1
ROPLANS
  9
$ELEVATION
 40
0.0
  9
$PELEVATION
 40
0.0
  9
$THICKNESS
 40
0.0
  9
$LIMCHECK
 70
     0
  9
$BLIPMODE
 70
     1
  9
$CHAMFERA
 40
0.0
  9
$CHAMFERB
 40
0.0
  9
$SKPOLY
 70
     0
  9
$TDCREATE
 40
2450392.957851
  9
$TDUPDATE
 40
2455534.564459
  9
$TDINDWG
 40
2.577934
  9
$TDUSRTIMER
 40
2.577934
  9
$USRTIMER
 70
     1
  9
$ANGBASE
 50
0.0
  9
$ANGDIR
 70
     0
  9
$PDMODE
 70
     0
  9
$PDSIZE
 40
0.0
  9
$PLINEWID
 40
0.0
  9
$COORDS
 70
     2
  9
$SPLFRAME
 70
     0
  9
$SPLINETYPE
 70
     6
  9
$SPLINESEGS
 70
     8
  9
$ATTDIA
 70
     0
  9
$ATTREQ
 70
     0
  9
$HANDLING
 70
     1
  9
$HANDSEED
  5
F44
  9
$SURFTAB1
 70
    36
  9
$SURFTAB2
 70
    36
  9
$SURFTYPE
 70
     6
  9
$SURFU
 70
     6
  9
$SURFV
 70
     6
  9
$UCSNAME
  2

  9
$UCSORG
 10
0.0
 20
0.0
 30
0.0
  9
$UCSXDIR
 10
1.0
 20
0.0
 30
0.0
  9
$UCSYDIR
 10
0.0
 20
1.0
 30
0.0
  9
$PUCSNAME
  2

  9
$PUCSORG
 10
0.0
 20
0.0
 30
0.0
  9
$PUCSXDIR
 10
1.0
 20
0.0
 30
0.0
  9
$PUCSYDIR
 10
0.0
 20
1.0
 30
0.0
  9
$USERI1
 70
     0
  9
$USERI2
 70
     0
  9
$USERI3
 70
     0
  9
$USERI4
 70
     0
  9
$USERI5
 70
     0
  9
$USERR1
 40
0.0
  9
$USERR2
 40
0.0
  9
$USERR3
 40
0.0
  9
$USERR4
 40
0.0
  9
$USERR5
 40
0.0
  9
$WORLDVIEW
 70
     1
  9
$SHADEDGE
 70
     0
  9
$SHADEDIF
 70
    70
  9
$TILEMODE
 70
     1
  9
$MAXACTVP
 70
    16
  9
$PLIMCHECK
 70
     0
  9
$PEXTMIN
 10
-0.805942
 20
0.005011
 30
0.0
  9
$PEXTMAX
 10
20.421406
 20
13.725274
 30
0.0
  9
$PLIMMIN
 10
0.0
 20
0.0
  9
$PLIMMAX
 10
12.0
 20
9.0
  9
$UNITMODE
 70
     0
  9
$VISRETAIN
 70
     0
  9
$PLINEGEN
 70
     0
  9
$PSLTSCALE
 70
     0
  0
ENDSEC
  0
SECTION
  2
TABLES
  0
TABLE
  2
VPORT
 70
     2
  0
VPORT
  2
*ACTIVE
 70
     0
 10
0.0
 20
0.0
 11
1.0
 21
1.0
 12
-0.911867
 22
-228.753088
 13
0.0
 23
0.0
 14
1.0
 24
1.0
 15
50.0
 25
50.0
 16
0.0
 26
0.0
 36
1.0
 17
0.0
 27
0.0
 37
0.0
 40
480.467884
 41
1.865779
 42
50.0
 43
0.0
 44
0.0
 50
0.0
 51
0.0
 71
     0
 72
   100
 73
     1
 74
     1
 75
     0
 76
     0
 77
     0
 78
     0
  0
ENDTAB
  0
TABLE
  2
LTYPE
 70
     1
  0
LTYPE
  2
CONTINUOUS
 70
     0
  3
Solid Line
 72
    65
 73
     0
 40
0.0
  0
ENDTAB
  0
TABLE
  2
LAYER
 70
     5
  0
LAYER
  2
0
 70
     0
 62
     7
  6
CONTINUOUS
  0
LAYER
  2
TEAM-MAS
 70
     0
 62
     9
  6
CONTINUOUS
  0
LAYER
  2
TEAM-TXT
 70
     0
 62
    11
  6
CONTINUOUS
  0
LAYER
  2
TEAM-NET
 70
     0
 62
    15
  6
CONTINUOUS
  0
LAYER
  2
TEAM-INSP
 70
     0
 62
     5
  6
CONTINUOUS
  0
ENDTAB
  0
TABLE
  2
STYLE
 70
     2
  0
STYLE
  2
STANDARD
 70
     0
 40
0.0
 41
1.0
 50
0.0
 71
     0
 42
200.0
  3
txt
  4

  0
STYLE
  2
TEAM
 70
     0
 40
0.0
 41
0.8
 50
15.0
 71
     0
 42
7.0
  3
ROMANS.shx
  4

  0
ENDTAB
  0
TABLE
  2
VIEW
 70
     0
  0
ENDTAB
  0
TABLE
  2
UCS
 70
     0
  0
ENDTAB
  0
TABLE
  2
APPID
 70
     1
  0
APPID
  2
ACAD
 70
     0
  0
ENDTAB
  0
TABLE
  2
DIMSTYLE
 70
     1
  0
DIMSTYLE
  2
TEAM
 70
     0
  3

  4

  5

  6

  7

 40
0.0
 41
20.0
 42
10.0
 43
1.0
 44
1.0
 45
0.0
 46
0.0
 47
0.0
 48
0.0
140
35.0
141
1.0
142
0.0
143
25.4
144
1.0
145
0.0
146
1.0
147
15.0
 71
     0
 72
     0
 73
     0
 74
     0
 75
     0
 76
     0
 77
     0
 78
     0
170
     0
171
     2
172
     0
173
     0
174
     0
175
     0
176
     9
177
     9
178
    11
  0
ENDTAB
  0
ENDSEC
  0
SECTION
  2
BLOCKS
  0
BLOCK
  8
0
  2
$MODEL_SPACE
 70
     0
 10
0.0
 20
0.0
 30
0.0
  3
$MODEL_SPACE
  1

  0
ENDBLK
  5
C39
  8
0
  0
BLOCK
 67
     1
  8
0
  2
$PAPER_SPACE
 70
     0
 10
0.0
 20
0.0
 30
0.0
  3
$PAPER_SPACE
  1

  0
ENDBLK
  5
C37
 67
     1
  8
0
  0
ENDSEC
  0
SECTION
  2
ENTITIES
  0
CIRCLE
  5
20
  8
TEAM-INSP
 10
0.0
 20
0.0
 30
0.0
 40
10.0
  0
LINE
  5
22
  8
TEAM-NET
 10
266.088132
 20
-465.836221
 30
825.010653
 11
-267.911868
 21
-465.836221
 31
825.010653
  0
LINE
  5
E4
  8
TEAM-NET
 10
266.088132
 20
-465.836221
 30
874.010653
 11
266.088132
 21
-465.836221
 31
825.010653
1001
ACAD
1000
R13OBJECT
1002
{
1005
22
1002
}
  0
LINE
  5
E5
  8
TEAM-NET
 10
-267.911868
 20
-465.836221
 30
874.010653
 11
266.088132
 21
-465.836221
 31
874.010653
1001
ACAD
1000
R13OBJECT
1002
{
1005
22
1002
}
  0
LINE
  5
E6
  8
TEAM-NET
 10
-267.911868
 20
-465.836221
 30
825.010653
 11
-267.911868
 21
-465.836221
 31
874.010653
1001
ACAD
1000
R13OBJECT
1002
{
1005
22
1002
}
  0
ARC
  5
24
  8
TEAM-NET
 10
-0.911868
 20
852.010653
 30
105.836221
 40
12.5
210
0.0
220
-1.0
230
0.0
 50
0.0
 51
180.0
  0
ARC
  5
E7
  8
TEAM-NET
 10
-0.911868
 20
852.010653
 30
105.836221
 40
12.5
210
0.0
220
-1.0
230
0.0
 50
180.0
 51
0.0
1001
ACAD
1000
R13OBJECT
1002
{
1005
24
1002
}
  0
LINE
  5
25
  8
TEAM-NET
 10
-13.411868
 20
-117.836221
 30
852.010653
 11
-13.411868
 21
-105.836221
 31
852.010653
  0
ARC
  5
E8
  8
TEAM-NET
 10
-0.911868
 20
852.010653
 30
105.836221
 40
12.5
210
0.0
220
-1.0
230
0.0
 50
0.0
 51
180.0
1001
ACAD
1000
R13OBJECT
1002
{
1005
25
1002
}
  0
LINE
  5
E9
  8
TEAM-NET
 10
11.588132
 20
-117.836221
 30
852.010653
 11
11.588132
 21
-105.836221
 31
852.010653
1001
ACAD
1000
R13OBJECT
1002
{
1005
25
1002
}
  0
ARC
  5
EA
  8
TEAM-NET
 10
0.911868
 20
852.010653
 30
-117.836221
 40
12.5
210
0.0
220
1.0
230
0.0
 50
90.0
 51
180.0
1001
ACAD
1000
R13OBJECT
1002
{
1005
25
1002
}
  0
ARC
  5
EB
  8
TEAM-NET
 10
0.911868
 20
852.010653
 30
-117.836221
 40
12.5
210
0.0
220
1.0
230
0.0
 50
360.0
 51
90.0
1001
ACAD
1000
R13OBJECT
1002
{
1005
25
1002
}
  0
ARC
  5
26
  8
TEAM-NET
 10
-117.836221
 20
867.510653
 30
-0.911868
 40
3.0
210
1.0
220
0.0
230
0.0
 50
180.0
 51
270.0
  0
ARC
  5
EC
  8
TEAM-NET
 10
0.911868
 20
852.010653
 30
-117.836221
 40
12.5
210
0.0
220
1.0
230
0.0
 50
90.0
 51
180.0
1001
ACAD
1000
R13OBJECT
1002
{
1005
26
1002
}
  0
ARC
  5
ED
  8
TEAM-NET
 10
0.911868
 20
852.010653
 30
-117.836221
 40
12.5
210
0.0
220
1.0
230
0.0
 50
180.0
 51
270.0
1001
ACAD
1000
R13OBJECT
1002
{
1005
26
1002
}
  0
ARC
  5
EE
  8
TEAM-NET
 10
117.836221
 20
836.510653
 30
0.911868
 40
3.0
210
-1.0
220
0.0
230
0.0
 50
0.0
 51
90.0
1001
ACAD
1000
R13OBJECT
1002
{
1005
26
1002
}
  0
ARC
  5
EF
  8
TEAM-NET
 10
-0.911868
 20
852.010653
 30
120.836221
 40
15.5
210
0.0
220
-1.0
230
0.0
 50
270.0
 51
360.0
1001
ACAD
1000
R13OBJECT
1002
{
1005
26
1002
}
  0
ARC
  5
F0
  8
TEAM-NET
 10
-0.911868
 20
852.010653
 30
120.836221
 40
15.5
210
0.0
220
-1.0
230
0.0
 50
0.0
 51
90.0
1001
ACAD
1000
R13OBJECT
1002
{
1005
26
1002
}
  0
ARC
  5
F1
  8
TEAM-NET
 10
14.588132
 20
-117.836221
 30
852.010653
 40
3.0
 50
180.0
 51
270.0
1001
ACAD
1000
R13OBJECT
1002
{
1005
26
1002
}
  0
ARC
  5
F2
  8
TEAM-NET
 10
0.911868
 20
852.010653
 30
-119.957541
 40
13.37868
210
0.0
220
1.0
230
0.0
 50
90.0
 51
270.0
1001
ACAD
1000
R13OBJECT
1002
{
1005
26
1002
}
  0
LINE
  5
27
  8
TEAM-NET
 10
-18.411868
 20
-60.836221
 30
879.010653
 11
-18.411868
 21
-60.836221
 31
857.010653
  0
ARC
  5
F3
  8
TEAM-NET
 10
-0.911868
 20
-60.836221
 30
857.010653
 40
17.5
 50
0.0
 51
180.0
1001
ACAD
1000
R13OBJECT
1002
{
1005
27
1002
}
  0
LINE
  5
F4
  8
TEAM-NET
 10
16.588132
 20
-60.836221
 30
879.010653
 11
16.588132
 21
-60.836221
 31
857.010653
1001
ACAD
1000
R13OBJECT
1002
{
1005
27
1002
}
  0
ARC
  5
F5
  8
TEAM-NET
 10
0.911868
 20
-60.836221
 30
-879.010653
 40
17.5
210
0.0
220
0.0
230
-1.0
 50
0.0
 51
180.0
1001
ACAD
1000
R13OBJECT
1002
{
1005
27
1002
}
  0
ARC
  5
28
  8
TEAM-NET
 10
267.911868
 20
-457.836221
 30
-825.010653
 40
8.0
210
0.0
220
0.0
230
-1.0
 50
270.0
 51
360.0
  0
LINE
  5
F6
  8
TEAM-NET
 10
-267.911868
 20
-465.836221
 30
825.010653
 11
-267.911868
 21
-465.836221
 31
874.010653
1001
ACAD
1000
R13OBJECT
1002
{
1005
28
1002
}
  0
ARC
  5
F7
  8
TEAM-NET
 10
-267.911868
 20
-457.836221
 30
874.010653
 40
8.0
 50
180.0
 51
270.0
1001
ACAD
1000
R13OBJECT
1002
{
1005
28
1002
}
  0
LINE
  5
F8
  8
TEAM-NET
 10
-275.911868
 20
-457.836221
 30
874.010653
 11
-275.911868
 21
-457.836221
 31
825.010653
1001
ACAD
1000
R13OBJECT
1002
{
1005
28
1002
}
  0
LINE
  5
F9
  8
TEAM-NET
 10
-273.568722
 20
-463.493075
 30
825.010653
 11
-273.568722
 21
-463.493075
 31
874.010653
1001
ACAD
1000
R13OBJECT
1002
{
1005
28
1002
}
  0
LINE
  5
29
  8
TEAM-NET
 10
-217.911868
 20
-415.836221
 30
877.010653
 11
-217.911868
 21
-415.836221
 31
787.010653
  0
LINE
  5
FA
  8
TEAM-NET
 10
216.088132
 20
-415.836221
 30
877.010653
 11
-217.911868
 21
-415.836221
 31
877.010653
1001
ACAD
1000
R13OBJECT
1002
{
1005
29
1002
}
  0
LINE
  5
FB
  8
TEAM-NET
 10
216.088132
 20
-415.836221
 30
787.010653
 11
216.088132
 21
-415.836221
 31
877.010653
1001
ACAD
1000
R13OBJECT
1002
{
1005
29
1002
}
  0
LINE
  5
FC
  8
TEAM-NET
 10
-217.911868
 20
-415.836221
 30
787.010653
 11
216.088132
 21
-415.836221
 31
787.010653
1001
ACAD
1000
R13OBJECT
1002
{
1005
29
1002
}
  0
LINE
  5
2A
  8
TEAM-NET
 10
-225.911868
 20
-128.836221
 30
877.010653
 11
-225.911868
 21
-128.836221
 31
794.584732
  0
LINE
  5
FD
  8
TEAM-NET
 10
-225.911868
 20
-407.836221
 30
877.010653
 11
-225.911868
 21
-128.836221
 31
877.010653
1001
ACAD
1000
R13OBJECT
1002
{
1005
2A
1002
}
  0
LINE
  5
FE
  8
TEAM-NET
 10
-225.911868
 20
-407.836221
 30
794.584732
 11
-225.911868
 21
-407.836221
 31
877.010653
1001
ACAD
1000
R13OBJECT
1002
{
1005
2A
1002
}
  0
LINE
  5
FF
  8
TEAM-NET
 10
-225.911868
 20
-128.836221
 30
794.584732
 11
-225.911868
 21
-407.836221
 31
794.584732
1001
ACAD
1000
R13OBJECT
1002
{
1005
2A
1002
}
  0
POLYLINE
  5
2B
  8
TEAM-NET
 66
     1
 10
0.0
 20
0.0
 30
0.0
 70
     8
  0
VERTEX
  5
100
  8
TEAM-NET
 10
-220.487391
 20
-415.4103
 30
787.010653
 70
    32
  0
VERTEX
  5
101
  8
TEAM-NET
 10
-221.105483
 20
-415.171125
 30
787.249828
 70
    32
  0
VERTEX
  5
102
  8
TEAM-NET
 10
-221.701656
 20
-414.88161
 30
787.539343
 70
    32
  0
VERTEX
  5
103
  8
TEAM-NET
 10
-222.27182
 20
-414.543741
 30
787.877212
 70
    32
  0
VERTEX
  5
104
  8
TEAM-NET
 10
-222.81206
 20
-414.159837
 30
788.261116
 70
    32
  0
VERTEX
  5
105
  8
TEAM-NET
 10
-223.31867
 20
-413.732533
 30
788.68842
 70
    32
  0
VERTEX
  5
106
  8
TEAM-NET
 10
-223.788172
 20
-413.264762
 30
789.156191
 70
    32
  0
VERTEX
  5
107
  8
TEAM-NET
 10
-224.217344
 20
-412.759734
 30
789.661219
 70
    32
  0
VERTEX
  5
108
  8
TEAM-NET
 10
-224.60324
 20
-412.220915
 30
790.200038
 70
    32
  0
VERTEX
  5
109
  8
TEAM-NET
 10
-224.943213
 20
-411.652003
 30
790.76895
 70
    32
  0
VERTEX
  5
10A
  8
TEAM-NET
 10
-225.234928
 20
-411.056903
 30
791.36405
 70
    32
  0
VERTEX
  5
10B
  8
TEAM-NET
 10
-225.476384
 20
-410.439699
 30
791.981254
 70
    32
  0
VERTEX
  5
10C
  8
TEAM-NET
 10
-225.665924
 20
-409.804627
 30
792.616326
 70
    32
  0
VERTEX
  5
10D
  8
TEAM-NET
 10
-225.802246
 20
-409.156045
 30
793.264908
 70
    32
  0
VERTEX
  5
10E
  8
TEAM-NET
 10
-225.884416
 20
-408.498405
 30
793.922548
 70
    32
  0
VERTEX
  5
10F
  8
TEAM-NET
 10
-225.911868
 20
-407.836221
 30
794.584732
 70
    32
  0
SEQEND
  5
110
  8
TEAM-NET
  0
LINE
  5
111
  8
TEAM-NET
 10
-225.911868
 20
-407.836221
 30
794.584732
 11
-225.911868
 21
-407.836221
 31
877.010653
1001
ACAD
1000
R13OBJECT
1002
{
1005
2B
1002
}
  0
ARC
  5
112
  8
TEAM-NET
 10
-217.911868
 20
-407.836221
 30
877.010653
 40
8.0
 50
180.0
 51
270.0
1001
ACAD
1000
R13OBJECT
1002
{
1005
2B
1002
}
  0
LINE
  5
113
  8
TEAM-NET
 10
-217.911868
 20
-415.836221
 30
877.010653
 11
-217.911868
 21
-415.836221
 31
787.010653
1001
ACAD
1000
R13OBJECT
1002
{
1005
2B
1002
}
  0
ARC
  5
114
  8
TEAM-NET
 10
-217.911868
 20
-407.836221
 30
787.010653
 40
8.0
 50
251.219687
 51
270.0
1001
ACAD
1000
R13OBJECT
1002
{
1005
2B
1002
}
  0
LINE
  5
2C
  8
TEAM-NET
 10
224.088132
 20
-407.836221
 30
794.584732
 11
224.088132
 21
-128.836221
 31
794.584732
  0
LINE
  5
115
  8
TEAM-NET
 10
224.088132
 20
-407.836221
 30
877.010653
 11
224.088132
 21
-407.836221
 31
794.584732
1001
ACAD
1000
R13OBJECT
1002
{
1005
2C
1002
}
  0
LINE
  5
116
  8
TEAM-NET
 10
224.088132
 20
-128.836221
 30
877.010653
 11
224.088132
 21
-407.836221
 31
877.010653
1001
ACAD
1000
R13OBJECT
1002
{
1005
2C
1002
}
  0
LINE
  5
117
  8
TEAM-NET
 10
224.088132
 20
-128.836221
 30
794.584732
 11
224.088132
 21
-128.836221
 31
877.010653
1001
ACAD
1000
R13OBJECT
1002
{
1005
2C
1002
}
  0
ARC
  5
2D
  8
TEAM-NET
 10
216.088132
 20
-128.836221
 30
794.584732
 40
8.0
 50
0.0
 51
90.0
  0
LINE
  5
118
  8
TEAM-NET
 10
224.088132
 20
-128.836221
 30
794.584732
 11
224.088132
 21
-128.836221
 31
877.010653
1001
ACAD
1000
R13OBJECT
1002
{
1005
2D
1002
}
  0
ARC
  5
119
  8
TEAM-NET
 10
216.088132
 20
-128.836221
 30
877.010653
 40
8.0
 50
0.0
 51
90.0
1001
ACAD
1000
R13OBJECT
1002
{
1005
2D
1002
}
  0
LINE
  5
11A
  8
TEAM-NET
 10
216.088132
 20
-120.836221
 30
877.010653
 11
216.088132
 21
-120.836221
 31
794.584732
1001
ACAD
1000
R13OBJECT
1002
{
1005
2D
1002
}
  0
ARC
  5
2E
  8
TEAM-NET
 10
-0.911868
 20
852.010653
 30
120.836221
 40
15.5
210
0.0
220
-1.0
230
0.0
 50
0.0
 51
90.0
  0
ARC
  5
11B
  8
TEAM-NET
 10
-0.911868
 20
852.010653
 30
120.836221
 40
15.5
210
0.0
220
-1.0
230
0.0
 50
270.0
 51
360.0
1001
ACAD
1000
R13OBJECT
1002
{
1005
2E
1002
}
  0
ARC
  5
11C
  8
TEAM-NET
 10
-0.911868
 20
852.010653
 30
120.836221
 40
15.5
210
0.0
220
-1.0
230
0.0
 50
90.0
 51
270.0
1001
ACAD
1000
R13OBJECT
1002
{
1005
2E
1002
}
  0
LINE
  5
11D
  8
TEAM-NET
 10
216.088132
 20
-120.836221
 30
794.584732
 11
-0.911868
 21
-120.836221
 31
782.7068
1001
ACAD
1000
R13OBJECT
1002
{
1005
2E
1002
}
  0
LINE
  5
11E
  8
TEAM-NET
 10
216.088132
 20
-120.836221
 30
877.010653
 11
216.088132
 21
-120.836221
 31
794.584732
1001
ACAD
1000
R13OBJECT
1002
{
1005
2E
1002
}
  0
LINE
  5
11F
  8
TEAM-NET
 10
-217.911868
 20
-120.836221
 30
877.010653
 11
216.088132
 21
-120.836221
 31
877.010653
1001
ACAD
1000
R13OBJECT
1002
{
1005
2E
1002
}
  0
LINE
  5
120
  8
TEAM-NET
 10
-217.911868
 20
-120.836221
 30
794.584732
 11
-217.911868
 21
-120.836221
 31
877.010653
1001
ACAD
1000
R13OBJECT
1002
{
1005
2E
1002
}
  0
LINE
  5
121
  8
TEAM-NET
 10
-0.911868
 20
-120.836221
 30
782.7068
 11
-217.911868
 21
-120.836221
 31
794.584732
1001
ACAD
1000
R13OBJECT
1002
{
1005
2E
1002
}
  0
ARC
  5
2F
  8
TEAM-NET
 10
-217.911868
 20
-128.836221
 30
794.584732
 40
8.0
 50
90.0
 51
180.0
  0
LINE
  5
122
  8
TEAM-NET
 10
-217.911868
 20
-120.836221
 30
794.584732
 11
-217.911868
 21
-120.836221
 31
877.010653
1001
ACAD
1000
R13OBJECT
1002
{
1005
2F
1002
}
  0
ARC
  5
123
  8
TEAM-NET
 10
-217.911868
 20
-128.836221
 30
877.010653
 40
8.0
 50
90.0
 51
180.0
1001
ACAD
1000
R13OBJECT
1002
{
1005
2F
1002
}
  0
LINE
  5
124
  8
TEAM-NET
 10
-225.911868
 20
-128.836221
 30
877.010653
 11
-225.911868
 21
-128.836221
 31
794.584732
1001
ACAD
1000
R13OBJECT
1002
{
1005
2F
1002
}
  0
POLYLINE
  5
30
  8
TEAM-NET
 66
     1
 10
0.0
 20
0.0
 30
0.0
 70
     8
  0
VERTEX
  5
125
  8
TEAM-NET
 10
224.088132
 20
-407.836221
 30
794.584732
 70
    32
  0
VERTEX
  5
126
  8
TEAM-NET
 10
224.060679
 20
-408.498405
 30
793.922548
 70
    32
  0
VERTEX
  5
127
  8
TEAM-NET
 10
223.97851
 20
-409.156045
 30
793.264908
 70
    32
  0
VERTEX
  5
128
  8
TEAM-NET
 10
223.842187
 20
-409.804627
 30
792.616326
 70
    32
  0
VERTEX
  5
129
  8
TEAM-NET
 10
223.652648
 20
-410.439699
 30
791.981254
 70
    32
  0
VERTEX
  5
12A
  8
TEAM-NET
 10
223.411192
 20
-411.056903
 30
791.36405
 70
    32
  0
VERTEX
  5
12B
  8
TEAM-NET
 10
223.119476
 20
-411.652003
 30
790.76895
 70
    32
  0
VERTEX
  5
12C
  8
TEAM-NET
 10
222.779504
 20
-412.220915
 30
790.200038
 70
    32
  0
VERTEX
  5
12D
  8
TEAM-NET
 10
222.393607
 20
-412.759734
 30
789.661219
 70
    32
  0
VERTEX
  5
12E
  8
TEAM-NET
 10
221.964435
 20
-413.264762
 30
789.156191
 70
    32
  0
VERTEX
  5
12F
  8
TEAM-NET
 10
221.494933
 20
-413.732533
 30
788.68842
 70
    32
  0
VERTEX
  5
130
  8
TEAM-NET
 10
220.988324
 20
-414.159837
 30
788.261116
 70
    32
  0
VERTEX
  5
131
  8
TEAM-NET
 10
220.448083
 20
-414.543741
 30
787.877212
 70
    32
  0
VERTEX
  5
132
  8
TEAM-NET
 10
219.87792
 20
-414.88161
 30
787.539343
 70
    32
  0
VERTEX
  5
133
  8
TEAM-NET
 10
219.281747
 20
-415.171125
 30
787.249828
 70
    32
  0
VERTEX
  5
134
  8
TEAM-NET
 10
218.663655
 20
-415.4103
 30
787.010653
 70
    32
  0
SEQEND
  5
135
  8
TEAM-NET
  0
ARC
  5
136
  8
TEAM-NET
 10
-216.088132
 20
-407.836221
 30
-787.010653
 40
8.0
210
0.0
220
0.0
230
-1.0
 50
251.219687
 51
270.0
1001
ACAD
1000
R13OBJECT
1002
{
1005
30
1002
}
  0
LINE
  5
137
  8
TEAM-NET
 10
216.088132
 20
-415.836221
 30
787.010653
 11
216.088132
 21
-415.836221
 31
877.010653
1001
ACAD
1000
R13OBJECT
1002
{
1005
30
1002
}
  0
ARC
  5
138
  8
TEAM-NET
 10
216.088132
 20
-407.836221
 30
877.010653
 40
8.0
 50
270.0
 51
360.0
1001
ACAD
1000
R13OBJECT
1002
{
1005
30
1002
}
  0
LINE
  5
139
  8
TEAM-NET
 10
224.088132
 20
-407.836221
 30
877.010653
 11
224.088132
 21
-407.836221
 31
794.584732
1001
ACAD
1000
R13OBJECT
1002
{
1005
30
1002
}
  0
LINE
  5
31
  8
TEAM-NET
 10
274.088132
 20
-8.836221
 30
825.010653
 11
274.088132
 21
-457.836221
 31
825.010653
  0
LINE
  5
13A
  8
TEAM-NET
 10
274.088132
 20
-8.836221
 30
874.010653
 11
274.088132
 21
-8.836221
 31
825.010653
1001
ACAD
1000
R13OBJECT
1002
{
1005
31
1002
}
  0
LINE
  5
13B
  8
TEAM-NET
 10
274.088132
 20
-457.836221
 30
874.010653
 11
274.088132
 21
-8.836221
 31
874.010653
1001
ACAD
1000
R13OBJECT
1002
{
1005
31
1002
}
  0
LINE
  5
13C
  8
TEAM-NET
 10
274.088132
 20
-457.836221
 30
825.010653
 11
274.088132
 21
-457.836221
 31
874.010653
1001
ACAD
1000
R13OBJECT
1002
{
1005
31
1002
}
  0
ARC
  5
32
  8
TEAM-NET
 10
-266.088132
 20
-457.836221
 30
-825.010653
 40
8.0
210
0.0
220
0.0
230
-1.0
 50
180.0
 51
270.0
  0
LINE
  5
13D
  8
TEAM-NET
 10
274.088132
 20
-457.836221
 30
825.010653
 11
274.088132
 21
-457.836221
 31
874.010653
1001
ACAD
1000
R13OBJECT
1002
{
1005
32
1002
}
  0
ARC
  5
13E
  8
TEAM-NET
 10
266.088132
 20
-457.836221
 30
874.010653
 40
8.0
 50
270.0
 51
0.0
1001
ACAD
1000
R13OBJECT
1002
{
1005
32
1002
}
  0
LINE
  5
13F
  8
TEAM-NET
 10
266.088132
 20
-465.836221
 30
874.010653
 11
266.088132
 21
-465.836221
 31
825.010653
1001
ACAD
1000
R13OBJECT
1002
{
1005
32
1002
}
  0
LINE
  5
140
  8
TEAM-NET
 10
271.744986
 20
-463.493075
 30
825.010653
 11
271.744986
 21
-463.493075
 31
874.010653
1001
ACAD
1000
R13OBJECT
1002
{
1005
32
1002
}
  0
LINE
  5
33
  8
TEAM-NET
 10
-275.911868
 20
-457.836221
 30
825.010653
 11
-275.911868
 21
-8.836221
 31
825.010653
  0
LINE
  5
141
  8
TEAM-NET
 10
-275.911868
 20
-457.836221
 30
874.010653
 11
-275.911868
 21
-457.836221
 31
825.010653
1001
ACAD
1000
R13OBJECT
1002
{
1005
33
1002
}
  0
LINE
  5
142
  8
TEAM-NET
 10
-275.911868
 20
-8.836221
 30
874.010653
 11
-275.911868
 21
-457.836221
 31
874.010653
1001
ACAD
1000
R13OBJECT
1002
{
1005
33
1002
}
  0
LINE
  5
143
  8
TEAM-NET
 10
-275.911868
 20
-8.836221
 30
825.010653
 11
-275.911868
 21
-8.836221
 31
874.010653
1001
ACAD
1000
R13OBJECT
1002
{
1005
33
1002
}
  0
ARC
  5
34
  8
TEAM-NET
 10
267.911868
 20
-8.836221
 30
-825.010653
 40
8.0
210
0.0
220
0.0
230
-1.0
 50
0.0
 51
90.0
  0
LINE
  5
144
  8
TEAM-NET
 10
-275.911868
 20
-8.836221
 30
825.010653
 11
-275.911868
 21
-8.836221
 31
874.010653
1001
ACAD
1000
R13OBJECT
1002
{
1005
34
1002
}
  0
ARC
  5
145
  8
TEAM-NET
 10
-267.911868
 20
-8.836221
 30
874.010653
 40
8.0
 50
90.0
 51
180.0
1001
ACAD
1000
R13OBJECT
1002
{
1005
34
1002
}
  0
LINE
  5
146
  8
TEAM-NET
 10
-267.911868
 20
-0.836221
 30
874.010653
 11
-267.911868
 21
-0.836221
 31
825.010653
1001
ACAD
1000
R13OBJECT
1002
{
1005
34
1002
}
  0
LINE
  5
147
  8
TEAM-NET
 10
-273.568722
 20
-3.179367
 30
825.010653
 11
-273.568722
 21
-3.179367
 31
874.010653
1001
ACAD
1000
R13OBJECT
1002
{
1005
34
1002
}
  0
LINE
  5
35
  8
TEAM-NET
 10
-267.911868
 20
-0.836221
 30
825.010653
 11
266.088132
 21
-0.836221
 31
825.010653
  0
LINE
  5
148
  8
TEAM-NET
 10
-267.911868
 20
-0.836221
 30
874.010653
 11
-267.911868
 21
-0.836221
 31
825.010653
1001
ACAD
1000
R13OBJECT
1002
{
1005
35
1002
}
  0
LINE
  5
149
  8
TEAM-NET
 10
266.088132
 20
-0.836221
 30
874.010653
 11
-267.911868
 21
-0.836221
 31
874.010653
1001
ACAD
1000
R13OBJECT
1002
{
1005
35
1002
}
  0
LINE
  5
14A
  8
TEAM-NET
 10
266.088132
 20
-0.836221
 30
825.010653
 11
266.088132
 21
-0.836221
 31
874.010653
1001
ACAD
1000
R13OBJECT
1002
{
1005
35
1002
}
  0
ARC
  5
36
  8
TEAM-NET
 10
-266.088132
 20
-8.836221
 30
-825.010653
 40
8.0
210
0.0
220
0.0
230
-1.0
 50
90.0
 51
180.0
  0
LINE
  5
14B
  8
TEAM-NET
 10
266.088132
 20
-0.836221
 30
825.010653
 11
266.088132
 21
-0.836221
 31
874.010653
1001
ACAD
1000
R13OBJECT
1002
{
1005
36
1002
}
  0
ARC
  5
14C
  8
TEAM-NET
 10
266.088132
 20
-8.836221
 30
874.010653
 40
8.0
 50
0.0
 51
90.0
1001
ACAD
1000
R13OBJECT
1002
{
1005
36
1002
}
  0
LINE
  5
14D
  8
TEAM-NET
 10
274.088132
 20
-8.836221
 30
874.010653
 11
274.088132
 21
-8.836221
 31
825.010653
1001
ACAD
1000
R13OBJECT
1002
{
1005
36
1002
}
  0
LINE
  5
14E
  8
TEAM-NET
 10
271.744986
 20
-3.179367
 30
825.010653
 11
271.744986
 21
-3.179367
 31
874.010653
1001
ACAD
1000
R13OBJECT
1002
{
1005
36
1002
}
  0
LINE
  5
37
  8
TEAM-NET
 10
-18.411868
 20
-60.836221
 30
879.010653
 11
-18.411868
 21
-60.836221
 31
857.010653
  0
ARC
  5
14F
  8
TEAM-NET
 10
0.911868
 20
-60.836221
 30
-879.010653
 40
17.5
210
0.0
220
0.0
230
-1.0
 50
180.0
 51
0.0
1001
ACAD
1000
R13OBJECT
1002
{
1005
37
1002
}
  0
LINE
  5
150
  8
TEAM-NET
 10
16.588132
 20
-60.836221
 30
879.010653
 11
16.588132
 21
-60.836221
 31
857.010653
1001
ACAD
1000
R13OBJECT
1002
{
1005
37
1002
}
  0
ARC
  5
151
  8
TEAM-NET
 10
-0.911868
 20
-60.836221
 30
857.010653
 40
17.5
 50
180.0
 51
0.0
1001
ACAD
1000
R13OBJECT
1002
{
1005
37
1002
}
  0
ARC
  5
38
  8
TEAM-NET
 10
-117.836221
 20
867.510653
 30
-0.911868
 40
3.0
210
1.0
220
0.0
230
0.0
 50
180.0
 51
270.0
  0
ARC
  5
152
  8
TEAM-NET
 10
-0.911868
 20
852.010653
 30
120.836221
 40
15.5
210
0.0
220
-1.0
230
0.0
 50
90.0
 51
270.0
1001
ACAD
1000
R13OBJECT
1002
{
1005
38
1002
}
  0
ARC
  5
153
  8
TEAM-NET
 10
117.836221
 20
836.510653
 30
0.911868
 40
3.0
210
-1.0
220
0.0
230
0.0
 50
0.0
 51
90.0
1001
ACAD
1000
R13OBJECT
1002
{
1005
38
1002
}
  0
ARC
  5
154
  8
TEAM-NET
 10
0.911868
 20
852.010653
 30
-117.836221
 40
12.5
210
0.0
220
1.0
230
0.0
 50
270.0
 51
360.0
1001
ACAD
1000
R13OBJECT
1002
{
1005
38
1002
}
  0
ARC
  5
155
  8
TEAM-NET
 10
0.911868
 20
852.010653
 30
-117.836221
 40
12.5
210
0.0
220
1.0
230
0.0
 50
360.0
 51
90.0
1001
ACAD
1000
R13OBJECT
1002
{
1005
38
1002
}
  0
ARC
  5
156
  8
TEAM-NET
 10
16.411868
 20
-117.836221
 30
-852.010653
 40
3.0
210
0.0
220
0.0
230
-1.0
 50
180.0
 51
270.0
1001
ACAD
1000
R13OBJECT
1002
{
1005
38
1002
}
  0
ARC
  5
157
  8
TEAM-NET
 10
0.911868
 20
852.010653
 30
-119.957541
 40
13.37868
210
0.0
220
1.0
230
0.0
 50
270.0
 51
90.0
1001
ACAD
1000
R13OBJECT
1002
{
1005
38
1002
}
  0
POLYLINE
  5
39
  8
TEAM-NET
 66
     1
 10
0.0
 20
0.0
 30
0.0
 70
     8
  0
VERTEX
  5
158
  8
TEAM-NET
 10
9.191263
 20
-208.117764
 30
736.658533
 70
    32
  0
VERTEX
  5
159
  8
TEAM-NET
 10
9.903075
 20
-209.087092
 30
736.803071
 70
    32
  0
VERTEX
  5
15A
  8
TEAM-NET
 10
10.22696
 20
-209.52783
 30
736.970904
 70
    32
  0
VERTEX
  5
15B
  8
TEAM-NET
 10
10.486058
 20
-209.880241
 30
737.157015
 70
    32
  0
VERTEX
  5
15C
  8
TEAM-NET
 10
11.094213
 20
-210.706714
 30
737.817459
 70
    32
  0
VERTEX
  5
15D
  8
TEAM-NET
 10
11.287216
 20
-210.968729
 30
738.113446
 70
    32
  0
VERTEX
  5
15E
  8
TEAM-NET
 10
11.449685
 20
-211.189147
 30
738.408247
 70
    32
  0
VERTEX
  5
15F
  8
TEAM-NET
 10
11.759291
 20
-211.608641
 30
739.141342
 70
    32
  0
VERTEX
  5
160
  8
TEAM-NET
 10
11.910979
 20
-211.813722
 30
739.641116
 70
    32
  0
VERTEX
  5
161
  8
TEAM-NET
 10
11.99847
 20
-211.931743
 30
740.01361
 70
    32
  0
VERTEX
  5
162
  8
TEAM-NET
 10
12.153037
 20
-212.138552
 30
741.206948
 70
    32
  0
VERTEX
  5
163
  8
TEAM-NET
 10
12.165809
 20
-212.154546
 30
741.651638
 70
    32
  0
SEQEND
  5
164
  8
TEAM-NET
  0
LINE
  5
165
  8
TEAM-NET
 10
9.191263
 20
-208.117764
 30
736.658533
 11
3.243076
 21
-200.013787
 31
736.672348
1001
ACAD
1000
R13OBJECT
1002
{
1005
39
1002
}
  0
LINE
  5
166
  8
TEAM-NET
 10
3.335978
 20
-200.013787
 30
776.67224
 11
3.243076
 21
-200.013787
 31
736.672348
1001
ACAD
1000
R13OBJECT
1002
{
1005
39
1002
}
  0
LINE
  5
167
  8
TEAM-NET
 10
12.247099
 20
-212.154546
 30
776.651543
 11
3.335978
 21
-200.013787
 31
776.67224
1001
ACAD
1000
R13OBJECT
1002
{
1005
39
1002
}
  0
LINE
  5
168
  8
TEAM-NET
 10
12.247099
 20
-212.154546
 30
776.651543
 11
12.165809
 21
-212.154546
 31
741.651638
1001
ACAD
1000
R13OBJECT
1002
{
1005
39
1002
}
  0
LINE
  5
3A
  8
TEAM-NET
 10
-5.277463
 20
-191.658655
 30
776.692245
 11
-5.370365
 21
-191.658655
 31
736.692353
  0
ARC
  5
169
  8
TEAM-NET
 10
-2.774635
 20
-195.836221
 30
736.677893
 40
6.0
210
0.002323
220
0.0
230
0.999997
 50
135.872209
 51
206.684073
1001
ACAD
1000
R13OBJECT
1002
{
1005
3A
1002
}
  0
LINE
  5
16A
  8
TEAM-NET
 10
-6.424608
 20
-198.530645
 30
736.694802
 11
-6.331705
 21
-198.530645
 31
776.694694
1001
ACAD
1000
R13OBJECT
1002
{
1005
3A
1002
}
  0
ARC
  5
16B
  8
TEAM-NET
 10
-2.774635
 20
-195.836221
 30
776.677893
 40
6.0
210
0.002323
220
0.0
230
0.999997
 50
135.872209
 51
206.684073
1001
ACAD
1000
R13OBJECT
1002
{
1005
3A
1002
}
  0
LINE
  5
3B
  8
TEAM-NET
 10
-5.148297
 20
-200.142953
 30
776.691945
 11
-5.2412
 21
-200.142953
 31
736.692053
  0
ARC
  5
16C
  8
TEAM-NET
 10
-2.774635
 20
-195.836221
 30
736.677893
 40
6.0
210
0.002323
220
-0.0
230
0.999997
 50
225.872209
 51
296.684073
1001
ACAD
1000
R13OBJECT
1002
{
1005
3B
1002
}
  0
LINE
  5
16D
  8
TEAM-NET
 10
1.723674
 20
-201.197198
 30
776.675985
 11
1.630772
 21
-201.197198
 31
736.676093
1001
ACAD
1000
R13OBJECT
1002
{
1005
3B
1002
}
  0
ARC
  5
16E
  8
TEAM-NET
 10
-2.774635
 20
-195.836221
 30
776.677893
 40
6.0
210
0.002323
220
0.0
230
0.999997
 50
225.872209
 51
296.684073
1001
ACAD
1000
R13OBJECT
1002
{
1005
3B
1002
}
  0
POLYLINE
  5
3C
  8
TEAM-NET
 66
     1
 10
0.0
 20
0.0
 30
0.0
 70
     8
  0
VERTEX
  5
16F
  8
TEAM-NET
 10
-13.345154
 20
-206.091157
 30
736.710875
 70
    32
  0
VERTEX
  5
170
  8
TEAM-NET
 10
-14.314141
 20
-206.80263
 30
736.859317
 70
    32
  0
VERTEX
  5
171
  8
TEAM-NET
 10
-14.754485
 20
-207.126125
 30
737.028925
 70
    32
  0
VERTEX
  5
172
  8
TEAM-NET
 10
-15.106463
 20
-207.384791
 30
737.216455
 70
    32
  0
VERTEX
  5
173
  8
TEAM-NET
 10
-15.931396
 20
-207.99141
 30
737.880228
 70
    32
  0
VERTEX
  5
174
  8
TEAM-NET
 10
-16.192722
 20
-208.183725
 30
738.17727
 70
    32
  0
VERTEX
  5
175
  8
TEAM-NET
 10
-16.412453
 20
-208.345508
 30
738.472959
 70
    32
  0
VERTEX
  5
176
  8
TEAM-NET
 10
-16.830242
 20
-208.653411
 30
739.207743
 70
    32
  0
VERTEX
  5
177
  8
TEAM-NET
 10
-17.034161
 20
-208.803938
 30
739.708343
 70
    32
  0
VERTEX
  5
178
  8
TEAM-NET
 10
-17.151316
 20
-208.890563
 30
740.081313
 70
    32
  0
VERTEX
  5
179
  8
TEAM-NET
 10
-17.355352
 20
-209.042359
 30
741.275483
 70
    32
  0
VERTEX
  5
17A
  8
TEAM-NET
 10
-17.370313
 20
-209.054098
 30
741.720238
 70
    32
  0
SEQEND
  5
17B
  8
TEAM-NET
  0
LINE
  5
17C
  8
TEAM-NET
 10
-13.345154
 20
-206.091157
 30
736.710875
 11
-5.2412
 21
-200.142953
 31
736.692053
1001
ACAD
1000
R13OBJECT
1002
{
1005
3C
1002
}
  0
LINE
  5
17D
  8
TEAM-NET
 10
-5.148297
 20
-200.142953
 30
776.691945
 11
-5.2412
 21
-200.142953
 31
736.692053
1001
ACAD
1000
R13OBJECT
1002
{
1005
3C
1002
}
  0
LINE
  5
17E
  8
TEAM-NET
 10
-17.289023
 20
-209.054098
 30
776.720143
 11
-5.148297
 21
-200.142953
 31
776.691945
1001
ACAD
1000
R13OBJECT
1002
{
1005
3C
1002
}
  0
LINE
  5
17F
  8
TEAM-NET
 10
-17.289023
 20
-209.054098
 30
776.720143
 11
-17.370313
 21
-209.054098
 31
741.720238
1001
ACAD
1000
R13OBJECT
1002
{
1005
3C
1002
}
  0
LINE
  5
3D
  8
TEAM-NET
 10
3.206813
 20
-191.529489
 30
776.67254
 11
3.11391
 21
-191.529489
 31
736.672648
  0
ARC
  5
180
  8
TEAM-NET
 10
-2.774635
 20
-195.836221
 30
736.677893
 40
6.0
210
0.002323
220
-0.0
230
0.999997
 50
45.872209
 51
116.684073
1001
ACAD
1000
R13OBJECT
1002
{
1005
3D
1002
}
  0
LINE
  5
181
  8
TEAM-NET
 10
-3.758061
 20
-190.475243
 30
736.688609
 11
-3.665159
 21
-190.475243
 31
776.688501
1001
ACAD
1000
R13OBJECT
1002
{
1005
3D
1002
}
  0
ARC
  5
182
  8
TEAM-NET
 10
-2.774635
 20
-195.836221
 30
776.677893
 40
6.0
210
0.002323
220
-0.0
230
0.999997
 50
45.872209
 51
116.684073
1001
ACAD
1000
R13OBJECT
1002
{
1005
3D
1002
}
  0
POLYLINE
  5
3E
  8
TEAM-NET
 66
     1
 10
0.0
 20
0.0
 30
0.0
 70
     8
  0
VERTEX
  5
183
  8
TEAM-NET
 10
-11.318553
 20
-183.554678
 30
736.706168
 70
    32
  0
VERTEX
  5
184
  8
TEAM-NET
 10
-12.029685
 20
-182.58535
 30
736.854012
 70
    32
  0
VERTEX
  5
185
  8
TEAM-NET
 10
-12.352788
 20
-182.144612
 30
737.023347
 70
    32
  0
VERTEX
  5
186
  8
TEAM-NET
 10
-12.611019
 20
-181.7922
 30
737.210659
 70
    32
  0
VERTEX
  5
187
  8
TEAM-NET
 10
-13.216099
 20
-180.965728
 30
737.873922
 70
    32
  0
VERTEX
  5
188
  8
TEAM-NET
 10
-13.407725
 20
-180.703713
 30
738.170802
 70
    32
  0
VERTEX
  5
189
  8
TEAM-NET
 10
-13.568823
 20
-180.483295
 30
738.466355
 70
    32
  0
VERTEX
  5
18A
  8
TEAM-NET
 10
-13.87502
 20
-180.063801
 30
739.200879
 70
    32
  0
VERTEX
  5
18B
  8
TEAM-NET
 10
-14.024385
 20
-179.85872
 30
739.701353
 70
    32
  0
VERTEX
  5
18C
  8
TEAM-NET
 10
-14.110145
 20
-179.740699
 30
740.074249
 70
    32
  0
VERTEX
  5
18D
  8
TEAM-NET
 10
-14.259167
 20
-179.533889
 30
741.268292
 70
    32
  0
VERTEX
  5
18E
  8
TEAM-NET
 10
-14.269873
 20
-179.517896
 30
741.713037
 70
    32
  0
SEQEND
  5
18F
  8
TEAM-NET
  0
LINE
  5
190
  8
TEAM-NET
 10
-11.318553
 20
-183.554678
 30
736.706168
 11
-5.370365
 21
-191.658655
 31
736.692353
1001
ACAD
1000
R13OBJECT
1002
{
1005
3E
1002
}
  0
LINE
  5
191
  8
TEAM-NET
 10
-5.277463
 20
-191.658655
 30
776.692245
 11
-5.370365
 21
-191.658655
 31
736.692353
1001
ACAD
1000
R13OBJECT
1002
{
1005
3E
1002
}
  0
LINE
  5
192
  8
TEAM-NET
 10
-14.188584
 20
-179.517896
 30
776.712942
 11
-5.277463
 21
-191.658655
 31
776.692245
1001
ACAD
1000
R13OBJECT
1002
{
1005
3E
1002
}
  0
LINE
  5
193
  8
TEAM-NET
 10
-14.188584
 20
-179.517896
 30
776.712942
 11
-14.269873
 21
-179.517896
 31
741.713037
1001
ACAD
1000
R13OBJECT
1002
{
1005
3E
1002
}
  0
LINE
  5
3F
  8
TEAM-NET
 10
4.297318
 20
-193.141797
 30
736.669899
 11
4.390221
 21
-193.141797
 31
776.669792
  0
ARC
  5
194
  8
TEAM-NET
 10
-2.774635
 20
-195.836221
 30
776.677893
 40
6.0
210
0.002323
220
0.0
230
0.999997
 50
315.872209
 51
26.684073
1001
ACAD
1000
R13OBJECT
1002
{
1005
3F
1002
}
  0
LINE
  5
195
  8
TEAM-NET
 10
3.335978
 20
-200.013787
 30
776.67224
 11
3.243076
 21
-200.013787
 31
736.672348
1001
ACAD
1000
R13OBJECT
1002
{
1005
3F
1002
}
  0
ARC
  5
196
  8
TEAM-NET
 10
-2.774635
 20
-195.836221
 30
736.677893
 40
6.0
210
0.002323
220
0.0
230
0.999997
 50
315.872209
 51
26.684073
1001
ACAD
1000
R13OBJECT
1002
{
1005
3F
1002
}
  0
POLYLINE
  5
40
  8
TEAM-NET
 66
     1
 10
0.0
 20
0.0
 30
0.0
 70
     8
  0
VERTEX
  5
197
  8
TEAM-NET
 10
11.217865
 20
-185.581285
 30
736.653826
 70
    32
  0
VERTEX
  5
198
  8
TEAM-NET
 10
12.18753
 20
-184.869812
 30
736.797765
 70
    32
  0
VERTEX
  5
199
  8
TEAM-NET
 10
12.628658
 20
-184.546317
 30
736.965326
 70
    32
  0
VERTEX
  5
19A
  8
TEAM-NET
 10
12.981502
 20
-184.287651
 30
737.151219
 70
    32
  0
VERTEX
  5
19B
  8
TEAM-NET
 10
13.80951
 20
-183.681032
 30
737.811153
 70
    32
  0
VERTEX
  5
19C
  8
TEAM-NET
 10
14.072213
 20
-183.488717
 30
738.106977
 70
    32
  0
VERTEX
  5
19D
  8
TEAM-NET
 10
14.293315
 20
-183.326933
 30
738.401643
 70
    32
  0
VERTEX
  5
19E
  8
TEAM-NET
 10
14.714513
 20
-183.01903
 30
739.134478
 70
    32
  0
VERTEX
  5
19F
  8
TEAM-NET
 10
14.920755
 20
-182.868504
 30
739.634126
 70
    32
  0
VERTEX
  5
1A0
  8
TEAM-NET
 10
15.039641
 20
-182.781879
 30
740.006547
 70
    32
  0
VERTEX
  5
1A1
  8
TEAM-NET
 10
15.249223
 20
-182.630083
 30
741.199757
 70
    32
  0
VERTEX
  5
1A2
  8
TEAM-NET
 10
15.266249
 20
-182.618344
 30
741.644437
 70
    32
  0
SEQEND
  5
1A3
  8
TEAM-NET
  0
LINE
  5
1A4
  8
TEAM-NET
 10
11.217865
 20
-185.581285
 30
736.653826
 11
3.11391
 21
-191.529489
 31
736.672648
1001
ACAD
1000
R13OBJECT
1002
{
1005
40
1002
}
  0
LINE
  5
1A5
  8
TEAM-NET
 10
3.206813
 20
-191.529489
 30
776.67254
 11
3.11391
 21
-191.529489
 31
736.672648
1001
ACAD
1000
R13OBJECT
1002
{
1005
40
1002
}
  0
LINE
  5
1A6
  8
TEAM-NET
 10
15.347539
 20
-182.618344
 30
776.644342
 11
3.206813
 21
-191.529489
 31
776.67254
1001
ACAD
1000
R13OBJECT
1002
{
1005
40
1002
}
  0
LINE
  5
1A7
  8
TEAM-NET
 10
15.347539
 20
-182.618344
 30
776.644342
 11
15.266249
 21
-182.618344
 31
741.644437
1001
ACAD
1000
R13OBJECT
1002
{
1005
40
1002
}
  0
ARC
  5
41
  8
TEAM-NET
 10
2.774635
 20
-195.836221
 30
-741.677893
 40
21.0
210
-0.002323
220
-0.0
230
-0.999997
 50
230.992456
 51
236.451261
  0
LINE
  5
1A8
  8
TEAM-NET
 10
12.247099
 20
-212.154546
 30
776.651543
 11
12.165809
 21
-212.154546
 31
741.651638
1001
ACAD
1000
R13OBJECT
1002
{
1005
41
1002
}
  0
ARC
  5
1A9
  8
TEAM-NET
 10
-2.774635
 20
-195.836221
 30
776.677893
 40
21.0
210
0.002323
220
0.0
230
0.999997
 50
303.548739
 51
309.007544
1001
ACAD
1000
R13OBJECT
1002
{
1005
41
1002
}
  0
LINE
  5
1AA
  8
TEAM-NET
 10
10.634795
 20
-213.337957
 30
776.655288
 11
10.553505
 21
-213.337957
 31
741.655383
1001
ACAD
1000
R13OBJECT
1002
{
1005
41
1002
}
  0
POLYLINE
  5
42
  8
TEAM-NET
 66
     1
 10
0.0
 20
0.0
 30
0.0
 70
     8
  0
VERTEX
  5
1AB
  8
TEAM-NET
 10
10.553505
 20
-213.337957
 30
741.655383
 70
    32
  0
VERTEX
  5
1AC
  8
TEAM-NET
 10
10.494237
 20
-213.260297
 30
740.679308
 70
    32
  0
VERTEX
  5
1AD
  8
TEAM-NET
 10
10.348013
 20
-213.063722
 30
739.844116
 70
    32
  0
VERTEX
  5
1AE
  8
TEAM-NET
 10
10.251742
 20
-212.933728
 30
739.474882
 70
    32
  0
VERTEX
  5
1AF
  8
TEAM-NET
 10
9.857492
 20
-212.399831
 30
738.451975
 70
    32
  0
VERTEX
  5
1B0
  8
TEAM-NET
 10
9.679574
 20
-212.158467
 30
738.125014
 70
    32
  0
VERTEX
  5
1B1
  8
TEAM-NET
 10
9.505829
 20
-211.922607
 30
737.855136
 70
    32
  0
VERTEX
  5
1B2
  8
TEAM-NET
 10
9.06929
 20
-211.329501
 30
737.335526
 70
    32
  0
VERTEX
  5
1B3
  8
TEAM-NET
 10
8.763045
 20
-210.91309
 30
737.075225
 70
    32
  0
VERTEX
  5
1B4
  8
TEAM-NET
 10
8.540217
 20
-210.609965
 30
736.929972
 70
    32
  0
VERTEX
  5
1B5
  8
TEAM-NET
 10
7.830633
 20
-209.644004
 30
736.679742
 70
    32
  0
VERTEX
  5
1B6
  8
TEAM-NET
 10
7.57896
 20
-209.301175
 30
736.662278
 70
    32
  0
SEQEND
  5
1B7
  8
TEAM-NET
  0
LINE
  5
1B8
  8
TEAM-NET
 10
10.634795
 20
-213.337957
 30
776.655288
 11
10.553505
 21
-213.337957
 31
741.655383
1001
ACAD
1000
R13OBJECT
1002
{
1005
42
1002
}
  0
LINE
  5
1B9
  8
TEAM-NET
 10
1.723674
 20
-201.197198
 30
776.675985
 11
10.634795
 21
-213.337957
 31
776.655288
1001
ACAD
1000
R13OBJECT
1002
{
1005
42
1002
}
  0
LINE
  5
1BA
  8
TEAM-NET
 10
1.723674
 20
-201.197198
 30
776.675985
 11
1.630772
 21
-201.197198
 31
736.676093
1001
ACAD
1000
R13OBJECT
1002
{
1005
42
1002
}
  0
LINE
  5
1BB
  8
TEAM-NET
 10
1.630772
 20
-201.197198
 30
736.676093
 11
7.57896
 21
-209.301175
 31
736.662278
1001
ACAD
1000
R13OBJECT
1002
{
1005
42
1002
}
  0
ARC
  5
43
  8
TEAM-NET
 10
2.774635
 20
-195.836221
 30
-741.677893
 40
21.0
210
-0.002323
220
-0.0
230
-0.999997
 50
140.992456
 51
146.451261
  0
LINE
  5
1BC
  8
TEAM-NET
 10
15.347539
 20
-182.618344
 30
776.644342
 11
15.266249
 21
-182.618344
 31
741.644437
1001
ACAD
1000
R13OBJECT
1002
{
1005
43
1002
}
  0
ARC
  5
1BD
  8
TEAM-NET
 10
-2.774635
 20
-195.836221
 30
776.677893
 40
21.0
210
0.002323
220
-0.0
230
0.999997
 50
33.548739
 51
39.007544
1001
ACAD
1000
R13OBJECT
1002
{
1005
43
1002
}
  0
LINE
  5
1BE
  8
TEAM-NET
 10
16.530947
 20
-184.230652
 30
776.641594
 11
16.449657
 21
-184.230652
 31
741.641688
1001
ACAD
1000
R13OBJECT
1002
{
1005
43
1002
}
  0
POLYLINE
  5
44
  8
TEAM-NET
 66
     1
 10
0.0
 20
0.0
 30
0.0
 70
     8
  0
VERTEX
  5
1BF
  8
TEAM-NET
 10
16.449657
 20
-184.230652
 30
741.641688
 70
    32
  0
VERTEX
  5
1C0
  8
TEAM-NET
 10
16.36973
 20
-184.287654
 30
740.665662
 70
    32
  0
VERTEX
  5
1C1
  8
TEAM-NET
 10
16.171215
 20
-184.431937
 30
739.830591
 70
    32
  0
VERTEX
  5
1C2
  8
TEAM-NET
 10
16.040363
 20
-184.52735
 30
739.461438
 70
    32
  0
VERTEX
  5
1C3
  8
TEAM-NET
 10
15.504089
 20
-184.919224
 30
738.438861
 70
    32
  0
VERTEX
  5
1C4
  8
TEAM-NET
 10
15.261966
 20
-185.096381
 30
738.112048
 70
    32
  0
VERTEX
  5
1C5
  8
TEAM-NET
 10
15.025478
 20
-185.269499
 30
737.842316
 70
    32
  0
VERTEX
  5
1C6
  8
TEAM-NET
 10
14.431165
 20
-185.704831
 30
737.323073
 70
    32
  0
VERTEX
  5
1C7
  8
TEAM-NET
 10
14.014149
 20
-186.010471
 30
737.063029
 70
    32
  0
VERTEX
  5
1C8
  8
TEAM-NET
 10
13.710687
 20
-186.23296
 30
736.917963
 70
    32
  0
VERTEX
  5
1C9
  8
TEAM-NET
 10
12.744143
 20
-186.941961
 30
736.66833
 70
    32
  0
VERTEX
  5
1CA
  8
TEAM-NET
 10
12.401273
 20
-187.193593
 30
736.651077
 70
    32
  0
SEQEND
  5
1CB
  8
TEAM-NET
  0
LINE
  5
1CC
  8
TEAM-NET
 10
16.530947
 20
-184.230652
 30
776.641594
 11
16.449657
 21
-184.230652
 31
741.641688
1001
ACAD
1000
R13OBJECT
1002
{
1005
44
1002
}
  0
LINE
  5
1CD
  8
TEAM-NET
 10
4.390221
 20
-193.141797
 30
776.669792
 11
16.530947
 21
-184.230652
 31
776.641594
1001
ACAD
1000
R13OBJECT
1002
{
1005
44
1002
}
  0
LINE
  5
1CE
  8
TEAM-NET
 10
4.297318
 20
-193.141797
 30
736.669899
 11
4.390221
 21
-193.141797
 31
776.669792
1001
ACAD
1000
R13OBJECT
1002
{
1005
44
1002
}
  0
LINE
  5
1CF
  8
TEAM-NET
 10
4.297318
 20
-193.141797
 30
736.669899
 11
12.401273
 21
-187.193593
 31
736.651077
1001
ACAD
1000
R13OBJECT
1002
{
1005
44
1002
}
  0
ARC
  5
45
  8
TEAM-NET
 10
2.774635
 20
-195.836221
 30
-741.677893
 40
21.0
210
-0.002323
220
0.0
230
-0.999997
 50
50.992456
 51
56.451261
  0
LINE
  5
1D0
  8
TEAM-NET
 10
-14.188584
 20
-179.517896
 30
776.712942
 11
-14.269873
 21
-179.517896
 31
741.713037
1001
ACAD
1000
R13OBJECT
1002
{
1005
45
1002
}
  0
ARC
  5
1D1
  8
TEAM-NET
 10
-2.774635
 20
-195.836221
 30
776.677893
 40
21.0
210
0.002323
220
-0.0
230
0.999997
 50
123.548739
 51
129.007544
1001
ACAD
1000
R13OBJECT
1002
{
1005
45
1002
}
  0
LINE
  5
1D2
  8
TEAM-NET
 10
-12.57628
 20
-178.334485
 30
776.709198
 11
-12.657569
 21
-178.334485
 31
741.709292
1001
ACAD
1000
R13OBJECT
1002
{
1005
45
1002
}
  0
POLYLINE
  5
46
  8
TEAM-NET
 66
     1
 10
0.0
 20
0.0
 30
0.0
 70
     8
  0
VERTEX
  5
1D3
  8
TEAM-NET
 10
-12.657569
 20
-178.334485
 30
741.709292
 70
    32
  0
VERTEX
  5
1D4
  8
TEAM-NET
 10
-12.602835
 20
-178.412145
 30
740.732952
 70
    32
  0
VERTEX
  5
1D5
  8
TEAM-NET
 10
-12.460493
 20
-178.60872
 30
739.897091
 70
    32
  0
VERTEX
  5
1D6
  8
TEAM-NET
 10
-12.365938
 20
-178.738713
 30
739.527413
 70
    32
  0
VERTEX
  5
1D7
  8
TEAM-NET
 10
-11.976444
 20
-179.272611
 30
738.502686
 70
    32
  0
VERTEX
  5
1D8
  8
TEAM-NET
 10
-11.800047
 20
-179.513975
 30
738.174902
 70
    32
  0
VERTEX
  5
1D9
  8
TEAM-NET
 10
-11.627557
 20
-179.749835
 30
737.90422
 70
    32
  0
VERTEX
  5
1DA
  8
TEAM-NET
 10
-11.193436
 20
-180.342941
 30
737.382588
 70
    32
  0
VERTEX
  5
1DB
  8
TEAM-NET
 10
-10.888403
 20
-180.759352
 30
737.120867
 70
    32
  0
VERTEX
  5
1DC
  8
TEAM-NET
 10
-10.666253
 20
-181.062477
 30
736.97458
 70
    32
  0
VERTEX
  5
1DD
  8
TEAM-NET
 10
-9.957839
 20
-182.028437
 30
736.721057
 70
    32
  0
VERTEX
  5
1DE
  8
TEAM-NET
 10
-9.706249
 20
-182.371267
 30
736.702424
 70
    32
  0
SEQEND
  5
1DF
  8
TEAM-NET
  0
LINE
  5
1E0
  8
TEAM-NET
 10
-12.57628
 20
-178.334485
 30
776.709198
 11
-12.657569
 21
-178.334485
 31
741.709292
1001
ACAD
1000
R13OBJECT
1002
{
1005
46
1002
}
  0
LINE
  5
1E1
  8
TEAM-NET
 10
-3.665159
 20
-190.475243
 30
776.688501
 11
-12.57628
 21
-178.334485
 31
776.709198
1001
ACAD
1000
R13OBJECT
1002
{
1005
46
1002
}
  0
LINE
  5
1E2
  8
TEAM-NET
 10
-3.758061
 20
-190.475243
 30
736.688609
 11
-3.665159
 21
-190.475243
 31
776.688501
1001
ACAD
1000
R13OBJECT
1002
{
1005
46
1002
}
  0
LINE
  5
1E3
  8
TEAM-NET
 10
-3.758061
 20
-190.475243
 30
736.688609
 11
-9.706249
 21
-182.371267
 31
736.702424
1001
ACAD
1000
R13OBJECT
1002
{
1005
46
1002
}
  0
ARC
  5
47
  8
TEAM-NET
 10
2.774635
 20
-195.836221
 30
-741.677893
 40
21.0
210
-0.002323
220
-0.0
230
-0.999997
 50
320.992456
 51
326.451261
  0
LINE
  5
1E4
  8
TEAM-NET
 10
-17.289023
 20
-209.054098
 30
776.720143
 11
-17.370313
 21
-209.054098
 31
741.720238
1001
ACAD
1000
R13OBJECT
1002
{
1005
47
1002
}
  0
ARC
  5
1E5
  8
TEAM-NET
 10
-2.774635
 20
-195.836221
 30
776.677893
 40
21.0
210
0.002323
220
-0.0
230
0.999997
 50
213.548739
 51
219.007544
1001
ACAD
1000
R13OBJECT
1002
{
1005
47
1002
}
  0
LINE
  5
1E6
  8
TEAM-NET
 10
-18.472431
 20
-207.44179
 30
776.722892
 11
-18.553721
 21
-207.44179
 31
741.722986
1001
ACAD
1000
R13OBJECT
1002
{
1005
47
1002
}
  0
POLYLINE
  5
48
  8
TEAM-NET
 66
     1
 10
0.0
 20
0.0
 30
0.0
 70
     8
  0
VERTEX
  5
1E7
  8
TEAM-NET
 10
-18.553721
 20
-207.44179
 30
741.722986
 70
    32
  0
VERTEX
  5
1E8
  8
TEAM-NET
 10
-18.478328
 20
-207.384788
 30
740.746599
 70
    32
  0
VERTEX
  5
1E9
  8
TEAM-NET
 10
-18.283694
 20
-207.240505
 30
739.910615
 70
    32
  0
VERTEX
  5
1EA
  8
TEAM-NET
 10
-18.154559
 20
-207.145091
 30
739.540858
 70
    32
  0
VERTEX
  5
1EB
  8
TEAM-NET
 10
-17.623041
 20
-206.753218
 30
738.515801
 70
    32
  0
VERTEX
  5
1EC
  8
TEAM-NET
 10
-17.382438
 20
-206.57606
 30
738.187867
 70
    32
  0
VERTEX
  5
1ED
  8
TEAM-NET
 10
-17.147206
 20
-206.402942
 30
737.917039
 70
    32
  0
VERTEX
  5
1EE
  8
TEAM-NET
 10
-16.555311
 20
-205.967611
 30
737.395041
 70
    32
  0
VERTEX
  5
1EF
  8
TEAM-NET
 10
-16.139508
 20
-205.661971
 30
737.133063
 70
    32
  0
VERTEX
  5
1F0
  8
TEAM-NET
 10
-15.836723
 20
-205.439482
 30
736.986589
 70
    32
  0
VERTEX
  5
1F1
  8
TEAM-NET
 10
-14.871349
 20
-204.730481
 30
736.732469
 70
    32
  0
VERTEX
  5
1F2
  8
TEAM-NET
 10
-14.528563
 20
-204.478849
 30
736.713624
 70
    32
  0
SEQEND
  5
1F3
  8
TEAM-NET
  0
LINE
  5
1F4
  8
TEAM-NET
 10
-18.472431
 20
-207.44179
 30
776.722892
 11
-18.553721
 21
-207.44179
 31
741.722986
1001
ACAD
1000
R13OBJECT
1002
{
1005
48
1002
}
  0
LINE
  5
1F5
  8
TEAM-NET
 10
-6.331705
 20
-198.530645
 30
776.694694
 11
-18.472431
 21
-207.44179
 31
776.722892
1001
ACAD
1000
R13OBJECT
1002
{
1005
48
1002
}
  0
LINE
  5
1F6
  8
TEAM-NET
 10
-6.424608
 20
-198.530645
 30
736.694802
 11
-6.331705
 21
-198.530645
 31
776.694694
1001
ACAD
1000
R13OBJECT
1002
{
1005
48
1002
}
  0
LINE
  5
1F7
  8
TEAM-NET
 10
-6.424608
 20
-198.530645
 30
736.694802
 11
-14.528563
 21
-204.478849
 31
736.713624
1001
ACAD
1000
R13OBJECT
1002
{
1005
48
1002
}
  0
LINE
  5
49
  8
TEAM-NET
 10
-32.866189
 20
-195.836221
 30
776.756322
 11
-21.990854
 21
-195.836221
 31
768.047382
  0
ARC
  5
1F8
  8
TEAM-NET
 10
-2.774635
 20
-195.836221
 30
767.994235
 40
21.0
210
0.002323
220
-0.0
230
0.999997
 50
360.0
 51
180.0
1001
ACAD
1000
R13OBJECT
1002
{
1005
49
1002
}
  0
LINE
  5
1F9
  8
TEAM-NET
 10
30.924705
 20
-195.836221
 30
776.608163
 11
20.009033
 21
-195.836221
 31
767.949834
1001
ACAD
1000
R13OBJECT
1002
{
1005
49
1002
}
  0
ARC
  5
1FA
  8
TEAM-NET
 10
-2.774635
 20
-195.836221
 30
776.677893
 40
31.895533
210
0.002323
220
0.0
230
0.999997
 50
0.0
 51
180.0
1001
ACAD
1000
R13OBJECT
1002
{
1005
49
1002
}
  0
LINE
  5
4A
  8
TEAM-NET
 10
-33.668421
 20
-195.836221
 30
776.758186
 11
-22.990485
 21
-195.836221
 31
768.207323
  0
ARC
  5
1FB
  8
TEAM-NET
 10
-2.774635
 20
-195.836221
 30
768.151854
 40
22.0
210
0.002323
220
0.0
230
0.999997
 50
180.0
 51
360.0
1001
ACAD
1000
R13OBJECT
1002
{
1005
4A
1002
}
  0
LINE
  5
1FC
  8
TEAM-NET
 10
31.726936
 20
-195.836221
 30
776.6063
 11
21.009396
 21
-195.836221
 31
768.10513
1001
ACAD
1000
R13OBJECT
1002
{
1005
4A
1002
}
  0
ARC
  5
1FD
  8
TEAM-NET
 10
-2.774635
 20
-195.836221
 30
776.677893
 40
32.697766
210
0.002323
220
0.0
230
0.999997
 50
180.0
 51
360.0
1001
ACAD
1000
R13OBJECT
1002
{
1005
4A
1002
}
  0
LINE
  5
1FE
  8
TEAM-NET
 10
-0.990545
 20
-217.836221
 30
768.156226
 11
-0.970742
 21
-228.533987
 31
776.682243
1001
ACAD
1000
R13OBJECT
1002
{
1005
4A
1002
}
  0
LINE
  5
4B
  8
TEAM-NET
 10
-33.668421
 20
-195.836221
 30
776.758186
 11
-22.990485
 21
-195.836221
 31
768.207323
  0
ARC
  5
1FF
  8
TEAM-NET
 10
-2.774635
 20
-195.836221
 30
776.677893
 40
32.697766
210
0.002323
220
0.0
230
0.999997
 50
0.0
 51
180.0
1001
ACAD
1000
R13OBJECT
1002
{
1005
4B
1002
}
  0
LINE
  5
200
  8
TEAM-NET
 10
31.726936
 20
-195.836221
 30
776.6063
 11
21.009396
 21
-195.836221
 31
768.10513
1001
ACAD
1000
R13OBJECT
1002
{
1005
4B
1002
}
  0
ARC
  5
201
  8
TEAM-NET
 10
-2.774635
 20
-195.836221
 30
768.151854
 40
22.0
210
0.002323
220
-0.0
230
0.999997
 50
0.0
 51
180.0
1001
ACAD
1000
R13OBJECT
1002
{
1005
4B
1002
}
  0
LINE
  5
202
  8
TEAM-NET
 10
-0.990545
 20
-173.836221
 30
768.156226
 11
-0.970742
 21
-163.138455
 31
776.682243
1001
ACAD
1000
R13OBJECT
1002
{
1005
4B
1002
}
  0
LINE
  5
4C
  8
TEAM-NET
 10
-32.866189
 20
-195.836221
 30
776.756322
 11
-21.990854
 21
-195.836221
 31
768.047382
  0
ARC
  5
203
  8
TEAM-NET
 10
-2.774635
 20
-195.836221
 30
776.677893
 40
31.895533
210
0.002323
220
0.0
230
0.999997
 50
180.0
 51
0.0
1001
ACAD
1000
R13OBJECT
1002
{
1005
4C
1002
}
  0
LINE
  5
204
  8
TEAM-NET
 10
30.924705
 20
-195.836221
 30
776.608163
 11
20.009033
 21
-195.836221
 31
767.949834
1001
ACAD
1000
R13OBJECT
1002
{
1005
4C
1002
}
  0
ARC
  5
205
  8
TEAM-NET
 10
-2.774635
 20
-195.836221
 30
767.994235
 40
21.0
210
0.002323
220
0.0
230
0.999997
 50
180.0
 51
0.0
1001
ACAD
1000
R13OBJECT
1002
{
1005
4C
1002
}
  0
POLYLINE
  5
4D
  8
TEAM-NET
 66
     1
 10
0.0
 20
0.0
 30
0.0
 70
     8
  0
VERTEX
  5
206
  8
TEAM-NET
 10
-0.911868
 20
-231.295624
 30
774.694825
 70
    32
  0
VERTEX
  5
207
  8
TEAM-NET
 10
-0.925964
 20
-231.200319
 30
774.694053
 70
    32
  0
VERTEX
  5
208
  8
TEAM-NET
 10
-0.968226
 20
-231.107434
 30
774.69174
 70
    32
  0
VERTEX
  5
209
  8
TEAM-NET
 10
-1.136879
 20
-230.928987
 30
774.682508
 70
    32
  0
VERTEX
  5
20A
  8
TEAM-NET
 10
-1.944107
 20
-230.54976
 30
774.638323
 70
    32
  0
VERTEX
  5
20B
  8
TEAM-NET
 10
-4.892262
 20
-229.848136
 30
774.47695
 70
    32
  0
SEQEND
  5
20C
  8
TEAM-NET
  0
POLYLINE
  5
20D
  8
TEAM-NET
 66
     1
 10
0.0
 20
0.0
 30
0.0
 70
     8
1001
ACAD
1000
R13OBJECT
1002
{
1005
4D
1002
}
  0
VERTEX
  5
20E
  8
TEAM-NET
 10
-4.892255
 20
-229.847868
 30
774.476949
 70
    32
  0
VERTEX
  5
20F
  8
TEAM-NET
 10
-9.112325
 20
-229.480595
 30
774.717847
 70
    32
  0
VERTEX
  5
210
  8
TEAM-NET
 10
-16.889968
 20
-227.355263
 30
775.161271
 70
    32
  0
VERTEX
  5
211
  8
TEAM-NET
 10
-23.955436
 20
-223.468012
 30
775.5635
 70
    32
  0
VERTEX
  5
212
  8
TEAM-NET
 10
-29.910964
 20
-218.033195
 30
775.902126
 70
    32
  0
VERTEX
  5
213
  8
TEAM-NET
 10
-33.095776
 20
-213.696461
 30
776.083062
 70
    32
  0
VERTEX
  5
214
  8
TEAM-NET
 10
-35.555048
 20
-208.912552
 30
776.22271
 70
    32
  0
VERTEX
  5
215
  8
TEAM-NET
 10
-37.230229
 20
-203.802477
 30
776.317799
 70
    32
  0
VERTEX
  5
216
  8
TEAM-NET
 10
-38.074496
 20
-198.492019
 30
776.365713
 70
    32
  0
VERTEX
  5
217
  8
TEAM-NET
 10
-38.1786
 20
-195.836221
 30
776.371621
 70
    32
  0
SEQEND
  5
218
  8
TEAM-NET
  0
POLYLINE
  5
219
  8
TEAM-NET
 66
     1
 10
0.0
 20
0.0
 30
0.0
 70
     8
1001
ACAD
1000
R13OBJECT
1002
{
1005
4D
1002
}
  0
VERTEX
  5
21A
  8
TEAM-NET
 10
-38.1786
 20
-195.836221
 30
776.371621
 70
    32
  0
VERTEX
  5
21B
  8
TEAM-NET
 10
-38.069431
 20
-193.115327
 30
776.365426
 70
    32
  0
VERTEX
  5
21C
  8
TEAM-NET
 10
-37.214093
 20
-187.806728
 30
776.316884
 70
    32
  0
VERTEX
  5
21D
  8
TEAM-NET
 10
-35.53071
 20
-182.699026
 30
776.221328
 70
    32
  0
VERTEX
  5
21E
  8
TEAM-NET
 10
-33.060454
 20
-177.920742
 30
776.081056
 70
    32
  0
VERTEX
  5
21F
  8
TEAM-NET
 10
-29.868746
 20
-173.5892
 30
775.899726
 70
    32
  0
VERTEX
  5
220
  8
TEAM-NET
 10
-26.031997
 20
-169.814897
 30
775.681613
 70
    32
  0
VERTEX
  5
221
  8
TEAM-NET
 10
-21.649103
 20
-166.690047
 30
775.432262
 70
    32
  0
VERTEX
  5
222
  8
TEAM-NET
 10
-16.829369
 20
-164.292317
 30
775.157819
 70
    32
  0
VERTEX
  5
223
  8
TEAM-NET
 10
-9.04745
 20
-162.182015
 30
774.714146
 70
    32
  0
VERTEX
  5
224
  8
TEAM-NET
 10
-4.892257
 20
-161.824506
 30
774.476949
 70
    32
  0
SEQEND
  5
225
  8
TEAM-NET
  0
POLYLINE
  5
226
  8
TEAM-NET
 66
     1
 10
0.0
 20
0.0
 30
0.0
 70
     8
1001
ACAD
1000
R13OBJECT
1002
{
1005
4D
1002
}
  0
VERTEX
  5
227
  8
TEAM-NET
 10
-4.892262
 20
-161.824306
 30
774.47695
 70
    32
  0
VERTEX
  5
228
  8
TEAM-NET
 10
-3.603894
 20
-161.550901
 30
774.547471
 70
    32
  0
VERTEX
  5
229
  8
TEAM-NET
 10
-1.936075
 20
-161.120005
 30
774.638763
 70
    32
  0
VERTEX
  5
22A
  8
TEAM-NET
 10
-1.23788
 20
-160.81369
 30
774.67698
 70
    32
  0
VERTEX
  5
22B
  8
TEAM-NET
 10
-1.020511
 20
-160.635543
 30
774.688878
 70
    32
  0
VERTEX
  5
22C
  8
TEAM-NET
 10
-0.936824
 20
-160.503105
 30
774.693459
 70
    32
  0
VERTEX
  5
22D
  8
TEAM-NET
 10
-0.911868
 20
-160.376818
 30
774.694825
 70
    32
  0
SEQEND
  5
22E
  8
TEAM-NET
  0
POLYLINE
  5
22F
  8
TEAM-NET
 66
     1
 10
0.0
 20
0.0
 30
773.48704
 70
   128
210
0.054655
220
0.0
230
0.998505
1001
ACAD
1000
R13OBJECT
1002
{
1005
4D
1002
}
  0
VERTEX
  5
D0B
  8
TEAM-NET
 10
-160.376818
 20
43.251604
 30
773.48704
  0
VERTEX
  5
D0C
  8
TEAM-NET
 10
-160.288503
 20
47.797582
 30
773.48704
  0
VERTEX
  5
D0D
  8
TEAM-NET
 10
-160.774801
 20
52.31808
 30
773.48704
  0
VERTEX
  5
D0E
  8
TEAM-NET
 10
-161.827849
 20
56.740028
 30
773.48704
  0
VERTEX
  5
D0F
  8
TEAM-NET
 10
-163.430626
 20
60.991945
 30
773.48704
  0
VERTEX
  5
D10
  8
TEAM-NET
 10
-165.557223
 20
65.005103
 30
773.48704
  0
VERTEX
  5
D11
  8
TEAM-NET
 10
-168.173266
 20
68.71463
 30
773.48704
  0
VERTEX
  5
D12
  8
TEAM-NET
 10
-171.236468
 20
72.060564
 30
773.48704
  0
VERTEX
  5
D13
  8
TEAM-NET
 10
-174.697312
 20
74.988819
 30
773.48704
  0
VERTEX
  5
D14
  8
TEAM-NET
 10
-178.499857
 20
77.452061
 30
773.48704
  0
VERTEX
  5
D15
  8
TEAM-NET
 10
-182.582635
 20
79.410473
 30
773.48704
  0
VERTEX
  5
D16
  8
TEAM-NET
 10
-186.879652
 20
80.832399
 30
773.48704
  0
VERTEX
  5
D17
  8
TEAM-NET
 10
-191.321447
 20
81.694854
 30
773.48704
  0
VERTEX
  5
D18
  8
TEAM-NET
 10
-195.836221
 20
81.983896
 30
773.48704
  0
VERTEX
  5
D19
  8
TEAM-NET
 10
-200.350995
 20
81.694854
 30
773.48704
  0
VERTEX
  5
D1A
  8
TEAM-NET
 10
-204.79279
 20
80.832399
 30
773.48704
  0
VERTEX
  5
D1B
  8
TEAM-NET
 10
-209.089807
 20
79.410473
 30
773.48704
  0
VERTEX
  5
D1C
  8
TEAM-NET
 10
-213.172585
 20
77.452061
 30
773.48704
  0
VERTEX
  5
D1D
  8
TEAM-NET
 10
-216.97513
 20
74.988819
 30
773.48704
  0
VERTEX
  5
D1E
  8
TEAM-NET
 10
-220.435974
 20
72.060564
 30
773.48704
  0
VERTEX
  5
D1F
  8
TEAM-NET
 10
-223.499176
 20
68.71463
 30
773.48704
  0
VERTEX
  5
D20
  8
TEAM-NET
 10
-226.115219
 20
65.005103
 30
773.48704
  0
VERTEX
  5
D21
  8
TEAM-NET
 10
-228.241816
 20
60.991945
 30
773.48704
  0
VERTEX
  5
D22
  8
TEAM-NET
 10
-229.844593
 20
56.740028
 30
773.48704
  0
VERTEX
  5
D23
  8
TEAM-NET
 10
-230.897641
 20
52.31808
 30
773.48704
  0
VERTEX
  5
D24
  8
TEAM-NET
 10
-231.383938
 20
47.797582
 30
773.48704
  0
VERTEX
  5
D25
  8
TEAM-NET
 10
-231.295624
 20
43.251604
 30
773.48704
  0
SEQEND
  5
D26
  8
TEAM-NET
  0
LINE
  5
4E
  8
TEAM-NET
 10
-28.340254
 20
-195.836221
 30
770.320842
 11
-38.178618
 21
-195.836221
 31
776.371622
  0
POLYLINE
  5
24C
  8
TEAM-NET
 66
     1
 10
0.0
 20
0.0
 30
0.0
 70
     8
1001
ACAD
1000
R13OBJECT
1002
{
1005
4E
1002
}
  0
VERTEX
  5
24D
  8
TEAM-NET
 10
-4.892255
 20
-229.847868
 30
774.476949
 70
    32
  0
VERTEX
  5
24E
  8
TEAM-NET
 10
-9.112325
 20
-229.480595
 30
774.717847
 70
    32
  0
VERTEX
  5
24F
  8
TEAM-NET
 10
-16.889968
 20
-227.355263
 30
775.161271
 70
    32
  0
VERTEX
  5
250
  8
TEAM-NET
 10
-23.955436
 20
-223.468012
 30
775.5635
 70
    32
  0
VERTEX
  5
251
  8
TEAM-NET
 10
-29.910964
 20
-218.033195
 30
775.902126
 70
    32
  0
VERTEX
  5
252
  8
TEAM-NET
 10
-33.095776
 20
-213.696461
 30
776.083062
 70
    32
  0
VERTEX
  5
253
  8
TEAM-NET
 10
-35.555048
 20
-208.912552
 30
776.22271
 70
    32
  0
VERTEX
  5
254
  8
TEAM-NET
 10
-37.230229
 20
-203.802477
 30
776.317799
 70
    32
  0
VERTEX
  5
255
  8
TEAM-NET
 10
-38.074496
 20
-198.492019
 30
776.365713
 70
    32
  0
VERTEX
  5
256
  8
TEAM-NET
 10
-38.1786
 20
-195.836221
 30
776.371621
 70
    32
  0
SEQEND
  5
257
  8
TEAM-NET
  0
POLYLINE
  5
258
  8
TEAM-NET
 66
     1
 10
0.0
 20
0.0
 30
0.0
 70
     8
1001
ACAD
1000
R13OBJECT
1002
{
1005
4E
1002
}
  0
VERTEX
  5
259
  8
TEAM-NET
 10
33.916311
 20
-210.531918
 30
776.601215
 70
    32
  0
VERTEX
  5
25A
  8
TEAM-NET
 10
33.113109
 20
-212.136168
 30
776.55725
 70
    32
  0
VERTEX
  5
25B
  8
TEAM-NET
 10
32.227888
 20
-213.697057
 30
776.508796
 70
    32
  0
VERTEX
  5
25C
  8
TEAM-NET
 10
31.263003
 20
-215.210433
 30
776.455981
 70
    32
  0
VERTEX
  5
25D
  8
TEAM-NET
 10
30.22102
 20
-216.672271
 30
776.398946
 70
    32
  0
VERTEX
  5
25E
  8
TEAM-NET
 10
29.104711
 20
-218.078681
 30
776.337843
 70
    32
  0
VERTEX
  5
25F
  8
TEAM-NET
 10
27.917046
 20
-219.425922
 30
776.272833
 70
    32
  0
VERTEX
  5
260
  8
TEAM-NET
 10
26.661183
 20
-220.71041
 30
776.204091
 70
    32
  0
VERTEX
  5
261
  8
TEAM-NET
 10
25.340465
 20
-221.928728
 30
776.131799
 70
    32
  0
VERTEX
  5
262
  8
TEAM-NET
 10
23.958403
 20
-223.077635
 30
776.056149
 70
    32
  0
VERTEX
  5
263
  8
TEAM-NET
 10
22.518676
 20
-224.154076
 30
775.977343
 70
    32
  0
VERTEX
  5
264
  8
TEAM-NET
 10
21.025112
 20
-225.155185
 30
775.895589
 70
    32
  0
VERTEX
  5
265
  8
TEAM-NET
 10
19.481685
 20
-226.078302
 30
775.811107
 70
    32
  0
VERTEX
  5
266
  8
TEAM-NET
 10
17.892501
 20
-226.920968
 30
775.72412
 70
    32
  0
VERTEX
  5
267
  8
TEAM-NET
 10
16.261787
 20
-227.680944
 30
775.634859
 70
    32
  0
VERTEX
  5
268
  8
TEAM-NET
 10
14.593881
 20
-228.356207
 30
775.543563
 70
    32
  0
VERTEX
  5
269
  8
TEAM-NET
 10
12.89322
 20
-228.944961
 30
775.450474
 70
    32
  0
VERTEX
  5
26A
  8
TEAM-NET
 10
11.164328
 20
-229.44564
 30
775.35584
 70
    32
  0
VERTEX
  5
26B
  8
TEAM-NET
 10
9.411804
 20
-229.856912
 30
775.259912
 70
    32
  0
VERTEX
  5
26C
  8
TEAM-NET
 10
7.640311
 20
-230.177682
 30
775.162945
 70
    32
  0
VERTEX
  5
26D
  8
TEAM-NET
 10
5.85456
 20
-230.407098
 30
775.065199
 70
    32
  0
VERTEX
  5
26E
  8
TEAM-NET
 10
4.059303
 20
-230.54455
 30
774.966932
 70
    32
  0
VERTEX
  5
26F
  8
TEAM-NET
 10
2.259315
 20
-230.589671
 30
774.868406
 70
    32
  0
VERTEX
  5
270
  8
TEAM-NET
 10
0.459384
 20
-230.542341
 30
774.769883
 70
    32
  0
VERTEX
  5
271
  8
TEAM-NET
 10
-1.335702
 20
-230.402687
 30
774.671625
 70
    32
  0
VERTEX
  5
272
  8
TEAM-NET
 10
-3.121167
 20
-230.17108
 30
774.573894
 70
    32
  0
VERTEX
  5
273
  8
TEAM-NET
 10
-4.892262
 20
-229.848136
 30
774.47695
 70
    32
  0
SEQEND
  5
274
  8
TEAM-NET
  0
ARC
  5
275
  8
TEAM-NET
 10
-2.774635
 20
-195.836221
 30
776.677893
 40
37.855997
210
0.002323
220
0.0
230
0.999997
 50
337.157458
 51
360.0
1001
ACAD
1000
R13OBJECT
1002
{
1005
4E
1002
}
  0
LINE
  5
276
  8
TEAM-NET
 10
26.528405
 20
-195.836221
 30
770.290841
 11
36.885153
 21
-195.836221
 31
776.59432
1001
ACAD
1000
R13OBJECT
1002
{
1005
4E
1002
}
  0
POLYLINE
  5
277
  8
TEAM-NET
 66
     1
 10
0.0
 20
0.0
 30
0.0
 70
     8
1001
ACAD
1000
R13OBJECT
1002
{
1005
4E
1002
}
  0
VERTEX
  5
278
  8
TEAM-NET
 10
-28.340476
 20
-195.836221
 30
770.320842
 70
    32
  0
VERTEX
  5
279
  8
TEAM-NET
 10
-28.340476
 20
-195.83632
 30
770.320842
 70
    32
  0
VERTEX
  5
27A
  8
TEAM-NET
 10
-27.651883
 20
-201.944327
 30
770.320471
 70
    32
  0
VERTEX
  5
27B
  8
TEAM-NET
 10
-26.798314
 20
-204.903928
 30
770.32001
 70
    32
  0
VERTEX
  5
27C
  8
TEAM-NET
 10
-25.625281
 20
-207.735507
 30
770.319376
 70
    32
  0
VERTEX
  5
27D
  8
TEAM-NET
 10
-24.13506
 20
-210.432667
 30
770.31857
 70
    32
  0
VERTEX
  5
27E
  8
TEAM-NET
 10
-23.277133
 20
-211.71615
 30
770.318106
 70
    32
  0
VERTEX
  5
27F
  8
TEAM-NET
 10
-22.821656
 20
-212.339082
 30
770.31786
 70
    32
  0
VERTEX
  5
280
  8
TEAM-NET
 10
-22.587536
 20
-212.645481
 30
770.317733
 70
    32
  0
VERTEX
  5
281
  8
TEAM-NET
 10
-22.349277
 20
-212.948389
 30
770.317604
 70
    32
  0
VERTEX
  5
282
  8
TEAM-NET
 10
-20.836912
 20
-214.688227
 30
770.316785
 70
    32
  0
VERTEX
  5
283
  8
TEAM-NET
 10
-20.303226
 20
-215.236927
 30
770.316496
 70
    32
  0
VERTEX
  5
284
  8
TEAM-NET
 10
-18.012206
 20
-217.284248
 30
770.315254
 70
    32
  0
VERTEX
  5
285
  8
TEAM-NET
 10
-17.861062
 20
-217.403928
 30
770.315172
 70
    32
  0
VERTEX
  5
286
  8
TEAM-NET
 10
-17.709048
 20
-217.52257
 30
770.315089
 70
    32
  0
VERTEX
  5
287
  8
TEAM-NET
 10
-17.402432
 20
-217.756715
 30
770.314923
 70
    32
  0
VERTEX
  5
288
  8
TEAM-NET
 10
-16.779178
 20
-218.212153
 30
770.314585
 70
    32
  0
VERTEX
  5
289
  8
TEAM-NET
 10
-15.495087
 20
-219.069841
 30
770.313888
 70
    32
  0
VERTEX
  5
28A
  8
TEAM-NET
 10
-12.799674
 20
-220.558171
 30
770.312423
 70
    32
  0
VERTEX
  5
28B
  8
TEAM-NET
 10
-9.967353
 20
-221.730817
 30
770.310882
 70
    32
  0
VERTEX
  5
28C
  8
TEAM-NET
 10
-7.004915
 20
-222.584183
 30
770.309268
 70
    32
  0
VERTEX
  5
28D
  8
TEAM-NET
 10
-3.963595
 20
-223.099567
 30
770.307608
 70
    32
  0
VERTEX
  5
28E
  8
TEAM-NET
 10
-2.430746
 20
-223.228111
 30
770.306771
 70
    32
  0
VERTEX
  5
28F
  8
TEAM-NET
 10
-0.89914
 20
-223.270496
 30
770.305934
 70
    32
  0
VERTEX
  5
290
  8
TEAM-NET
 10
0.635087
 20
-223.227208
 30
770.305095
 70
    32
  0
VERTEX
  5
291
  8
TEAM-NET
 10
2.170277
 20
-223.097499
 30
770.304254
 70
    32
  0
VERTEX
  5
292
  8
TEAM-NET
 10
3.698445
 20
-222.881395
 30
770.303417
 70
    32
  0
VERTEX
  5
293
  8
TEAM-NET
 10
5.213262
 20
-222.579379
 30
770.302587
 70
    32
  0
VERTEX
  5
294
  8
TEAM-NET
 10
9.128684
 20
-221.36955
 30
770.300438
 70
    32
  0
VERTEX
  5
295
  8
TEAM-NET
 10
11.002615
 20
-220.551138
 30
770.299408
 70
    32
  0
VERTEX
  5
296
  8
TEAM-NET
 10
11.919493
 20
-220.088043
 30
770.298904
 70
    32
  0
VERTEX
  5
297
  8
TEAM-NET
 10
12.819419
 20
-219.590339
 30
770.298409
 70
    32
  0
VERTEX
  5
298
  8
TEAM-NET
 10
16.216335
 20
-217.271513
 30
770.296538
 70
    32
  0
VERTEX
  5
299
  8
TEAM-NET
 10
17.767664
 20
-215.934451
 30
770.295683
 70
    32
  0
VERTEX
  5
29A
  8
TEAM-NET
 10
19.212215
 20
-214.488432
 30
770.294886
 70
    32
  0
VERTEX
  5
29B
  8
TEAM-NET
 10
21.772812
 20
-211.273994
 30
770.293472
 70
    32
  0
VERTEX
  5
29C
  8
TEAM-NET
 10
22.865671
 20
-209.531099
 30
770.292868
 70
    32
  0
VERTEX
  5
29D
  8
TEAM-NET
 10
23.822242
 20
-207.717231
 30
770.292339
 70
    32
  0
VERTEX
  5
29E
  8
TEAM-NET
 10
24.63782
 20
-205.844061
 30
770.291888
 70
    32
  0
VERTEX
  5
29F
  8
TEAM-NET
 10
25.314519
 20
-203.906633
 30
770.291513
 70
    32
  0
VERTEX
  5
2A0
  8
TEAM-NET
 10
26.226421
 20
-199.895853
 30
770.291008
 70
    32
  0
VERTEX
  5
2A1
  8
TEAM-NET
 10
26.453934
 20
-197.855464
 30
770.290882
 70
    32
  0
VERTEX
  5
2A2
  8
TEAM-NET
 10
26.528381
 20
-195.836221
 30
770.290841
 70
    32
  0
SEQEND
  5
2A3
  8
TEAM-NET
  0
LINE
  5
4F
  8
TEAM-NET
 10
216.525373
 20
-128.836221
 30
786.59669
 11
216.525373
 21
-430.836221
 31
786.59669
  0
LINE
  5
2A4
  8
TEAM-NET
 10
-0.911868
 20
-128.836221
 30
774.694825
 11
216.525373
 21
-128.836221
 31
786.59669
1001
ACAD
1000
R13OBJECT
1002
{
1005
4F
1002
}
  0
LINE
  5
2A5
  8
TEAM-NET
 10
-0.911868
 20
-128.836221
 30
774.694825
 11
-0.911868
 21
-160.376818
 31
774.694825
1001
ACAD
1000
R13OBJECT
1002
{
1005
4F
1002
}
  0
POLYLINE
  5
2A6
  8
TEAM-NET
 66
     1
 10
0.0
 20
0.0
 30
0.0
 70
     8
1001
ACAD
1000
R13OBJECT
1002
{
1005
4F
1002
}
  0
VERTEX
  5
2A7
  8
TEAM-NET
 10
-4.892262
 20
-161.824306
 30
774.47695
 70
    32
  0
VERTEX
  5
2A8
  8
TEAM-NET
 10
-3.603894
 20
-161.550901
 30
774.547471
 70
    32
  0
VERTEX
  5
2A9
  8
TEAM-NET
 10
-1.936075
 20
-161.120005
 30
774.638763
 70
    32
  0
VERTEX
  5
2AA
  8
TEAM-NET
 10
-1.23788
 20
-160.81369
 30
774.67698
 70
    32
  0
VERTEX
  5
2AB
  8
TEAM-NET
 10
-1.020511
 20
-160.635543
 30
774.688878
 70
    32
  0
VERTEX
  5
2AC
  8
TEAM-NET
 10
-0.936824
 20
-160.503105
 30
774.693459
 70
    32
  0
VERTEX
  5
2AD
  8
TEAM-NET
 10
-0.911868
 20
-160.376818
 30
774.694825
 70
    32
  0
SEQEND
  5
2AE
  8
TEAM-NET
  0
POLYLINE
  5
2AF
  8
TEAM-NET
 66
     1
 10
0.0
 20
0.0
 30
0.0
 70
     8
1001
ACAD
1000
R13OBJECT
1002
{
1005
4F
1002
}
  0
VERTEX
  5
2B0
  8
TEAM-NET
 10
-4.892262
 20
-161.824306
 30
774.47695
 70
    32
  0
VERTEX
  5
2B1
  8
TEAM-NET
 10
-3.121167
 20
-161.501362
 30
774.573894
 70
    32
  0
VERTEX
  5
2B2
  8
TEAM-NET
 10
-1.335702
 20
-161.269755
 30
774.671625
 70
    32
  0
VERTEX
  5
2B3
  8
TEAM-NET
 10
0.459384
 20
-161.130101
 30
774.769883
 70
    32
  0
VERTEX
  5
2B4
  8
TEAM-NET
 10
2.259315
 20
-161.082771
 30
774.868406
 70
    32
  0
VERTEX
  5
2B5
  8
TEAM-NET
 10
4.059303
 20
-161.127892
 30
774.966932
 70
    32
  0
VERTEX
  5
2B6
  8
TEAM-NET
 10
5.85456
 20
-161.265344
 30
775.065199
 70
    32
  0
VERTEX
  5
2B7
  8
TEAM-NET
 10
7.640311
 20
-161.49476
 30
775.162945
 70
    32
  0
VERTEX
  5
2B8
  8
TEAM-NET
 10
9.411804
 20
-161.81553
 30
775.259912
 70
    32
  0
VERTEX
  5
2B9
  8
TEAM-NET
 10
11.164328
 20
-162.226802
 30
775.35584
 70
    32
  0
VERTEX
  5
2BA
  8
TEAM-NET
 10
12.89322
 20
-162.727481
 30
775.450474
 70
    32
  0
VERTEX
  5
2BB
  8
TEAM-NET
 10
14.593881
 20
-163.316235
 30
775.543563
 70
    32
  0
VERTEX
  5
2BC
  8
TEAM-NET
 10
16.261787
 20
-163.991498
 30
775.634859
 70
    32
  0
VERTEX
  5
2BD
  8
TEAM-NET
 10
17.892501
 20
-164.751474
 30
775.72412
 70
    32
  0
VERTEX
  5
2BE
  8
TEAM-NET
 10
19.481685
 20
-165.59414
 30
775.811107
 70
    32
  0
VERTEX
  5
2BF
  8
TEAM-NET
 10
21.025112
 20
-166.517257
 30
775.895589
 70
    32
  0
VERTEX
  5
2C0
  8
TEAM-NET
 10
22.518676
 20
-167.518366
 30
775.977343
 70
    32
  0
VERTEX
  5
2C1
  8
TEAM-NET
 10
23.958403
 20
-168.594807
 30
776.056149
 70
    32
  0
VERTEX
  5
2C2
  8
TEAM-NET
 10
25.340465
 20
-169.743714
 30
776.131799
 70
    32
  0
VERTEX
  5
2C3
  8
TEAM-NET
 10
26.661183
 20
-170.962032
 30
776.204091
 70
    32
  0
VERTEX
  5
2C4
  8
TEAM-NET
 10
27.917046
 20
-172.24652
 30
776.272833
 70
    32
  0
VERTEX
  5
2C5
  8
TEAM-NET
 10
29.104711
 20
-173.593761
 30
776.337843
 70
    32
  0
VERTEX
  5
2C6
  8
TEAM-NET
 10
30.22102
 20
-175.000171
 30
776.398946
 70
    32
  0
VERTEX
  5
2C7
  8
TEAM-NET
 10
31.263003
 20
-176.462008
 30
776.455981
 70
    32
  0
VERTEX
  5
2C8
  8
TEAM-NET
 10
32.227888
 20
-177.975385
 30
776.508796
 70
    32
  0
VERTEX
  5
2C9
  8
TEAM-NET
 10
33.113109
 20
-179.536274
 30
776.55725
 70
    32
  0
VERTEX
  5
2CA
  8
TEAM-NET
 10
33.916311
 20
-181.140524
 30
776.601215
 70
    32
  0
SEQEND
  5
2CB
  8
TEAM-NET
  0
LINE
  5
2CC
  8
TEAM-NET
 10
33.916311
 20
-181.140524
 30
776.601215
 11
33.916311
 21
-210.531918
 31
776.601215
1001
ACAD
1000
R13OBJECT
1002
{
1005
4F
1002
}
  0
POLYLINE
  5
2CD
  8
TEAM-NET
 66
     1
 10
0.0
 20
0.0
 30
0.0
 70
     8
1001
ACAD
1000
R13OBJECT
1002
{
1005
4F
1002
}
  0
VERTEX
  5
2CE
  8
TEAM-NET
 10
33.916311
 20
-210.531918
 30
776.601215
 70
    32
  0
VERTEX
  5
2CF
  8
TEAM-NET
 10
33.113109
 20
-212.136168
 30
776.55725
 70
    32
  0
VERTEX
  5
2D0
  8
TEAM-NET
 10
32.227888
 20
-213.697057
 30
776.508796
 70
    32
  0
VERTEX
  5
2D1
  8
TEAM-NET
 10
31.263003
 20
-215.210433
 30
776.455981
 70
    32
  0
VERTEX
  5
2D2
  8
TEAM-NET
 10
30.22102
 20
-216.672271
 30
776.398946
 70
    32
  0
VERTEX
  5
2D3
  8
TEAM-NET
 10
29.104711
 20
-218.078681
 30
776.337843
 70
    32
  0
VERTEX
  5
2D4
  8
TEAM-NET
 10
27.917046
 20
-219.425922
 30
776.272833
 70
    32
  0
VERTEX
  5
2D5
  8
TEAM-NET
 10
26.661183
 20
-220.71041
 30
776.204091
 70
    32
  0
VERTEX
  5
2D6
  8
TEAM-NET
 10
25.340465
 20
-221.928728
 30
776.131799
 70
    32
  0
VERTEX
  5
2D7
  8
TEAM-NET
 10
23.958403
 20
-223.077635
 30
776.056149
 70
    32
  0
VERTEX
  5
2D8
  8
TEAM-NET
 10
22.518676
 20
-224.154076
 30
775.977343
 70
    32
  0
VERTEX
  5
2D9
  8
TEAM-NET
 10
21.025112
 20
-225.155185
 30
775.895589
 70
    32
  0
VERTEX
  5
2DA
  8
TEAM-NET
 10
19.481685
 20
-226.078302
 30
775.811107
 70
    32
  0
VERTEX
  5
2DB
  8
TEAM-NET
 10
17.892501
 20
-226.920968
 30
775.72412
 70
    32
  0
VERTEX
  5
2DC
  8
TEAM-NET
 10
16.261787
 20
-227.680944
 30
775.634859
 70
    32
  0
VERTEX
  5
2DD
  8
TEAM-NET
 10
14.593881
 20
-228.356207
 30
775.543563
 70
    32
  0
VERTEX
  5
2DE
  8
TEAM-NET
 10
12.89322
 20
-228.944961
 30
775.450474
 70
    32
  0
VERTEX
  5
2DF
  8
TEAM-NET
 10
11.164328
 20
-229.44564
 30
775.35584
 70
    32
  0
VERTEX
  5
2E0
  8
TEAM-NET
 10
9.411804
 20
-229.856912
 30
775.259912
 70
    32
  0
VERTEX
  5
2E1
  8
TEAM-NET
 10
7.640311
 20
-230.177682
 30
775.162945
 70
    32
  0
VERTEX
  5
2E2
  8
TEAM-NET
 10
5.85456
 20
-230.407098
 30
775.065199
 70
    32
  0
VERTEX
  5
2E3
  8
TEAM-NET
 10
4.059303
 20
-230.54455
 30
774.966932
 70
    32
  0
VERTEX
  5
2E4
  8
TEAM-NET
 10
2.259315
 20
-230.589671
 30
774.868406
 70
    32
  0
VERTEX
  5
2E5
  8
TEAM-NET
 10
0.459384
 20
-230.542341
 30
774.769883
 70
    32
  0
VERTEX
  5
2E6
  8
TEAM-NET
 10
-1.335702
 20
-230.402687
 30
774.671625
 70
    32
  0
VERTEX
  5
2E7
  8
TEAM-NET
 10
-3.121167
 20
-230.17108
 30
774.573894
 70
    32
  0
VERTEX
  5
2E8
  8
TEAM-NET
 10
-4.892262
 20
-229.848136
 30
774.47695
 70
    32
  0
SEQEND
  5
2E9
  8
TEAM-NET
  0
POLYLINE
  5
2EA
  8
TEAM-NET
 66
     1
 10
0.0
 20
0.0
 30
0.0
 70
     8
1001
ACAD
1000
R13OBJECT
1002
{
1005
4F
1002
}
  0
VERTEX
  5
2EB
  8
TEAM-NET
 10
-0.911868
 20
-231.295624
 30
774.694825
 70
    32
  0
VERTEX
  5
2EC
  8
TEAM-NET
 10
-0.925964
 20
-231.200319
 30
774.694053
 70
    32
  0
VERTEX
  5
2ED
  8
TEAM-NET
 10
-0.968226
 20
-231.107434
 30
774.69174
 70
    32
  0
VERTEX
  5
2EE
  8
TEAM-NET
 10
-1.136879
 20
-230.928987
 30
774.682508
 70
    32
  0
VERTEX
  5
2EF
  8
TEAM-NET
 10
-1.944107
 20
-230.54976
 30
774.638323
 70
    32
  0
VERTEX
  5
2F0
  8
TEAM-NET
 10
-4.892262
 20
-229.848136
 30
774.47695
 70
    32
  0
SEQEND
  5
2F1
  8
TEAM-NET
  0
LINE
  5
2F2
  8
TEAM-NET
 10
-0.911868
 20
-231.295624
 30
774.694825
 11
-0.911868
 21
-430.836221
 31
774.694825
1001
ACAD
1000
R13OBJECT
1002
{
1005
4F
1002
}
  0
LINE
  5
2F3
  8
TEAM-NET
 10
216.525373
 20
-430.836221
 30
786.59669
 11
-0.911868
 21
-430.836221
 31
774.694825
1001
ACAD
1000
R13OBJECT
1002
{
1005
4F
1002
}
  0
POLYLINE
  5
50
  8
TEAM-NET
 66
     1
 10
0.0
 20
0.0
 30
133.143482
 70
   128
210
-0.986394
220
0.164399
230
0.0
  0
VERTEX
  5
C3F
  8
TEAM-NET
 10
412.174905
 20
752.010653
 30
133.143482
  0
VERTEX
  5
C40
  8
TEAM-NET
 10
414.984135
 20
752.074674
 30
133.143482
  0
VERTEX
  5
C41
  8
TEAM-NET
 10
417.78737
 20
752.266602
 30
133.143482
  0
VERTEX
  5
C42
  8
TEAM-NET
 10
420.578628
 20
752.586027
 30
133.143482
  0
VERTEX
  5
C43
  8
TEAM-NET
 10
423.351952
 20
753.032267
 30
133.143482
  0
VERTEX
  5
C44
  8
TEAM-NET
 10
426.101424
 20
753.604369
 30
133.143482
  0
VERTEX
  5
C45
  8
TEAM-NET
 10
428.821175
 20
754.301114
 30
133.143482
  0
VERTEX
  5
C46
  8
TEAM-NET
 10
431.505403
 20
755.121014
 30
133.143482
  0
VERTEX
  5
C47
  8
TEAM-NET
 10
434.148378
 20
756.062319
 30
133.143482
  0
VERTEX
  5
C48
  8
TEAM-NET
 10
436.744461
 20
757.123021
 30
133.143482
  0
VERTEX
  5
C49
  8
TEAM-NET
 10
439.288111
 20
758.300855
 30
133.143482
  0
VERTEX
  5
C4A
  8
TEAM-NET
 10
441.7739
 20
759.593309
 30
133.143482
  0
VERTEX
  5
C4B
  8
TEAM-NET
 10
444.196524
 20
760.997625
 30
133.143482
  0
VERTEX
  5
C4C
  8
TEAM-NET
 10
446.550811
 20
762.510804
 30
133.143482
  0
VERTEX
  5
C4D
  8
TEAM-NET
 10
448.831739
 20
764.129619
 30
133.143482
  0
VERTEX
  5
C4E
  8
TEAM-NET
 10
451.034439
 20
765.850614
 30
133.143482
  0
VERTEX
  5
C4F
  8
TEAM-NET
 10
453.154211
 20
767.670118
 30
133.143482
  0
VERTEX
  5
C50
  8
TEAM-NET
 10
455.186532
 20
769.584246
 30
133.143482
  0
VERTEX
  5
C51
  8
TEAM-NET
 10
457.127063
 20
771.588914
 30
133.143482
  0
VERTEX
  5
C52
  8
TEAM-NET
 10
458.971664
 20
773.679844
 30
133.143482
  0
VERTEX
  5
C53
  8
TEAM-NET
 10
460.716398
 20
775.852575
 30
133.143482
  0
VERTEX
  5
C54
  8
TEAM-NET
 10
462.357543
 20
778.102468
 30
133.143482
  0
VERTEX
  5
C55
  8
TEAM-NET
 10
463.891595
 20
780.424723
 30
133.143482
  0
VERTEX
  5
C56
  8
TEAM-NET
 10
465.315281
 20
782.814384
 30
133.143482
  0
VERTEX
  5
C57
  8
TEAM-NET
 10
466.625563
 20
785.266351
 30
133.143482
  0
VERTEX
  5
C58
  8
TEAM-NET
 10
467.819644
 20
787.775392
 30
133.143482
  0
VERTEX
  5
C59
  8
TEAM-NET
 10
468.894977
 20
790.336153
 30
133.143482
  0
VERTEX
  5
C5A
  8
TEAM-NET
 10
469.849266
 20
792.943168
 30
133.143482
  0
VERTEX
  5
C5B
  8
TEAM-NET
 10
470.680475
 20
795.590873
 30
133.143482
  0
VERTEX
  5
C5C
  8
TEAM-NET
 10
471.38683
 20
798.27362
 30
133.143482
  0
VERTEX
  5
C5D
  8
TEAM-NET
 10
471.966825
 20
800.985682
 30
133.143482
  0
VERTEX
  5
C5E
  8
TEAM-NET
 10
472.41922
 20
803.721271
 30
133.143482
  0
VERTEX
  5
C5F
  8
TEAM-NET
 10
472.743051
 20
806.474551
 30
133.143482
  0
VERTEX
  5
C60
  8
TEAM-NET
 10
472.937626
 20
809.239645
 30
133.143482
  0
VERTEX
  5
C61
  8
TEAM-NET
 10
473.002531
 20
812.010653
 30
133.143482
  0
SEQEND
  5
C62
  8
TEAM-NET
  0
LINE
  5
318
  8
TEAM-NET
 10
-199.093058
 20
-384.678169
 30
752.010653
 11
192.472383
 21
-384.678169
 31
752.010653
1001
ACAD
1000
R13OBJECT
1002
{
1005
50
1002
}
  0
POLYLINE
  5
319
  8
TEAM-NET
 66
     1
 10
0.0
 20
0.0
 30
126.612887
 70
   128
210
0.986394
220
0.164399
230
0.0
1001
ACAD
1000
R13OBJECT
1002
{
1005
50
1002
}
  0
VERTEX
  5
D27
  8
TEAM-NET
 10
-471.914098
 20
812.010653
 30
126.612887
  0
VERTEX
  5
D28
  8
TEAM-NET
 10
-471.849194
 20
809.239645
 30
126.612887
  0
VERTEX
  5
D29
  8
TEAM-NET
 10
-471.654618
 20
806.474551
 30
126.612887
  0
VERTEX
  5
D2A
  8
TEAM-NET
 10
-471.330787
 20
803.721271
 30
126.612887
  0
VERTEX
  5
D2B
  8
TEAM-NET
 10
-470.878392
 20
800.985682
 30
126.612887
  0
VERTEX
  5
D2C
  8
TEAM-NET
 10
-470.298398
 20
798.27362
 30
126.612887
  0
VERTEX
  5
D2D
  8
TEAM-NET
 10
-469.592043
 20
795.590873
 30
126.612887
  0
VERTEX
  5
D2E
  8
TEAM-NET
 10
-468.760833
 20
792.943168
 30
126.612887
  0
VERTEX
  5
D2F
  8
TEAM-NET
 10
-467.806544
 20
790.336153
 30
126.612887
  0
VERTEX
  5
D30
  8
TEAM-NET
 10
-466.731212
 20
787.775392
 30
126.612887
  0
VERTEX
  5
D31
  8
TEAM-NET
 10
-465.53713
 20
785.266351
 30
126.612887
  0
VERTEX
  5
D32
  8
TEAM-NET
 10
-464.226848
 20
782.814384
 30
126.612887
  0
VERTEX
  5
D33
  8
TEAM-NET
 10
-462.803162
 20
780.424723
 30
126.612887
  0
VERTEX
  5
D34
  8
TEAM-NET
 10
-461.26911
 20
778.102468
 30
126.612887
  0
VERTEX
  5
D35
  8
TEAM-NET
 10
-459.627966
 20
775.852575
 30
126.612887
  0
VERTEX
  5
D36
  8
TEAM-NET
 10
-457.883231
 20
773.679844
 30
126.612887
  0
VERTEX
  5
D37
  8
TEAM-NET
 10
-456.03863
 20
771.588914
 30
126.612887
  0
VERTEX
  5
D38
  8
TEAM-NET
 10
-454.098099
 20
769.584246
 30
126.612887
  0
VERTEX
  5
D39
  8
TEAM-NET
 10
-452.065779
 20
767.670118
 30
126.612887
  0
VERTEX
  5
D3A
  8
TEAM-NET
 10
-449.946007
 20
765.850614
 30
126.612887
  0
VERTEX
  5
D3B
  8
TEAM-NET
 10
-447.743307
 20
764.129619
 30
126.612887
  0
VERTEX
  5
D3C
  8
TEAM-NET
 10
-445.462379
 20
762.510804
 30
126.612887
  0
VERTEX
  5
D3D
  8
TEAM-NET
 10
-443.108091
 20
760.997625
 30
126.612887
  0
VERTEX
  5
D3E
  8
TEAM-NET
 10
-440.685468
 20
759.593309
 30
126.612887
  0
VERTEX
  5
D3F
  8
TEAM-NET
 10
-438.199679
 20
758.300855
 30
126.612887
  0
VERTEX
  5
D40
  8
TEAM-NET
 10
-435.656028
 20
757.123021
 30
126.612887
  0
VERTEX
  5
D41
  8
TEAM-NET
 10
-433.059946
 20
756.062319
 30
126.612887
  0
VERTEX
  5
D42
  8
TEAM-NET
 10
-430.41697
 20
755.121014
 30
126.612887
  0
VERTEX
  5
D43
  8
TEAM-NET
 10
-427.732743
 20
754.301114
 30
126.612887
  0
VERTEX
  5
D44
  8
TEAM-NET
 10
-425.012991
 20
753.604369
 30
126.612887
  0
VERTEX
  5
D45
  8
TEAM-NET
 10
-422.26352
 20
753.032267
 30
126.612887
  0
VERTEX
  5
D46
  8
TEAM-NET
 10
-419.490196
 20
752.586027
 30
126.612887
  0
VERTEX
  5
D47
  8
TEAM-NET
 10
-416.698938
 20
752.266602
 30
126.612887
  0
VERTEX
  5
D48
  8
TEAM-NET
 10
-413.895703
 20
752.074674
 30
126.612887
  0
VERTEX
  5
D49
  8
TEAM-NET
 10
-411.086473
 20
752.010653
 30
126.612887
  0
SEQEND
  5
D4A
  8
TEAM-NET
  0
LINE
  5
33E
  8
TEAM-NET
 10
202.472383
 20
-444.678169
 30
812.010653
 11
-209.093058
 21
-444.678169
 31
812.010653
1001
ACAD
1000
R13OBJECT
1002
{
1005
50
1002
}
  0
LINE
  5
33F
  8
TEAM-NET
 10
199.54345
 20
-427.104575
 30
769.584246
 11
-206.164126
 21
-427.104575
 31
769.584246
1001
ACAD
1000
R13OBJECT
1002
{
1005
50
1002
}
  0
ARC
  5
51
  8
TEAM-NET
 10
-192.472383
 20
812.010653
 30
-26.941738
 40
60.0
210
0.0
220
1.0
230
0.0
 50
180.0
 51
212.018863
  0
LINE
  5
340
  8
TEAM-NET
 10
252.472383
 20
-26.941738
 30
812.010653
 11
252.472383
 21
-394.678169
 31
812.010653
1001
ACAD
1000
R13OBJECT
1002
{
1005
51
1002
}
  0
POLYLINE
  5
341
  8
TEAM-NET
 66
     1
 10
0.0
 20
0.0
 30
347.801943
 70
   128
210
-0.164399
220
-0.986394
230
0.0
1001
ACAD
1000
R13OBJECT
1002
{
1005
51
1002
}
  0
VERTEX
  5
D4B
  8
TEAM-NET
 10
253.09429
 20
752.010653
 30
347.801943
  0
VERTEX
  5
D4C
  8
TEAM-NET
 10
255.90352
 20
752.074674
 30
347.801943
  0
VERTEX
  5
D4D
  8
TEAM-NET
 10
258.706755
 20
752.266602
 30
347.801943
  0
VERTEX
  5
D4E
  8
TEAM-NET
 10
261.498013
 20
752.586027
 30
347.801943
  0
VERTEX
  5
D4F
  8
TEAM-NET
 10
264.271337
 20
753.032267
 30
347.801943
  0
VERTEX
  5
D50
  8
TEAM-NET
 10
267.020808
 20
753.604369
 30
347.801943
  0
VERTEX
  5
D51
  8
TEAM-NET
 10
269.74056
 20
754.301114
 30
347.801943
  0
VERTEX
  5
D52
  8
TEAM-NET
 10
272.424787
 20
755.121014
 30
347.801943
  0
VERTEX
  5
D53
  8
TEAM-NET
 10
275.067763
 20
756.062319
 30
347.801943
  0
VERTEX
  5
D54
  8
TEAM-NET
 10
277.663846
 20
757.123021
 30
347.801943
  0
VERTEX
  5
D55
  8
TEAM-NET
 10
280.207496
 20
758.300855
 30
347.801943
  0
VERTEX
  5
D56
  8
TEAM-NET
 10
282.693285
 20
759.593309
 30
347.801943
  0
VERTEX
  5
D57
  8
TEAM-NET
 10
285.115908
 20
760.997625
 30
347.801943
  0
VERTEX
  5
D58
  8
TEAM-NET
 10
287.470196
 20
762.510804
 30
347.801943
  0
VERTEX
  5
D59
  8
TEAM-NET
 10
289.751124
 20
764.129619
 30
347.801943
  0
VERTEX
  5
D5A
  8
TEAM-NET
 10
291.953824
 20
765.850614
 30
347.801943
  0
VERTEX
  5
D5B
  8
TEAM-NET
 10
294.073596
 20
767.670118
 30
347.801943
  0
VERTEX
  5
D5C
  8
TEAM-NET
 10
296.105916
 20
769.584246
 30
347.801943
  0
VERTEX
  5
D5D
  8
TEAM-NET
 10
298.046448
 20
771.588914
 30
347.801943
  0
VERTEX
  5
D5E
  8
TEAM-NET
 10
299.891049
 20
773.679844
 30
347.801943
  0
VERTEX
  5
D5F
  8
TEAM-NET
 10
301.635783
 20
775.852575
 30
347.801943
  0
VERTEX
  5
D60
  8
TEAM-NET
 10
303.276927
 20
778.102468
 30
347.801943
  0
VERTEX
  5
D61
  8
TEAM-NET
 10
304.810979
 20
780.424723
 30
347.801943
  0
VERTEX
  5
D62
  8
TEAM-NET
 10
306.234665
 20
782.814384
 30
347.801943
  0
VERTEX
  5
D63
  8
TEAM-NET
 10
307.544947
 20
785.266351
 30
347.801943
  0
VERTEX
  5
D64
  8
TEAM-NET
 10
308.739029
 20
787.775392
 30
347.801943
  0
VERTEX
  5
D65
  8
TEAM-NET
 10
309.814361
 20
790.336153
 30
347.801943
  0
VERTEX
  5
D66
  8
TEAM-NET
 10
310.768651
 20
792.943168
 30
347.801943
  0
VERTEX
  5
D67
  8
TEAM-NET
 10
311.59986
 20
795.590873
 30
347.801943
  0
VERTEX
  5
D68
  8
TEAM-NET
 10
312.306215
 20
798.27362
 30
347.801943
  0
VERTEX
  5
D69
  8
TEAM-NET
 10
312.886209
 20
800.985682
 30
347.801943
  0
VERTEX
  5
D6A
  8
TEAM-NET
 10
313.338605
 20
803.721271
 30
347.801943
  0
VERTEX
  5
D6B
  8
TEAM-NET
 10
313.662435
 20
806.474551
 30
347.801943
  0
VERTEX
  5
D6C
  8
TEAM-NET
 10
313.857011
 20
809.239645
 30
347.801943
  0
VERTEX
  5
D6D
  8
TEAM-NET
 10
313.921915
 20
812.010653
 30
347.801943
  0
SEQEND
  5
D6E
  8
TEAM-NET
  0
LINE
  5
366
  8
TEAM-NET
 10
192.472383
 20
-384.678169
 30
752.010653
 11
192.472383
 21
-98.836221
 31
752.010653
1001
ACAD
1000
R13OBJECT
1002
{
1005
51
1002
}
  0
ARC
  5
367
  8
TEAM-NET
 10
-192.472383
 20
812.010653
 30
-98.836221
 40
60.0
210
0.0
220
1.0
230
0.0
 50
222.045738
 51
270.0
1001
ACAD
1000
R13OBJECT
1002
{
1005
51
1002
}
  0
POLYLINE
  5
368
  8
TEAM-NET
 66
     1
 10
0.0
 20
0.0
 30
0.0
 70
     8
1001
ACAD
1000
R13OBJECT
1002
{
1005
51
1002
}
  0
VERTEX
  5
369
  8
TEAM-NET
 10
243.344798
 20
-92.836221
 30
780.198747
 70
    32
  0
VERTEX
  5
36A
  8
TEAM-NET
 10
243.32703
 20
-93.285859
 30
780.17035
 70
    32
  0
VERTEX
  5
36B
  8
TEAM-NET
 10
243.27486
 20
-93.726699
 30
780.087176
 70
    32
  0
VERTEX
  5
36C
  8
TEAM-NET
 10
243.236705
 20
-93.941607
 30
780.026537
 70
    32
  0
VERTEX
  5
36D
  8
TEAM-NET
 10
243.0796
 20
-94.556802
 30
779.778532
 70
    32
  0
VERTEX
  5
36E
  8
TEAM-NET
 10
243.063917
 20
-94.605817
 30
779.753921
 70
    32
  0
VERTEX
  5
36F
  8
TEAM-NET
 10
243.047857
 20
-94.654522
 30
779.728745
 70
    32
  0
VERTEX
  5
370
  8
TEAM-NET
 10
243.014646
 20
-94.750921
 30
779.676775
 70
    32
  0
VERTEX
  5
371
  8
TEAM-NET
 10
242.944043
 20
-94.939668
 30
779.566676
 70
    32
  0
VERTEX
  5
372
  8
TEAM-NET
 10
242.868217
 20
-95.12291
 30
779.449019
 70
    32
  0
VERTEX
  5
373
  8
TEAM-NET
 10
242.828471
 20
-95.212456
 30
779.387584
 70
    32
  0
VERTEX
  5
374
  8
TEAM-NET
 10
242.425793
 20
-95.953132
 30
778.77427
 70
    32
  0
VERTEX
  5
375
  8
TEAM-NET
 10
242.424277
 20
-95.955499
 30
778.771992
 70
    32
  0
VERTEX
  5
376
  8
TEAM-NET
 10
242.422761
 20
-95.957865
 30
778.769713
 70
    32
  0
VERTEX
  5
377
  8
TEAM-NET
 10
242.419725
 20
-95.962594
 30
778.765152
 70
    32
  0
VERTEX
  5
378
  8
TEAM-NET
 10
242.413645
 20
-95.972037
 30
778.75602
 70
    32
  0
VERTEX
  5
379
  8
TEAM-NET
 10
242.407553
 20
-95.98146
 30
778.746871
 70
    32
  0
VERTEX
  5
37A
  8
TEAM-NET
 10
242.401447
 20
-95.990864
 30
778.737708
 70
    32
  0
VERTEX
  5
37B
  8
TEAM-NET
 10
242.376903
 20
-96.028284
 30
778.700906
 70
    32
  0
VERTEX
  5
37C
  8
TEAM-NET
 10
242.352161
 20
-96.065394
 30
778.663868
 70
    32
  0
VERTEX
  5
37D
  8
TEAM-NET
 10
242.339717
 20
-96.083834
 30
778.645262
 70
    32
  0
VERTEX
  5
37E
  8
TEAM-NET
 10
242.327226
 20
-96.102198
 30
778.626599
 70
    32
  0
VERTEX
  5
37F
  8
TEAM-NET
 10
242.225596
 20
-96.246391
 30
778.475324
 70
    32
  0
VERTEX
  5
380
  8
TEAM-NET
 10
242.013751
 20
-96.520769
 30
778.163152
 70
    32
  0
VERTEX
  5
381
  8
TEAM-NET
 10
241.791342
 20
-96.777344
 30
777.839893
 70
    32
  0
VERTEX
  5
382
  8
TEAM-NET
 10
241.676477
 20
-96.89922
 30
777.6747
 70
    32
  0
VERTEX
  5
383
  8
TEAM-NET
 10
241.559325
 20
-97.016934
 30
777.507425
 70
    32
  0
VERTEX
  5
384
  8
TEAM-NET
 10
241.499925
 20
-97.074254
 30
777.423072
 70
    32
  0
VERTEX
  5
385
  8
TEAM-NET
 10
241.439995
 20
-97.13056
 30
777.338277
 70
    32
  0
VERTEX
  5
386
  8
TEAM-NET
 10
241.318599
 20
-97.240152
 30
777.167463
 70
    32
  0
VERTEX
  5
387
  8
TEAM-NET
 10
241.070061
 20
-97.447433
 30
776.821642
 70
    32
  0
VERTEX
  5
388
  8
TEAM-NET
 10
240.814626
 20
-97.639094
 30
776.471543
 70
    32
  0
VERTEX
  5
389
  8
TEAM-NET
 10
240.749806
 20
-97.684595
 30
776.383539
 70
    32
  0
VERTEX
  5
38A
  8
TEAM-NET
 10
240.553247
 20
-97.815374
 30
776.118713
 70
    32
  0
VERTEX
  5
38B
  8
TEAM-NET
 10
240.286959
 20
-97.976447
 30
775.764726
 70
    32
  0
VERTEX
  5
38C
  8
TEAM-NET
 10
240.014941
 20
-98.123441
 30
775.408659
 70
    32
  0
VERTEX
  5
38D
  8
TEAM-NET
 10
239.453676
 20
-98.376552
 30
774.690968
 70
    32
  0
VERTEX
  5
38E
  8
TEAM-NET
 10
238.872085
 20
-98.575135
 30
773.970307
 70
    32
  0
VERTEX
  5
38F
  8
TEAM-NET
 10
238.27319
 20
-98.718693
 30
773.251319
 70
    32
  0
VERTEX
  5
390
  8
TEAM-NET
 10
237.967471
 20
-98.769653
 30
772.892921
 70
    32
  0
VERTEX
  5
391
  8
TEAM-NET
 10
237.029008
 20
-98.836221
 30
771.827235
 70
    32
  0
SEQEND
  5
392
  8
TEAM-NET
  0
LINE
  5
393
  8
TEAM-NET
 10
243.344798
 20
-26.941738
 30
780.198747
 11
243.344798
 21
-92.836221
 31
780.198747
1001
ACAD
1000
R13OBJECT
1002
{
1005
51
1002
}
  0
LINE
  5
394
  8
TEAM-NET
 10
234.898789
 20
-98.836221
 30
769.584246
 11
234.898789
 21
-391.749236
 31
769.584246
1001
ACAD
1000
R13OBJECT
1002
{
1005
51
1002
}
  0
POLYLINE
  5
52
  8
TEAM-NET
 66
     1
 10
0.0
 20
0.0
 30
126.612887
 70
   128
210
0.986394
220
0.164399
230
0.0
  0
VERTEX
  5
C63
  8
TEAM-NET
 10
-471.914098
 20
812.010653
 30
126.612887
  0
VERTEX
  5
C64
  8
TEAM-NET
 10
-471.849194
 20
809.239645
 30
126.612887
  0
VERTEX
  5
C65
  8
TEAM-NET
 10
-471.654618
 20
806.474551
 30
126.612887
  0
VERTEX
  5
C66
  8
TEAM-NET
 10
-471.330787
 20
803.721271
 30
126.612887
  0
VERTEX
  5
C67
  8
TEAM-NET
 10
-470.878392
 20
800.985682
 30
126.612887
  0
VERTEX
  5
C68
  8
TEAM-NET
 10
-470.298398
 20
798.27362
 30
126.612887
  0
VERTEX
  5
C69
  8
TEAM-NET
 10
-469.592043
 20
795.590873
 30
126.612887
  0
VERTEX
  5
C6A
  8
TEAM-NET
 10
-468.760833
 20
792.943168
 30
126.612887
  0
VERTEX
  5
C6B
  8
TEAM-NET
 10
-467.806544
 20
790.336153
 30
126.612887
  0
VERTEX
  5
C6C
  8
TEAM-NET
 10
-466.731212
 20
787.775392
 30
126.612887
  0
VERTEX
  5
C6D
  8
TEAM-NET
 10
-465.53713
 20
785.266351
 30
126.612887
  0
VERTEX
  5
C6E
  8
TEAM-NET
 10
-464.226848
 20
782.814384
 30
126.612887
  0
VERTEX
  5
C6F
  8
TEAM-NET
 10
-462.803162
 20
780.424723
 30
126.612887
  0
VERTEX
  5
C70
  8
TEAM-NET
 10
-461.26911
 20
778.102468
 30
126.612887
  0
VERTEX
  5
C71
  8
TEAM-NET
 10
-459.627966
 20
775.852575
 30
126.612887
  0
VERTEX
  5
C72
  8
TEAM-NET
 10
-457.883231
 20
773.679844
 30
126.612887
  0
VERTEX
  5
C73
  8
TEAM-NET
 10
-456.03863
 20
771.588914
 30
126.612887
  0
VERTEX
  5
C74
  8
TEAM-NET
 10
-454.098099
 20
769.584246
 30
126.612887
  0
VERTEX
  5
C75
  8
TEAM-NET
 10
-452.065779
 20
767.670118
 30
126.612887
  0
VERTEX
  5
C76
  8
TEAM-NET
 10
-449.946007
 20
765.850614
 30
126.612887
  0
VERTEX
  5
C77
  8
TEAM-NET
 10
-447.743307
 20
764.129619
 30
126.612887
  0
VERTEX
  5
C78
  8
TEAM-NET
 10
-445.462379
 20
762.510804
 30
126.612887
  0
VERTEX
  5
C79
  8
TEAM-NET
 10
-443.108091
 20
760.997625
 30
126.612887
  0
VERTEX
  5
C7A
  8
TEAM-NET
 10
-440.685468
 20
759.593309
 30
126.612887
  0
VERTEX
  5
C7B
  8
TEAM-NET
 10
-438.199679
 20
758.300855
 30
126.612887
  0
VERTEX
  5
C7C
  8
TEAM-NET
 10
-435.656028
 20
757.123021
 30
126.612887
  0
VERTEX
  5
C7D
  8
TEAM-NET
 10
-433.059946
 20
756.062319
 30
126.612887
  0
VERTEX
  5
C7E
  8
TEAM-NET
 10
-430.41697
 20
755.121014
 30
126.612887
  0
VERTEX
  5
C7F
  8
TEAM-NET
 10
-427.732743
 20
754.301114
 30
126.612887
  0
VERTEX
  5
C80
  8
TEAM-NET
 10
-425.012991
 20
753.604369
 30
126.612887
  0
VERTEX
  5
C81
  8
TEAM-NET
 10
-422.26352
 20
753.032267
 30
126.612887
  0
VERTEX
  5
C82
  8
TEAM-NET
 10
-419.490196
 20
752.586027
 30
126.612887
  0
VERTEX
  5
C83
  8
TEAM-NET
 10
-416.698938
 20
752.266602
 30
126.612887
  0
VERTEX
  5
C84
  8
TEAM-NET
 10
-413.895703
 20
752.074674
 30
126.612887
  0
VERTEX
  5
C85
  8
TEAM-NET
 10
-411.086473
 20
752.010653
 30
126.612887
  0
SEQEND
  5
C86
  8
TEAM-NET
  0
POLYLINE
  5
3B9
  8
TEAM-NET
 66
     1
 10
0.0
 20
0.0
 30
347.801943
 70
   128
210
-0.164399
220
-0.986394
230
0.0
1001
ACAD
1000
R13OBJECT
1002
{
1005
52
1002
}
  0
VERTEX
  5
D6F
  8
TEAM-NET
 10
253.09429
 20
752.010653
 30
347.801943
  0
VERTEX
  5
D70
  8
TEAM-NET
 10
255.90352
 20
752.074674
 30
347.801943
  0
VERTEX
  5
D71
  8
TEAM-NET
 10
258.706755
 20
752.266602
 30
347.801943
  0
VERTEX
  5
D72
  8
TEAM-NET
 10
261.498013
 20
752.586027
 30
347.801943
  0
VERTEX
  5
D73
  8
TEAM-NET
 10
264.271337
 20
753.032267
 30
347.801943
  0
VERTEX
  5
D74
  8
TEAM-NET
 10
267.020808
 20
753.604369
 30
347.801943
  0
VERTEX
  5
D75
  8
TEAM-NET
 10
269.74056
 20
754.301114
 30
347.801943
  0
VERTEX
  5
D76
  8
TEAM-NET
 10
272.424787
 20
755.121014
 30
347.801943
  0
VERTEX
  5
D77
  8
TEAM-NET
 10
275.067763
 20
756.062319
 30
347.801943
  0
VERTEX
  5
D78
  8
TEAM-NET
 10
277.663846
 20
757.123021
 30
347.801943
  0
VERTEX
  5
D79
  8
TEAM-NET
 10
280.207496
 20
758.300855
 30
347.801943
  0
VERTEX
  5
D7A
  8
TEAM-NET
 10
282.693285
 20
759.593309
 30
347.801943
  0
VERTEX
  5
D7B
  8
TEAM-NET
 10
285.115908
 20
760.997625
 30
347.801943
  0
VERTEX
  5
D7C
  8
TEAM-NET
 10
287.470196
 20
762.510804
 30
347.801943
  0
VERTEX
  5
D7D
  8
TEAM-NET
 10
289.751124
 20
764.129619
 30
347.801943
  0
VERTEX
  5
D7E
  8
TEAM-NET
 10
291.953824
 20
765.850614
 30
347.801943
  0
VERTEX
  5
D7F
  8
TEAM-NET
 10
294.073596
 20
767.670118
 30
347.801943
  0
VERTEX
  5
D80
  8
TEAM-NET
 10
296.105916
 20
769.584246
 30
347.801943
  0
VERTEX
  5
D81
  8
TEAM-NET
 10
298.046448
 20
771.588914
 30
347.801943
  0
VERTEX
  5
D82
  8
TEAM-NET
 10
299.891049
 20
773.679844
 30
347.801943
  0
VERTEX
  5
D83
  8
TEAM-NET
 10
301.635783
 20
775.852575
 30
347.801943
  0
VERTEX
  5
D84
  8
TEAM-NET
 10
303.276927
 20
778.102468
 30
347.801943
  0
VERTEX
  5
D85
  8
TEAM-NET
 10
304.810979
 20
780.424723
 30
347.801943
  0
VERTEX
  5
D86
  8
TEAM-NET
 10
306.234665
 20
782.814384
 30
347.801943
  0
VERTEX
  5
D87
  8
TEAM-NET
 10
307.544947
 20
785.266351
 30
347.801943
  0
VERTEX
  5
D88
  8
TEAM-NET
 10
308.739029
 20
787.775392
 30
347.801943
  0
VERTEX
  5
D89
  8
TEAM-NET
 10
309.814361
 20
790.336153
 30
347.801943
  0
VERTEX
  5
D8A
  8
TEAM-NET
 10
310.768651
 20
792.943168
 30
347.801943
  0
VERTEX
  5
D8B
  8
TEAM-NET
 10
311.59986
 20
795.590873
 30
347.801943
  0
VERTEX
  5
D8C
  8
TEAM-NET
 10
312.306215
 20
798.27362
 30
347.801943
  0
VERTEX
  5
D8D
  8
TEAM-NET
 10
312.886209
 20
800.985682
 30
347.801943
  0
VERTEX
  5
D8E
  8
TEAM-NET
 10
313.338605
 20
803.721271
 30
347.801943
  0
VERTEX
  5
D8F
  8
TEAM-NET
 10
313.662435
 20
806.474551
 30
347.801943
  0
VERTEX
  5
D90
  8
TEAM-NET
 10
313.857011
 20
809.239645
 30
347.801943
  0
VERTEX
  5
D91
  8
TEAM-NET
 10
313.921915
 20
812.010653
 30
347.801943
  0
SEQEND
  5
D92
  8
TEAM-NET
  0
ARC
  5
3DE
  8
TEAM-NET
 10
-202.472383
 20
-394.678169
 30
-812.010653
 40
50.0
210
0.0
220
0.0
230
-1.0
 50
180.0
 51
270.0
1001
ACAD
1000
R13OBJECT
1002
{
1005
52
1002
}
  0
POLYLINE
  5
53
  8
TEAM-NET
 66
     1
 10
0.0
 20
0.0
 30
346.713511
 70
   128
210
0.164399
220
-0.986394
230
-0.0
  0
VERTEX
  5
C87
  8
TEAM-NET
 10
-320.45251
 20
812.010653
 30
346.713511
  0
VERTEX
  5
C88
  8
TEAM-NET
 10
-320.387605
 20
809.239645
 30
346.713511
  0
VERTEX
  5
C89
  8
TEAM-NET
 10
-320.19303
 20
806.474551
 30
346.713511
  0
VERTEX
  5
C8A
  8
TEAM-NET
 10
-319.869199
 20
803.721271
 30
346.713511
  0
VERTEX
  5
C8B
  8
TEAM-NET
 10
-319.416804
 20
800.985682
 30
346.713511
  0
VERTEX
  5
C8C
  8
TEAM-NET
 10
-318.83681
 20
798.27362
 30
346.713511
  0
VERTEX
  5
C8D
  8
TEAM-NET
 10
-318.130454
 20
795.590873
 30
346.713511
  0
VERTEX
  5
C8E
  8
TEAM-NET
 10
-317.299245
 20
792.943168
 30
346.713511
  0
VERTEX
  5
C8F
  8
TEAM-NET
 10
-316.344956
 20
790.336153
 30
346.713511
  0
VERTEX
  5
C90
  8
TEAM-NET
 10
-315.269623
 20
787.775392
 30
346.713511
  0
VERTEX
  5
C91
  8
TEAM-NET
 10
-314.075542
 20
785.266351
 30
346.713511
  0
VERTEX
  5
C92
  8
TEAM-NET
 10
-312.76526
 20
782.814384
 30
346.713511
  0
VERTEX
  5
C93
  8
TEAM-NET
 10
-311.341574
 20
780.424723
 30
346.713511
  0
VERTEX
  5
C94
  8
TEAM-NET
 10
-309.807522
 20
778.102468
 30
346.713511
  0
VERTEX
  5
C95
  8
TEAM-NET
 10
-308.166377
 20
775.852575
 30
346.713511
  0
VERTEX
  5
C96
  8
TEAM-NET
 10
-306.421643
 20
773.679844
 30
346.713511
  0
VERTEX
  5
C97
  8
TEAM-NET
 10
-304.577042
 20
771.588914
 30
346.713511
  0
VERTEX
  5
C98
  8
TEAM-NET
 10
-302.636511
 20
769.584246
 30
346.713511
  0
VERTEX
  5
C99
  8
TEAM-NET
 10
-300.604191
 20
767.670118
 30
346.713511
  0
VERTEX
  5
C9A
  8
TEAM-NET
 10
-298.484419
 20
765.850614
 30
346.713511
  0
VERTEX
  5
C9B
  8
TEAM-NET
 10
-296.281718
 20
764.129619
 30
346.713511
  0
VERTEX
  5
C9C
  8
TEAM-NET
 10
-294.00079
 20
762.510804
 30
346.713511
  0
VERTEX
  5
C9D
  8
TEAM-NET
 10
-291.646503
 20
760.997625
 30
346.713511
  0
VERTEX
  5
C9E
  8
TEAM-NET
 10
-289.223879
 20
759.593309
 30
346.713511
  0
VERTEX
  5
C9F
  8
TEAM-NET
 10
-286.73809
 20
758.300855
 30
346.713511
  0
VERTEX
  5
CA0
  8
TEAM-NET
 10
-284.19444
 20
757.123021
 30
346.713511
  0
VERTEX
  5
CA1
  8
TEAM-NET
 10
-281.598357
 20
756.062319
 30
346.713511
  0
VERTEX
  5
CA2
  8
TEAM-NET
 10
-278.955382
 20
755.121014
 30
346.713511
  0
VERTEX
  5
CA3
  8
TEAM-NET
 10
-276.271154
 20
754.301114
 30
346.713511
  0
VERTEX
  5
CA4
  8
TEAM-NET
 10
-273.551403
 20
753.604369
 30
346.713511
  0
VERTEX
  5
CA5
  8
TEAM-NET
 10
-270.801931
 20
753.032267
 30
346.713511
  0
VERTEX
  5
CA6
  8
TEAM-NET
 10
-268.028607
 20
752.586027
 30
346.713511
  0
VERTEX
  5
CA7
  8
TEAM-NET
 10
-265.23735
 20
752.266602
 30
346.713511
  0
VERTEX
  5
CA8
  8
TEAM-NET
 10
-262.434115
 20
752.074674
 30
346.713511
  0
VERTEX
  5
CA9
  8
TEAM-NET
 10
-259.624884
 20
752.010653
 30
346.713511
  0
SEQEND
  5
CAA
  8
TEAM-NET
  0
POLYLINE
  5
403
  8
TEAM-NET
 66
     1
 10
0.0
 20
0.0
 30
133.143482
 70
   128
210
-0.986394
220
0.164399
230
0.0
1001
ACAD
1000
R13OBJECT
1002
{
1005
53
1002
}
  0
VERTEX
  5
D93
  8
TEAM-NET
 10
412.174905
 20
752.010653
 30
133.143482
  0
VERTEX
  5
D94
  8
TEAM-NET
 10
414.984135
 20
752.074674
 30
133.143482
  0
VERTEX
  5
D95
  8
TEAM-NET
 10
417.78737
 20
752.266602
 30
133.143482
  0
VERTEX
  5
D96
  8
TEAM-NET
 10
420.578628
 20
752.586027
 30
133.143482
  0
VERTEX
  5
D97
  8
TEAM-NET
 10
423.351952
 20
753.032267
 30
133.143482
  0
VERTEX
  5
D98
  8
TEAM-NET
 10
426.101424
 20
753.604369
 30
133.143482
  0
VERTEX
  5
D99
  8
TEAM-NET
 10
428.821175
 20
754.301114
 30
133.143482
  0
VERTEX
  5
D9A
  8
TEAM-NET
 10
431.505403
 20
755.121014
 30
133.143482
  0
VERTEX
  5
D9B
  8
TEAM-NET
 10
434.148378
 20
756.062319
 30
133.143482
  0
VERTEX
  5
D9C
  8
TEAM-NET
 10
436.744461
 20
757.123021
 30
133.143482
  0
VERTEX
  5
D9D
  8
TEAM-NET
 10
439.288111
 20
758.300855
 30
133.143482
  0
VERTEX
  5
D9E
  8
TEAM-NET
 10
441.7739
 20
759.593309
 30
133.143482
  0
VERTEX
  5
D9F
  8
TEAM-NET
 10
444.196524
 20
760.997625
 30
133.143482
  0
VERTEX
  5
DA0
  8
TEAM-NET
 10
446.550811
 20
762.510804
 30
133.143482
  0
VERTEX
  5
DA1
  8
TEAM-NET
 10
448.831739
 20
764.129619
 30
133.143482
  0
VERTEX
  5
DA2
  8
TEAM-NET
 10
451.034439
 20
765.850614
 30
133.143482
  0
VERTEX
  5
DA3
  8
TEAM-NET
 10
453.154211
 20
767.670118
 30
133.143482
  0
VERTEX
  5
DA4
  8
TEAM-NET
 10
455.186532
 20
769.584246
 30
133.143482
  0
VERTEX
  5
DA5
  8
TEAM-NET
 10
457.127063
 20
771.588914
 30
133.143482
  0
VERTEX
  5
DA6
  8
TEAM-NET
 10
458.971664
 20
773.679844
 30
133.143482
  0
VERTEX
  5
DA7
  8
TEAM-NET
 10
460.716398
 20
775.852575
 30
133.143482
  0
VERTEX
  5
DA8
  8
TEAM-NET
 10
462.357543
 20
778.102468
 30
133.143482
  0
VERTEX
  5
DA9
  8
TEAM-NET
 10
463.891595
 20
780.424723
 30
133.143482
  0
VERTEX
  5
DAA
  8
TEAM-NET
 10
465.315281
 20
782.814384
 30
133.143482
  0
VERTEX
  5
DAB
  8
TEAM-NET
 10
466.625563
 20
785.266351
 30
133.143482
  0
VERTEX
  5
DAC
  8
TEAM-NET
 10
467.819644
 20
787.775392
 30
133.143482
  0
VERTEX
  5
DAD
  8
TEAM-NET
 10
468.894977
 20
790.336153
 30
133.143482
  0
VERTEX
  5
DAE
  8
TEAM-NET
 10
469.849266
 20
792.943168
 30
133.143482
  0
VERTEX
  5
DAF
  8
TEAM-NET
 10
470.680475
 20
795.590873
 30
133.143482
  0
VERTEX
  5
DB0
  8
TEAM-NET
 10
471.38683
 20
798.27362
 30
133.143482
  0
VERTEX
  5
DB1
  8
TEAM-NET
 10
471.966825
 20
800.985682
 30
133.143482
  0
VERTEX
  5
DB2
  8
TEAM-NET
 10
472.41922
 20
803.721271
 30
133.143482
  0
VERTEX
  5
DB3
  8
TEAM-NET
 10
472.743051
 20
806.474551
 30
133.143482
  0
VERTEX
  5
DB4
  8
TEAM-NET
 10
472.937626
 20
809.239645
 30
133.143482
  0
VERTEX
  5
DB5
  8
TEAM-NET
 10
473.002531
 20
812.010653
 30
133.143482
  0
SEQEND
  5
DB6
  8
TEAM-NET
  0
ARC
  5
428
  8
TEAM-NET
 10
209.093058
 20
-394.678169
 30
-812.010653
 40
50.0
210
0.0
220
0.0
230
-1.0
 50
270.0
 51
360.0
1001
ACAD
1000
R13OBJECT
1002
{
1005
53
1002
}
  0
ARC
  5
54
  8
TEAM-NET
 10
199.093058
 20
812.010653
 30
-98.836221
 40
60.0
210
0.0
220
1.0
230
0.0
 50
270.0
 51
311.566425
  0
LINE
  5
429
  8
TEAM-NET
 10
-199.093058
 20
-98.836221
 30
752.010653
 11
-199.093058
 21
-384.678169
 31
752.010653
1001
ACAD
1000
R13OBJECT
1002
{
1005
54
1002
}
  0
POLYLINE
  5
42A
  8
TEAM-NET
 66
     1
 10
0.0
 20
0.0
 30
346.713511
 70
   128
210
0.164399
220
-0.986394
230
-0.0
1001
ACAD
1000
R13OBJECT
1002
{
1005
54
1002
}
  0
VERTEX
  5
DB7
  8
TEAM-NET
 10
-320.45251
 20
812.010653
 30
346.713511
  0
VERTEX
  5
DB8
  8
TEAM-NET
 10
-320.387605
 20
809.239645
 30
346.713511
  0
VERTEX
  5
DB9
  8
TEAM-NET
 10
-320.19303
 20
806.474551
 30
346.713511
  0
VERTEX
  5
DBA
  8
TEAM-NET
 10
-319.869199
 20
803.721271
 30
346.713511
  0
VERTEX
  5
DBB
  8
TEAM-NET
 10
-319.416804
 20
800.985682
 30
346.713511
  0
VERTEX
  5
DBC
  8
TEAM-NET
 10
-318.83681
 20
798.27362
 30
346.713511
  0
VERTEX
  5
DBD
  8
TEAM-NET
 10
-318.130454
 20
795.590873
 30
346.713511
  0
VERTEX
  5
DBE
  8
TEAM-NET
 10
-317.299245
 20
792.943168
 30
346.713511
  0
VERTEX
  5
DBF
  8
TEAM-NET
 10
-316.344956
 20
790.336153
 30
346.713511
  0
VERTEX
  5
DC0
  8
TEAM-NET
 10
-315.269623
 20
787.775392
 30
346.713511
  0
VERTEX
  5
DC1
  8
TEAM-NET
 10
-314.075542
 20
785.266351
 30
346.713511
  0
VERTEX
  5
DC2
  8
TEAM-NET
 10
-312.76526
 20
782.814384
 30
346.713511
  0
VERTEX
  5
DC3
  8
TEAM-NET
 10
-311.341574
 20
780.424723
 30
346.713511
  0
VERTEX
  5
DC4
  8
TEAM-NET
 10
-309.807522
 20
778.102468
 30
346.713511
  0
VERTEX
  5
DC5
  8
TEAM-NET
 10
-308.166377
 20
775.852575
 30
346.713511
  0
VERTEX
  5
DC6
  8
TEAM-NET
 10
-306.421643
 20
773.679844
 30
346.713511
  0
VERTEX
  5
DC7
  8
TEAM-NET
 10
-304.577042
 20
771.588914
 30
346.713511
  0
VERTEX
  5
DC8
  8
TEAM-NET
 10
-302.636511
 20
769.584246
 30
346.713511
  0
VERTEX
  5
DC9
  8
TEAM-NET
 10
-300.604191
 20
767.670118
 30
346.713511
  0
VERTEX
  5
DCA
  8
TEAM-NET
 10
-298.484419
 20
765.850614
 30
346.713511
  0
VERTEX
  5
DCB
  8
TEAM-NET
 10
-296.281718
 20
764.129619
 30
346.713511
  0
VERTEX
  5
DCC
  8
TEAM-NET
 10
-294.00079
 20
762.510804
 30
346.713511
  0
VERTEX
  5
DCD
  8
TEAM-NET
 10
-291.646503
 20
760.997625
 30
346.713511
  0
VERTEX
  5
DCE
  8
TEAM-NET
 10
-289.223879
 20
759.593309
 30
346.713511
  0
VERTEX
  5
DCF
  8
TEAM-NET
 10
-286.73809
 20
758.300855
 30
346.713511
  0
VERTEX
  5
DD0
  8
TEAM-NET
 10
-284.19444
 20
757.123021
 30
346.713511
  0
VERTEX
  5
DD1
  8
TEAM-NET
 10
-281.598357
 20
756.062319
 30
346.713511
  0
VERTEX
  5
DD2
  8
TEAM-NET
 10
-278.955382
 20
755.121014
 30
346.713511
  0
VERTEX
  5
DD3
  8
TEAM-NET
 10
-276.271154
 20
754.301114
 30
346.713511
  0
VERTEX
  5
DD4
  8
TEAM-NET
 10
-273.551403
 20
753.604369
 30
346.713511
  0
VERTEX
  5
DD5
  8
TEAM-NET
 10
-270.801931
 20
753.032267
 30
346.713511
  0
VERTEX
  5
DD6
  8
TEAM-NET
 10
-268.028607
 20
752.586027
 30
346.713511
  0
VERTEX
  5
DD7
  8
TEAM-NET
 10
-265.23735
 20
752.266602
 30
346.713511
  0
VERTEX
  5
DD8
  8
TEAM-NET
 10
-262.434115
 20
752.074674
 30
346.713511
  0
VERTEX
  5
DD9
  8
TEAM-NET
 10
-259.624884
 20
752.010653
 30
346.713511
  0
SEQEND
  5
DDA
  8
TEAM-NET
  0
LINE
  5
44F
  8
TEAM-NET
 10
-259.093058
 20
-394.678169
 30
812.010653
 11
-259.093058
 21
-23.941738
 31
812.010653
1001
ACAD
1000
R13OBJECT
1002
{
1005
54
1002
}
  0
ARC
  5
450
  8
TEAM-NET
 10
-199.093058
 20
812.010653
 30
23.941738
 40
60.0
210
0.0
220
-1.0
230
0.0
 50
180.0
 51
219.758134
1001
ACAD
1000
R13OBJECT
1002
{
1005
54
1002
}
  0
LINE
  5
451
  8
TEAM-NET
 10
-245.218121
 20
-92.836221
 30
773.637764
 11
-245.218121
 21
-23.941738
 31
773.637764
1001
ACAD
1000
R13OBJECT
1002
{
1005
54
1002
}
  0
POLYLINE
  5
452
  8
TEAM-NET
 66
     1
 10
0.0
 20
0.0
 30
0.0
 70
     8
1001
ACAD
1000
R13OBJECT
1002
{
1005
54
1002
}
  0
VERTEX
  5
453
  8
TEAM-NET
 10
-238.902332
 20
-98.836221
 30
767.119432
 70
    32
  0
VERTEX
  5
454
  8
TEAM-NET
 10
-240.172926
 20
-98.713555
 30
768.279143
 70
    32
  0
VERTEX
  5
455
  8
TEAM-NET
 10
-241.384167
 20
-98.353558
 30
769.449365
 70
    32
  0
VERTEX
  5
456
  8
TEAM-NET
 10
-241.960955
 20
-98.085735
 30
770.030367
 70
    32
  0
VERTEX
  5
457
  8
TEAM-NET
 10
-242.240207
 20
-97.929868
 30
770.317435
 70
    32
  0
VERTEX
  5
458
  8
TEAM-NET
 10
-242.512428
 20
-97.759461
 30
770.601002
 70
    32
  0
VERTEX
  5
459
  8
TEAM-NET
 10
-243.035927
 20
-97.372724
 30
771.156949
 70
    32
  0
VERTEX
  5
45A
  8
TEAM-NET
 10
-243.528633
 20
-96.920938
 30
771.6934
 70
    32
  0
VERTEX
  5
45B
  8
TEAM-NET
 10
-243.98039
 20
-96.403872
 30
772.196984
 70
    32
  0
VERTEX
  5
45C
  8
TEAM-NET
 10
-244.187927
 20
-96.12057
 30
772.432205
 70
    32
  0
VERTEX
  5
45D
  8
TEAM-NET
 10
-244.381607
 20
-95.820374
 30
772.653975
 70
    32
  0
VERTEX
  5
45E
  8
TEAM-NET
 10
-244.723797
 20
-95.163257
 30
773.051236
 70
    32
  0
VERTEX
  5
45F
  8
TEAM-NET
 10
-244.867283
 20
-94.80815
 30
773.219923
 70
    32
  0
VERTEX
  5
460
  8
TEAM-NET
 10
-244.988864
 20
-94.438206
 30
773.363851
 70
    32
  0
VERTEX
  5
461
  8
TEAM-NET
 10
-245.159082
 20
-93.65475
 30
773.566908
 70
    32
  0
VERTEX
  5
462
  8
TEAM-NET
 10
-245.203335
 20
-93.246698
 30
773.619995
 70
    32
  0
VERTEX
  5
463
  8
TEAM-NET
 10
-245.218121
 20
-92.836221
 30
773.637764
 70
    32
  0
SEQEND
  5
464
  8
TEAM-NET
  0
LINE
  5
465
  8
TEAM-NET
 10
-241.519465
 20
-391.749236
 30
769.584246
 11
-241.519465
 21
-23.941738
 31
769.584246
1001
ACAD
1000
R13OBJECT
1002
{
1005
54
1002
}
  0
ARC
  5
55
  8
TEAM-NET
 10
-242.911868
 20
775.556409
 30
23.941738
 40
3.0
210
0.0
220
-1.0
230
0.0
 50
219.758134
 51
270.0
  0
ARC
  5
466
  8
TEAM-NET
 10
-199.093058
 20
812.010653
 30
23.941738
 40
60.0
210
0.0
220
-1.0
230
0.0
 50
180.0
 51
219.758134
1001
ACAD
1000
R13OBJECT
1002
{
1005
55
1002
}
  0
LINE
  5
467
  8
TEAM-NET
 10
-259.093058
 20
-23.941738
 30
812.010653
 11
-259.093058
 21
-23.941738
 31
819.010653
1001
ACAD
1000
R13OBJECT
1002
{
1005
55
1002
}
  0
LINE
  5
468
  8
TEAM-NET
 10
-242.911868
 20
-23.941738
 30
819.010653
 11
-259.093058
 21
-23.941738
 31
819.010653
1001
ACAD
1000
R13OBJECT
1002
{
1005
55
1002
}
  0
LINE
  5
469
  8
TEAM-NET
 10
-242.911868
 20
-23.941738
 30
772.556409
 11
-242.911868
 21
-23.941738
 31
819.010653
1001
ACAD
1000
R13OBJECT
1002
{
1005
55
1002
}
  0
LINE
  5
56
  8
TEAM-NET
 10
-236.911868
 20
-95.836221
 30
854.010653
 11
-236.911868
 21
-95.836221
 31
769.363993
  0
LINE
  5
46A
  8
TEAM-NET
 10
234.801177
 20
-95.836221
 30
854.010653
 11
-236.911868
 21
-95.836221
 31
854.010653
1001
ACAD
1000
R13OBJECT
1002
{
1005
56
1002
}
  0
LINE
  5
46B
  8
TEAM-NET
 10
234.801177
 20
-95.836221
 30
773.836405
 11
234.801177
 21
-95.836221
 31
854.010653
1001
ACAD
1000
R13OBJECT
1002
{
1005
56
1002
}
  0
ARC
  5
46C
  8
TEAM-NET
 10
192.472383
 20
812.010653
 30
95.836221
 40
57.0
210
0.0
220
-1.0
230
0.0
 50
270.0
 51
317.954262
1001
ACAD
1000
R13OBJECT
1002
{
1005
56
1002
}
  0
LINE
  5
46D
  8
TEAM-NET
 10
-199.093058
 20
-95.836221
 30
755.010653
 11
192.472383
 21
-95.836221
 31
755.010653
1001
ACAD
1000
R13OBJECT
1002
{
1005
56
1002
}
  0
ARC
  5
46E
  8
TEAM-NET
 10
-199.093058
 20
812.010653
 30
95.836221
 40
57.0
210
0.0
220
-1.0
230
0.0
 50
228.433575
 51
270.0
1001
ACAD
1000
R13OBJECT
1002
{
1005
56
1002
}
  0
POLYLINE
  5
57
  8
TEAM-NET
 66
     1
 10
0.0
 20
0.0
 30
-529.35051
 70
   128
210
-0.0
220
-0.707107
230
-0.707107
  0
VERTEX
  5
CAB
  8
TEAM-NET
 10
-242.911868
 20
563.209241
 30
-529.35051
  0
VERTEX
  5
CAC
  8
TEAM-NET
 10
-240.790548
 20
564.451881
 30
-529.35051
  0
VERTEX
  5
CAD
  8
TEAM-NET
 10
-239.911868
 20
567.451881
 30
-529.35051
  0
SEQEND
  5
CAE
  8
TEAM-NET
  0
LINE
  5
473
  8
TEAM-NET
 10
-242.911868
 20
-23.941738
 30
772.556409
 11
-242.911868
 21
-23.941738
 31
819.010653
1001
ACAD
1000
R13OBJECT
1002
{
1005
57
1002
}
  0
ARC
  5
474
  8
TEAM-NET
 10
-242.911868
 20
-26.941738
 30
819.010653
 40
3.0
 50
0.0
 51
90.0
1001
ACAD
1000
R13OBJECT
1002
{
1005
57
1002
}
  0
LINE
  5
475
  8
TEAM-NET
 10
-239.911868
 20
-26.941738
 30
819.010653
 11
-239.911868
 21
-26.941738
 31
775.556409
1001
ACAD
1000
R13OBJECT
1002
{
1005
57
1002
}
  0
LINE
  5
476
  8
TEAM-NET
 10
-240.790548
 20
-24.820418
 30
773.435088
 11
-240.790548
 21
-24.820418
 31
819.010653
1001
ACAD
1000
R13OBJECT
1002
{
1005
57
1002
}
  0
POLYLINE
  5
58
  8
TEAM-NET
 66
     1
 10
0.0
 20
0.0
 30
-529.35051
 70
   128
210
-0.0
220
-0.707107
230
-0.707107
  0
VERTEX
  5
CAF
  8
TEAM-NET
 10
-242.911868
 20
563.209241
 30
-529.35051
  0
VERTEX
  5
CB0
  8
TEAM-NET
 10
-240.790548
 20
564.451881
 30
-529.35051
  0
VERTEX
  5
CB1
  8
TEAM-NET
 10
-239.911868
 20
567.451881
 30
-529.35051
  0
SEQEND
  5
CB2
  8
TEAM-NET
  0
LINE
  5
47B
  8
TEAM-NET
 10
-239.911868
 20
-26.941738
 30
775.556409
 11
-239.911868
 21
-92.836221
 31
775.556409
1001
ACAD
1000
R13OBJECT
1002
{
1005
58
1002
}
  0
ARC
  5
47C
  8
TEAM-NET
 10
242.911868
 20
775.556409
 30
-92.836221
 40
3.0
210
0.0
220
1.0
230
0.0
 50
180.0
 51
320.241866
1001
ACAD
1000
R13OBJECT
1002
{
1005
58
1002
}
  0
LINE
  5
47D
  8
TEAM-NET
 10
-245.218121
 20
-92.836221
 30
773.637764
 11
-245.218121
 21
-23.941738
 31
773.637764
1001
ACAD
1000
R13OBJECT
1002
{
1005
58
1002
}
  0
ARC
  5
47E
  8
TEAM-NET
 10
-242.911868
 20
775.556409
 30
23.941738
 40
3.0
210
0.0
220
-1.0
230
0.0
 50
219.758134
 51
270.0
1001
ACAD
1000
R13OBJECT
1002
{
1005
58
1002
}
  0
LINE
  5
47F
  8
TEAM-NET
 10
-241.89176
 20
-24.120501
 30
772.735172
 11
-241.89176
 21
-92.836221
 31
772.735172
1001
ACAD
1000
R13OBJECT
1002
{
1005
58
1002
}
  0
ARC
  5
59
  8
TEAM-NET
 10
-236.911868
 20
-92.836221
 30
854.010653
 40
3.0
 50
180.0
 51
270.0
  0
LINE
  5
480
  8
TEAM-NET
 10
-236.911868
 20
-95.836221
 30
854.010653
 11
-236.911868
 21
-95.836221
 31
769.363993
1001
ACAD
1000
R13OBJECT
1002
{
1005
59
1002
}
  0
POLYLINE
  5
481
  8
TEAM-NET
 66
     1
 10
0.0
 20
0.0
 30
0.0
 70
     8
1001
ACAD
1000
R13OBJECT
1002
{
1005
59
1002
}
  0
VERTEX
  5
482
  8
TEAM-NET
 10
-236.911868
 20
-95.836221
 30
769.363993
 70
    32
  0
VERTEX
  5
483
  8
TEAM-NET
 10
-237.5154
 20
-95.774888
 30
770.465718
 70
    32
  0
VERTEX
  5
484
  8
TEAM-NET
 10
-238.09074
 20
-95.59489
 30
771.577429
 70
    32
  0
VERTEX
  5
485
  8
TEAM-NET
 10
-238.364714
 20
-95.460978
 30
772.129381
 70
    32
  0
VERTEX
  5
486
  8
TEAM-NET
 10
-238.497359
 20
-95.383045
 30
772.402096
 70
    32
  0
VERTEX
  5
487
  8
TEAM-NET
 10
-238.626664
 20
-95.297841
 30
772.671485
 70
    32
  0
VERTEX
  5
488
  8
TEAM-NET
 10
-238.875326
 20
-95.104473
 30
773.199634
 70
    32
  0
VERTEX
  5
489
  8
TEAM-NET
 10
-239.109361
 20
-94.878579
 30
773.709263
 70
    32
  0
VERTEX
  5
48A
  8
TEAM-NET
 10
-239.323946
 20
-94.620047
 30
774.187667
 70
    32
  0
VERTEX
  5
48B
  8
TEAM-NET
 10
-239.422526
 20
-94.478395
 30
774.411128
 70
    32
  0
VERTEX
  5
48C
  8
TEAM-NET
 10
-239.514524
 20
-94.328297
 30
774.621809
 70
    32
  0
VERTEX
  5
48D
  8
TEAM-NET
 10
-239.677064
 20
-93.999739
 30
774.999207
 70
    32
  0
VERTEX
  5
48E
  8
TEAM-NET
 10
-239.74522
 20
-93.822186
 30
775.15946
 70
    32
  0
VERTEX
  5
48F
  8
TEAM-NET
 10
-239.802971
 20
-93.637214
 30
775.296191
 70
    32
  0
VERTEX
  5
490
  8
TEAM-NET
 10
-239.883825
 20
-93.245485
 30
775.489095
 70
    32
  0
VERTEX
  5
491
  8
TEAM-NET
 10
-239.904845
 20
-93.04146
 30
775.539528
 70
    32
  0
VERTEX
  5
492
  8
TEAM-NET
 10
-239.911868
 20
-92.836221
 30
775.556409
 70
    32
  0
SEQEND
  5
493
  8
TEAM-NET
  0
LINE
  5
494
  8
TEAM-NET
 10
-239.911868
 20
-92.836221
 30
775.556409
 11
-239.911868
 21
-92.836221
 31
854.010653
1001
ACAD
1000
R13OBJECT
1002
{
1005
59
1002
}
  0
ARC
  5
5A
  8
TEAM-NET
 10
242.911868
 20
775.556409
 30
-92.836221
 40
3.0
210
0.0
220
1.0
230
0.0
 50
180.0
 51
320.241866
  0
POLYLINE
  5
495
  8
TEAM-NET
 66
     1
 10
0.0
 20
0.0
 30
0.0
 70
     8
1001
ACAD
1000
R13OBJECT
1002
{
1005
5A
1002
}
  0
VERTEX
  5
496
  8
TEAM-NET
 10
-236.911868
 20
-95.836221
 30
769.363993
 70
    32
  0
VERTEX
  5
497
  8
TEAM-NET
 10
-237.5154
 20
-95.774888
 30
770.465718
 70
    32
  0
VERTEX
  5
498
  8
TEAM-NET
 10
-238.09074
 20
-95.59489
 30
771.577429
 70
    32
  0
VERTEX
  5
499
  8
TEAM-NET
 10
-238.364714
 20
-95.460978
 30
772.129381
 70
    32
  0
VERTEX
  5
49A
  8
TEAM-NET
 10
-238.497359
 20
-95.383045
 30
772.402096
 70
    32
  0
VERTEX
  5
49B
  8
TEAM-NET
 10
-238.626664
 20
-95.297841
 30
772.671485
 70
    32
  0
VERTEX
  5
49C
  8
TEAM-NET
 10
-238.875326
 20
-95.104473
 30
773.199634
 70
    32
  0
VERTEX
  5
49D
  8
TEAM-NET
 10
-239.109361
 20
-94.878579
 30
773.709263
 70
    32
  0
VERTEX
  5
49E
  8
TEAM-NET
 10
-239.323946
 20
-94.620047
 30
774.187667
 70
    32
  0
VERTEX
  5
49F
  8
TEAM-NET
 10
-239.422526
 20
-94.478395
 30
774.411128
 70
    32
  0
VERTEX
  5
4A0
  8
TEAM-NET
 10
-239.514524
 20
-94.328297
 30
774.621809
 70
    32
  0
VERTEX
  5
4A1
  8
TEAM-NET
 10
-239.677064
 20
-93.999739
 30
774.999207
 70
    32
  0
VERTEX
  5
4A2
  8
TEAM-NET
 10
-239.74522
 20
-93.822186
 30
775.15946
 70
    32
  0
VERTEX
  5
4A3
  8
TEAM-NET
 10
-239.802971
 20
-93.637214
 30
775.296191
 70
    32
  0
VERTEX
  5
4A4
  8
TEAM-NET
 10
-239.883825
 20
-93.245485
 30
775.489095
 70
    32
  0
VERTEX
  5
4A5
  8
TEAM-NET
 10
-239.904845
 20
-93.04146
 30
775.539528
 70
    32
  0
VERTEX
  5
4A6
  8
TEAM-NET
 10
-239.911868
 20
-92.836221
 30
775.556409
 70
    32
  0
SEQEND
  5
4A7
  8
TEAM-NET
  0
ARC
  5
4A8
  8
TEAM-NET
 10
-98.836221
 20
418.439997
 30
-687.718079
 40
3.0
210
0.748187
220
0.0
230
-0.663488
 50
270.0
 51
0.0
1001
ACAD
1000
R13OBJECT
1002
{
1005
5A
1002
}
  0
POLYLINE
  5
4A9
  8
TEAM-NET
 66
     1
 10
0.0
 20
0.0
 30
0.0
 70
     8
1001
ACAD
1000
R13OBJECT
1002
{
1005
5A
1002
}
  0
VERTEX
  5
4AA
  8
TEAM-NET
 10
-238.902332
 20
-98.836221
 30
767.119432
 70
    32
  0
VERTEX
  5
4AB
  8
TEAM-NET
 10
-240.172926
 20
-98.713555
 30
768.279143
 70
    32
  0
VERTEX
  5
4AC
  8
TEAM-NET
 10
-241.384167
 20
-98.353558
 30
769.449365
 70
    32
  0
VERTEX
  5
4AD
  8
TEAM-NET
 10
-241.960955
 20
-98.085735
 30
770.030367
 70
    32
  0
VERTEX
  5
4AE
  8
TEAM-NET
 10
-242.240207
 20
-97.929868
 30
770.317435
 70
    32
  0
VERTEX
  5
4AF
  8
TEAM-NET
 10
-242.512428
 20
-97.759461
 30
770.601002
 70
    32
  0
VERTEX
  5
4B0
  8
TEAM-NET
 10
-243.035927
 20
-97.372724
 30
771.156949
 70
    32
  0
VERTEX
  5
4B1
  8
TEAM-NET
 10
-243.528633
 20
-96.920938
 30
771.6934
 70
    32
  0
VERTEX
  5
4B2
  8
TEAM-NET
 10
-243.98039
 20
-96.403872
 30
772.196984
 70
    32
  0
VERTEX
  5
4B3
  8
TEAM-NET
 10
-244.187927
 20
-96.12057
 30
772.432205
 70
    32
  0
VERTEX
  5
4B4
  8
TEAM-NET
 10
-244.381607
 20
-95.820374
 30
772.653975
 70
    32
  0
VERTEX
  5
4B5
  8
TEAM-NET
 10
-244.723797
 20
-95.163257
 30
773.051236
 70
    32
  0
VERTEX
  5
4B6
  8
TEAM-NET
 10
-244.867283
 20
-94.80815
 30
773.219923
 70
    32
  0
VERTEX
  5
4B7
  8
TEAM-NET
 10
-244.988864
 20
-94.438206
 30
773.363851
 70
    32
  0
VERTEX
  5
4B8
  8
TEAM-NET
 10
-245.159082
 20
-93.65475
 30
773.566908
 70
    32
  0
VERTEX
  5
4B9
  8
TEAM-NET
 10
-245.203335
 20
-93.246698
 30
773.619995
 70
    32
  0
VERTEX
  5
4BA
  8
TEAM-NET
 10
-245.218121
 20
-92.836221
 30
773.637764
 70
    32
  0
SEQEND
  5
4BB
  8
TEAM-NET
  0
ARC
  5
5B
  8
TEAM-NET
 10
234.801177
 20
-92.836221
 30
854.010653
 40
3.0
 50
270.0
 51
360.0
  0
LINE
  5
4BC
  8
TEAM-NET
 10
237.801177
 20
-92.836221
 30
854.010653
 11
237.801177
 21
-92.836221
 31
781.789342
1001
ACAD
1000
R13OBJECT
1002
{
1005
5B
1002
}
  0
POLYLINE
  5
4BD
  8
TEAM-NET
 66
     1
 10
0.0
 20
0.0
 30
0.0
 70
     8
1001
ACAD
1000
R13OBJECT
1002
{
1005
5B
1002
}
  0
VERTEX
  5
4BE
  8
TEAM-NET
 10
237.801177
 20
-92.836221
 30
781.789342
 70
    32
  0
VERTEX
  5
4BF
  8
TEAM-NET
 10
237.792737
 20
-93.06104
 30
781.762365
 70
    32
  0
VERTEX
  5
4C0
  8
TEAM-NET
 10
237.767957
 20
-93.28146
 30
781.68335
 70
    32
  0
VERTEX
  5
4C1
  8
TEAM-NET
 10
237.749833
 20
-93.388914
 30
781.625743
 70
    32
  0
VERTEX
  5
4C2
  8
TEAM-NET
 10
237.675208
 20
-93.696511
 30
781.390138
 70
    32
  0
VERTEX
  5
4C3
  8
TEAM-NET
 10
237.667759
 20
-93.721019
 30
781.366758
 70
    32
  0
VERTEX
  5
4C4
  8
TEAM-NET
 10
237.66013
 20
-93.745371
 30
781.342841
 70
    32
  0
VERTEX
  5
4C5
  8
TEAM-NET
 10
237.644355
 20
-93.793571
 30
781.293469
 70
    32
  0
VERTEX
  5
4C6
  8
TEAM-NET
 10
237.610819
 20
-93.887944
 30
781.188875
 70
    32
  0
VERTEX
  5
4C7
  8
TEAM-NET
 10
237.574801
 20
-93.979566
 30
781.077101
 70
    32
  0
VERTEX
  5
4C8
  8
TEAM-NET
 10
237.555922
 20
-94.024338
 30
781.018737
 70
    32
  0
VERTEX
  5
4C9
  8
TEAM-NET
 10
237.36465
 20
-94.394676
 30
780.436089
 70
    32
  0
VERTEX
  5
4CA
  8
TEAM-NET
 10
237.36393
 20
-94.39586
 30
780.433925
 70
    32
  0
VERTEX
  5
4CB
  8
TEAM-NET
 10
237.36321
 20
-94.397043
 30
780.43176
 70
    32
  0
VERTEX
  5
4CC
  8
TEAM-NET
 10
237.361768
 20
-94.399407
 30
780.427427
 70
    32
  0
VERTEX
  5
4CD
  8
TEAM-NET
 10
237.35888
 20
-94.404129
 30
780.418751
 70
    32
  0
VERTEX
  5
4CE
  8
TEAM-NET
 10
237.355986
 20
-94.408841
 30
780.41006
 70
    32
  0
VERTEX
  5
4CF
  8
TEAM-NET
 10
237.353086
 20
-94.413542
 30
780.401355
 70
    32
  0
VERTEX
  5
4D0
  8
TEAM-NET
 10
237.341427
 20
-94.432252
 30
780.366393
 70
    32
  0
VERTEX
  5
4D1
  8
TEAM-NET
 10
237.329675
 20
-94.450808
 30
780.331207
 70
    32
  0
VERTEX
  5
4D2
  8
TEAM-NET
 10
237.323764
 20
-94.460028
 30
780.313531
 70
    32
  0
VERTEX
  5
4D3
  8
TEAM-NET
 10
237.31783
 20
-94.469209
 30
780.295802
 70
    32
  0
VERTEX
  5
4D4
  8
TEAM-NET
 10
237.269556
 20
-94.541306
 30
780.152091
 70
    32
  0
VERTEX
  5
4D5
  8
TEAM-NET
 10
237.16893
 20
-94.678495
 30
779.855527
 70
    32
  0
VERTEX
  5
4D6
  8
TEAM-NET
 10
237.063285
 20
-94.806783
 30
779.548431
 70
    32
  0
VERTEX
  5
4D7
  8
TEAM-NET
 10
237.008725
 20
-94.867721
 30
779.391497
 70
    32
  0
VERTEX
  5
4D8
  8
TEAM-NET
 10
236.953077
 20
-94.926578
 30
779.232586
 70
    32
  0
VERTEX
  5
4D9
  8
TEAM-NET
 10
236.924862
 20
-94.955238
 30
779.152451
 70
    32
  0
VERTEX
  5
4DA
  8
TEAM-NET
 10
236.896396
 20
-94.98339
 30
779.071896
 70
    32
  0
VERTEX
  5
4DB
  8
TEAM-NET
 10
236.838733
 20
-95.038187
 30
778.909623
 70
    32
  0
VERTEX
  5
4DC
  8
TEAM-NET
 10
236.720677
 20
-95.141827
 30
778.581093
 70
    32
  0
VERTEX
  5
4DD
  8
TEAM-NET
 10
236.599345
 20
-95.237657
 30
778.248498
 70
    32
  0
VERTEX
  5
4DE
  8
TEAM-NET
 10
236.568556
 20
-95.260408
 30
778.164895
 70
    32
  0
VERTEX
  5
4DF
  8
TEAM-NET
 10
236.47519
 20
-95.325798
 30
777.91331
 70
    32
  0
VERTEX
  5
4E0
  8
TEAM-NET
 10
236.348704
 20
-95.406334
 30
777.577023
 70
    32
  0
VERTEX
  5
4E1
  8
TEAM-NET
 10
236.219495
 20
-95.479831
 30
777.238759
 70
    32
  0
VERTEX
  5
4E2
  8
TEAM-NET
 10
235.952894
 20
-95.606386
 30
776.556952
 70
    32
  0
VERTEX
  5
4E3
  8
TEAM-NET
 10
235.676639
 20
-95.705678
 30
775.872324
 70
    32
  0
VERTEX
  5
4E4
  8
TEAM-NET
 10
235.392163
 20
-95.777457
 30
775.189285
 70
    32
  0
VERTEX
  5
4E5
  8
TEAM-NET
 10
235.246947
 20
-95.802937
 30
774.848807
 70
    32
  0
VERTEX
  5
4E6
  8
TEAM-NET
 10
234.801177
 20
-95.836221
 30
773.836405
 70
    32
  0
SEQEND
  5
4E7
  8
TEAM-NET
  0
LINE
  5
4E8
  8
TEAM-NET
 10
234.801177
 20
-95.836221
 30
773.836405
 11
234.801177
 21
-95.836221
 31
854.010653
1001
ACAD
1000
R13OBJECT
1002
{
1005
5B
1002
}
  0
ARC
  5
5C
  8
TEAM-NET
 10
98.836221
 20
343.890728
 30
-731.910884
 40
3.0
210
-0.669724
220
-0.0
230
-0.74261
 50
180.0
 51
270.0
  0
POLYLINE
  5
4E9
  8
TEAM-NET
 66
     1
 10
0.0
 20
0.0
 30
0.0
 70
     8
1001
ACAD
1000
R13OBJECT
1002
{
1005
5C
1002
}
  0
VERTEX
  5
4EA
  8
TEAM-NET
 10
237.801177
 20
-92.836221
 30
781.789342
 70
    32
  0
VERTEX
  5
4EB
  8
TEAM-NET
 10
237.792737
 20
-93.06104
 30
781.762365
 70
    32
  0
VERTEX
  5
4EC
  8
TEAM-NET
 10
237.767957
 20
-93.28146
 30
781.68335
 70
    32
  0
VERTEX
  5
4ED
  8
TEAM-NET
 10
237.749833
 20
-93.388914
 30
781.625743
 70
    32
  0
VERTEX
  5
4EE
  8
TEAM-NET
 10
237.675208
 20
-93.696511
 30
781.390138
 70
    32
  0
VERTEX
  5
4EF
  8
TEAM-NET
 10
237.667759
 20
-93.721019
 30
781.366758
 70
    32
  0
VERTEX
  5
4F0
  8
TEAM-NET
 10
237.66013
 20
-93.745371
 30
781.342841
 70
    32
  0
VERTEX
  5
4F1
  8
TEAM-NET
 10
237.644355
 20
-93.793571
 30
781.293469
 70
    32
  0
VERTEX
  5
4F2
  8
TEAM-NET
 10
237.610819
 20
-93.887944
 30
781.188875
 70
    32
  0
VERTEX
  5
4F3
  8
TEAM-NET
 10
237.574801
 20
-93.979566
 30
781.077101
 70
    32
  0
VERTEX
  5
4F4
  8
TEAM-NET
 10
237.555922
 20
-94.024338
 30
781.018737
 70
    32
  0
VERTEX
  5
4F5
  8
TEAM-NET
 10
237.36465
 20
-94.394676
 30
780.436089
 70
    32
  0
VERTEX
  5
4F6
  8
TEAM-NET
 10
237.36393
 20
-94.39586
 30
780.433925
 70
    32
  0
VERTEX
  5
4F7
  8
TEAM-NET
 10
237.36321
 20
-94.397043
 30
780.43176
 70
    32
  0
VERTEX
  5
4F8
  8
TEAM-NET
 10
237.361768
 20
-94.399407
 30
780.427427
 70
    32
  0
VERTEX
  5
4F9
  8
TEAM-NET
 10
237.35888
 20
-94.404129
 30
780.418751
 70
    32
  0
VERTEX
  5
4FA
  8
TEAM-NET
 10
237.355986
 20
-94.408841
 30
780.41006
 70
    32
  0
VERTEX
  5
4FB
  8
TEAM-NET
 10
237.353086
 20
-94.413542
 30
780.401355
 70
    32
  0
VERTEX
  5
4FC
  8
TEAM-NET
 10
237.341427
 20
-94.432252
 30
780.366393
 70
    32
  0
VERTEX
  5
4FD
  8
TEAM-NET
 10
237.329675
 20
-94.450808
 30
780.331207
 70
    32
  0
VERTEX
  5
4FE
  8
TEAM-NET
 10
237.323764
 20
-94.460028
 30
780.313531
 70
    32
  0
VERTEX
  5
4FF
  8
TEAM-NET
 10
237.31783
 20
-94.469209
 30
780.295802
 70
    32
  0
VERTEX
  5
500
  8
TEAM-NET
 10
237.269556
 20
-94.541306
 30
780.152091
 70
    32
  0
VERTEX
  5
501
  8
TEAM-NET
 10
237.16893
 20
-94.678495
 30
779.855527
 70
    32
  0
VERTEX
  5
502
  8
TEAM-NET
 10
237.063285
 20
-94.806783
 30
779.548431
 70
    32
  0
VERTEX
  5
503
  8
TEAM-NET
 10
237.008725
 20
-94.867721
 30
779.391497
 70
    32
  0
VERTEX
  5
504
  8
TEAM-NET
 10
236.953077
 20
-94.926578
 30
779.232586
 70
    32
  0
VERTEX
  5
505
  8
TEAM-NET
 10
236.924862
 20
-94.955238
 30
779.152451
 70
    32
  0
VERTEX
  5
506
  8
TEAM-NET
 10
236.896396
 20
-94.98339
 30
779.071896
 70
    32
  0
VERTEX
  5
507
  8
TEAM-NET
 10
236.838733
 20
-95.038187
 30
778.909623
 70
    32
  0
VERTEX
  5
508
  8
TEAM-NET
 10
236.720677
 20
-95.141827
 30
778.581093
 70
    32
  0
VERTEX
  5
509
  8
TEAM-NET
 10
236.599345
 20
-95.237657
 30
778.248498
 70
    32
  0
VERTEX
  5
50A
  8
TEAM-NET
 10
236.568556
 20
-95.260408
 30
778.164895
 70
    32
  0
VERTEX
  5
50B
  8
TEAM-NET
 10
236.47519
 20
-95.325798
 30
777.91331
 70
    32
  0
VERTEX
  5
50C
  8
TEAM-NET
 10
236.348704
 20
-95.406334
 30
777.577023
 70
    32
  0
VERTEX
  5
50D
  8
TEAM-NET
 10
236.219495
 20
-95.479831
 30
777.238759
 70
    32
  0
VERTEX
  5
50E
  8
TEAM-NET
 10
235.952894
 20
-95.606386
 30
776.556952
 70
    32
  0
VERTEX
  5
50F
  8
TEAM-NET
 10
235.676639
 20
-95.705678
 30
775.872324
 70
    32
  0
VERTEX
  5
510
  8
TEAM-NET
 10
235.392163
 20
-95.777457
 30
775.189285
 70
    32
  0
VERTEX
  5
511
  8
TEAM-NET
 10
235.246947
 20
-95.802937
 30
774.848807
 70
    32
  0
VERTEX
  5
512
  8
TEAM-NET
 10
234.801177
 20
-95.836221
 30
773.836405
 70
    32
  0
SEQEND
  5
513
  8
TEAM-NET
  0
ARC
  5
514
  8
TEAM-NET
 10
-240.801177
 20
781.789342
 30
-92.836221
 40
3.0
210
0.0
220
1.0
230
0.0
 50
212.018863
 51
360.0
1001
ACAD
1000
R13OBJECT
1002
{
1005
5C
1002
}
  0
POLYLINE
  5
515
  8
TEAM-NET
 66
     1
 10
0.0
 20
0.0
 30
0.0
 70
     8
1001
ACAD
1000
R13OBJECT
1002
{
1005
5C
1002
}
  0
VERTEX
  5
516
  8
TEAM-NET
 10
243.344798
 20
-92.836221
 30
780.198747
 70
    32
  0
VERTEX
  5
517
  8
TEAM-NET
 10
243.32703
 20
-93.285859
 30
780.17035
 70
    32
  0
VERTEX
  5
518
  8
TEAM-NET
 10
243.27486
 20
-93.726699
 30
780.087176
 70
    32
  0
VERTEX
  5
519
  8
TEAM-NET
 10
243.236705
 20
-93.941607
 30
780.026537
 70
    32
  0
VERTEX
  5
51A
  8
TEAM-NET
 10
243.0796
 20
-94.556802
 30
779.778532
 70
    32
  0
VERTEX
  5
51B
  8
TEAM-NET
 10
243.063917
 20
-94.605817
 30
779.753921
 70
    32
  0
VERTEX
  5
51C
  8
TEAM-NET
 10
243.047857
 20
-94.654522
 30
779.728745
 70
    32
  0
VERTEX
  5
51D
  8
TEAM-NET
 10
243.014646
 20
-94.750921
 30
779.676775
 70
    32
  0
VERTEX
  5
51E
  8
TEAM-NET
 10
242.944043
 20
-94.939668
 30
779.566676
 70
    32
  0
VERTEX
  5
51F
  8
TEAM-NET
 10
242.868217
 20
-95.12291
 30
779.449019
 70
    32
  0
VERTEX
  5
520
  8
TEAM-NET
 10
242.828471
 20
-95.212456
 30
779.387584
 70
    32
  0
VERTEX
  5
521
  8
TEAM-NET
 10
242.425793
 20
-95.953132
 30
778.77427
 70
    32
  0
VERTEX
  5
522
  8
TEAM-NET
 10
242.424277
 20
-95.955499
 30
778.771992
 70
    32
  0
VERTEX
  5
523
  8
TEAM-NET
 10
242.422761
 20
-95.957865
 30
778.769713
 70
    32
  0
VERTEX
  5
524
  8
TEAM-NET
 10
242.419725
 20
-95.962594
 30
778.765152
 70
    32
  0
VERTEX
  5
525
  8
TEAM-NET
 10
242.413645
 20
-95.972037
 30
778.75602
 70
    32
  0
VERTEX
  5
526
  8
TEAM-NET
 10
242.407553
 20
-95.98146
 30
778.746871
 70
    32
  0
VERTEX
  5
527
  8
TEAM-NET
 10
242.401447
 20
-95.990864
 30
778.737708
 70
    32
  0
VERTEX
  5
528
  8
TEAM-NET
 10
242.376903
 20
-96.028284
 30
778.700906
 70
    32
  0
VERTEX
  5
529
  8
TEAM-NET
 10
242.352161
 20
-96.065394
 30
778.663868
 70
    32
  0
VERTEX
  5
52A
  8
TEAM-NET
 10
242.339717
 20
-96.083834
 30
778.645262
 70
    32
  0
VERTEX
  5
52B
  8
TEAM-NET
 10
242.327226
 20
-96.102198
 30
778.626599
 70
    32
  0
VERTEX
  5
52C
  8
TEAM-NET
 10
242.225596
 20
-96.246391
 30
778.475324
 70
    32
  0
VERTEX
  5
52D
  8
TEAM-NET
 10
242.013751
 20
-96.520769
 30
778.163152
 70
    32
  0
VERTEX
  5
52E
  8
TEAM-NET
 10
241.791342
 20
-96.777344
 30
777.839893
 70
    32
  0
VERTEX
  5
52F
  8
TEAM-NET
 10
241.676477
 20
-96.89922
 30
777.6747
 70
    32
  0
VERTEX
  5
530
  8
TEAM-NET
 10
241.559325
 20
-97.016934
 30
777.507425
 70
    32
  0
VERTEX
  5
531
  8
TEAM-NET
 10
241.499925
 20
-97.074254
 30
777.423072
 70
    32
  0
VERTEX
  5
532
  8
TEAM-NET
 10
241.439995
 20
-97.13056
 30
777.338277
 70
    32
  0
VERTEX
  5
533
  8
TEAM-NET
 10
241.318599
 20
-97.240152
 30
777.167463
 70
    32
  0
VERTEX
  5
534
  8
TEAM-NET
 10
241.070061
 20
-97.447433
 30
776.821642
 70
    32
  0
VERTEX
  5
535
  8
TEAM-NET
 10
240.814626
 20
-97.639094
 30
776.471543
 70
    32
  0
VERTEX
  5
536
  8
TEAM-NET
 10
240.749806
 20
-97.684595
 30
776.383539
 70
    32
  0
VERTEX
  5
537
  8
TEAM-NET
 10
240.553247
 20
-97.815374
 30
776.118713
 70
    32
  0
VERTEX
  5
538
  8
TEAM-NET
 10
240.286959
 20
-97.976447
 30
775.764726
 70
    32
  0
VERTEX
  5
539
  8
TEAM-NET
 10
240.014941
 20
-98.123441
 30
775.408659
 70
    32
  0
VERTEX
  5
53A
  8
TEAM-NET
 10
239.453676
 20
-98.376552
 30
774.690968
 70
    32
  0
VERTEX
  5
53B
  8
TEAM-NET
 10
238.872085
 20
-98.575135
 30
773.970307
 70
    32
  0
VERTEX
  5
53C
  8
TEAM-NET
 10
238.27319
 20
-98.718693
 30
773.251319
 70
    32
  0
VERTEX
  5
53D
  8
TEAM-NET
 10
237.967471
 20
-98.769653
 30
772.892921
 70
    32
  0
VERTEX
  5
53E
  8
TEAM-NET
 10
237.029008
 20
-98.836221
 30
771.827235
 70
    32
  0
SEQEND
  5
53F
  8
TEAM-NET
  0
LINE
  5
5D
  8
TEAM-NET
 10
-28.340254
 20
-195.836221
 30
770.320842
 11
-38.178618
 21
-195.836221
 31
776.371622
  0
POLYLINE
  5
540
  8
TEAM-NET
 66
     1
 10
0.0
 20
0.0
 30
0.0
 70
     8
1001
ACAD
1000
R13OBJECT
1002
{
1005
5D
1002
}
  0
VERTEX
  5
541
  8
TEAM-NET
 10
26.528381
 20
-195.83607
 30
770.290841
 70
    32
  0
VERTEX
  5
542
  8
TEAM-NET
 10
26.528369
 20
-195.813795
 30
770.290841
 70
    32
  0
VERTEX
  5
543
  8
TEAM-NET
 10
26.218176
 20
-191.721387
 30
770.291013
 70
    32
  0
VERTEX
  5
544
  8
TEAM-NET
 10
25.671372
 20
-189.032364
 30
770.291316
 70
    32
  0
VERTEX
  5
545
  8
TEAM-NET
 10
24.862891
 20
-186.42266
 30
770.291763
 70
    32
  0
VERTEX
  5
546
  8
TEAM-NET
 10
24.363977
 20
-185.155567
 30
770.292039
 70
    32
  0
VERTEX
  5
547
  8
TEAM-NET
 10
23.800894
 20
-183.910402
 30
770.292351
 70
    32
  0
VERTEX
  5
548
  8
TEAM-NET
 10
20.938612
 20
-179.239103
 30
770.293933
 70
    32
  0
VERTEX
  5
549
  8
TEAM-NET
 10
19.180395
 20
-177.149829
 30
770.294903
 70
    32
  0
VERTEX
  5
54A
  8
TEAM-NET
 10
18.471112
 20
-176.415304
 30
770.295295
 70
    32
  0
VERTEX
  5
54B
  8
TEAM-NET
 10
17.732381
 20
-175.705289
 30
770.295702
 70
    32
  0
VERTEX
  5
54C
  8
TEAM-NET
 10
16.173576
 20
-174.366804
 30
770.296562
 70
    32
  0
VERTEX
  5
54D
  8
TEAM-NET
 10
12.771996
 20
-172.054698
 30
770.298435
 70
    32
  0
VERTEX
  5
54E
  8
TEAM-NET
 10
10.95976
 20
-171.100644
 30
770.299432
 70
    32
  0
VERTEX
  5
54F
  8
TEAM-NET
 10
9.08546
 20
-170.285956
 30
770.300462
 70
    32
  0
VERTEX
  5
550
  8
TEAM-NET
 10
5.15725
 20
-169.080147
 30
770.302618
 70
    32
  0
VERTEX
  5
551
  8
TEAM-NET
 10
1.09725
 20
-168.475134
 30
770.304842
 70
    32
  0
VERTEX
  5
552
  8
TEAM-NET
 10
-0.944182
 20
-168.401946
 30
770.305959
 70
    32
  0
VERTEX
  5
553
  8
TEAM-NET
 10
-2.994205
 20
-168.48147
 30
770.307079
 70
    32
  0
VERTEX
  5
554
  8
TEAM-NET
 10
-7.059878
 20
-169.101004
 30
770.309298
 70
    32
  0
VERTEX
  5
555
  8
TEAM-NET
 10
-9.041748
 20
-169.636096
 30
770.310378
 70
    32
  0
VERTEX
  5
556
  8
TEAM-NET
 10
-10.968704
 20
-170.314091
 30
770.311427
 70
    32
  0
VERTEX
  5
557
  8
TEAM-NET
 10
-14.66225
 20
-172.099866
 30
770.313435
 70
    32
  0
VERTEX
  5
558
  8
TEAM-NET
 10
-18.053549
 20
-174.421213
 30
770.315276
 70
    32
  0
VERTEX
  5
559
  8
TEAM-NET
 10
-20.335515
 20
-176.467997
 30
770.316513
 70
    32
  0
VERTEX
  5
55A
  8
TEAM-NET
 10
-22.383666
 20
-178.767091
 30
770.317623
 70
    32
  0
VERTEX
  5
55B
  8
TEAM-NET
 10
-24.564148
 20
-181.946234
 30
770.318802
 70
    32
  0
VERTEX
  5
55C
  8
TEAM-NET
 10
-25.645521
 20
-183.97896
 30
770.319387
 70
    32
  0
VERTEX
  5
55D
  8
TEAM-NET
 10
-26.268411
 20
-185.377432
 30
770.319723
 70
    32
  0
VERTEX
  5
55E
  8
TEAM-NET
 10
-26.813284
 20
-186.811141
 30
770.320018
 70
    32
  0
VERTEX
  5
55F
  8
TEAM-NET
 10
-27.478041
 20
-189.012417
 30
770.320377
 70
    32
  0
VERTEX
  5
560
  8
TEAM-NET
 10
-27.658044
 20
-189.75628
 30
770.320474
 70
    32
  0
VERTEX
  5
561
  8
TEAM-NET
 10
-28.073025
 20
-192.016205
 30
770.320698
 70
    32
  0
VERTEX
  5
562
  8
TEAM-NET
 10
-28.340476
 20
-195.836221
 30
770.320842
 70
    32
  0
SEQEND
  5
563
  8
TEAM-NET
  0
LINE
  5
564
  8
TEAM-NET
 10
26.528405
 20
-195.836221
 30
770.290841
 11
36.885153
 21
-195.836221
 31
776.59432
1001
ACAD
1000
R13OBJECT
1002
{
1005
5D
1002
}
  0
ARC
  5
565
  8
TEAM-NET
 10
-2.774635
 20
-195.836221
 30
776.677893
 40
37.855997
210
0.002323
220
-0.0
230
0.999997
 50
360.0
 51
22.842542
1001
ACAD
1000
R13OBJECT
1002
{
1005
5D
1002
}
  0
POLYLINE
  5
566
  8
TEAM-NET
 66
     1
 10
0.0
 20
0.0
 30
0.0
 70
     8
1001
ACAD
1000
R13OBJECT
1002
{
1005
5D
1002
}
  0
VERTEX
  5
567
  8
TEAM-NET
 10
-4.892262
 20
-161.824306
 30
774.47695
 70
    32
  0
VERTEX
  5
568
  8
TEAM-NET
 10
-3.121167
 20
-161.501362
 30
774.573894
 70
    32
  0
VERTEX
  5
569
  8
TEAM-NET
 10
-1.335702
 20
-161.269755
 30
774.671625
 70
    32
  0
VERTEX
  5
56A
  8
TEAM-NET
 10
0.459384
 20
-161.130101
 30
774.769883
 70
    32
  0
VERTEX
  5
56B
  8
TEAM-NET
 10
2.259315
 20
-161.082771
 30
774.868406
 70
    32
  0
VERTEX
  5
56C
  8
TEAM-NET
 10
4.059303
 20
-161.127892
 30
774.966932
 70
    32
  0
VERTEX
  5
56D
  8
TEAM-NET
 10
5.85456
 20
-161.265344
 30
775.065199
 70
    32
  0
VERTEX
  5
56E
  8
TEAM-NET
 10
7.640311
 20
-161.49476
 30
775.162945
 70
    32
  0
VERTEX
  5
56F
  8
TEAM-NET
 10
9.411804
 20
-161.81553
 30
775.259912
 70
    32
  0
VERTEX
  5
570
  8
TEAM-NET
 10
11.164328
 20
-162.226802
 30
775.35584
 70
    32
  0
VERTEX
  5
571
  8
TEAM-NET
 10
12.89322
 20
-162.727481
 30
775.450474
 70
    32
  0
VERTEX
  5
572
  8
TEAM-NET
 10
14.593881
 20
-163.316235
 30
775.543563
 70
    32
  0
VERTEX
  5
573
  8
TEAM-NET
 10
16.261787
 20
-163.991498
 30
775.634859
 70
    32
  0
VERTEX
  5
574
  8
TEAM-NET
 10
17.892501
 20
-164.751474
 30
775.72412
 70
    32
  0
VERTEX
  5
575
  8
TEAM-NET
 10
19.481685
 20
-165.59414
 30
775.811107
 70
    32
  0
VERTEX
  5
576
  8
TEAM-NET
 10
21.025112
 20
-166.517257
 30
775.895589
 70
    32
  0
VERTEX
  5
577
  8
TEAM-NET
 10
22.518676
 20
-167.518366
 30
775.977343
 70
    32
  0
VERTEX
  5
578
  8
TEAM-NET
 10
23.958403
 20
-168.594807
 30
776.056149
 70
    32
  0
VERTEX
  5
579
  8
TEAM-NET
 10
25.340465
 20
-169.743714
 30
776.131799
 70
    32
  0
VERTEX
  5
57A
  8
TEAM-NET
 10
26.661183
 20
-170.962032
 30
776.204091
 70
    32
  0
VERTEX
  5
57B
  8
TEAM-NET
 10
27.917046
 20
-172.24652
 30
776.272833
 70
    32
  0
VERTEX
  5
57C
  8
TEAM-NET
 10
29.104711
 20
-173.593761
 30
776.337843
 70
    32
  0
VERTEX
  5
57D
  8
TEAM-NET
 10
30.22102
 20
-175.000171
 30
776.398946
 70
    32
  0
VERTEX
  5
57E
  8
TEAM-NET
 10
31.263003
 20
-176.462008
 30
776.455981
 70
    32
  0
VERTEX
  5
57F
  8
TEAM-NET
 10
32.227888
 20
-177.975385
 30
776.508796
 70
    32
  0
VERTEX
  5
580
  8
TEAM-NET
 10
33.113109
 20
-179.536274
 30
776.55725
 70
    32
  0
VERTEX
  5
581
  8
TEAM-NET
 10
33.916311
 20
-181.140524
 30
776.601215
 70
    32
  0
SEQEND
  5
582
  8
TEAM-NET
  0
POLYLINE
  5
583
  8
TEAM-NET
 66
     1
 10
0.0
 20
0.0
 30
0.0
 70
     8
1001
ACAD
1000
R13OBJECT
1002
{
1005
5D
1002
}
  0
VERTEX
  5
584
  8
TEAM-NET
 10
-38.1786
 20
-195.836221
 30
776.371621
 70
    32
  0
VERTEX
  5
585
  8
TEAM-NET
 10
-38.069431
 20
-193.115327
 30
776.365426
 70
    32
  0
VERTEX
  5
586
  8
TEAM-NET
 10
-37.214093
 20
-187.806728
 30
776.316884
 70
    32
  0
VERTEX
  5
587
  8
TEAM-NET
 10
-35.53071
 20
-182.699026
 30
776.221328
 70
    32
  0
VERTEX
  5
588
  8
TEAM-NET
 10
-33.060454
 20
-177.920742
 30
776.081056
 70
    32
  0
VERTEX
  5
589
  8
TEAM-NET
 10
-29.868746
 20
-173.5892
 30
775.899726
 70
    32
  0
VERTEX
  5
58A
  8
TEAM-NET
 10
-26.031997
 20
-169.814897
 30
775.681613
 70
    32
  0
VERTEX
  5
58B
  8
TEAM-NET
 10
-21.649103
 20
-166.690047
 30
775.432262
 70
    32
  0
VERTEX
  5
58C
  8
TEAM-NET
 10
-16.829369
 20
-164.292317
 30
775.157819
 70
    32
  0
VERTEX
  5
58D
  8
TEAM-NET
 10
-9.04745
 20
-162.182015
 30
774.714146
 70
    32
  0
VERTEX
  5
58E
  8
TEAM-NET
 10
-4.892257
 20
-161.824506
 30
774.476949
 70
    32
  0
SEQEND
  5
58F
  8
TEAM-NET
  0
LINE
  5
5E
  8
TEAM-NET
 10
-26.911868
 20
-195.836221
 30
767.76545
 11
-26.911868
 21
-195.836221
 31
707.010653
  0
ARC
  5
590
  8
TEAM-NET
 10
-0.911868
 20
-195.836221
 30
707.010653
 40
26.0
 50
0.0
 51
180.0
1001
ACAD
1000
R13OBJECT
1002
{
1005
5E
1002
}
  0
LINE
  5
591
  8
TEAM-NET
 10
25.088132
 20
-195.836221
 30
767.728176
 11
25.088132
 21
-195.836221
 31
707.010653
1001
ACAD
1000
R13OBJECT
1002
{
1005
5E
1002
}
  0
POLYLINE
  5
592
  8
TEAM-NET
 66
     1
 10
0.0
 20
0.0
 30
0.0
 70
     8
1001
ACAD
1000
R13OBJECT
1002
{
1005
5E
1002
}
  0
VERTEX
  5
593
  8
TEAM-NET
 10
-26.912078
 20
-195.836221
 30
767.76545
 70
    32
  0
VERTEX
  5
594
  8
TEAM-NET
 10
-26.658531
 20
-192.21536
 30
767.76527
 70
    32
  0
VERTEX
  5
595
  8
TEAM-NET
 10
-26.265125
 20
-190.073269
 30
767.764991
 70
    32
  0
VERTEX
  5
596
  8
TEAM-NET
 10
-26.09448
 20
-189.368195
 30
767.76487
 70
    32
  0
VERTEX
  5
597
  8
TEAM-NET
 10
-25.464289
 20
-187.281722
 30
767.764422
 70
    32
  0
VERTEX
  5
598
  8
TEAM-NET
 10
-24.947751
 20
-185.9228
 30
767.764055
 70
    32
  0
VERTEX
  5
599
  8
TEAM-NET
 10
-24.357258
 20
-184.59729
 30
767.763636
 70
    32
  0
VERTEX
  5
59A
  8
TEAM-NET
 10
-23.332137
 20
-182.670649
 30
767.762907
 70
    32
  0
VERTEX
  5
59B
  8
TEAM-NET
 10
-21.265121
 20
-179.657513
 30
767.761437
 70
    32
  0
VERTEX
  5
59C
  8
TEAM-NET
 10
-19.323598
 20
-177.478569
 30
767.760055
 70
    32
  0
VERTEX
  5
59D
  8
TEAM-NET
 10
-17.160486
 20
-175.538846
 30
767.758514
 70
    32
  0
VERTEX
  5
59E
  8
TEAM-NET
 10
-13.945924
 20
-173.339087
 30
767.756222
 70
    32
  0
VERTEX
  5
59F
  8
TEAM-NET
 10
-10.44501
 20
-171.647056
 30
767.753723
 70
    32
  0
VERTEX
  5
5A0
  8
TEAM-NET
 10
-8.618611
 20
-171.004745
 30
767.752418
 70
    32
  0
VERTEX
  5
5A1
  8
TEAM-NET
 10
-6.740205
 20
-170.497893
 30
767.751075
 70
    32
  0
VERTEX
  5
5A2
  8
TEAM-NET
 10
-2.886916
 20
-169.911332
 30
767.748317
 70
    32
  0
VERTEX
  5
5A3
  8
TEAM-NET
 10
-0.944051
 20
-169.836269
 30
767.746925
 70
    32
  0
VERTEX
  5
5A4
  8
TEAM-NET
 10
0.990627
 20
-169.905932
 30
767.745537
 70
    32
  0
VERTEX
  5
5A5
  8
TEAM-NET
 10
4.838181
 20
-170.479895
 30
767.742776
 70
    32
  0
VERTEX
  5
5A6
  8
TEAM-NET
 10
8.560672
 20
-171.623163
 30
767.7401
 70
    32
  0
VERTEX
  5
5A7
  8
TEAM-NET
 10
10.336756
 20
-172.395464
 30
767.738822
 70
    32
  0
VERTEX
  5
5A8
  8
TEAM-NET
 10
12.053994
 20
-173.299809
 30
767.737585
 70
    32
  0
VERTEX
  5
5A9
  8
TEAM-NET
 10
15.277165
 20
-175.491255
 30
767.735263
 70
    32
  0
VERTEX
  5
5AA
  8
TEAM-NET
 10
16.754171
 20
-176.759806
 30
767.734198
 70
    32
  0
VERTEX
  5
5AB
  8
TEAM-NET
 10
17.454128
 20
-177.432705
 30
767.733693
 70
    32
  0
VERTEX
  5
5AC
  8
TEAM-NET
 10
18.126177
 20
-178.128822
 30
767.733208
 70
    32
  0
VERTEX
  5
5AD
  8
TEAM-NET
 10
19.792072
 20
-180.108795
 30
767.732005
 70
    32
  0
VERTEX
  5
5AE
  8
TEAM-NET
 10
22.503988
 20
-184.5355
 30
767.730045
 70
    32
  0
VERTEX
  5
5AF
  8
TEAM-NET
 10
23.03748
 20
-185.715431
 30
767.72966
 70
    32
  0
VERTEX
  5
5B0
  8
TEAM-NET
 10
23.510172
 20
-186.916131
 30
767.729318
 70
    32
  0
VERTEX
  5
5B1
  8
TEAM-NET
 10
24.276156
 20
-189.38906
 30
767.728764
 70
    32
  0
VERTEX
  5
5B2
  8
TEAM-NET
 10
24.794214
 20
-191.937122
 30
767.728389
 70
    32
  0
VERTEX
  5
5B3
  8
TEAM-NET
 10
25.088098
 20
-195.814971
 30
767.728176
 70
    32
  0
VERTEX
  5
5B4
  8
TEAM-NET
 10
25.088109
 20
-195.836077
 30
767.728176
 70
    32
  0
SEQEND
  5
5B5
  8
TEAM-NET
  0
ARC
  5
5F
  8
TEAM-NET
 10
88.16124
 20
702.010653
 30
-195.836221
 40
50.0
210
0.0
220
1.0
230
0.0
 50
90.0
 51
174.26083
  0
ARC
  5
5B6
  8
TEAM-NET
 10
-0.911868
 20
-195.836221
 30
707.010653
 40
37.5
 50
180.0
 51
0.0
1001
ACAD
1000
R13OBJECT
1002
{
1005
5F
1002
}
  0
ARC
  5
5B7
  8
TEAM-NET
 10
86.337504
 20
702.010653
 30
195.836221
 40
50.0
210
0.0
220
-1.0
230
0.0
 50
90.0
 51
174.26083
1001
ACAD
1000
R13OBJECT
1002
{
1005
5F
1002
}
  0
ARC
  5
5B8
  8
TEAM-NET
 10
0.911868
 20
-195.836221
 30
-752.010653
 40
87.249372
210
0.0
220
0.0
230
-1.0
 50
180.0
 51
0.0
1001
ACAD
1000
R13OBJECT
1002
{
1005
5F
1002
}
  0
ARC
  5
60
  8
TEAM-NET
 10
88.16124
 20
702.010653
 30
-195.836221
 40
50.0
210
0.0
220
1.0
230
0.0
 50
90.0
 51
174.26083
  0
ARC
  5
5B9
  8
TEAM-NET
 10
0.911868
 20
-195.836221
 30
-752.010653
 40
87.249372
210
0.0
220
0.0
230
-1.0
 50
0.0
 51
180.0
1001
ACAD
1000
R13OBJECT
1002
{
1005
60
1002
}
  0
ARC
  5
5BA
  8
TEAM-NET
 10
86.337504
 20
702.010653
 30
195.836221
 40
50.0
210
0.0
220
-1.0
230
0.0
 50
90.0
 51
174.26083
1001
ACAD
1000
R13OBJECT
1002
{
1005
60
1002
}
  0
ARC
  5
5BB
  8
TEAM-NET
 10
-0.911868
 20
-195.836221
 30
707.010653
 40
37.5
 50
0.0
 51
180.0
1001
ACAD
1000
R13OBJECT
1002
{
1005
60
1002
}
  0
LINE
  5
61
  8
TEAM-NET
 10
-26.911868
 20
-195.836221
 30
767.76545
 11
-26.911868
 21
-195.836221
 31
707.010653
  0
POLYLINE
  5
5BC
  8
TEAM-NET
 66
     1
 10
0.0
 20
0.0
 30
0.0
 70
     8
1001
ACAD
1000
R13OBJECT
1002
{
1005
61
1002
}
  0
VERTEX
  5
5BD
  8
TEAM-NET
 10
25.088109
 20
-195.836221
 30
767.728176
 70
    32
  0
VERTEX
  5
5BE
  8
TEAM-NET
 10
25.017577
 20
-197.749595
 30
767.728227
 70
    32
  0
VERTEX
  5
5BF
  8
TEAM-NET
 10
24.802025
 20
-199.683012
 30
767.728383
 70
    32
  0
VERTEX
  5
5C0
  8
TEAM-NET
 10
23.938062
 20
-203.483553
 30
767.729008
 70
    32
  0
VERTEX
  5
5C1
  8
TEAM-NET
 10
23.296931
 20
-205.31945
 30
767.729472
 70
    32
  0
VERTEX
  5
5C2
  8
TEAM-NET
 10
22.524215
 20
-207.09448
 30
767.730031
 70
    32
  0
VERTEX
  5
5C3
  8
TEAM-NET
 10
21.617906
 20
-208.813344
 30
767.730686
 70
    32
  0
VERTEX
  5
5C4
  8
TEAM-NET
 10
20.582458
 20
-210.464983
 30
767.731434
 70
    32
  0
VERTEX
  5
5C5
  8
TEAM-NET
 10
18.156325
 20
-213.511227
 30
767.733186
 70
    32
  0
VERTEX
  5
5C6
  8
TEAM-NET
 10
16.787602
 20
-214.881643
 30
767.734173
 70
    32
  0
VERTEX
  5
5C7
  8
TEAM-NET
 10
15.317681
 20
-216.148845
 30
767.735234
 70
    32
  0
VERTEX
  5
5C8
  8
TEAM-NET
 10
12.098931
 20
-218.346657
 30
767.737553
 70
    32
  0
VERTEX
  5
5C9
  8
TEAM-NET
 10
11.246184
 20
-218.818421
 30
767.738167
 70
    32
  0
VERTEX
  5
5CA
  8
TEAM-NET
 10
10.377366
 20
-219.257394
 30
767.738793
 70
    32
  0
VERTEX
  5
5CB
  8
TEAM-NET
 10
8.601631
 20
-220.033223
 30
767.74007
 70
    32
  0
VERTEX
  5
5CC
  8
TEAM-NET
 10
4.89126
 20
-221.180299
 30
767.742737
 70
    32
  0
VERTEX
  5
5CD
  8
TEAM-NET
 10
3.455731
 20
-221.466736
 30
767.743768
 70
    32
  0
VERTEX
  5
5CE
  8
TEAM-NET
 10
2.007523
 20
-221.671762
 30
767.744808
 70
    32
  0
VERTEX
  5
5CF
  8
TEAM-NET
 10
0.552636
 20
-221.794914
 30
767.745851
 70
    32
  0
VERTEX
  5
5D0
  8
TEAM-NET
 10
-0.901364
 20
-221.836167
 30
767.746894
 70
    32
  0
VERTEX
  5
5D1
  8
TEAM-NET
 10
-2.352905
 20
-221.796224
 30
767.747934
 70
    32
  0
VERTEX
  5
5D2
  8
TEAM-NET
 10
-3.805651
 20
-221.674627
 30
767.748975
 70
    32
  0
VERTEX
  5
5D3
  8
TEAM-NET
 10
-6.688112
 20
-221.18662
 30
767.751038
 70
    32
  0
VERTEX
  5
5D4
  8
TEAM-NET
 10
-9.495909
 20
-220.378258
 30
767.753045
 70
    32
  0
VERTEX
  5
5D5
  8
TEAM-NET
 10
-12.18047
 20
-219.267245
 30
767.754962
 70
    32
  0
VERTEX
  5
5D6
  8
TEAM-NET
 10
-14.735346
 20
-217.856972
 30
767.756785
 70
    32
  0
VERTEX
  5
5D7
  8
TEAM-NET
 10
-15.952514
 20
-217.044214
 30
767.757653
 70
    32
  0
VERTEX
  5
5D8
  8
TEAM-NET
 10
-16.543292
 20
-216.612623
 30
767.758074
 70
    32
  0
VERTEX
  5
5D9
  8
TEAM-NET
 10
-16.833933
 20
-216.390735
 30
767.758282
 70
    32
  0
VERTEX
  5
5DA
  8
TEAM-NET
 10
-16.978027
 20
-216.278303
 30
767.758384
 70
    32
  0
VERTEX
  5
5DB
  8
TEAM-NET
 10
-17.121297
 20
-216.164886
 30
767.758486
 70
    32
  0
VERTEX
  5
5DC
  8
TEAM-NET
 10
-19.29299
 20
-214.224657
 30
767.760033
 70
    32
  0
VERTEX
  5
5DD
  8
TEAM-NET
 10
-19.798887
 20
-213.704641
 30
767.760393
 70
    32
  0
VERTEX
  5
5DE
  8
TEAM-NET
 10
-21.232522
 20
-212.055719
 30
767.761414
 70
    32
  0
VERTEX
  5
5DF
  8
TEAM-NET
 10
-21.45838
 20
-211.768634
 30
767.761574
 70
    32
  0
VERTEX
  5
5E0
  8
TEAM-NET
 10
-21.680315
 20
-211.478239
 30
767.761732
 70
    32
  0
VERTEX
  5
5E1
  8
TEAM-NET
 10
-22.112088
 20
-210.887841
 30
767.762039
 70
    32
  0
VERTEX
  5
5E2
  8
TEAM-NET
 10
-22.925373
 20
-209.671373
 30
767.762618
 70
    32
  0
VERTEX
  5
5E3
  8
TEAM-NET
 10
-24.338071
 20
-207.114983
 30
767.763622
 70
    32
  0
VERTEX
  5
5E4
  8
TEAM-NET
 10
-25.450097
 20
-204.431123
 30
767.764412
 70
    32
  0
VERTEX
  5
5E5
  8
TEAM-NET
 10
-26.259284
 20
-201.62587
 30
767.764987
 70
    32
  0
VERTEX
  5
5E6
  8
TEAM-NET
 10
-26.912078
 20
-195.836315
 30
767.76545
 70
    32
  0
VERTEX
  5
5E7
  8
TEAM-NET
 10
-26.912078
 20
-195.836221
 30
767.76545
 70
    32
  0
SEQEND
  5
5E8
  8
TEAM-NET
  0
LINE
  5
5E9
  8
TEAM-NET
 10
25.088132
 20
-195.836221
 30
767.728176
 11
25.088132
 21
-195.836221
 31
707.010653
1001
ACAD
1000
R13OBJECT
1002
{
1005
61
1002
}
  0
ARC
  5
5EA
  8
TEAM-NET
 10
-0.911868
 20
-195.836221
 30
707.010653
 40
26.0
 50
180.0
 51
0.0
1001
ACAD
1000
R13OBJECT
1002
{
1005
61
1002
}
  0
ARC
  5
62
  8
TEAM-NET
 10
-0.911868
 20
-195.836221
 30
707.010653
 40
26.0
 50
180.0
 51
0.0
  0
ARC
  5
5EB
  8
TEAM-NET
 10
-0.911868
 20
-195.836221
 30
707.010653
 40
26.0
 50
0.0
 51
180.0
1001
ACAD
1000
R13OBJECT
1002
{
1005
62
1002
}
  0
ARC
  5
5EC
  8
TEAM-NET
 10
-0.911868
 20
-195.836221
 30
707.010653
 40
37.5
 50
180.0
 51
0.0
1001
ACAD
1000
R13OBJECT
1002
{
1005
62
1002
}
  0
ARC
  5
5ED
  8
TEAM-NET
 10
-0.911868
 20
-195.836221
 30
707.010653
 40
37.5
 50
0.0
 51
180.0
1001
ACAD
1000
R13OBJECT
1002
{
1005
62
1002
}
  0
LINE
  5
63
  8
TEAM-NET
 10
-21.990854
 20
-195.836221
 30
768.047382
 11
-22.060165
 21
-195.836221
 31
738.205081
  0
ARC
  5
5EE
  8
TEAM-NET
 10
-2.774635
 20
-195.836221
 30
738.151854
 40
21.0
210
0.002323
220
0.0
230
0.999997
 50
0.0
 51
180.0
1001
ACAD
1000
R13OBJECT
1002
{
1005
63
1002
}
  0
LINE
  5
5EF
  8
TEAM-NET
 10
20.009033
 20
-195.836221
 30
767.949834
 11
19.939722
 21
-195.836221
 31
738.107533
1001
ACAD
1000
R13OBJECT
1002
{
1005
63
1002
}
  0
ARC
  5
5F0
  8
TEAM-NET
 10
-2.774635
 20
-195.836221
 30
767.994235
 40
21.0
210
0.002323
220
-0.0
230
0.999997
 50
360.0
 51
180.0
1001
ACAD
1000
R13OBJECT
1002
{
1005
63
1002
}
  0
LINE
  5
64
  8
TEAM-NET
 10
-22.990485
 20
-195.836221
 30
768.207323
 11
-23.060162
 21
-195.836221
 31
738.207404
  0
ARC
  5
5F1
  8
TEAM-NET
 10
-2.774635
 20
-195.836221
 30
738.151854
 40
22.0
210
0.002323
220
0.0
230
0.999997
 50
180.0
 51
360.0
1001
ACAD
1000
R13OBJECT
1002
{
1005
64
1002
}
  0
LINE
  5
5F2
  8
TEAM-NET
 10
21.009396
 20
-195.836221
 30
768.10513
 11
20.939719
 21
-195.836221
 31
738.105211
1001
ACAD
1000
R13OBJECT
1002
{
1005
64
1002
}
  0
ARC
  5
5F3
  8
TEAM-NET
 10
-2.774635
 20
-195.836221
 30
768.151854
 40
22.0
210
0.002323
220
0.0
230
0.999997
 50
180.0
 51
360.0
1001
ACAD
1000
R13OBJECT
1002
{
1005
64
1002
}
  0
LINE
  5
5F4
  8
TEAM-NET
 10
-1.060222
 20
-217.836221
 30
738.156307
 11
-0.990545
 21
-217.836221
 31
768.156226
1001
ACAD
1000
R13OBJECT
1002
{
1005
64
1002
}
  0
LINE
  5
65
  8
TEAM-NET
 10
-22.990485
 20
-195.836221
 30
768.207323
 11
-23.060162
 21
-195.836221
 31
738.207404
  0
ARC
  5
5F5
  8
TEAM-NET
 10
-2.774635
 20
-195.836221
 30
768.151854
 40
22.0
210
0.002323
220
-0.0
230
0.999997
 50
0.0
 51
180.0
1001
ACAD
1000
R13OBJECT
1002
{
1005
65
1002
}
  0
LINE
  5
5F6
  8
TEAM-NET
 10
21.009396
 20
-195.836221
 30
768.10513
 11
20.939719
 21
-195.836221
 31
738.105211
1001
ACAD
1000
R13OBJECT
1002
{
1005
65
1002
}
  0
ARC
  5
5F7
  8
TEAM-NET
 10
-2.774635
 20
-195.836221
 30
738.151854
 40
22.0
210
0.002323
220
0.0
230
0.999997
 50
0.0
 51
180.0
1001
ACAD
1000
R13OBJECT
1002
{
1005
65
1002
}
  0
LINE
  5
5F8
  8
TEAM-NET
 10
-1.060222
 20
-173.836221
 30
738.156307
 11
-0.990545
 21
-173.836221
 31
768.156226
1001
ACAD
1000
R13OBJECT
1002
{
1005
65
1002
}
  0
LINE
  5
66
  8
TEAM-NET
 10
-21.990854
 20
-195.836221
 30
768.047382
 11
-22.060165
 21
-195.836221
 31
738.205081
  0
ARC
  5
5F9
  8
TEAM-NET
 10
-2.774635
 20
-195.836221
 30
767.994235
 40
21.0
210
0.002323
220
0.0
230
0.999997
 50
180.0
 51
0.0
1001
ACAD
1000
R13OBJECT
1002
{
1005
66
1002
}
  0
LINE
  5
5FA
  8
TEAM-NET
 10
20.009033
 20
-195.836221
 30
767.949834
 11
19.939722
 21
-195.836221
 31
738.107533
1001
ACAD
1000
R13OBJECT
1002
{
1005
66
1002
}
  0
ARC
  5
5FB
  8
TEAM-NET
 10
-2.774635
 20
-195.836221
 30
738.151854
 40
21.0
210
0.002323
220
-0.0
230
0.999997
 50
180.0
 51
360.0
1001
ACAD
1000
R13OBJECT
1002
{
1005
66
1002
}
  0
ARC
  5
67
  8
TEAM-NET
 10
98.836221
 20
343.890728
 30
-731.910884
 40
3.0
210
-0.669724
220
-0.0
230
-0.74261
 50
180.0
 51
270.0
  0
ARC
  5
5FC
  8
TEAM-NET
 10
-192.472383
 20
812.010653
 30
-98.836221
 40
60.0
210
0.0
220
1.0
230
0.0
 50
222.045738
 51
270.0
1001
ACAD
1000
R13OBJECT
1002
{
1005
67
1002
}
  0
ARC
  5
5FD
  8
TEAM-NET
 10
98.836221
 20
755.010653
 30
-192.472383
 40
3.0
210
-1.0
220
0.0
230
0.0
 50
180.0
 51
270.0
1001
ACAD
1000
R13OBJECT
1002
{
1005
67
1002
}
  0
ARC
  5
5FE
  8
TEAM-NET
 10
192.472383
 20
812.010653
 30
95.836221
 40
57.0
210
0.0
220
-1.0
230
0.0
 50
270.0
 51
317.954262
1001
ACAD
1000
R13OBJECT
1002
{
1005
67
1002
}
  0
ARC
  5
5FF
  8
TEAM-NET
 10
98.836221
 20
695.035577
 30
-361.731129
 40
3.0
210
-0.976849
220
-0.0
230
-0.213932
 50
180.0
 51
270.0
1001
ACAD
1000
R13OBJECT
1002
{
1005
67
1002
}
  0
ARC
  5
600
  8
TEAM-NET
 10
98.836221
 20
600.23921
 30
-514.24074
 40
3.0
210
-0.908467
220
0.0
230
-0.417958
 50
180.0
 51
270.0
1001
ACAD
1000
R13OBJECT
1002
{
1005
67
1002
}
  0
ARC
  5
601
  8
TEAM-NET
 10
98.836221
 20
475.010882
 30
-642.939608
 40
3.0
210
-0.79802
220
0.0
230
-0.602631
 50
180.0
 51
270.0
1001
ACAD
1000
R13OBJECT
1002
{
1005
67
1002
}
  0
ARC
  5
602
  8
TEAM-NET
 10
192.472383
 20
812.010653
 30
96.714901
 40
59.12132
210
0.0
220
-1.0
230
0.0
 50
270.0
 51
317.954262
1001
ACAD
1000
R13OBJECT
1002
{
1005
67
1002
}
  0
ARC
  5
68
  8
TEAM-NET
 10
98.836221
 20
755.010653
 30
-192.472383
 40
3.0
210
-1.0
220
0.0
230
0.0
 50
180.0
 51
270.0
  0
LINE
  5
603
  8
TEAM-NET
 10
192.472383
 20
-98.836221
 30
752.010653
 11
-199.093058
 21
-98.836221
 31
752.010653
1001
ACAD
1000
R13OBJECT
1002
{
1005
68
1002
}
  0
ARC
  5
604
  8
TEAM-NET
 10
98.836221
 20
755.010653
 30
199.093058
 40
3.0
210
-1.0
220
0.0
230
0.0
 50
180.0
 51
270.0
1001
ACAD
1000
R13OBJECT
1002
{
1005
68
1002
}
  0
LINE
  5
605
  8
TEAM-NET
 10
-199.093058
 20
-95.836221
 30
755.010653
 11
192.472383
 21
-95.836221
 31
755.010653
1001
ACAD
1000
R13OBJECT
1002
{
1005
68
1002
}
  0
LINE
  5
606
  8
TEAM-NET
 10
-199.093058
 20
-96.714901
 30
752.889332
 11
192.472383
 21
-96.714901
 31
752.889332
1001
ACAD
1000
R13OBJECT
1002
{
1005
68
1002
}
  0
ARC
  5
69
  8
TEAM-NET
 10
98.836221
 20
755.010653
 30
199.093058
 40
3.0
210
-1.0
220
0.0
230
0.0
 50
180.0
 51
270.0
  0
ARC
  5
607
  8
TEAM-NET
 10
199.093058
 20
812.010653
 30
-98.836221
 40
60.0
210
0.0
220
1.0
230
0.0
 50
270.0
 51
311.566425
1001
ACAD
1000
R13OBJECT
1002
{
1005
69
1002
}
  0
ARC
  5
608
  8
TEAM-NET
 10
-98.836221
 20
418.439997
 30
-687.718079
 40
3.0
210
0.748187
220
0.0
230
-0.663488
 50
270.0
 51
0.0
1001
ACAD
1000
R13OBJECT
1002
{
1005
69
1002
}
  0
ARC
  5
609
  8
TEAM-NET
 10
-199.093058
 20
812.010653
 30
95.836221
 40
57.0
210
0.0
220
-1.0
230
0.0
 50
228.433575
 51
270.0
1001
ACAD
1000
R13OBJECT
1002
{
1005
69
1002
}
  0
ARC
  5
60A
  8
TEAM-NET
 10
98.836221
 20
523.271225
 30
601.900865
 40
3.0
210
-0.845524
220
0.0
230
0.533937
 50
180.0
 51
270.0
1001
ACAD
1000
R13OBJECT
1002
{
1005
69
1002
}
  0
ARC
  5
60B
  8
TEAM-NET
 10
98.836221
 20
625.41817
 30
483.016343
 40
3.0
210
-0.930324
220
-0.0
230
0.366738
 50
180.0
 51
270.0
1001
ACAD
1000
R13OBJECT
1002
{
1005
69
1002
}
  0
ARC
  5
60C
  8
TEAM-NET
 10
98.836221
 20
703.58036
 30
347.155386
 40
3.0
210
-0.982427
220
0.0
230
0.186649
 50
180.0
 51
270.0
1001
ACAD
1000
R13OBJECT
1002
{
1005
69
1002
}
  0
ARC
  5
60D
  8
TEAM-NET
 10
-199.093058
 20
812.010653
 30
96.714901
 40
59.12132
210
0.0
220
-1.0
230
0.0
 50
228.433575
 51
270.0
1001
ACAD
1000
R13OBJECT
1002
{
1005
69
1002
}
  0
ARC
  5
6A
  8
TEAM-NET
 10
-2.774635
 20
-195.836221
 30
736.677893
 40
16.0
210
0.002323
220
-0.0
230
0.999997
 50
212.69482
 51
219.861463
  0
LINE
  5
60E
  8
TEAM-NET
 10
-6.424608
 20
-198.530645
 30
736.694802
 11
-14.528563
 21
-204.478849
 31
736.713624
1001
ACAD
1000
R13OBJECT
1002
{
1005
6A
1002
}
  0
ARC
  5
60F
  8
TEAM-NET
 10
-2.774635
 20
-195.836221
 30
736.677893
 40
6.0
210
0.002323
220
0.0
230
0.999997
 50
135.872209
 51
206.684073
1001
ACAD
1000
R13OBJECT
1002
{
1005
6A
1002
}
  0
LINE
  5
610
  8
TEAM-NET
 10
-11.318553
 20
-183.554678
 30
736.706168
 11
-5.370365
 21
-191.658655
 31
736.692353
1001
ACAD
1000
R13OBJECT
1002
{
1005
6A
1002
}
  0
ARC
  5
611
  8
TEAM-NET
 10
-2.774635
 20
-195.836221
 30
736.677893
 40
16.0
210
0.002323
220
-0.0
230
0.999997
 50
122.69482
 51
129.861463
1001
ACAD
1000
R13OBJECT
1002
{
1005
6A
1002
}
  0
LINE
  5
612
  8
TEAM-NET
 10
-3.758061
 20
-190.475243
 30
736.688609
 11
-9.706249
 21
-182.371267
 31
736.702424
1001
ACAD
1000
R13OBJECT
1002
{
1005
6A
1002
}
  0
ARC
  5
613
  8
TEAM-NET
 10
-2.774635
 20
-195.836221
 30
736.677893
 40
6.0
210
0.002323
220
-0.0
230
0.999997
 50
45.872209
 51
116.684073
1001
ACAD
1000
R13OBJECT
1002
{
1005
6A
1002
}
  0
LINE
  5
614
  8
TEAM-NET
 10
11.217865
 20
-185.581285
 30
736.653826
 11
3.11391
 21
-191.529489
 31
736.672648
1001
ACAD
1000
R13OBJECT
1002
{
1005
6A
1002
}
  0
ARC
  5
615
  8
TEAM-NET
 10
-2.774635
 20
-195.836221
 30
736.677893
 40
16.0
210
0.002323
220
-0.0
230
0.999997
 50
32.69482
 51
39.861463
1001
ACAD
1000
R13OBJECT
1002
{
1005
6A
1002
}
  0
LINE
  5
616
  8
TEAM-NET
 10
4.297318
 20
-193.141797
 30
736.669899
 11
12.401273
 21
-187.193593
 31
736.651077
1001
ACAD
1000
R13OBJECT
1002
{
1005
6A
1002
}
  0
ARC
  5
617
  8
TEAM-NET
 10
-2.774635
 20
-195.836221
 30
736.677893
 40
6.0
210
0.002323
220
0.0
230
0.999997
 50
315.872209
 51
26.684073
1001
ACAD
1000
R13OBJECT
1002
{
1005
6A
1002
}
  0
LINE
  5
618
  8
TEAM-NET
 10
9.191263
 20
-208.117764
 30
736.658533
 11
3.243076
 21
-200.013787
 31
736.672348
1001
ACAD
1000
R13OBJECT
1002
{
1005
6A
1002
}
  0
ARC
  5
619
  8
TEAM-NET
 10
-2.774635
 20
-195.836221
 30
736.677893
 40
16.0
210
0.002323
220
-0.0
230
0.999997
 50
302.69482
 51
309.861463
1001
ACAD
1000
R13OBJECT
1002
{
1005
6A
1002
}
  0
LINE
  5
61A
  8
TEAM-NET
 10
1.630772
 20
-201.197198
 30
736.676093
 11
7.57896
 21
-209.301175
 31
736.662278
1001
ACAD
1000
R13OBJECT
1002
{
1005
6A
1002
}
  0
ARC
  5
61B
  8
TEAM-NET
 10
-2.774635
 20
-195.836221
 30
736.677893
 40
6.0
210
0.002323
220
-0.0
230
0.999997
 50
225.872209
 51
296.684073
1001
ACAD
1000
R13OBJECT
1002
{
1005
6A
1002
}
  0
LINE
  5
61C
  8
TEAM-NET
 10
-13.345154
 20
-206.091157
 30
736.710875
 11
-5.2412
 21
-200.142953
 31
736.692053
1001
ACAD
1000
R13OBJECT
1002
{
1005
6A
1002
}
  0
POLYLINE
  5
6B
  8
TEAM-NET
 66
     1
 10
0.0
 20
0.0
 30
0.0
 70
     8
  0
VERTEX
  5
61D
  8
TEAM-NET
 10
9.191263
 20
-208.117764
 30
736.658533
 70
    32
  0
VERTEX
  5
61E
  8
TEAM-NET
 10
9.903075
 20
-209.087092
 30
736.803071
 70
    32
  0
VERTEX
  5
61F
  8
TEAM-NET
 10
10.22696
 20
-209.52783
 30
736.970904
 70
    32
  0
VERTEX
  5
620
  8
TEAM-NET
 10
10.486058
 20
-209.880241
 30
737.157015
 70
    32
  0
VERTEX
  5
621
  8
TEAM-NET
 10
11.094213
 20
-210.706714
 30
737.817459
 70
    32
  0
VERTEX
  5
622
  8
TEAM-NET
 10
11.287216
 20
-210.968729
 30
738.113446
 70
    32
  0
VERTEX
  5
623
  8
TEAM-NET
 10
11.449685
 20
-211.189147
 30
738.408247
 70
    32
  0
VERTEX
  5
624
  8
TEAM-NET
 10
11.759291
 20
-211.608641
 30
739.141342
 70
    32
  0
VERTEX
  5
625
  8
TEAM-NET
 10
11.910979
 20
-211.813722
 30
739.641116
 70
    32
  0
VERTEX
  5
626
  8
TEAM-NET
 10
11.99847
 20
-211.931743
 30
740.01361
 70
    32
  0
VERTEX
  5
627
  8
TEAM-NET
 10
12.153037
 20
-212.138552
 30
741.206948
 70
    32
  0
VERTEX
  5
628
  8
TEAM-NET
 10
12.165809
 20
-212.154546
 30
741.651638
 70
    32
  0
SEQEND
  5
629
  8
TEAM-NET
  0
ARC
  5
62A
  8
TEAM-NET
 10
2.774635
 20
-195.836221
 30
-741.677893
 40
21.0
210
-0.002323
220
-0.0
230
-0.999997
 50
230.992456
 51
236.451261
1001
ACAD
1000
R13OBJECT
1002
{
1005
6B
1002
}
  0
POLYLINE
  5
62B
  8
TEAM-NET
 66
     1
 10
0.0
 20
0.0
 30
0.0
 70
     8
1001
ACAD
1000
R13OBJECT
1002
{
1005
6B
1002
}
  0
VERTEX
  5
62C
  8
TEAM-NET
 10
10.553505
 20
-213.337957
 30
741.655383
 70
    32
  0
VERTEX
  5
62D
  8
TEAM-NET
 10
10.494237
 20
-213.260297
 30
740.679308
 70
    32
  0
VERTEX
  5
62E
  8
TEAM-NET
 10
10.348013
 20
-213.063722
 30
739.844116
 70
    32
  0
VERTEX
  5
62F
  8
TEAM-NET
 10
10.251742
 20
-212.933728
 30
739.474882
 70
    32
  0
VERTEX
  5
630
  8
TEAM-NET
 10
9.857492
 20
-212.399831
 30
738.451975
 70
    32
  0
VERTEX
  5
631
  8
TEAM-NET
 10
9.679574
 20
-212.158467
 30
738.125014
 70
    32
  0
VERTEX
  5
632
  8
TEAM-NET
 10
9.505829
 20
-211.922607
 30
737.855136
 70
    32
  0
VERTEX
  5
633
  8
TEAM-NET
 10
9.06929
 20
-211.329501
 30
737.335526
 70
    32
  0
VERTEX
  5
634
  8
TEAM-NET
 10
8.763045
 20
-210.91309
 30
737.075225
 70
    32
  0
VERTEX
  5
635
  8
TEAM-NET
 10
8.540217
 20
-210.609965
 30
736.929972
 70
    32
  0
VERTEX
  5
636
  8
TEAM-NET
 10
7.830633
 20
-209.644004
 30
736.679742
 70
    32
  0
VERTEX
  5
637
  8
TEAM-NET
 10
7.57896
 20
-209.301175
 30
736.662278
 70
    32
  0
SEQEND
  5
638
  8
TEAM-NET
  0
ARC
  5
639
  8
TEAM-NET
 10
-2.774635
 20
-195.836221
 30
736.677893
 40
16.0
210
0.002323
220
-0.0
230
0.999997
 50
302.69482
 51
309.861463
1001
ACAD
1000
R13OBJECT
1002
{
1005
6B
1002
}
  0
ARC
  5
63A
  8
TEAM-NET
 10
172.410097
 20
741.439358
 30
119.231925
 40
5.0
210
-0.801886
220
-0.597474
230
0.001862
 50
269.920492
 51
359.920492
1001
ACAD
1000
R13OBJECT
1002
{
1005
6B
1002
}
  0
ARC
  5
63B
  8
TEAM-NET
 10
-2.774635
 20
-195.836221
 30
738.143684
 40
19.536858
210
0.002323
220
0.0
230
0.999997
 50
303.344157
 51
309.212125
1001
ACAD
1000
R13OBJECT
1002
{
1005
6B
1002
}
  0
POLYLINE
  5
6C
  8
TEAM-NET
 66
     1
 10
0.0
 20
0.0
 30
0.0
 70
     8
  0
VERTEX
  5
63C
  8
TEAM-NET
 10
11.217865
 20
-185.581285
 30
736.653826
 70
    32
  0
VERTEX
  5
63D
  8
TEAM-NET
 10
12.18753
 20
-184.869812
 30
736.797765
 70
    32
  0
VERTEX
  5
63E
  8
TEAM-NET
 10
12.628658
 20
-184.546317
 30
736.965326
 70
    32
  0
VERTEX
  5
63F
  8
TEAM-NET
 10
12.981502
 20
-184.287651
 30
737.151219
 70
    32
  0
VERTEX
  5
640
  8
TEAM-NET
 10
13.80951
 20
-183.681032
 30
737.811153
 70
    32
  0
VERTEX
  5
641
  8
TEAM-NET
 10
14.072213
 20
-183.488717
 30
738.106977
 70
    32
  0
VERTEX
  5
642
  8
TEAM-NET
 10
14.293315
 20
-183.326933
 30
738.401643
 70
    32
  0
VERTEX
  5
643
  8
TEAM-NET
 10
14.714513
 20
-183.01903
 30
739.134478
 70
    32
  0
VERTEX
  5
644
  8
TEAM-NET
 10
14.920755
 20
-182.868504
 30
739.634126
 70
    32
  0
VERTEX
  5
645
  8
TEAM-NET
 10
15.039641
 20
-182.781879
 30
740.006547
 70
    32
  0
VERTEX
  5
646
  8
TEAM-NET
 10
15.249223
 20
-182.630083
 30
741.199757
 70
    32
  0
VERTEX
  5
647
  8
TEAM-NET
 10
15.266249
 20
-182.618344
 30
741.644437
 70
    32
  0
SEQEND
  5
648
  8
TEAM-NET
  0
ARC
  5
649
  8
TEAM-NET
 10
2.774635
 20
-195.836221
 30
-741.677893
 40
21.0
210
-0.002323
220
-0.0
230
-0.999997
 50
140.992456
 51
146.451261
1001
ACAD
1000
R13OBJECT
1002
{
1005
6C
1002
}
  0
POLYLINE
  5
64A
  8
TEAM-NET
 66
     1
 10
0.0
 20
0.0
 30
0.0
 70
     8
1001
ACAD
1000
R13OBJECT
1002
{
1005
6C
1002
}
  0
VERTEX
  5
64B
  8
TEAM-NET
 10
16.449657
 20
-184.230652
 30
741.641688
 70
    32
  0
VERTEX
  5
64C
  8
TEAM-NET
 10
16.36973
 20
-184.287654
 30
740.665662
 70
    32
  0
VERTEX
  5
64D
  8
TEAM-NET
 10
16.171215
 20
-184.431937
 30
739.830591
 70
    32
  0
VERTEX
  5
64E
  8
TEAM-NET
 10
16.040363
 20
-184.52735
 30
739.461438
 70
    32
  0
VERTEX
  5
64F
  8
TEAM-NET
 10
15.504089
 20
-184.919224
 30
738.438861
 70
    32
  0
VERTEX
  5
650
  8
TEAM-NET
 10
15.261966
 20
-185.096381
 30
738.112048
 70
    32
  0
VERTEX
  5
651
  8
TEAM-NET
 10
15.025478
 20
-185.269499
 30
737.842316
 70
    32
  0
VERTEX
  5
652
  8
TEAM-NET
 10
14.431165
 20
-185.704831
 30
737.323073
 70
    32
  0
VERTEX
  5
653
  8
TEAM-NET
 10
14.014149
 20
-186.010471
 30
737.063029
 70
    32
  0
VERTEX
  5
654
  8
TEAM-NET
 10
13.710687
 20
-186.23296
 30
736.917963
 70
    32
  0
VERTEX
  5
655
  8
TEAM-NET
 10
12.744143
 20
-186.941961
 30
736.66833
 70
    32
  0
VERTEX
  5
656
  8
TEAM-NET
 10
12.401273
 20
-187.193593
 30
736.651077
 70
    32
  0
SEQEND
  5
657
  8
TEAM-NET
  0
ARC
  5
658
  8
TEAM-NET
 10
-2.774635
 20
-195.836221
 30
736.677893
 40
16.0
210
0.002323
220
-0.0
230
0.999997
 50
32.69482
 51
39.861463
1001
ACAD
1000
R13OBJECT
1002
{
1005
6C
1002
}
  0
ARC
  5
659
  8
TEAM-NET
 10
-101.874151
 20
741.868893
 30
155.362958
 40
5.0
210
0.597594
220
-0.801798
230
-0.001388
 50
269.893302
 51
359.893302
1001
ACAD
1000
R13OBJECT
1002
{
1005
6C
1002
}
  0
ARC
  5
65A
  8
TEAM-NET
 10
-2.774635
 20
-195.836221
 30
738.143331
 40
19.536506
210
0.002323
220
0.0
230
0.999997
 50
33.344104
 51
39.212178
1001
ACAD
1000
R13OBJECT
1002
{
1005
6C
1002
}
  0
POLYLINE
  5
6D
  8
TEAM-NET
 66
     1
 10
0.0
 20
0.0
 30
0.0
 70
     8
  0
VERTEX
  5
65B
  8
TEAM-NET
 10
-11.318553
 20
-183.554678
 30
736.706168
 70
    32
  0
VERTEX
  5
65C
  8
TEAM-NET
 10
-12.029685
 20
-182.58535
 30
736.854012
 70
    32
  0
VERTEX
  5
65D
  8
TEAM-NET
 10
-12.352788
 20
-182.144612
 30
737.023347
 70
    32
  0
VERTEX
  5
65E
  8
TEAM-NET
 10
-12.611019
 20
-181.7922
 30
737.210659
 70
    32
  0
VERTEX
  5
65F
  8
TEAM-NET
 10
-13.216099
 20
-180.965728
 30
737.873922
 70
    32
  0
VERTEX
  5
660
  8
TEAM-NET
 10
-13.407725
 20
-180.703713
 30
738.170802
 70
    32
  0
VERTEX
  5
661
  8
TEAM-NET
 10
-13.568823
 20
-180.483295
 30
738.466355
 70
    32
  0
VERTEX
  5
662
  8
TEAM-NET
 10
-13.87502
 20
-180.063801
 30
739.200879
 70
    32
  0
VERTEX
  5
663
  8
TEAM-NET
 10
-14.024385
 20
-179.85872
 30
739.701353
 70
    32
  0
VERTEX
  5
664
  8
TEAM-NET
 10
-14.110145
 20
-179.740699
 30
740.074249
 70
    32
  0
VERTEX
  5
665
  8
TEAM-NET
 10
-14.259167
 20
-179.533889
 30
741.268292
 70
    32
  0
VERTEX
  5
666
  8
TEAM-NET
 10
-14.269873
 20
-179.517896
 30
741.713037
 70
    32
  0
SEQEND
  5
667
  8
TEAM-NET
  0
ARC
  5
668
  8
TEAM-NET
 10
2.774635
 20
-195.836221
 30
-741.677893
 40
21.0
210
-0.002323
220
0.0
230
-0.999997
 50
50.992456
 51
56.451261
1001
ACAD
1000
R13OBJECT
1002
{
1005
6D
1002
}
  0
POLYLINE
  5
669
  8
TEAM-NET
 66
     1
 10
0.0
 20
0.0
 30
0.0
 70
     8
1001
ACAD
1000
R13OBJECT
1002
{
1005
6D
1002
}
  0
VERTEX
  5
66A
  8
TEAM-NET
 10
-12.657569
 20
-178.334485
 30
741.709292
 70
    32
  0
VERTEX
  5
66B
  8
TEAM-NET
 10
-12.602835
 20
-178.412145
 30
740.732952
 70
    32
  0
VERTEX
  5
66C
  8
TEAM-NET
 10
-12.460493
 20
-178.60872
 30
739.897091
 70
    32
  0
VERTEX
  5
66D
  8
TEAM-NET
 10
-12.365938
 20
-178.738713
 30
739.527413
 70
    32
  0
VERTEX
  5
66E
  8
TEAM-NET
 10
-11.976444
 20
-179.272611
 30
738.502686
 70
    32
  0
VERTEX
  5
66F
  8
TEAM-NET
 10
-11.800047
 20
-179.513975
 30
738.174902
 70
    32
  0
VERTEX
  5
670
  8
TEAM-NET
 10
-11.627557
 20
-179.749835
 30
737.90422
 70
    32
  0
VERTEX
  5
671
  8
TEAM-NET
 10
-11.193436
 20
-180.342941
 30
737.382588
 70
    32
  0
VERTEX
  5
672
  8
TEAM-NET
 10
-10.888403
 20
-180.759352
 30
737.120867
 70
    32
  0
VERTEX
  5
673
  8
TEAM-NET
 10
-10.666253
 20
-181.062477
 30
736.97458
 70
    32
  0
VERTEX
  5
674
  8
TEAM-NET
 10
-9.957839
 20
-182.028437
 30
736.721057
 70
    32
  0
VERTEX
  5
675
  8
TEAM-NET
 10
-9.706249
 20
-182.371267
 30
736.702424
 70
    32
  0
SEQEND
  5
676
  8
TEAM-NET
  0
ARC
  5
677
  8
TEAM-NET
 10
-2.774635
 20
-195.836221
 30
736.677893
 40
16.0
210
0.002323
220
-0.0
230
0.999997
 50
122.69482
 51
129.861463
1001
ACAD
1000
R13OBJECT
1002
{
1005
6D
1002
}
  0
ARC
  5
678
  8
TEAM-NET
 10
-140.40376
 20
741.483759
 30
-119.24032
 40
5.0
210
0.801854
220
0.597517
230
-0.001862
 50
270.079514
 51
0.079514
1001
ACAD
1000
R13OBJECT
1002
{
1005
6D
1002
}
  0
ARC
  5
679
  8
TEAM-NET
 10
-2.774635
 20
-195.836221
 30
738.146109
 40
19.539279
210
0.002323
220
-0.0
230
0.999997
 50
123.344521
 51
129.211761
1001
ACAD
1000
R13OBJECT
1002
{
1005
6D
1002
}
  0
POLYLINE
  5
6E
  8
TEAM-NET
 66
     1
 10
0.0
 20
0.0
 30
0.0
 70
     8
  0
VERTEX
  5
67A
  8
TEAM-NET
 10
-13.345154
 20
-206.091157
 30
736.710875
 70
    32
  0
VERTEX
  5
67B
  8
TEAM-NET
 10
-14.314141
 20
-206.80263
 30
736.859317
 70
    32
  0
VERTEX
  5
67C
  8
TEAM-NET
 10
-14.754485
 20
-207.126125
 30
737.028925
 70
    32
  0
VERTEX
  5
67D
  8
TEAM-NET
 10
-15.106463
 20
-207.384791
 30
737.216455
 70
    32
  0
VERTEX
  5
67E
  8
TEAM-NET
 10
-15.931396
 20
-207.99141
 30
737.880228
 70
    32
  0
VERTEX
  5
67F
  8
TEAM-NET
 10
-16.192722
 20
-208.183725
 30
738.17727
 70
    32
  0
VERTEX
  5
680
  8
TEAM-NET
 10
-16.412453
 20
-208.345508
 30
738.472959
 70
    32
  0
VERTEX
  5
681
  8
TEAM-NET
 10
-16.830242
 20
-208.653411
 30
739.207743
 70
    32
  0
VERTEX
  5
682
  8
TEAM-NET
 10
-17.034161
 20
-208.803938
 30
739.708343
 70
    32
  0
VERTEX
  5
683
  8
TEAM-NET
 10
-17.151316
 20
-208.890563
 30
740.081313
 70
    32
  0
VERTEX
  5
684
  8
TEAM-NET
 10
-17.355352
 20
-209.042359
 30
741.275483
 70
    32
  0
VERTEX
  5
685
  8
TEAM-NET
 10
-17.370313
 20
-209.054098
 30
741.720238
 70
    32
  0
SEQEND
  5
686
  8
TEAM-NET
  0
ARC
  5
687
  8
TEAM-NET
 10
2.774635
 20
-195.836221
 30
-741.677893
 40
21.0
210
-0.002323
220
-0.0
230
-0.999997
 50
320.992456
 51
326.451261
1001
ACAD
1000
R13OBJECT
1002
{
1005
6E
1002
}
  0
POLYLINE
  5
688
  8
TEAM-NET
 66
     1
 10
0.0
 20
0.0
 30
0.0
 70
     8
1001
ACAD
1000
R13OBJECT
1002
{
1005
6E
1002
}
  0
VERTEX
  5
689
  8
TEAM-NET
 10
-18.553721
 20
-207.44179
 30
741.722986
 70
    32
  0
VERTEX
  5
68A
  8
TEAM-NET
 10
-18.478328
 20
-207.384788
 30
740.746599
 70
    32
  0
VERTEX
  5
68B
  8
TEAM-NET
 10
-18.283694
 20
-207.240505
 30
739.910615
 70
    32
  0
VERTEX
  5
68C
  8
TEAM-NET
 10
-18.154559
 20
-207.145091
 30
739.540858
 70
    32
  0
VERTEX
  5
68D
  8
TEAM-NET
 10
-17.623041
 20
-206.753218
 30
738.515801
 70
    32
  0
VERTEX
  5
68E
  8
TEAM-NET
 10
-17.382438
 20
-206.57606
 30
738.187867
 70
    32
  0
VERTEX
  5
68F
  8
TEAM-NET
 10
-17.147206
 20
-206.402942
 30
737.917039
 70
    32
  0
VERTEX
  5
690
  8
TEAM-NET
 10
-16.555311
 20
-205.967611
 30
737.395041
 70
    32
  0
VERTEX
  5
691
  8
TEAM-NET
 10
-16.139508
 20
-205.661971
 30
737.133063
 70
    32
  0
VERTEX
  5
692
  8
TEAM-NET
 10
-15.836723
 20
-205.439482
 30
736.986589
 70
    32
  0
VERTEX
  5
693
  8
TEAM-NET
 10
-14.871349
 20
-204.730481
 30
736.732469
 70
    32
  0
VERTEX
  5
694
  8
TEAM-NET
 10
-14.528563
 20
-204.478849
 30
736.713624
 70
    32
  0
SEQEND
  5
695
  8
TEAM-NET
  0
ARC
  5
696
  8
TEAM-NET
 10
-2.774635
 20
-195.836221
 30
736.677893
 40
16.0
210
0.002323
220
-0.0
230
0.999997
 50
212.69482
 51
219.861463
1001
ACAD
1000
R13OBJECT
1002
{
1005
6E
1002
}
  0
ARC
  5
697
  8
TEAM-NET
 10
133.856556
 20
741.928473
 30
-155.376331
 40
5.0
210
-0.597504
220
0.801865
230
0.001388
 50
270.106707
 51
0.106707
1001
ACAD
1000
R13OBJECT
1002
{
1005
6E
1002
}
  0
ARC
  5
698
  8
TEAM-NET
 10
-2.774635
 20
-195.836221
 30
738.146639
 40
19.539808
210
0.002323
220
0.0
230
0.999997
 50
213.344601
 51
219.211682
1001
ACAD
1000
R13OBJECT
1002
{
1005
6E
1002
}
  0
ARC
  5
6F
  8
TEAM-NET
 10
-2.774635
 20
-195.836221
 30
738.151854
 40
21.0
210
0.002323
220
-0.0
230
0.999997
 50
180.0
 51
360.0
  0
ARC
  5
699
  8
TEAM-NET
 10
-2.774635
 20
-195.836221
 30
738.151854
 40
21.0
210
0.002323
220
0.0
230
0.999997
 50
0.0
 51
180.0
1001
ACAD
1000
R13OBJECT
1002
{
1005
6F
1002
}
  0
ARC
  5
69A
  8
TEAM-NET
 10
-2.774635
 20
-195.836221
 30
738.151854
 40
22.0
210
0.002323
220
0.0
230
0.999997
 50
180.0
 51
360.0
1001
ACAD
1000
R13OBJECT
1002
{
1005
6F
1002
}
  0
ARC
  5
69B
  8
TEAM-NET
 10
-2.774635
 20
-195.836221
 30
738.151854
 40
22.0
210
0.002323
220
0.0
230
0.999997
 50
0.0
 51
180.0
1001
ACAD
1000
R13OBJECT
1002
{
1005
6F
1002
}
  0
ARC
  5
70
  8
TEAM-NET
 10
0.911868
 20
-195.836221
 30
-752.010653
 40
87.249372
210
0.0
220
0.0
230
-1.0
 50
180.0
 51
0.0
  0
ARC
  5
69C
  8
TEAM-NET
 10
0.911868
 20
-195.836221
 30
-752.010653
 40
87.249372
210
0.0
220
0.0
230
-1.0
 50
0.0
 51
180.0
1001
ACAD
1000
R13OBJECT
1002
{
1005
70
1002
}
  0
LINE
  5
69D
  8
TEAM-NET
 10
192.472383
 20
-98.836221
 30
752.010653
 11
-199.093058
 21
-98.836221
 31
752.010653
1001
ACAD
1000
R13OBJECT
1002
{
1005
70
1002
}
  0
LINE
  5
69E
  8
TEAM-NET
 10
192.472383
 20
-384.678169
 30
752.010653
 11
192.472383
 21
-98.836221
 31
752.010653
1001
ACAD
1000
R13OBJECT
1002
{
1005
70
1002
}
  0
LINE
  5
69F
  8
TEAM-NET
 10
-199.093058
 20
-384.678169
 30
752.010653
 11
192.472383
 21
-384.678169
 31
752.010653
1001
ACAD
1000
R13OBJECT
1002
{
1005
70
1002
}
  0
LINE
  5
6A0
  8
TEAM-NET
 10
-199.093058
 20
-98.836221
 30
752.010653
 11
-199.093058
 21
-384.678169
 31
752.010653
1001
ACAD
1000
R13OBJECT
1002
{
1005
70
1002
}
  0
ARC
  5
71
  8
TEAM-NET
 10
-29.911868
 20
767.76545
 30
195.836221
 40
3.0
210
0.0
220
-1.0
230
0.0
 50
360.0
 51
58.4077
  0
POLYLINE
  5
6A1
  8
TEAM-NET
 66
     1
 10
0.0
 20
0.0
 30
0.0
 70
     8
1001
ACAD
1000
R13OBJECT
1002
{
1005
71
1002
}
  0
VERTEX
  5
6A2
  8
TEAM-NET
 10
-28.340476
 20
-195.836221
 30
770.320842
 70
    32
  0
VERTEX
  5
6A3
  8
TEAM-NET
 10
-28.340476
 20
-195.83632
 30
770.320842
 70
    32
  0
VERTEX
  5
6A4
  8
TEAM-NET
 10
-27.651883
 20
-201.944327
 30
770.320471
 70
    32
  0
VERTEX
  5
6A5
  8
TEAM-NET
 10
-26.798314
 20
-204.903928
 30
770.32001
 70
    32
  0
VERTEX
  5
6A6
  8
TEAM-NET
 10
-25.625281
 20
-207.735507
 30
770.319376
 70
    32
  0
VERTEX
  5
6A7
  8
TEAM-NET
 10
-24.13506
 20
-210.432667
 30
770.31857
 70
    32
  0
VERTEX
  5
6A8
  8
TEAM-NET
 10
-23.277133
 20
-211.71615
 30
770.318106
 70
    32
  0
VERTEX
  5
6A9
  8
TEAM-NET
 10
-22.821656
 20
-212.339082
 30
770.31786
 70
    32
  0
VERTEX
  5
6AA
  8
TEAM-NET
 10
-22.587536
 20
-212.645481
 30
770.317733
 70
    32
  0
VERTEX
  5
6AB
  8
TEAM-NET
 10
-22.349277
 20
-212.948389
 30
770.317604
 70
    32
  0
VERTEX
  5
6AC
  8
TEAM-NET
 10
-20.836912
 20
-214.688227
 30
770.316785
 70
    32
  0
VERTEX
  5
6AD
  8
TEAM-NET
 10
-20.303226
 20
-215.236927
 30
770.316496
 70
    32
  0
VERTEX
  5
6AE
  8
TEAM-NET
 10
-18.012206
 20
-217.284248
 30
770.315254
 70
    32
  0
VERTEX
  5
6AF
  8
TEAM-NET
 10
-17.861062
 20
-217.403928
 30
770.315172
 70
    32
  0
VERTEX
  5
6B0
  8
TEAM-NET
 10
-17.709048
 20
-217.52257
 30
770.315089
 70
    32
  0
VERTEX
  5
6B1
  8
TEAM-NET
 10
-17.402432
 20
-217.756715
 30
770.314923
 70
    32
  0
VERTEX
  5
6B2
  8
TEAM-NET
 10
-16.779178
 20
-218.212153
 30
770.314585
 70
    32
  0
VERTEX
  5
6B3
  8
TEAM-NET
 10
-15.495087
 20
-219.069841
 30
770.313888
 70
    32
  0
VERTEX
  5
6B4
  8
TEAM-NET
 10
-12.799674
 20
-220.558171
 30
770.312423
 70
    32
  0
VERTEX
  5
6B5
  8
TEAM-NET
 10
-9.967353
 20
-221.730817
 30
770.310882
 70
    32
  0
VERTEX
  5
6B6
  8
TEAM-NET
 10
-7.004915
 20
-222.584183
 30
770.309268
 70
    32
  0
VERTEX
  5
6B7
  8
TEAM-NET
 10
-3.963595
 20
-223.099567
 30
770.307608
 70
    32
  0
VERTEX
  5
6B8
  8
TEAM-NET
 10
-2.430746
 20
-223.228111
 30
770.306771
 70
    32
  0
VERTEX
  5
6B9
  8
TEAM-NET
 10
-0.89914
 20
-223.270496
 30
770.305934
 70
    32
  0
VERTEX
  5
6BA
  8
TEAM-NET
 10
0.635087
 20
-223.227208
 30
770.305095
 70
    32
  0
VERTEX
  5
6BB
  8
TEAM-NET
 10
2.170277
 20
-223.097499
 30
770.304254
 70
    32
  0
VERTEX
  5
6BC
  8
TEAM-NET
 10
3.698445
 20
-222.881395
 30
770.303417
 70
    32
  0
VERTEX
  5
6BD
  8
TEAM-NET
 10
5.213262
 20
-222.579379
 30
770.302587
 70
    32
  0
VERTEX
  5
6BE
  8
TEAM-NET
 10
9.128684
 20
-221.36955
 30
770.300438
 70
    32
  0
VERTEX
  5
6BF
  8
TEAM-NET
 10
11.002615
 20
-220.551138
 30
770.299408
 70
    32
  0
VERTEX
  5
6C0
  8
TEAM-NET
 10
11.919493
 20
-220.088043
 30
770.298904
 70
    32
  0
VERTEX
  5
6C1
  8
TEAM-NET
 10
12.819419
 20
-219.590339
 30
770.298409
 70
    32
  0
VERTEX
  5
6C2
  8
TEAM-NET
 10
16.216335
 20
-217.271513
 30
770.296538
 70
    32
  0
VERTEX
  5
6C3
  8
TEAM-NET
 10
17.767664
 20
-215.934451
 30
770.295683
 70
    32
  0
VERTEX
  5
6C4
  8
TEAM-NET
 10
19.212215
 20
-214.488432
 30
770.294886
 70
    32
  0
VERTEX
  5
6C5
  8
TEAM-NET
 10
21.772812
 20
-211.273994
 30
770.293472
 70
    32
  0
VERTEX
  5
6C6
  8
TEAM-NET
 10
22.865671
 20
-209.531099
 30
770.292868
 70
    32
  0
VERTEX
  5
6C7
  8
TEAM-NET
 10
23.822242
 20
-207.717231
 30
770.292339
 70
    32
  0
VERTEX
  5
6C8
  8
TEAM-NET
 10
24.63782
 20
-205.844061
 30
770.291888
 70
    32
  0
VERTEX
  5
6C9
  8
TEAM-NET
 10
25.314519
 20
-203.906633
 30
770.291513
 70
    32
  0
VERTEX
  5
6CA
  8
TEAM-NET
 10
26.226421
 20
-199.895853
 30
770.291008
 70
    32
  0
VERTEX
  5
6CB
  8
TEAM-NET
 10
26.453934
 20
-197.855464
 30
770.290882
 70
    32
  0
VERTEX
  5
6CC
  8
TEAM-NET
 10
26.528381
 20
-195.836221
 30
770.290841
 70
    32
  0
SEQEND
  5
6CD
  8
TEAM-NET
  0
POLYLINE
  5
6CE
  8
TEAM-NET
 66
     1
 10
0.0
 20
0.0
 30
0.0
 70
     8
1001
ACAD
1000
R13OBJECT
1002
{
1005
71
1002
}
  0
VERTEX
  5
6CF
  8
TEAM-NET
 10
26.528381
 20
-195.83607
 30
770.290841
 70
    32
  0
VERTEX
  5
6D0
  8
TEAM-NET
 10
26.528369
 20
-195.813795
 30
770.290841
 70
    32
  0
VERTEX
  5
6D1
  8
TEAM-NET
 10
26.218176
 20
-191.721387
 30
770.291013
 70
    32
  0
VERTEX
  5
6D2
  8
TEAM-NET
 10
25.671372
 20
-189.032364
 30
770.291316
 70
    32
  0
VERTEX
  5
6D3
  8
TEAM-NET
 10
24.862891
 20
-186.42266
 30
770.291763
 70
    32
  0
VERTEX
  5
6D4
  8
TEAM-NET
 10
24.363977
 20
-185.155567
 30
770.292039
 70
    32
  0
VERTEX
  5
6D5
  8
TEAM-NET
 10
23.800894
 20
-183.910402
 30
770.292351
 70
    32
  0
VERTEX
  5
6D6
  8
TEAM-NET
 10
20.938612
 20
-179.239103
 30
770.293933
 70
    32
  0
VERTEX
  5
6D7
  8
TEAM-NET
 10
19.180395
 20
-177.149829
 30
770.294903
 70
    32
  0
VERTEX
  5
6D8
  8
TEAM-NET
 10
18.471112
 20
-176.415304
 30
770.295295
 70
    32
  0
VERTEX
  5
6D9
  8
TEAM-NET
 10
17.732381
 20
-175.705289
 30
770.295702
 70
    32
  0
VERTEX
  5
6DA
  8
TEAM-NET
 10
16.173576
 20
-174.366804
 30
770.296562
 70
    32
  0
VERTEX
  5
6DB
  8
TEAM-NET
 10
12.771996
 20
-172.054698
 30
770.298435
 70
    32
  0
VERTEX
  5
6DC
  8
TEAM-NET
 10
10.95976
 20
-171.100644
 30
770.299432
 70
    32
  0
VERTEX
  5
6DD
  8
TEAM-NET
 10
9.08546
 20
-170.285956
 30
770.300462
 70
    32
  0
VERTEX
  5
6DE
  8
TEAM-NET
 10
5.15725
 20
-169.080147
 30
770.302618
 70
    32
  0
VERTEX
  5
6DF
  8
TEAM-NET
 10
1.09725
 20
-168.475134
 30
770.304842
 70
    32
  0
VERTEX
  5
6E0
  8
TEAM-NET
 10
-0.944182
 20
-168.401946
 30
770.305959
 70
    32
  0
VERTEX
  5
6E1
  8
TEAM-NET
 10
-2.994205
 20
-168.48147
 30
770.307079
 70
    32
  0
VERTEX
  5
6E2
  8
TEAM-NET
 10
-7.059878
 20
-169.101004
 30
770.309298
 70
    32
  0
VERTEX
  5
6E3
  8
TEAM-NET
 10
-9.041748
 20
-169.636096
 30
770.310378
 70
    32
  0
VERTEX
  5
6E4
  8
TEAM-NET
 10
-10.968704
 20
-170.314091
 30
770.311427
 70
    32
  0
VERTEX
  5
6E5
  8
TEAM-NET
 10
-14.66225
 20
-172.099866
 30
770.313435
 70
    32
  0
VERTEX
  5
6E6
  8
TEAM-NET
 10
-18.053549
 20
-174.421213
 30
770.315276
 70
    32
  0
VERTEX
  5
6E7
  8
TEAM-NET
 10
-20.335515
 20
-176.467997
 30
770.316513
 70
    32
  0
VERTEX
  5
6E8
  8
TEAM-NET
 10
-22.383666
 20
-178.767091
 30
770.317623
 70
    32
  0
VERTEX
  5
6E9
  8
TEAM-NET
 10
-24.564148
 20
-181.946234
 30
770.318802
 70
    32
  0
VERTEX
  5
6EA
  8
TEAM-NET
 10
-25.645521
 20
-183.97896
 30
770.319387
 70
    32
  0
VERTEX
  5
6EB
  8
TEAM-NET
 10
-26.268411
 20
-185.377432
 30
770.319723
 70
    32
  0
VERTEX
  5
6EC
  8
TEAM-NET
 10
-26.813284
 20
-186.811141
 30
770.320018
 70
    32
  0
VERTEX
  5
6ED
  8
TEAM-NET
 10
-27.478041
 20
-189.012417
 30
770.320377
 70
    32
  0
VERTEX
  5
6EE
  8
TEAM-NET
 10
-27.658044
 20
-189.75628
 30
770.320474
 70
    32
  0
VERTEX
  5
6EF
  8
TEAM-NET
 10
-28.073025
 20
-192.016205
 30
770.320698
 70
    32
  0
VERTEX
  5
6F0
  8
TEAM-NET
 10
-28.340476
 20
-195.836221
 30
770.320842
 70
    32
  0
SEQEND
  5
6F1
  8
TEAM-NET
  0
POLYLINE
  5
6F2
  8
TEAM-NET
 66
     1
 10
0.0
 20
0.0
 30
0.0
 70
     8
1001
ACAD
1000
R13OBJECT
1002
{
1005
71
1002
}
  0
VERTEX
  5
6F3
  8
TEAM-NET
 10
-26.912078
 20
-195.836221
 30
767.76545
 70
    32
  0
VERTEX
  5
6F4
  8
TEAM-NET
 10
-26.658531
 20
-192.21536
 30
767.76527
 70
    32
  0
VERTEX
  5
6F5
  8
TEAM-NET
 10
-26.265125
 20
-190.073269
 30
767.764991
 70
    32
  0
VERTEX
  5
6F6
  8
TEAM-NET
 10
-26.09448
 20
-189.368195
 30
767.76487
 70
    32
  0
VERTEX
  5
6F7
  8
TEAM-NET
 10
-25.464289
 20
-187.281722
 30
767.764422
 70
    32
  0
VERTEX
  5
6F8
  8
TEAM-NET
 10
-24.947751
 20
-185.9228
 30
767.764055
 70
    32
  0
VERTEX
  5
6F9
  8
TEAM-NET
 10
-24.357258
 20
-184.59729
 30
767.763636
 70
    32
  0
VERTEX
  5
6FA
  8
TEAM-NET
 10
-23.332137
 20
-182.670649
 30
767.762907
 70
    32
  0
VERTEX
  5
6FB
  8
TEAM-NET
 10
-21.265121
 20
-179.657513
 30
767.761437
 70
    32
  0
VERTEX
  5
6FC
  8
TEAM-NET
 10
-19.323598
 20
-177.478569
 30
767.760055
 70
    32
  0
VERTEX
  5
6FD
  8
TEAM-NET
 10
-17.160486
 20
-175.538846
 30
767.758514
 70
    32
  0
VERTEX
  5
6FE
  8
TEAM-NET
 10
-13.945924
 20
-173.339087
 30
767.756222
 70
    32
  0
VERTEX
  5
6FF
  8
TEAM-NET
 10
-10.44501
 20
-171.647056
 30
767.753723
 70
    32
  0
VERTEX
  5
700
  8
TEAM-NET
 10
-8.618611
 20
-171.004745
 30
767.752418
 70
    32
  0
VERTEX
  5
701
  8
TEAM-NET
 10
-6.740205
 20
-170.497893
 30
767.751075
 70
    32
  0
VERTEX
  5
702
  8
TEAM-NET
 10
-2.886916
 20
-169.911332
 30
767.748317
 70
    32
  0
VERTEX
  5
703
  8
TEAM-NET
 10
-0.944051
 20
-169.836269
 30
767.746925
 70
    32
  0
VERTEX
  5
704
  8
TEAM-NET
 10
0.990627
 20
-169.905932
 30
767.745537
 70
    32
  0
VERTEX
  5
705
  8
TEAM-NET
 10
4.838181
 20
-170.479895
 30
767.742776
 70
    32
  0
VERTEX
  5
706
  8
TEAM-NET
 10
8.560672
 20
-171.623163
 30
767.7401
 70
    32
  0
VERTEX
  5
707
  8
TEAM-NET
 10
10.336756
 20
-172.395464
 30
767.738822
 70
    32
  0
VERTEX
  5
708
  8
TEAM-NET
 10
12.053994
 20
-173.299809
 30
767.737585
 70
    32
  0
VERTEX
  5
709
  8
TEAM-NET
 10
15.277165
 20
-175.491255
 30
767.735263
 70
    32
  0
VERTEX
  5
70A
  8
TEAM-NET
 10
16.754171
 20
-176.759806
 30
767.734198
 70
    32
  0
VERTEX
  5
70B
  8
TEAM-NET
 10
17.454128
 20
-177.432705
 30
767.733693
 70
    32
  0
VERTEX
  5
70C
  8
TEAM-NET
 10
18.126177
 20
-178.128822
 30
767.733208
 70
    32
  0
VERTEX
  5
70D
  8
TEAM-NET
 10
19.792072
 20
-180.108795
 30
767.732005
 70
    32
  0
VERTEX
  5
70E
  8
TEAM-NET
 10
22.503988
 20
-184.5355
 30
767.730045
 70
    32
  0
VERTEX
  5
70F
  8
TEAM-NET
 10
23.03748
 20
-185.715431
 30
767.72966
 70
    32
  0
VERTEX
  5
710
  8
TEAM-NET
 10
23.510172
 20
-186.916131
 30
767.729318
 70
    32
  0
VERTEX
  5
711
  8
TEAM-NET
 10
24.276156
 20
-189.38906
 30
767.728764
 70
    32
  0
VERTEX
  5
712
  8
TEAM-NET
 10
24.794214
 20
-191.937122
 30
767.728389
 70
    32
  0
VERTEX
  5
713
  8
TEAM-NET
 10
25.088098
 20
-195.814971
 30
767.728176
 70
    32
  0
VERTEX
  5
714
  8
TEAM-NET
 10
25.088109
 20
-195.836077
 30
767.728176
 70
    32
  0
SEQEND
  5
715
  8
TEAM-NET
  0
POLYLINE
  5
716
  8
TEAM-NET
 66
     1
 10
0.0
 20
0.0
 30
0.0
 70
     8
1001
ACAD
1000
R13OBJECT
1002
{
1005
71
1002
}
  0
VERTEX
  5
717
  8
TEAM-NET
 10
25.088109
 20
-195.836221
 30
767.728176
 70
    32
  0
VERTEX
  5
718
  8
TEAM-NET
 10
25.017577
 20
-197.749595
 30
767.728227
 70
    32
  0
VERTEX
  5
719
  8
TEAM-NET
 10
24.802025
 20
-199.683012
 30
767.728383
 70
    32
  0
VERTEX
  5
71A
  8
TEAM-NET
 10
23.938062
 20
-203.483553
 30
767.729008
 70
    32
  0
VERTEX
  5
71B
  8
TEAM-NET
 10
23.296931
 20
-205.31945
 30
767.729472
 70
    32
  0
VERTEX
  5
71C
  8
TEAM-NET
 10
22.524215
 20
-207.09448
 30
767.730031
 70
    32
  0
VERTEX
  5
71D
  8
TEAM-NET
 10
21.617906
 20
-208.813344
 30
767.730686
 70
    32
  0
VERTEX
  5
71E
  8
TEAM-NET
 10
20.582458
 20
-210.464983
 30
767.731434
 70
    32
  0
VERTEX
  5
71F
  8
TEAM-NET
 10
18.156325
 20
-213.511227
 30
767.733186
 70
    32
  0
VERTEX
  5
720
  8
TEAM-NET
 10
16.787602
 20
-214.881643
 30
767.734173
 70
    32
  0
VERTEX
  5
721
  8
TEAM-NET
 10
15.317681
 20
-216.148845
 30
767.735234
 70
    32
  0
VERTEX
  5
722
  8
TEAM-NET
 10
12.098931
 20
-218.346657
 30
767.737553
 70
    32
  0
VERTEX
  5
723
  8
TEAM-NET
 10
11.246184
 20
-218.818421
 30
767.738167
 70
    32
  0
VERTEX
  5
724
  8
TEAM-NET
 10
10.377366
 20
-219.257394
 30
767.738793
 70
    32
  0
VERTEX
  5
725
  8
TEAM-NET
 10
8.601631
 20
-220.033223
 30
767.74007
 70
    32
  0
VERTEX
  5
726
  8
TEAM-NET
 10
4.89126
 20
-221.180299
 30
767.742737
 70
    32
  0
VERTEX
  5
727
  8
TEAM-NET
 10
3.455731
 20
-221.466736
 30
767.743768
 70
    32
  0
VERTEX
  5
728
  8
TEAM-NET
 10
2.007523
 20
-221.671762
 30
767.744808
 70
    32
  0
VERTEX
  5
729
  8
TEAM-NET
 10
0.552636
 20
-221.794914
 30
767.745851
 70
    32
  0
VERTEX
  5
72A
  8
TEAM-NET
 10
-0.901364
 20
-221.836167
 30
767.746894
 70
    32
  0
VERTEX
  5
72B
  8
TEAM-NET
 10
-2.352905
 20
-221.796224
 30
767.747934
 70
    32
  0
VERTEX
  5
72C
  8
TEAM-NET
 10
-3.805651
 20
-221.674627
 30
767.748975
 70
    32
  0
VERTEX
  5
72D
  8
TEAM-NET
 10
-6.688112
 20
-221.18662
 30
767.751038
 70
    32
  0
VERTEX
  5
72E
  8
TEAM-NET
 10
-9.495909
 20
-220.378258
 30
767.753045
 70
    32
  0
VERTEX
  5
72F
  8
TEAM-NET
 10
-12.18047
 20
-219.267245
 30
767.754962
 70
    32
  0
VERTEX
  5
730
  8
TEAM-NET
 10
-14.735346
 20
-217.856972
 30
767.756785
 70
    32
  0
VERTEX
  5
731
  8
TEAM-NET
 10
-15.952514
 20
-217.044214
 30
767.757653
 70
    32
  0
VERTEX
  5
732
  8
TEAM-NET
 10
-16.543292
 20
-216.612623
 30
767.758074
 70
    32
  0
VERTEX
  5
733
  8
TEAM-NET
 10
-16.833933
 20
-216.390735
 30
767.758282
 70
    32
  0
VERTEX
  5
734
  8
TEAM-NET
 10
-16.978027
 20
-216.278303
 30
767.758384
 70
    32
  0
VERTEX
  5
735
  8
TEAM-NET
 10
-17.121297
 20
-216.164886
 30
767.758486
 70
    32
  0
VERTEX
  5
736
  8
TEAM-NET
 10
-19.29299
 20
-214.224657
 30
767.760033
 70
    32
  0
VERTEX
  5
737
  8
TEAM-NET
 10
-19.798887
 20
-213.704641
 30
767.760393
 70
    32
  0
VERTEX
  5
738
  8
TEAM-NET
 10
-21.232522
 20
-212.055719
 30
767.761414
 70
    32
  0
VERTEX
  5
739
  8
TEAM-NET
 10
-21.45838
 20
-211.768634
 30
767.761574
 70
    32
  0
VERTEX
  5
73A
  8
TEAM-NET
 10
-21.680315
 20
-211.478239
 30
767.761732
 70
    32
  0
VERTEX
  5
73B
  8
TEAM-NET
 10
-22.112088
 20
-210.887841
 30
767.762039
 70
    32
  0
VERTEX
  5
73C
  8
TEAM-NET
 10
-22.925373
 20
-209.671373
 30
767.762618
 70
    32
  0
VERTEX
  5
73D
  8
TEAM-NET
 10
-24.338071
 20
-207.114983
 30
767.763622
 70
    32
  0
VERTEX
  5
73E
  8
TEAM-NET
 10
-25.450097
 20
-204.431123
 30
767.764412
 70
    32
  0
VERTEX
  5
73F
  8
TEAM-NET
 10
-26.259284
 20
-201.62587
 30
767.764987
 70
    32
  0
VERTEX
  5
740
  8
TEAM-NET
 10
-26.912078
 20
-195.836315
 30
767.76545
 70
    32
  0
VERTEX
  5
741
  8
TEAM-NET
 10
-26.912078
 20
-195.836221
 30
767.76545
 70
    32
  0
SEQEND
  5
742
  8
TEAM-NET
  0
LINE
  5
72
  8
TEAM-NET
 10
-259.093058
 20
-394.678169
 30
812.010653
 11
-259.093058
 21
-23.941738
 31
812.010653
  0
LINE
  5
743
  8
TEAM-NET
 10
-259.093058
 20
-394.678169
 30
822.010653
 11
-259.093058
 21
-394.678169
 31
812.010653
1001
ACAD
1000
R13OBJECT
1002
{
1005
72
1002
}
  0
LINE
  5
744
  8
TEAM-NET
 10
-259.093058
 20
-394.678169
 30
822.010653
 11
-259.093058
 21
-20.941738
 31
822.010653
1001
ACAD
1000
R13OBJECT
1002
{
1005
72
1002
}
  0
ARC
  5
745
  8
TEAM-NET
 10
20.941738
 20
819.010653
 30
259.093058
 40
3.0
210
-1.0
220
-0.0
230
0.0
 50
0.0
 51
90.0
1001
ACAD
1000
R13OBJECT
1002
{
1005
72
1002
}
  0
LINE
  5
746
  8
TEAM-NET
 10
-259.093058
 20
-23.941738
 30
812.010653
 11
-259.093058
 21
-23.941738
 31
819.010653
1001
ACAD
1000
R13OBJECT
1002
{
1005
72
1002
}
  0
ARC
  5
73
  8
TEAM-NET
 10
209.093058
 20
-394.678169
 30
-812.010653
 40
50.0
210
0.0
220
0.0
230
-1.0
 50
270.0
 51
360.0
  0
LINE
  5
747
  8
TEAM-NET
 10
-209.093058
 20
-444.678169
 30
812.010653
 11
-209.093058
 21
-444.678169
 31
822.010653
1001
ACAD
1000
R13OBJECT
1002
{
1005
73
1002
}
  0
ARC
  5
748
  8
TEAM-NET
 10
209.093058
 20
-394.678169
 30
-822.010653
 40
50.0
210
0.0
220
0.0
230
-1.0
 50
270.0
 51
0.0
1001
ACAD
1000
R13OBJECT
1002
{
1005
73
1002
}
  0
LINE
  5
749
  8
TEAM-NET
 10
-259.093058
 20
-394.678169
 30
822.010653
 11
-259.093058
 21
-394.678169
 31
812.010653
1001
ACAD
1000
R13OBJECT
1002
{
1005
73
1002
}
  0
LINE
  5
74A
  8
TEAM-NET
 10
-244.448397
 20
-430.033508
 30
812.010653
 11
-244.448397
 21
-430.033508
 31
822.010653
1001
ACAD
1000
R13OBJECT
1002
{
1005
73
1002
}
  0
ARC
  5
74
  8
TEAM-NET
 10
-20.941738
 20
819.010653
 30
252.472383
 40
6.0
210
1.0
220
0.0
230
0.0
 50
150.0
 51
180.0
  0
LINE
  5
74B
  8
TEAM-NET
 10
252.472383
 20
-26.13789
 30
822.010653
 11
252.472383
 21
-394.678169
 31
822.010653
1001
ACAD
1000
R13OBJECT
1002
{
1005
74
1002
}
  0
LINE
  5
74C
  8
TEAM-NET
 10
252.472383
 20
-394.678169
 30
812.010653
 11
252.472383
 21
-394.678169
 31
822.010653
1001
ACAD
1000
R13OBJECT
1002
{
1005
74
1002
}
  0
LINE
  5
74D
  8
TEAM-NET
 10
252.472383
 20
-26.941738
 30
812.010653
 11
252.472383
 21
-394.678169
 31
812.010653
1001
ACAD
1000
R13OBJECT
1002
{
1005
74
1002
}
  0
LINE
  5
74E
  8
TEAM-NET
 10
252.472383
 20
-26.941738
 30
819.010653
 11
252.472383
 21
-26.941738
 31
812.010653
1001
ACAD
1000
R13OBJECT
1002
{
1005
74
1002
}
  0
ARC
  5
75
  8
TEAM-NET
 10
-202.472383
 20
-394.678169
 30
-812.010653
 40
50.0
210
0.0
220
0.0
230
-1.0
 50
180.0
 51
270.0
  0
LINE
  5
74F
  8
TEAM-NET
 10
252.472383
 20
-394.678169
 30
812.010653
 11
252.472383
 21
-394.678169
 31
822.010653
1001
ACAD
1000
R13OBJECT
1002
{
1005
75
1002
}
  0
ARC
  5
750
  8
TEAM-NET
 10
-202.472383
 20
-394.678169
 30
-822.010653
 40
50.0
210
0.0
220
0.0
230
-1.0
 50
180.0
 51
270.0
1001
ACAD
1000
R13OBJECT
1002
{
1005
75
1002
}
  0
LINE
  5
751
  8
TEAM-NET
 10
202.472383
 20
-444.678169
 30
822.010653
 11
202.472383
 21
-444.678169
 31
812.010653
1001
ACAD
1000
R13OBJECT
1002
{
1005
75
1002
}
  0
LINE
  5
752
  8
TEAM-NET
 10
237.827722
 20
-430.033508
 30
812.010653
 11
237.827722
 21
-430.033508
 31
822.010653
1001
ACAD
1000
R13OBJECT
1002
{
1005
75
1002
}
  0
LINE
  5
76
  8
TEAM-NET
 10
202.472383
 20
-444.678169
 30
812.010653
 11
-209.093058
 21
-444.678169
 31
812.010653
  0
LINE
  5
753
  8
TEAM-NET
 10
202.472383
 20
-444.678169
 30
822.010653
 11
202.472383
 21
-444.678169
 31
812.010653
1001
ACAD
1000
R13OBJECT
1002
{
1005
76
1002
}
  0
LINE
  5
754
  8
TEAM-NET
 10
202.472383
 20
-444.678169
 30
822.010653
 11
-209.093058
 21
-444.678169
 31
822.010653
1001
ACAD
1000
R13OBJECT
1002
{
1005
76
1002
}
  0
LINE
  5
755
  8
TEAM-NET
 10
-209.093058
 20
-444.678169
 30
812.010653
 11
-209.093058
 21
-444.678169
 31
822.010653
1001
ACAD
1000
R13OBJECT
1002
{
1005
76
1002
}
  0
LINE
  5
77
  8
TEAM-NET
 10
-239.911868
 20
-92.836221
 30
854.010653
 11
-239.911868
 21
-20.836221
 31
854.010653
  0
LINE
  5
756
  8
TEAM-NET
 10
-239.911868
 20
-92.836221
 30
775.556409
 11
-239.911868
 21
-92.836221
 31
854.010653
1001
ACAD
1000
R13OBJECT
1002
{
1005
77
1002
}
  0
LINE
  5
757
  8
TEAM-NET
 10
-239.911868
 20
-26.941738
 30
775.556409
 11
-239.911868
 21
-92.836221
 31
775.556409
1001
ACAD
1000
R13OBJECT
1002
{
1005
77
1002
}
  0
LINE
  5
758
  8
TEAM-NET
 10
-239.911868
 20
-26.941738
 30
819.010653
 11
-239.911868
 21
-26.941738
 31
775.556409
1001
ACAD
1000
R13OBJECT
1002
{
1005
77
1002
}
  0
POLYLINE
  5
759
  8
TEAM-NET
 66
     1
 10
0.0
 20
0.0
 30
-239.911868
 70
   128
210
1.0
220
0.0
230
0.0
1001
ACAD
1000
R13OBJECT
1002
{
1005
77
1002
}
  0
VERTEX
  5
DDB
  8
TEAM-NET
 10
-21.745585
 20
822.010653
 30
-239.911868
  0
VERTEX
  5
DDC
  8
TEAM-NET
 10
-22.082028
 20
821.996711
 30
-239.911868
  0
VERTEX
  5
DDD
  8
TEAM-NET
 10
-23.378211
 20
821.693849
 30
-239.911868
  0
VERTEX
  5
DDE
  8
TEAM-NET
 10
-23.936034
 20
821.444961
 30
-239.911868
  0
VERTEX
  5
DDF
  8
TEAM-NET
 10
-24.385541
 20
821.192833
 30
-239.911868
  0
VERTEX
  5
DE0
  8
TEAM-NET
 10
-25.903457
 20
820.019148
 30
-239.911868
  0
VERTEX
  5
DE1
  8
TEAM-NET
 10
-26.941731
 20
819.01066
 30
-239.911868
  0
VERTEX
  5
DE2
  8
TEAM-NET
 10
-26.941738
 20
819.010653
 30
-239.911868
  0
SEQEND
  5
DE3
  8
TEAM-NET
  0
LINE
  5
763
  8
TEAM-NET
 10
-239.911868
 20
-21.745585
 30
822.010653
 11
-239.911868
 21
-17.836221
 31
822.010653
1001
ACAD
1000
R13OBJECT
1002
{
1005
77
1002
}
  0
ARC
  5
764
  8
TEAM-NET
 10
-17.836221
 20
825.010653
 30
-239.911868
 40
3.0
210
1.0
220
0.0
230
0.0
 50
180.0
 51
270.0
1001
ACAD
1000
R13OBJECT
1002
{
1005
77
1002
}
  0
LINE
  5
765
  8
TEAM-NET
 10
-239.911868
 20
-20.836221
 30
825.010653
 11
-239.911868
 21
-20.836221
 31
854.010653
1001
ACAD
1000
R13OBJECT
1002
{
1005
77
1002
}
  0
LINE
  5
78
  8
TEAM-NET
 10
237.801177
 20
-92.836221
 30
781.789342
 11
237.801177
 21
-23.941738
 31
781.789342
  0
LINE
  5
766
  8
TEAM-NET
 10
237.801177
 20
-92.836221
 30
854.010653
 11
237.801177
 21
-92.836221
 31
781.789342
1001
ACAD
1000
R13OBJECT
1002
{
1005
78
1002
}
  0
LINE
  5
767
  8
TEAM-NET
 10
237.801177
 20
-20.836221
 30
854.010653
 11
237.801177
 21
-92.836221
 31
854.010653
1001
ACAD
1000
R13OBJECT
1002
{
1005
78
1002
}
  0
LINE
  5
768
  8
TEAM-NET
 10
237.801177
 20
-20.836221
 30
825.010653
 11
237.801177
 21
-20.836221
 31
854.010653
1001
ACAD
1000
R13OBJECT
1002
{
1005
78
1002
}
  0
ARC
  5
769
  8
TEAM-NET
 10
17.836221
 20
825.010653
 30
-237.801177
 40
3.0
210
-1.0
220
0.0
230
0.0
 50
270.0
 51
0.0
1001
ACAD
1000
R13OBJECT
1002
{
1005
78
1002
}
  0
LINE
  5
76A
  8
TEAM-NET
 10
237.801177
 20
-17.836221
 30
822.010653
 11
237.801177
 21
-20.941738
 31
822.010653
1001
ACAD
1000
R13OBJECT
1002
{
1005
78
1002
}
  0
ARC
  5
76B
  8
TEAM-NET
 10
20.941738
 20
819.010653
 30
-237.801177
 40
3.0
210
-1.0
220
0.0
230
0.0
 50
0.0
 51
90.0
1001
ACAD
1000
R13OBJECT
1002
{
1005
78
1002
}
  0
LINE
  5
76C
  8
TEAM-NET
 10
237.801177
 20
-23.941738
 30
819.010653
 11
237.801177
 21
-23.941738
 31
781.789342
1001
ACAD
1000
R13OBJECT
1002
{
1005
78
1002
}
  0
LINE
  5
79
  8
TEAM-NET
 10
249.472383
 20
-23.941738
 30
812.010653
 11
249.472383
 21
-23.941738
 31
819.010653
  0
ARC
  5
76D
  8
TEAM-NET
 10
192.472383
 20
812.010653
 30
23.941738
 40
57.0
210
0.0
220
-1.0
230
0.0
 50
324.965221
 51
360.0
1001
ACAD
1000
R13OBJECT
1002
{
1005
79
1002
}
  0
ARC
  5
76E
  8
TEAM-NET
 10
240.801177
 20
781.789342
 30
23.941738
 40
3.0
210
0.0
220
-1.0
230
0.0
 50
180.0
 51
236.473179
1001
ACAD
1000
R13OBJECT
1002
{
1005
79
1002
}
  0
LINE
  5
76F
  8
TEAM-NET
 10
237.801177
 20
-23.941738
 30
819.010653
 11
237.801177
 21
-23.941738
 31
781.789342
1001
ACAD
1000
R13OBJECT
1002
{
1005
79
1002
}
  0
LINE
  5
770
  8
TEAM-NET
 10
249.472383
 20
-23.941738
 30
819.010653
 11
237.801177
 21
-23.941738
 31
819.010653
1001
ACAD
1000
R13OBJECT
1002
{
1005
79
1002
}
  0
ARC
  5
7A
  8
TEAM-NET
 10
249.472383
 20
-26.941738
 30
812.010653
 40
3.0
 50
0.0
 51
90.0
  0
LINE
  5
771
  8
TEAM-NET
 10
249.472383
 20
-23.941738
 30
812.010653
 11
249.472383
 21
-23.941738
 31
819.010653
1001
ACAD
1000
R13OBJECT
1002
{
1005
7A
1002
}
  0
ARC
  5
772
  8
TEAM-NET
 10
-249.472383
 20
-26.941738
 30
-819.010653
 40
3.0
210
0.0
220
0.0
230
-1.0
 50
90.0
 51
180.0
1001
ACAD
1000
R13OBJECT
1002
{
1005
7A
1002
}
  0
LINE
  5
773
  8
TEAM-NET
 10
252.472383
 20
-26.941738
 30
819.010653
 11
252.472383
 21
-26.941738
 31
812.010653
1001
ACAD
1000
R13OBJECT
1002
{
1005
7A
1002
}
  0
LINE
  5
774
  8
TEAM-NET
 10
251.593703
 20
-24.820418
 30
812.010653
 11
251.593703
 21
-24.820418
 31
819.010653
1001
ACAD
1000
R13OBJECT
1002
{
1005
7A
1002
}
  0
ARC
  5
7B
  8
TEAM-NET
 10
192.472383
 20
812.010653
 30
23.941738
 40
57.0
210
0.0
220
-1.0
230
0.0
 50
324.965221
 51
360.0
  0
ARC
  5
775
  8
TEAM-NET
 10
249.472383
 20
-26.941738
 30
812.010653
 40
3.0
 50
0.0
 51
90.0
1001
ACAD
1000
R13OBJECT
1002
{
1005
7B
1002
}
  0
ARC
  5
776
  8
TEAM-NET
 10
-192.472383
 20
812.010653
 30
-26.941738
 40
60.0
210
0.0
220
1.0
230
0.0
 50
180.0
 51
212.018863
1001
ACAD
1000
R13OBJECT
1002
{
1005
7B
1002
}
  0
POLYLINE
  5
777
  8
TEAM-NET
 66
     1
 10
0.0
 20
0.0
 30
0.0
 70
     8
1001
ACAD
1000
R13OBJECT
1002
{
1005
7B
1002
}
  0
VERTEX
  5
778
  8
TEAM-NET
 10
239.144195
 20
-23.941738
 30
779.28846
 70
    32
  0
VERTEX
  5
779
  8
TEAM-NET
 10
239.889656
 20
-24.054748
 30
778.931173
 70
    32
  0
VERTEX
  5
77A
  8
TEAM-NET
 10
240.77346
 20
-24.418588
 30
778.78947
 70
    32
  0
VERTEX
  5
77B
  8
TEAM-NET
 10
241.834188
 20
-25.138681
 30
778.972804
 70
    32
  0
VERTEX
  5
77C
  8
TEAM-NET
 10
242.687684
 20
-25.987679
 30
779.456727
 70
    32
  0
VERTEX
  5
77D
  8
TEAM-NET
 10
243.340581
 20
-26.934002
 30
780.192023
 70
    32
  0
VERTEX
  5
77E
  8
TEAM-NET
 10
243.344798
 20
-26.941738
 30
780.198747
 70
    32
  0
SEQEND
  5
77F
  8
TEAM-NET
  0
ARC
  5
780
  8
TEAM-NET
 10
26.941738
 20
134.268442
 30
-812.295083
 40
3.0
210
-0.447521
220
0.0
230
-0.894274
 50
180.0
 51
270.0
1001
ACAD
1000
R13OBJECT
1002
{
1005
7B
1002
}
  0
ARC
  5
781
  8
TEAM-NET
 10
26.941738
 20
6.853145
 30
-832.063516
 40
3.0
210
-0.304418
220
0.0
230
-0.952539
 50
180.0
 51
270.0
1001
ACAD
1000
R13OBJECT
1002
{
1005
7B
1002
}
  0
ARC
  5
782
  8
TEAM-NET
 10
26.941738
 20
-122.08653
 30
-831.967945
 40
3.0
210
-0.154048
220
-0.0
230
-0.988063
 50
180.0
 51
270.0
1001
ACAD
1000
R13OBJECT
1002
{
1005
7B
1002
}
  0
ARC
  5
783
  8
TEAM-NET
 10
192.472383
 20
812.010653
 30
24.820418
 40
59.12132
210
0.0
220
-1.0
230
0.0
 50
324.553715
 51
0.0
1001
ACAD
1000
R13OBJECT
1002
{
1005
7B
1002
}
  0
ARC
  5
7C
  8
TEAM-NET
 10
-30.388092
 20
690.460719
 30
-193.821179
 40
91.7912
210
0.157774
220
0.987475
230
-0.000366
 50
89.727904
 51
108.78141
  0
ARC
  5
784
  8
TEAM-NET
 10
-2.774635
 20
-195.836221
 30
777.499813
 40
30.0
210
0.002323
220
0.0
230
0.999997
 50
350.922271
 51
80.922271
1001
ACAD
1000
R13OBJECT
1002
{
1005
7C
1002
}
  0
ARC
  5
785
  8
TEAM-NET
 10
-2.774635
 20
-195.836221
 30
777.499813
 40
30.0
210
0.002323
220
0.0
230
0.999997
 50
80.922271
 51
170.922271
1001
ACAD
1000
R13OBJECT
1002
{
1005
7C
1002
}
  0
ARC
  5
786
  8
TEAM-NET
 10
29.095237
 20
690.463684
 30
193.821179
 40
91.7912
210
-0.157774
220
-0.987475
230
0.000366
 50
89.465091
 51
108.518597
1001
ACAD
1000
R13OBJECT
1002
{
1005
7C
1002
}
  0
LINE
  5
7D
  8
TEAM-NET
 10
-5.702048
 20
-225.460477
 30
777.515154
 11
-5.703957
 21
-225.460477
 31
776.693236
  0
ARC
  5
787
  8
TEAM-NET
 10
-2.774635
 20
-195.836221
 30
776.677893
 40
30.0
210
0.002323
220
0.0
230
0.999997
 50
260.922271
 51
80.922271
1001
ACAD
1000
R13OBJECT
1002
{
1005
7D
1002
}
  0
LINE
  5
788
  8
TEAM-NET
 10
3.764381
 20
-166.211965
 30
777.493167
 11
3.762472
 21
-166.211965
 31
776.67125
1001
ACAD
1000
R13OBJECT
1002
{
1005
7D
1002
}
  0
ARC
  5
789
  8
TEAM-NET
 10
-2.774635
 20
-195.836221
 30
777.499813
 40
30.0
210
0.002323
220
0.0
230
0.999997
 50
350.922271
 51
80.922271
1001
ACAD
1000
R13OBJECT
1002
{
1005
7D
1002
}
  0
ARC
  5
78A
  8
TEAM-NET
 10
-2.774635
 20
-195.836221
 30
777.499813
 40
30.0
210
0.002323
220
0.0
230
0.999997
 50
260.922271
 51
350.922271
1001
ACAD
1000
R13OBJECT
1002
{
1005
7D
1002
}
  0
LINE
  5
78B
  8
TEAM-NET
 10
28.653434
 20
-200.569448
 30
776.613439
 11
28.655343
 21
-200.569448
 31
777.435356
1001
ACAD
1000
R13OBJECT
1002
{
1005
7D
1002
}
  0
LINE
  5
7E
  8
TEAM-NET
 10
15.347539
 20
-182.618344
 30
776.644342
 11
3.206813
 21
-191.529489
 31
776.67254
  0
ARC
  5
78C
  8
TEAM-NET
 10
-2.774635
 20
-195.836221
 30
776.677893
 40
6.0
210
0.002323
220
-0.0
230
0.999997
 50
45.872209
 51
116.684073
1001
ACAD
1000
R13OBJECT
1002
{
1005
7E
1002
}
  0
LINE
  5
78D
  8
TEAM-NET
 10
-3.665159
 20
-190.475243
 30
776.688501
 11
-12.57628
 21
-178.334485
 31
776.709198
1001
ACAD
1000
R13OBJECT
1002
{
1005
7E
1002
}
  0
ARC
  5
78E
  8
TEAM-NET
 10
-2.774635
 20
-195.836221
 30
776.677893
 40
21.0
210
0.002323
220
-0.0
230
0.999997
 50
123.548739
 51
129.007544
1001
ACAD
1000
R13OBJECT
1002
{
1005
7E
1002
}
  0
LINE
  5
78F
  8
TEAM-NET
 10
-14.188584
 20
-179.517896
 30
776.712942
 11
-5.277463
 21
-191.658655
 31
776.692245
1001
ACAD
1000
R13OBJECT
1002
{
1005
7E
1002
}
  0
ARC
  5
790
  8
TEAM-NET
 10
-2.774635
 20
-195.836221
 30
776.677893
 40
6.0
210
0.002323
220
0.0
230
0.999997
 50
135.872209
 51
206.684073
1001
ACAD
1000
R13OBJECT
1002
{
1005
7E
1002
}
  0
LINE
  5
791
  8
TEAM-NET
 10
-6.331705
 20
-198.530645
 30
776.694694
 11
-18.472431
 21
-207.44179
 31
776.722892
1001
ACAD
1000
R13OBJECT
1002
{
1005
7E
1002
}
  0
ARC
  5
792
  8
TEAM-NET
 10
-2.774635
 20
-195.836221
 30
776.677893
 40
21.0
210
0.002323
220
-0.0
230
0.999997
 50
213.548739
 51
219.007544
1001
ACAD
1000
R13OBJECT
1002
{
1005
7E
1002
}
  0
LINE
  5
793
  8
TEAM-NET
 10
-17.289023
 20
-209.054098
 30
776.720143
 11
-5.148297
 21
-200.142953
 31
776.691945
1001
ACAD
1000
R13OBJECT
1002
{
1005
7E
1002
}
  0
ARC
  5
794
  8
TEAM-NET
 10
-2.774635
 20
-195.836221
 30
776.677893
 40
6.0
210
0.002323
220
0.0
230
0.999997
 50
225.872209
 51
296.684073
1001
ACAD
1000
R13OBJECT
1002
{
1005
7E
1002
}
  0
LINE
  5
795
  8
TEAM-NET
 10
1.723674
 20
-201.197198
 30
776.675985
 11
10.634795
 21
-213.337957
 31
776.655288
1001
ACAD
1000
R13OBJECT
1002
{
1005
7E
1002
}
  0
ARC
  5
796
  8
TEAM-NET
 10
-2.774635
 20
-195.836221
 30
776.677893
 40
21.0
210
0.002323
220
0.0
230
0.999997
 50
303.548739
 51
309.007544
1001
ACAD
1000
R13OBJECT
1002
{
1005
7E
1002
}
  0
LINE
  5
797
  8
TEAM-NET
 10
12.247099
 20
-212.154546
 30
776.651543
 11
3.335978
 21
-200.013787
 31
776.67224
1001
ACAD
1000
R13OBJECT
1002
{
1005
7E
1002
}
  0
ARC
  5
798
  8
TEAM-NET
 10
-2.774635
 20
-195.836221
 30
776.677893
 40
6.0
210
0.002323
220
0.0
230
0.999997
 50
315.872209
 51
26.684073
1001
ACAD
1000
R13OBJECT
1002
{
1005
7E
1002
}
  0
LINE
  5
799
  8
TEAM-NET
 10
4.390221
 20
-193.141797
 30
776.669792
 11
16.530947
 21
-184.230652
 31
776.641594
1001
ACAD
1000
R13OBJECT
1002
{
1005
7E
1002
}
  0
ARC
  5
79A
  8
TEAM-NET
 10
-2.774635
 20
-195.836221
 30
776.677893
 40
21.0
210
0.002323
220
-0.0
230
0.999997
 50
33.548739
 51
39.007544
1001
ACAD
1000
R13OBJECT
1002
{
1005
7E
1002
}
  0
ARC
  5
79B
  8
TEAM-NET
 10
-2.774635
 20
-195.836221
 30
776.677893
 40
30.0
210
0.002323
220
0.0
230
0.999997
 50
260.922271
 51
80.922271
1001
ACAD
1000
R13OBJECT
1002
{
1005
7E
1002
}
  0
ARC
  5
79C
  8
TEAM-NET
 10
-2.774635
 20
-195.836221
 30
776.677893
 40
30.0
210
0.002323
220
0.0
230
0.999997
 50
80.922271
 51
260.922271
1001
ACAD
1000
R13OBJECT
1002
{
1005
7E
1002
}
  0
LINE
  5
7F
  8
TEAM-NET
 10
-5.702048
 20
-225.460477
 30
777.515154
 11
-5.703957
 21
-225.460477
 31
776.693236
  0
ARC
  5
79D
  8
TEAM-NET
 10
-2.774635
 20
-195.836221
 30
777.499813
 40
30.0
210
0.002323
220
0.0
230
0.999997
 50
170.922271
 51
260.922271
1001
ACAD
1000
R13OBJECT
1002
{
1005
7F
1002
}
  0
ARC
  5
79E
  8
TEAM-NET
 10
-2.774635
 20
-195.836221
 30
777.499813
 40
30.0
210
0.002323
220
0.0
230
0.999997
 50
80.922271
 51
170.922271
1001
ACAD
1000
R13OBJECT
1002
{
1005
7F
1002
}
  0
LINE
  5
79F
  8
TEAM-NET
 10
3.764381
 20
-166.211965
 30
777.493167
 11
3.762472
 21
-166.211965
 31
776.67125
1001
ACAD
1000
R13OBJECT
1002
{
1005
7F
1002
}
  0
ARC
  5
7A0
  8
TEAM-NET
 10
-2.774635
 20
-195.836221
 30
776.677893
 40
30.0
210
0.002323
220
0.0
230
0.999997
 50
80.922271
 51
260.922271
1001
ACAD
1000
R13OBJECT
1002
{
1005
7F
1002
}
  0
LINE
  5
7A1
  8
TEAM-NET
 10
-30.594919
 20
-191.102994
 30
776.751047
 11
-30.59301
 21
-191.102994
 31
777.572965
1001
ACAD
1000
R13OBJECT
1002
{
1005
7F
1002
}
  0
ARC
  5
80
  8
TEAM-NET
 10
-30.388092
 20
690.460719
 30
-193.821179
 40
91.7912
210
0.157774
220
0.987475
230
-0.000366
 50
89.727904
 51
108.78141
  0
ARC
  5
7A2
  8
TEAM-NET
 10
29.095237
 20
690.463684
 30
193.821179
 40
91.7912
210
-0.157774
220
-0.987475
230
0.000366
 50
89.465091
 51
108.518597
1001
ACAD
1000
R13OBJECT
1002
{
1005
80
1002
}
  0
ARC
  5
7A3
  8
TEAM-NET
 10
-2.774635
 20
-195.836221
 30
777.499813
 40
30.0
210
0.002323
220
0.0
230
0.999997
 50
170.922271
 51
260.922271
1001
ACAD
1000
R13OBJECT
1002
{
1005
80
1002
}
  0
ARC
  5
7A4
  8
TEAM-NET
 10
-2.774635
 20
-195.836221
 30
777.499813
 40
30.0
210
0.002323
220
0.0
230
0.999997
 50
260.922271
 51
350.922271
1001
ACAD
1000
R13OBJECT
1002
{
1005
80
1002
}
  0
ARC
  5
81
  8
TEAM-NET
 10
-2.774635
 20
-195.836221
 30
776.677893
 40
31.895533
210
0.002323
220
0.0
230
0.999997
 50
180.0
 51
0.0
  0
ARC
  5
7A5
  8
TEAM-NET
 10
-2.774635
 20
-195.836221
 30
776.677893
 40
31.895533
210
0.002323
220
0.0
230
0.999997
 50
0.0
 51
180.0
1001
ACAD
1000
R13OBJECT
1002
{
1005
81
1002
}
  0
ARC
  5
7A6
  8
TEAM-NET
 10
-2.774635
 20
-195.836221
 30
776.677893
 40
32.697766
210
0.002323
220
0.0
230
0.999997
 50
180.0
 51
360.0
1001
ACAD
1000
R13OBJECT
1002
{
1005
81
1002
}
  0
ARC
  5
7A7
  8
TEAM-NET
 10
-2.774635
 20
-195.836221
 30
776.677893
 40
32.697766
210
0.002323
220
0.0
230
0.999997
 50
0.0
 51
180.0
1001
ACAD
1000
R13OBJECT
1002
{
1005
81
1002
}
  0
LINE
  5
82
  8
TEAM-NET
 10
33.916311
 20
-181.140524
 30
776.601215
 11
33.916311
 21
-210.531918
 31
776.601215
  0
ARC
  5
7A8
  8
TEAM-NET
 10
-2.774635
 20
-195.836221
 30
776.677893
 40
37.855997
210
0.002323
220
-0.0
230
0.999997
 50
360.0
 51
22.842542
1001
ACAD
1000
R13OBJECT
1002
{
1005
82
1002
}
  0
ARC
  5
7A9
  8
TEAM-NET
 10
-2.774635
 20
-195.836221
 30
776.677893
 40
37.855997
210
0.002323
220
0.0
230
0.999997
 50
337.157458
 51
360.0
1001
ACAD
1000
R13OBJECT
1002
{
1005
82
1002
}
  0
ARC
  5
83
  8
TEAM-NET
 10
-217.911868
 20
794.584732
 30
128.836221
 40
8.0
210
0.0
220
-1.0
230
0.0
 50
180.0
 51
266.866927
  0
LINE
  5
7AA
  8
TEAM-NET
 10
-225.911868
 20
-128.836221
 30
794.584732
 11
-225.911868
 21
-407.836221
 31
794.584732
1001
ACAD
1000
R13OBJECT
1002
{
1005
83
1002
}
  0
POLYLINE
  5
7AB
  8
TEAM-NET
 66
     1
 10
0.0
 20
0.0
 30
0.0
 70
     8
1001
ACAD
1000
R13OBJECT
1002
{
1005
83
1002
}
  0
VERTEX
  5
7AC
  8
TEAM-NET
 10
-220.487391
 20
-415.4103
 30
787.010653
 70
    32
  0
VERTEX
  5
7AD
  8
TEAM-NET
 10
-221.105483
 20
-415.171125
 30
787.249828
 70
    32
  0
VERTEX
  5
7AE
  8
TEAM-NET
 10
-221.701656
 20
-414.88161
 30
787.539343
 70
    32
  0
VERTEX
  5
7AF
  8
TEAM-NET
 10
-222.27182
 20
-414.543741
 30
787.877212
 70
    32
  0
VERTEX
  5
7B0
  8
TEAM-NET
 10
-222.81206
 20
-414.159837
 30
788.261116
 70
    32
  0
VERTEX
  5
7B1
  8
TEAM-NET
 10
-223.31867
 20
-413.732533
 30
788.68842
 70
    32
  0
VERTEX
  5
7B2
  8
TEAM-NET
 10
-223.788172
 20
-413.264762
 30
789.156191
 70
    32
  0
VERTEX
  5
7B3
  8
TEAM-NET
 10
-224.217344
 20
-412.759734
 30
789.661219
 70
    32
  0
VERTEX
  5
7B4
  8
TEAM-NET
 10
-224.60324
 20
-412.220915
 30
790.200038
 70
    32
  0
VERTEX
  5
7B5
  8
TEAM-NET
 10
-224.943213
 20
-411.652003
 30
790.76895
 70
    32
  0
VERTEX
  5
7B6
  8
TEAM-NET
 10
-225.234928
 20
-411.056903
 30
791.36405
 70
    32
  0
VERTEX
  5
7B7
  8
TEAM-NET
 10
-225.476384
 20
-410.439699
 30
791.981254
 70
    32
  0
VERTEX
  5
7B8
  8
TEAM-NET
 10
-225.665924
 20
-409.804627
 30
792.616326
 70
    32
  0
VERTEX
  5
7B9
  8
TEAM-NET
 10
-225.802246
 20
-409.156045
 30
793.264908
 70
    32
  0
VERTEX
  5
7BA
  8
TEAM-NET
 10
-225.884416
 20
-408.498405
 30
793.922548
 70
    32
  0
VERTEX
  5
7BB
  8
TEAM-NET
 10
-225.911868
 20
-407.836221
 30
794.584732
 70
    32
  0
SEQEND
  5
7BC
  8
TEAM-NET
  0
LINE
  5
7BD
  8
TEAM-NET
 10
-220.487391
 20
-430.836221
 30
787.010653
 11
-220.487391
 21
-415.4103
 31
787.010653
1001
ACAD
1000
R13OBJECT
1002
{
1005
83
1002
}
  0
ARC
  5
7BE
  8
TEAM-NET
 10
217.911868
 20
794.584732
 30
-430.836221
 40
8.0
210
0.0
220
1.0
230
0.0
 50
273.133073
 51
288.780313
1001
ACAD
1000
R13OBJECT
1002
{
1005
83
1002
}
  0
LINE
  5
7BF
  8
TEAM-NET
 10
-218.34911
 20
-430.836221
 30
786.59669
 11
-218.34911
 21
-128.836221
 31
786.59669
1001
ACAD
1000
R13OBJECT
1002
{
1005
83
1002
}
  0
LINE
  5
84
  8
TEAM-NET
 10
-218.34911
 20
-128.836221
 30
786.59669
 11
-0.911868
 21
-128.836221
 31
774.694825
  0
LINE
  5
7C0
  8
TEAM-NET
 10
-218.34911
 20
-430.836221
 30
786.59669
 11
-218.34911
 21
-128.836221
 31
786.59669
1001
ACAD
1000
R13OBJECT
1002
{
1005
84
1002
}
  0
LINE
  5
7C1
  8
TEAM-NET
 10
-0.911868
 20
-430.836221
 30
774.694825
 11
-218.34911
 21
-430.836221
 31
786.59669
1001
ACAD
1000
R13OBJECT
1002
{
1005
84
1002
}
  0
LINE
  5
7C2
  8
TEAM-NET
 10
-0.911868
 20
-231.295624
 30
774.694825
 11
-0.911868
 21
-430.836221
 31
774.694825
1001
ACAD
1000
R13OBJECT
1002
{
1005
84
1002
}
  0
POLYLINE
  5
7C3
  8
TEAM-NET
 66
     1
 10
0.0
 20
0.0
 30
773.48704
 70
   128
210
0.054655
220
0.0
230
0.998505
1001
ACAD
1000
R13OBJECT
1002
{
1005
84
1002
}
  0
VERTEX
  5
DE4
  8
TEAM-NET
 10
-160.376818
 20
43.251604
 30
773.48704
  0
VERTEX
  5
DE5
  8
TEAM-NET
 10
-160.288503
 20
47.797582
 30
773.48704
  0
VERTEX
  5
DE6
  8
TEAM-NET
 10
-160.774801
 20
52.31808
 30
773.48704
  0
VERTEX
  5
DE7
  8
TEAM-NET
 10
-161.827849
 20
56.740028
 30
773.48704
  0
VERTEX
  5
DE8
  8
TEAM-NET
 10
-163.430626
 20
60.991945
 30
773.48704
  0
VERTEX
  5
DE9
  8
TEAM-NET
 10
-165.557223
 20
65.005103
 30
773.48704
  0
VERTEX
  5
DEA
  8
TEAM-NET
 10
-168.173266
 20
68.71463
 30
773.48704
  0
VERTEX
  5
DEB
  8
TEAM-NET
 10
-171.236468
 20
72.060564
 30
773.48704
  0
VERTEX
  5
DEC
  8
TEAM-NET
 10
-174.697312
 20
74.988819
 30
773.48704
  0
VERTEX
  5
DED
  8
TEAM-NET
 10
-178.499857
 20
77.452061
 30
773.48704
  0
VERTEX
  5
DEE
  8
TEAM-NET
 10
-182.582635
 20
79.410473
 30
773.48704
  0
VERTEX
  5
DEF
  8
TEAM-NET
 10
-186.879652
 20
80.832399
 30
773.48704
  0
VERTEX
  5
DF0
  8
TEAM-NET
 10
-191.321447
 20
81.694854
 30
773.48704
  0
VERTEX
  5
DF1
  8
TEAM-NET
 10
-195.836221
 20
81.983896
 30
773.48704
  0
VERTEX
  5
DF2
  8
TEAM-NET
 10
-200.350995
 20
81.694854
 30
773.48704
  0
VERTEX
  5
DF3
  8
TEAM-NET
 10
-204.79279
 20
80.832399
 30
773.48704
  0
VERTEX
  5
DF4
  8
TEAM-NET
 10
-209.089807
 20
79.410473
 30
773.48704
  0
VERTEX
  5
DF5
  8
TEAM-NET
 10
-213.172585
 20
77.452061
 30
773.48704
  0
VERTEX
  5
DF6
  8
TEAM-NET
 10
-216.97513
 20
74.988819
 30
773.48704
  0
VERTEX
  5
DF7
  8
TEAM-NET
 10
-220.435974
 20
72.060564
 30
773.48704
  0
VERTEX
  5
DF8
  8
TEAM-NET
 10
-223.499176
 20
68.71463
 30
773.48704
  0
VERTEX
  5
DF9
  8
TEAM-NET
 10
-226.115219
 20
65.005103
 30
773.48704
  0
VERTEX
  5
DFA
  8
TEAM-NET
 10
-228.241816
 20
60.991945
 30
773.48704
  0
VERTEX
  5
DFB
  8
TEAM-NET
 10
-229.844593
 20
56.740028
 30
773.48704
  0
VERTEX
  5
DFC
  8
TEAM-NET
 10
-230.897641
 20
52.31808
 30
773.48704
  0
VERTEX
  5
DFD
  8
TEAM-NET
 10
-231.383938
 20
47.797582
 30
773.48704
  0
VERTEX
  5
DFE
  8
TEAM-NET
 10
-231.295624
 20
43.251604
 30
773.48704
  0
SEQEND
  5
DFF
  8
TEAM-NET
  0
LINE
  5
7E0
  8
TEAM-NET
 10
-0.911868
 20
-128.836221
 30
774.694825
 11
-0.911868
 21
-160.376818
 31
774.694825
1001
ACAD
1000
R13OBJECT
1002
{
1005
84
1002
}
  0
ARC
  5
85
  8
TEAM-NET
 10
-216.088132
 20
794.584732
 30
-430.836221
 40
8.0
210
0.0
220
1.0
230
0.0
 50
251.219687
 51
266.866927
  0
LINE
  5
7E1
  8
TEAM-NET
 10
216.525373
 20
-430.836221
 30
786.59669
 11
-0.911868
 21
-430.836221
 31
774.694825
1001
ACAD
1000
R13OBJECT
1002
{
1005
85
1002
}
  0
LINE
  5
7E2
  8
TEAM-NET
 10
-0.911868
 20
-430.836221
 30
774.694825
 11
-218.34911
 21
-430.836221
 31
786.59669
1001
ACAD
1000
R13OBJECT
1002
{
1005
85
1002
}
  0
ARC
  5
7E3
  8
TEAM-NET
 10
217.911868
 20
794.584732
 30
-430.836221
 40
8.0
210
0.0
220
1.0
230
0.0
 50
273.133073
 51
288.780313
1001
ACAD
1000
R13OBJECT
1002
{
1005
85
1002
}
  0
LINE
  5
7E4
  8
TEAM-NET
 10
-220.487391
 20
-430.836221
 30
787.010653
 11
218.663655
 21
-430.836221
 31
787.010653
1001
ACAD
1000
R13OBJECT
1002
{
1005
85
1002
}
  0
LINE
  5
86
  8
TEAM-NET
 10
218.663655
 20
-415.4103
 30
787.010653
 11
218.663655
 21
-430.836221
 31
787.010653
  0
LINE
  5
7E5
  8
TEAM-NET
 10
-220.487391
 20
-430.836221
 30
787.010653
 11
218.663655
 21
-430.836221
 31
787.010653
1001
ACAD
1000
R13OBJECT
1002
{
1005
86
1002
}
  0
LINE
  5
7E6
  8
TEAM-NET
 10
-220.487391
 20
-430.836221
 30
787.010653
 11
-220.487391
 21
-415.4103
 31
787.010653
1001
ACAD
1000
R13OBJECT
1002
{
1005
86
1002
}
  0
ARC
  5
7E7
  8
TEAM-NET
 10
-217.911868
 20
-407.836221
 30
787.010653
 40
8.0
 50
251.219687
 51
270.0
1001
ACAD
1000
R13OBJECT
1002
{
1005
86
1002
}
  0
LINE
  5
7E8
  8
TEAM-NET
 10
-217.911868
 20
-415.836221
 30
787.010653
 11
216.088132
 21
-415.836221
 31
787.010653
1001
ACAD
1000
R13OBJECT
1002
{
1005
86
1002
}
  0
ARC
  5
7E9
  8
TEAM-NET
 10
-216.088132
 20
-407.836221
 30
-787.010653
 40
8.0
210
0.0
220
0.0
230
-1.0
 50
251.219687
 51
270.0
1001
ACAD
1000
R13OBJECT
1002
{
1005
86
1002
}
  0
ARC
  5
87
  8
TEAM-NET
 10
-128.836221
 20
781.586717
 30
259.193328
 40
8.0
210
0.998505
220
-0.0
230
0.054655
 50
270.0
 51
0.0
  0
ARC
  5
7EA
  8
TEAM-NET
 10
-216.088132
 20
794.584732
 30
-128.836221
 40
8.0
210
0.0
220
1.0
230
0.0
 50
180.0
 51
266.866927
1001
ACAD
1000
R13OBJECT
1002
{
1005
87
1002
}
  0
ARC
  5
7EB
  8
TEAM-NET
 10
216.088132
 20
-128.836221
 30
794.584732
 40
8.0
 50
0.0
 51
90.0
1001
ACAD
1000
R13OBJECT
1002
{
1005
87
1002
}
  0
ARC
  5
88
  8
TEAM-NET
 10
128.836221
 20
781.48704
 30
261.014338
 40
8.0
210
-0.998505
220
-0.0
230
0.054655
 50
180.0
 51
270.0
  0
ARC
  5
7EC
  8
TEAM-NET
 10
-217.911868
 20
-128.836221
 30
794.584732
 40
8.0
 50
90.0
 51
180.0
1001
ACAD
1000
R13OBJECT
1002
{
1005
88
1002
}
  0
ARC
  5
7ED
  8
TEAM-NET
 10
-217.911868
 20
794.584732
 30
128.836221
 40
8.0
210
0.0
220
-1.0
230
0.0
 50
180.0
 51
266.866927
1001
ACAD
1000
R13OBJECT
1002
{
1005
88
1002
}
  0
ARC
  5
89
  8
TEAM-NET
 10
-128.836221
 20
781.586717
 30
259.193328
 40
8.0
210
0.998505
220
-0.0
230
0.054655
 50
270.0
 51
0.0
  0
LINE
  5
7EE
  8
TEAM-NET
 10
216.088132
 20
-120.836221
 30
794.584732
 11
-0.911868
 21
-120.836221
 31
782.7068
1001
ACAD
1000
R13OBJECT
1002
{
1005
89
1002
}
  0
POLYLINE
  5
7EF
  8
TEAM-NET
 66
     1
 10
0.0
 20
0.0
 30
-0.911868
 70
   128
210
1.0
220
0.0
230
0.0
1001
ACAD
1000
R13OBJECT
1002
{
1005
89
1002
}
  0
VERTEX
  5
E00
  8
TEAM-NET
 10
-128.836221
 20
774.694825
 30
-0.911868
  0
VERTEX
  5
E01
  8
TEAM-NET
 10
-127.792011
 20
774.763368
 30
-0.911868
  0
VERTEX
  5
E02
  8
TEAM-NET
 10
-126.765669
 20
774.967826
 30
-0.911868
  0
VERTEX
  5
E03
  8
TEAM-NET
 10
-125.774754
 20
775.3047
 30
-0.911868
  0
VERTEX
  5
E04
  8
TEAM-NET
 10
-124.836221
 20
775.768226
 30
-0.911868
  0
VERTEX
  5
E05
  8
TEAM-NET
 10
-123.96613
 20
776.350473
 30
-0.911868
  0
VERTEX
  5
E06
  8
TEAM-NET
 10
-123.179367
 20
777.041478
 30
-0.911868
  0
VERTEX
  5
E07
  8
TEAM-NET
 10
-122.489394
 20
777.829418
 30
-0.911868
  0
VERTEX
  5
E08
  8
TEAM-NET
 10
-121.908018
 20
778.700812
 30
-0.911868
  0
VERTEX
  5
E09
  8
TEAM-NET
 10
-121.445185
 20
779.64075
 30
-0.911868
  0
VERTEX
  5
E0A
  8
TEAM-NET
 10
-121.108814
 20
780.633148
 30
-0.911868
  0
VERTEX
  5
E0B
  8
TEAM-NET
 10
-120.904662
 20
781.661028
 30
-0.911868
  0
VERTEX
  5
E0C
  8
TEAM-NET
 10
-120.836221
 20
782.7068
 30
-0.911868
  0
SEQEND
  5
E0D
  8
TEAM-NET
  0
LINE
  5
7FE
  8
TEAM-NET
 10
-0.911868
 20
-128.836221
 30
774.694825
 11
216.525373
 21
-128.836221
 31
786.59669
1001
ACAD
1000
R13OBJECT
1002
{
1005
89
1002
}
  0
ARC
  5
8A
  8
TEAM-NET
 10
128.836221
 20
781.48704
 30
261.014338
 40
8.0
210
-0.998505
220
-0.0
230
0.054655
 50
180.0
 51
270.0
  0
LINE
  5
7FF
  8
TEAM-NET
 10
-218.34911
 20
-128.836221
 30
786.59669
 11
-0.911868
 21
-128.836221
 31
774.694825
1001
ACAD
1000
R13OBJECT
1002
{
1005
8A
1002
}
  0
POLYLINE
  5
800
  8
TEAM-NET
 66
     1
 10
0.0
 20
0.0
 30
-0.911868
 70
   128
210
1.0
220
0.0
230
0.0
1001
ACAD
1000
R13OBJECT
1002
{
1005
8A
1002
}
  0
VERTEX
  5
E0E
  8
TEAM-NET
 10
-128.836221
 20
774.694825
 30
-0.911868
  0
VERTEX
  5
E0F
  8
TEAM-NET
 10
-127.792011
 20
774.763368
 30
-0.911868
  0
VERTEX
  5
E10
  8
TEAM-NET
 10
-126.765669
 20
774.967826
 30
-0.911868
  0
VERTEX
  5
E11
  8
TEAM-NET
 10
-125.774754
 20
775.3047
 30
-0.911868
  0
VERTEX
  5
E12
  8
TEAM-NET
 10
-124.836221
 20
775.768226
 30
-0.911868
  0
VERTEX
  5
E13
  8
TEAM-NET
 10
-123.96613
 20
776.350473
 30
-0.911868
  0
VERTEX
  5
E14
  8
TEAM-NET
 10
-123.179367
 20
777.041478
 30
-0.911868
  0
VERTEX
  5
E15
  8
TEAM-NET
 10
-122.489394
 20
777.829418
 30
-0.911868
  0
VERTEX
  5
E16
  8
TEAM-NET
 10
-121.908018
 20
778.700812
 30
-0.911868
  0
VERTEX
  5
E17
  8
TEAM-NET
 10
-121.445185
 20
779.64075
 30
-0.911868
  0
VERTEX
  5
E18
  8
TEAM-NET
 10
-121.108814
 20
780.633148
 30
-0.911868
  0
VERTEX
  5
E19
  8
TEAM-NET
 10
-120.904662
 20
781.661028
 30
-0.911868
  0
VERTEX
  5
E1A
  8
TEAM-NET
 10
-120.836221
 20
782.7068
 30
-0.911868
  0
SEQEND
  5
E1B
  8
TEAM-NET
  0
LINE
  5
80F
  8
TEAM-NET
 10
-0.911868
 20
-120.836221
 30
782.7068
 11
-217.911868
 21
-120.836221
 31
794.584732
1001
ACAD
1000
R13OBJECT
1002
{
1005
8A
1002
}
  0
POLYLINE
  5
8B
  8
TEAM-NET
 66
     1
 10
0.0
 20
0.0
 30
0.0
 70
     8
  0
VERTEX
  5
810
  8
TEAM-NET
 10
224.088132
 20
-407.836221
 30
794.584732
 70
    32
  0
VERTEX
  5
811
  8
TEAM-NET
 10
224.060679
 20
-408.498405
 30
793.922548
 70
    32
  0
VERTEX
  5
812
  8
TEAM-NET
 10
223.97851
 20
-409.156045
 30
793.264908
 70
    32
  0
VERTEX
  5
813
  8
TEAM-NET
 10
223.842187
 20
-409.804627
 30
792.616326
 70
    32
  0
VERTEX
  5
814
  8
TEAM-NET
 10
223.652648
 20
-410.439699
 30
791.981254
 70
    32
  0
VERTEX
  5
815
  8
TEAM-NET
 10
223.411192
 20
-411.056903
 30
791.36405
 70
    32
  0
VERTEX
  5
816
  8
TEAM-NET
 10
223.119476
 20
-411.652003
 30
790.76895
 70
    32
  0
VERTEX
  5
817
  8
TEAM-NET
 10
222.779504
 20
-412.220915
 30
790.200038
 70
    32
  0
VERTEX
  5
818
  8
TEAM-NET
 10
222.393607
 20
-412.759734
 30
789.661219
 70
    32
  0
VERTEX
  5
819
  8
TEAM-NET
 10
221.964435
 20
-413.264762
 30
789.156191
 70
    32
  0
VERTEX
  5
81A
  8
TEAM-NET
 10
221.494933
 20
-413.732533
 30
788.68842
 70
    32
  0
VERTEX
  5
81B
  8
TEAM-NET
 10
220.988324
 20
-414.159837
 30
788.261116
 70
    32
  0
VERTEX
  5
81C
  8
TEAM-NET
 10
220.448083
 20
-414.543741
 30
787.877212
 70
    32
  0
VERTEX
  5
81D
  8
TEAM-NET
 10
219.87792
 20
-414.88161
 30
787.539343
 70
    32
  0
VERTEX
  5
81E
  8
TEAM-NET
 10
219.281747
 20
-415.171125
 30
787.249828
 70
    32
  0
VERTEX
  5
81F
  8
TEAM-NET
 10
218.663655
 20
-415.4103
 30
787.010653
 70
    32
  0
SEQEND
  5
820
  8
TEAM-NET
  0
LINE
  5
821
  8
TEAM-NET
 10
224.088132
 20
-407.836221
 30
794.584732
 11
224.088132
 21
-128.836221
 31
794.584732
1001
ACAD
1000
R13OBJECT
1002
{
1005
8B
1002
}
  0
ARC
  5
822
  8
TEAM-NET
 10
-216.088132
 20
794.584732
 30
-128.836221
 40
8.0
210
0.0
220
1.0
230
0.0
 50
180.0
 51
266.866927
1001
ACAD
1000
R13OBJECT
1002
{
1005
8B
1002
}
  0
LINE
  5
823
  8
TEAM-NET
 10
216.525373
 20
-128.836221
 30
786.59669
 11
216.525373
 21
-430.836221
 31
786.59669
1001
ACAD
1000
R13OBJECT
1002
{
1005
8B
1002
}
  0
ARC
  5
824
  8
TEAM-NET
 10
-216.088132
 20
794.584732
 30
-430.836221
 40
8.0
210
0.0
220
1.0
230
0.0
 50
251.219687
 51
266.866927
1001
ACAD
1000
R13OBJECT
1002
{
1005
8B
1002
}
  0
LINE
  5
825
  8
TEAM-NET
 10
218.663655
 20
-415.4103
 30
787.010653
 11
218.663655
 21
-430.836221
 31
787.010653
1001
ACAD
1000
R13OBJECT
1002
{
1005
8B
1002
}
  0
LINE
  5
8C
  8
TEAM-NET
 10
243.344798
 20
-26.941738
 30
780.198747
 11
243.344798
 21
-92.836221
 31
780.198747
  0
ARC
  5
826
  8
TEAM-NET
 10
-240.801177
 20
781.789342
 30
-92.836221
 40
3.0
210
0.0
220
1.0
230
0.0
 50
212.018863
 51
360.0
1001
ACAD
1000
R13OBJECT
1002
{
1005
8C
1002
}
  0
LINE
  5
827
  8
TEAM-NET
 10
237.801177
 20
-92.836221
 30
781.789342
 11
237.801177
 21
-23.941738
 31
781.789342
1001
ACAD
1000
R13OBJECT
1002
{
1005
8C
1002
}
  0
ARC
  5
828
  8
TEAM-NET
 10
240.801177
 20
781.789342
 30
23.941738
 40
3.0
210
0.0
220
-1.0
230
0.0
 50
180.0
 51
236.473179
1001
ACAD
1000
R13OBJECT
1002
{
1005
8C
1002
}
  0
POLYLINE
  5
829
  8
TEAM-NET
 66
     1
 10
0.0
 20
0.0
 30
0.0
 70
     8
1001
ACAD
1000
R13OBJECT
1002
{
1005
8C
1002
}
  0
VERTEX
  5
82A
  8
TEAM-NET
 10
239.144195
 20
-23.941738
 30
779.28846
 70
    32
  0
VERTEX
  5
82B
  8
TEAM-NET
 10
239.889656
 20
-24.054748
 30
778.931173
 70
    32
  0
VERTEX
  5
82C
  8
TEAM-NET
 10
240.77346
 20
-24.418588
 30
778.78947
 70
    32
  0
VERTEX
  5
82D
  8
TEAM-NET
 10
241.834188
 20
-25.138681
 30
778.972804
 70
    32
  0
VERTEX
  5
82E
  8
TEAM-NET
 10
242.687684
 20
-25.987679
 30
779.456727
 70
    32
  0
VERTEX
  5
82F
  8
TEAM-NET
 10
243.340581
 20
-26.934002
 30
780.192023
 70
    32
  0
VERTEX
  5
830
  8
TEAM-NET
 10
243.344798
 20
-26.941738
 30
780.198747
 70
    32
  0
SEQEND
  5
831
  8
TEAM-NET
  0
LINE
  5
832
  8
TEAM-NET
 10
239.97379
 20
-92.836221
 30
778.905693
 11
239.97379
 21
-23.941738
 31
778.905693
1001
ACAD
1000
R13OBJECT
1002
{
1005
8C
1002
}
  0
LINE
  5
8D
  8
TEAM-NET
 10
237.801177
 20
-20.836221
 30
825.010653
 11
-239.911868
 21
-20.836221
 31
825.010653
  0
LINE
  5
833
  8
TEAM-NET
 10
237.801177
 20
-20.836221
 30
825.010653
 11
237.801177
 21
-20.836221
 31
854.010653
1001
ACAD
1000
R13OBJECT
1002
{
1005
8D
1002
}
  0
LINE
  5
834
  8
TEAM-NET
 10
-239.911868
 20
-20.836221
 30
854.010653
 11
237.801177
 21
-20.836221
 31
854.010653
1001
ACAD
1000
R13OBJECT
1002
{
1005
8D
1002
}
  0
LINE
  5
835
  8
TEAM-NET
 10
-239.911868
 20
-20.836221
 30
825.010653
 11
-239.911868
 21
-20.836221
 31
854.010653
1001
ACAD
1000
R13OBJECT
1002
{
1005
8D
1002
}
  0
LINE
  5
8E
  8
TEAM-NET
 10
-13.411868
 20
-117.836221
 30
852.010653
 11
-13.411868
 21
-105.836221
 31
852.010653
  0
ARC
  5
836
  8
TEAM-NET
 10
0.911868
 20
852.010653
 30
-117.836221
 40
12.5
210
0.0
220
1.0
230
0.0
 50
270.0
 51
360.0
1001
ACAD
1000
R13OBJECT
1002
{
1005
8E
1002
}
  0
ARC
  5
837
  8
TEAM-NET
 10
0.911868
 20
852.010653
 30
-117.836221
 40
12.5
210
0.0
220
1.0
230
0.0
 50
180.0
 51
270.0
1001
ACAD
1000
R13OBJECT
1002
{
1005
8E
1002
}
  0
LINE
  5
838
  8
TEAM-NET
 10
11.588132
 20
-117.836221
 30
852.010653
 11
11.588132
 21
-105.836221
 31
852.010653
1001
ACAD
1000
R13OBJECT
1002
{
1005
8E
1002
}
  0
ARC
  5
839
  8
TEAM-NET
 10
-0.911868
 20
852.010653
 30
105.836221
 40
12.5
210
0.0
220
-1.0
230
0.0
 50
180.0
 51
0.0
1001
ACAD
1000
R13OBJECT
1002
{
1005
8E
1002
}
  0
ARC
  5
8F
  8
TEAM-NET
 10
-271.088132
 20
825.010653
 30
-8.836221
 40
3.0
210
0.0
220
1.0
230
0.0
 50
180.0
 51
270.0
  0
LINE
  5
83A
  8
TEAM-NET
 10
274.088132
 20
-8.836221
 30
825.010653
 11
274.088132
 21
-457.836221
 31
825.010653
1001
ACAD
1000
R13OBJECT
1002
{
1005
8F
1002
}
  0
ARC
  5
83B
  8
TEAM-NET
 10
271.088132
 20
825.010653
 30
457.836221
 40
3.0
210
0.0
220
-1.0
230
0.0
 50
270.0
 51
0.0
1001
ACAD
1000
R13OBJECT
1002
{
1005
8F
1002
}
  0
LINE
  5
83C
  8
TEAM-NET
 10
271.088132
 20
-457.836221
 30
822.010653
 11
271.088132
 21
-8.836221
 31
822.010653
1001
ACAD
1000
R13OBJECT
1002
{
1005
8F
1002
}
  0
LINE
  5
83D
  8
TEAM-NET
 10
273.209452
 20
-457.836221
 30
822.889332
 11
273.209452
 21
-8.836221
 31
822.889332
1001
ACAD
1000
R13OBJECT
1002
{
1005
8F
1002
}
  0
ARC
  5
90
  8
TEAM-NET
 10
271.088132
 20
825.010653
 30
457.836221
 40
3.0
210
0.0
220
-1.0
230
0.0
 50
270.0
 51
0.0
  0
ARC
  5
83E
  8
TEAM-NET
 10
-266.088132
 20
-457.836221
 30
-825.010653
 40
8.0
210
0.0
220
0.0
230
-1.0
 50
180.0
 51
270.0
1001
ACAD
1000
R13OBJECT
1002
{
1005
90
1002
}
  0
ARC
  5
83F
  8
TEAM-NET
 10
462.836221
 20
825.010653
 30
-266.088132
 40
3.0
210
-1.0
220
0.0
230
0.0
 50
270.0
 51
360.0
1001
ACAD
1000
R13OBJECT
1002
{
1005
90
1002
}
  0
ARC
  5
840
  8
TEAM-NET
 10
266.088132
 20
-457.836221
 30
822.010653
 40
5.0
 50
270.0
 51
0.0
1001
ACAD
1000
R13OBJECT
1002
{
1005
90
1002
}
  0
ARC
  5
841
  8
TEAM-NET
 10
266.088132
 20
-457.836221
 30
822.889332
 40
7.12132
 50
270.0
 51
360.0
1001
ACAD
1000
R13OBJECT
1002
{
1005
90
1002
}
  0
ARC
  5
91
  8
TEAM-NET
 10
-271.088132
 20
825.010653
 30
-8.836221
 40
3.0
210
0.0
220
1.0
230
0.0
 50
180.0
 51
270.0
  0
ARC
  5
842
  8
TEAM-NET
 10
266.088132
 20
-8.836221
 30
822.010653
 40
5.0
 50
360.0
 51
90.0
1001
ACAD
1000
R13OBJECT
1002
{
1005
91
1002
}
  0
ARC
  5
843
  8
TEAM-NET
 10
3.836221
 20
825.010653
 30
-266.088132
 40
3.0
210
-1.0
220
0.0
230
0.0
 50
180.0
 51
270.0
1001
ACAD
1000
R13OBJECT
1002
{
1005
91
1002
}
  0
ARC
  5
844
  8
TEAM-NET
 10
-266.088132
 20
-8.836221
 30
-825.010653
 40
8.0
210
0.0
220
0.0
230
-1.0
 50
90.0
 51
180.0
1001
ACAD
1000
R13OBJECT
1002
{
1005
91
1002
}
  0
ARC
  5
845
  8
TEAM-NET
 10
266.088132
 20
-8.836221
 30
822.889332
 40
7.12132
 50
0.0
 51
90.0
1001
ACAD
1000
R13OBJECT
1002
{
1005
91
1002
}
  0
ARC
  5
92
  8
TEAM-NET
 10
462.836221
 20
825.010653
 30
-266.088132
 40
3.0
210
-1.0
220
0.0
230
0.0
 50
270.0
 51
360.0
  0
LINE
  5
846
  8
TEAM-NET
 10
266.088132
 20
-465.836221
 30
825.010653
 11
-267.911868
 21
-465.836221
 31
825.010653
1001
ACAD
1000
R13OBJECT
1002
{
1005
92
1002
}
  0
ARC
  5
847
  8
TEAM-NET
 10
462.836221
 20
825.010653
 30
267.911868
 40
3.0
210
-1.0
220
0.0
230
0.0
 50
270.0
 51
360.0
1001
ACAD
1000
R13OBJECT
1002
{
1005
92
1002
}
  0
LINE
  5
848
  8
TEAM-NET
 10
-267.911868
 20
-462.836221
 30
822.010653
 11
266.088132
 21
-462.836221
 31
822.010653
1001
ACAD
1000
R13OBJECT
1002
{
1005
92
1002
}
  0
LINE
  5
849
  8
TEAM-NET
 10
-267.911868
 20
-464.957541
 30
822.889332
 11
266.088132
 21
-464.957541
 31
822.889332
1001
ACAD
1000
R13OBJECT
1002
{
1005
92
1002
}
  0
ARC
  5
93
  8
TEAM-NET
 10
3.836221
 20
825.010653
 30
-266.088132
 40
3.0
210
-1.0
220
0.0
230
0.0
 50
180.0
 51
270.0
  0
LINE
  5
84A
  8
TEAM-NET
 10
266.088132
 20
-3.836221
 30
822.010653
 11
-267.911868
 21
-3.836221
 31
822.010653
1001
ACAD
1000
R13OBJECT
1002
{
1005
93
1002
}
  0
ARC
  5
84B
  8
TEAM-NET
 10
3.836221
 20
825.010653
 30
267.911868
 40
3.0
210
-1.0
220
0.0
230
0.0
 50
180.0
 51
270.0
1001
ACAD
1000
R13OBJECT
1002
{
1005
93
1002
}
  0
LINE
  5
84C
  8
TEAM-NET
 10
-267.911868
 20
-0.836221
 30
825.010653
 11
266.088132
 21
-0.836221
 31
825.010653
1001
ACAD
1000
R13OBJECT
1002
{
1005
93
1002
}
  0
LINE
  5
84D
  8
TEAM-NET
 10
266.088132
 20
-1.714901
 30
822.889332
 11
-267.911868
 21
-1.714901
 31
822.889332
1001
ACAD
1000
R13OBJECT
1002
{
1005
93
1002
}
  0
ARC
  5
94
  8
TEAM-NET
 10
462.836221
 20
825.010653
 30
267.911868
 40
3.0
210
-1.0
220
0.0
230
0.0
 50
270.0
 51
360.0
  0
ARC
  5
84E
  8
TEAM-NET
 10
267.911868
 20
-457.836221
 30
-825.010653
 40
8.0
210
0.0
220
0.0
230
-1.0
 50
270.0
 51
360.0
1001
ACAD
1000
R13OBJECT
1002
{
1005
94
1002
}
  0
ARC
  5
84F
  8
TEAM-NET
 10
272.911868
 20
825.010653
 30
-457.836221
 40
3.0
210
0.0
220
1.0
230
0.0
 50
270.0
 51
360.0
1001
ACAD
1000
R13OBJECT
1002
{
1005
94
1002
}
  0
ARC
  5
850
  8
TEAM-NET
 10
-267.911868
 20
-457.836221
 30
822.010653
 40
5.0
 50
180.0
 51
270.0
1001
ACAD
1000
R13OBJECT
1002
{
1005
94
1002
}
  0
ARC
  5
851
  8
TEAM-NET
 10
-267.911868
 20
-457.836221
 30
822.889332
 40
7.12132
 50
180.0
 51
270.0
1001
ACAD
1000
R13OBJECT
1002
{
1005
94
1002
}
  0
ARC
  5
95
  8
TEAM-NET
 10
3.836221
 20
825.010653
 30
267.911868
 40
3.0
210
-1.0
220
0.0
230
0.0
 50
180.0
 51
270.0
  0
ARC
  5
852
  8
TEAM-NET
 10
-267.911868
 20
-8.836221
 30
822.010653
 40
5.0
 50
90.0
 51
180.0
1001
ACAD
1000
R13OBJECT
1002
{
1005
95
1002
}
  0
ARC
  5
853
  8
TEAM-NET
 10
-272.911868
 20
825.010653
 30
8.836221
 40
3.0
210
0.0
220
-1.0
230
0.0
 50
180.0
 51
270.0
1001
ACAD
1000
R13OBJECT
1002
{
1005
95
1002
}
  0
ARC
  5
854
  8
TEAM-NET
 10
267.911868
 20
-8.836221
 30
-825.010653
 40
8.0
210
0.0
220
0.0
230
-1.0
 50
0.0
 51
90.0
1001
ACAD
1000
R13OBJECT
1002
{
1005
95
1002
}
  0
ARC
  5
855
  8
TEAM-NET
 10
-267.911868
 20
-8.836221
 30
822.889332
 40
7.12132
 50
90.0
 51
180.0
1001
ACAD
1000
R13OBJECT
1002
{
1005
95
1002
}
  0
ARC
  5
96
  8
TEAM-NET
 10
-272.911868
 20
825.010653
 30
8.836221
 40
3.0
210
0.0
220
-1.0
230
0.0
 50
180.0
 51
270.0
  0
LINE
  5
856
  8
TEAM-NET
 10
-272.911868
 20
-8.836221
 30
822.010653
 11
-272.911868
 21
-457.836221
 31
822.010653
1001
ACAD
1000
R13OBJECT
1002
{
1005
96
1002
}
  0
ARC
  5
857
  8
TEAM-NET
 10
272.911868
 20
825.010653
 30
-457.836221
 40
3.0
210
0.0
220
1.0
230
0.0
 50
270.0
 51
360.0
1001
ACAD
1000
R13OBJECT
1002
{
1005
96
1002
}
  0
LINE
  5
858
  8
TEAM-NET
 10
-275.911868
 20
-457.836221
 30
825.010653
 11
-275.911868
 21
-8.836221
 31
825.010653
1001
ACAD
1000
R13OBJECT
1002
{
1005
96
1002
}
  0
LINE
  5
859
  8
TEAM-NET
 10
-275.033189
 20
-8.836221
 30
822.889332
 11
-275.033189
 21
-457.836221
 31
822.889332
1001
ACAD
1000
R13OBJECT
1002
{
1005
96
1002
}
  0
ARC
  5
97
  8
TEAM-NET
 10
20.941738
 20
819.010653
 30
-249.472383
 40
3.0
210
-1.0
220
0.0
230
0.0
 50
360.0
 51
90.0
  0
LINE
  5
85A
  8
TEAM-NET
 10
249.472383
 20
-23.941738
 30
819.010653
 11
237.801177
 21
-23.941738
 31
819.010653
1001
ACAD
1000
R13OBJECT
1002
{
1005
97
1002
}
  0
ARC
  5
85B
  8
TEAM-NET
 10
20.941738
 20
819.010653
 30
-237.801177
 40
3.0
210
-1.0
220
0.0
230
0.0
 50
0.0
 51
90.0
1001
ACAD
1000
R13OBJECT
1002
{
1005
97
1002
}
  0
LINE
  5
85C
  8
TEAM-NET
 10
237.801177
 20
-20.941738
 30
822.010653
 11
249.472383
 21
-20.941738
 31
822.010653
1001
ACAD
1000
R13OBJECT
1002
{
1005
97
1002
}
  0
POLYLINE
  5
98
  8
TEAM-NET
 66
     1
 10
0.0
 20
0.0
 30
-239.911868
 70
   128
210
1.0
220
0.0
230
0.0
  0
VERTEX
  5
CB3
  8
TEAM-NET
 10
-21.745585
 20
822.010653
 30
-239.911868
  0
VERTEX
  5
CB4
  8
TEAM-NET
 10
-22.082028
 20
821.996711
 30
-239.911868
  0
VERTEX
  5
CB5
  8
TEAM-NET
 10
-23.378211
 20
821.693849
 30
-239.911868
  0
VERTEX
  5
CB6
  8
TEAM-NET
 10
-23.936034
 20
821.444961
 30
-239.911868
  0
VERTEX
  5
CB7
  8
TEAM-NET
 10
-24.385541
 20
821.192833
 30
-239.911868
  0
VERTEX
  5
CB8
  8
TEAM-NET
 10
-25.903457
 20
820.019148
 30
-239.911868
  0
VERTEX
  5
CB9
  8
TEAM-NET
 10
-26.941731
 20
819.01066
 30
-239.911868
  0
VERTEX
  5
CBA
  8
TEAM-NET
 10
-26.941738
 20
819.010653
 30
-239.911868
  0
SEQEND
  5
CBB
  8
TEAM-NET
  0
ARC
  5
866
  8
TEAM-NET
 10
-242.911868
 20
-26.941738
 30
819.010653
 40
3.0
 50
0.0
 51
90.0
1001
ACAD
1000
R13OBJECT
1002
{
1005
98
1002
}
  0
ARC
  5
867
  8
TEAM-NET
 10
-20.941738
 20
819.010653
 30
-242.911868
 40
3.0
210
1.0
220
-0.0
230
0.0
 50
90.0
 51
180.0
1001
ACAD
1000
R13OBJECT
1002
{
1005
98
1002
}
  0
ARC
  5
868
  8
TEAM-NET
 10
242.911868
 20
-26.941738
 30
-822.010653
 40
6.0
210
0.0
220
0.0
230
-1.0
 50
90.0
 51
120.0
1001
ACAD
1000
R13OBJECT
1002
{
1005
98
1002
}
  0
ARC
  5
99
  8
TEAM-NET
 10
-20.941738
 20
819.010653
 30
-242.911868
 40
3.0
210
1.0
220
-0.0
230
0.0
 50
90.0
 51
180.0
  0
LINE
  5
869
  8
TEAM-NET
 10
-242.911868
 20
-23.941738
 30
819.010653
 11
-259.093058
 21
-23.941738
 31
819.010653
1001
ACAD
1000
R13OBJECT
1002
{
1005
99
1002
}
  0
ARC
  5
86A
  8
TEAM-NET
 10
20.941738
 20
819.010653
 30
259.093058
 40
3.0
210
-1.0
220
-0.0
230
0.0
 50
0.0
 51
90.0
1001
ACAD
1000
R13OBJECT
1002
{
1005
99
1002
}
  0
LINE
  5
86B
  8
TEAM-NET
 10
-259.093058
 20
-20.941738
 30
822.010653
 11
-242.911868
 21
-20.941738
 31
822.010653
1001
ACAD
1000
R13OBJECT
1002
{
1005
99
1002
}
  0
POLYLINE
  5
9A
  8
TEAM-NET
 66
     1
 10
0.0
 20
0.0
 30
-822.010653
 70
   128
210
0.0
220
0.0
230
-1.0
  0
VERTEX
  5
CBC
  8
TEAM-NET
 10
-249.472383
 20
-20.941738
 30
-822.010653
  0
VERTEX
  5
CBD
  8
TEAM-NET
 10
-249.47239
 20
-20.941745
 30
-822.010653
  0
VERTEX
  5
CBE
  8
TEAM-NET
 10
-250.483134
 20
-21.982481
 30
-822.010653
  0
VERTEX
  5
CBF
  8
TEAM-NET
 10
-251.654563
 20
-23.497935
 30
-822.010653
  0
VERTEX
  5
CC0
  8
TEAM-NET
 10
-251.906691
 20
-23.947442
 30
-822.010653
  0
VERTEX
  5
CC1
  8
TEAM-NET
 10
-252.155579
 20
-24.505265
 30
-822.010653
  0
VERTEX
  5
CC2
  8
TEAM-NET
 10
-252.458441
 20
-25.801448
 30
-822.010653
  0
VERTEX
  5
CC3
  8
TEAM-NET
 10
-252.472383
 20
-26.13789
 30
-822.010653
  0
SEQEND
  5
CC4
  8
TEAM-NET
  0
ARC
  5
875
  8
TEAM-NET
 10
-20.941738
 20
819.010653
 30
252.472383
 40
6.0
210
1.0
220
0.0
230
0.0
 50
150.0
 51
180.0
1001
ACAD
1000
R13OBJECT
1002
{
1005
9A
1002
}
  0
ARC
  5
876
  8
TEAM-NET
 10
-249.472383
 20
-26.941738
 30
-819.010653
 40
3.0
210
0.0
220
0.0
230
-1.0
 50
90.0
 51
180.0
1001
ACAD
1000
R13OBJECT
1002
{
1005
9A
1002
}
  0
ARC
  5
877
  8
TEAM-NET
 10
20.941738
 20
819.010653
 30
-249.472383
 40
3.0
210
-1.0
220
0.0
230
0.0
 50
360.0
 51
90.0
1001
ACAD
1000
R13OBJECT
1002
{
1005
9A
1002
}
  0
LINE
  5
9B
  8
TEAM-NET
 10
237.801177
 20
-17.836221
 30
822.010653
 11
237.801177
 21
-20.941738
 31
822.010653
  0
LINE
  5
878
  8
TEAM-NET
 10
-239.911868
 20
-17.836221
 30
822.010653
 11
237.801177
 21
-17.836221
 31
822.010653
1001
ACAD
1000
R13OBJECT
1002
{
1005
9B
1002
}
  0
LINE
  5
879
  8
TEAM-NET
 10
-239.911868
 20
-21.745585
 30
822.010653
 11
-239.911868
 21
-17.836221
 31
822.010653
1001
ACAD
1000
R13OBJECT
1002
{
1005
9B
1002
}
  0
ARC
  5
87A
  8
TEAM-NET
 10
242.911868
 20
-26.941738
 30
-822.010653
 40
6.0
210
0.0
220
0.0
230
-1.0
 50
90.0
 51
120.0
1001
ACAD
1000
R13OBJECT
1002
{
1005
9B
1002
}
  0
LINE
  5
87B
  8
TEAM-NET
 10
-259.093058
 20
-20.941738
 30
822.010653
 11
-242.911868
 21
-20.941738
 31
822.010653
1001
ACAD
1000
R13OBJECT
1002
{
1005
9B
1002
}
  0
LINE
  5
87C
  8
TEAM-NET
 10
-259.093058
 20
-394.678169
 30
822.010653
 11
-259.093058
 21
-20.941738
 31
822.010653
1001
ACAD
1000
R13OBJECT
1002
{
1005
9B
1002
}
  0
ARC
  5
87D
  8
TEAM-NET
 10
209.093058
 20
-394.678169
 30
-822.010653
 40
50.0
210
0.0
220
0.0
230
-1.0
 50
270.0
 51
0.0
1001
ACAD
1000
R13OBJECT
1002
{
1005
9B
1002
}
  0
LINE
  5
87E
  8
TEAM-NET
 10
202.472383
 20
-444.678169
 30
822.010653
 11
-209.093058
 21
-444.678169
 31
822.010653
1001
ACAD
1000
R13OBJECT
1002
{
1005
9B
1002
}
  0
ARC
  5
87F
  8
TEAM-NET
 10
-202.472383
 20
-394.678169
 30
-822.010653
 40
50.0
210
0.0
220
0.0
230
-1.0
 50
180.0
 51
270.0
1001
ACAD
1000
R13OBJECT
1002
{
1005
9B
1002
}
  0
LINE
  5
880
  8
TEAM-NET
 10
252.472383
 20
-26.13789
 30
822.010653
 11
252.472383
 21
-394.678169
 31
822.010653
1001
ACAD
1000
R13OBJECT
1002
{
1005
9B
1002
}
  0
POLYLINE
  5
881
  8
TEAM-NET
 66
     1
 10
0.0
 20
0.0
 30
-822.010653
 70
   128
210
0.0
220
0.0
230
-1.0
1001
ACAD
1000
R13OBJECT
1002
{
1005
9B
1002
}
  0
VERTEX
  5
E1C
  8
TEAM-NET
 10
-249.472383
 20
-20.941738
 30
-822.010653
  0
VERTEX
  5
E1D
  8
TEAM-NET
 10
-249.47239
 20
-20.941745
 30
-822.010653
  0
VERTEX
  5
E1E
  8
TEAM-NET
 10
-250.483134
 20
-21.982481
 30
-822.010653
  0
VERTEX
  5
E1F
  8
TEAM-NET
 10
-251.654563
 20
-23.497935
 30
-822.010653
  0
VERTEX
  5
E20
  8
TEAM-NET
 10
-251.906691
 20
-23.947442
 30
-822.010653
  0
VERTEX
  5
E21
  8
TEAM-NET
 10
-252.155579
 20
-24.505265
 30
-822.010653
  0
VERTEX
  5
E22
  8
TEAM-NET
 10
-252.458441
 20
-25.801448
 30
-822.010653
  0
VERTEX
  5
E23
  8
TEAM-NET
 10
-252.472383
 20
-26.13789
 30
-822.010653
  0
SEQEND
  5
E24
  8
TEAM-NET
  0
LINE
  5
88B
  8
TEAM-NET
 10
237.801177
 20
-20.941738
 30
822.010653
 11
249.472383
 21
-20.941738
 31
822.010653
1001
ACAD
1000
R13OBJECT
1002
{
1005
9B
1002
}
  0
LINE
  5
88C
  8
TEAM-NET
 10
-272.911868
 20
-8.836221
 30
822.010653
 11
-272.911868
 21
-457.836221
 31
822.010653
1001
ACAD
1000
R13OBJECT
1002
{
1005
9B
1002
}
  0
ARC
  5
88D
  8
TEAM-NET
 10
-267.911868
 20
-8.836221
 30
822.010653
 40
5.0
 50
90.0
 51
180.0
1001
ACAD
1000
R13OBJECT
1002
{
1005
9B
1002
}
  0
LINE
  5
88E
  8
TEAM-NET
 10
266.088132
 20
-3.836221
 30
822.010653
 11
-267.911868
 21
-3.836221
 31
822.010653
1001
ACAD
1000
R13OBJECT
1002
{
1005
9B
1002
}
  0
ARC
  5
88F
  8
TEAM-NET
 10
266.088132
 20
-8.836221
 30
822.010653
 40
5.0
 50
360.0
 51
90.0
1001
ACAD
1000
R13OBJECT
1002
{
1005
9B
1002
}
  0
LINE
  5
890
  8
TEAM-NET
 10
271.088132
 20
-457.836221
 30
822.010653
 11
271.088132
 21
-8.836221
 31
822.010653
1001
ACAD
1000
R13OBJECT
1002
{
1005
9B
1002
}
  0
ARC
  5
891
  8
TEAM-NET
 10
266.088132
 20
-457.836221
 30
822.010653
 40
5.0
 50
270.0
 51
0.0
1001
ACAD
1000
R13OBJECT
1002
{
1005
9B
1002
}
  0
LINE
  5
892
  8
TEAM-NET
 10
-267.911868
 20
-462.836221
 30
822.010653
 11
266.088132
 21
-462.836221
 31
822.010653
1001
ACAD
1000
R13OBJECT
1002
{
1005
9B
1002
}
  0
ARC
  5
893
  8
TEAM-NET
 10
-267.911868
 20
-457.836221
 30
822.010653
 40
5.0
 50
180.0
 51
270.0
1001
ACAD
1000
R13OBJECT
1002
{
1005
9B
1002
}
  0
ARC
  5
9C
  8
TEAM-NET
 10
-17.836221
 20
825.010653
 30
-239.911868
 40
3.0
210
1.0
220
0.0
230
0.0
 50
180.0
 51
270.0
  0
LINE
  5
894
  8
TEAM-NET
 10
-239.911868
 20
-17.836221
 30
822.010653
 11
237.801177
 21
-17.836221
 31
822.010653
1001
ACAD
1000
R13OBJECT
1002
{
1005
9C
1002
}
  0
ARC
  5
895
  8
TEAM-NET
 10
17.836221
 20
825.010653
 30
-237.801177
 40
3.0
210
-1.0
220
0.0
230
0.0
 50
270.0
 51
0.0
1001
ACAD
1000
R13OBJECT
1002
{
1005
9C
1002
}
  0
LINE
  5
896
  8
TEAM-NET
 10
237.801177
 20
-20.836221
 30
825.010653
 11
-239.911868
 21
-20.836221
 31
825.010653
1001
ACAD
1000
R13OBJECT
1002
{
1005
9C
1002
}
  0
LINE
  5
897
  8
TEAM-NET
 10
-239.911868
 20
-19.957541
 30
822.889332
 11
237.801177
 21
-19.957541
 31
822.889332
1001
ACAD
1000
R13OBJECT
1002
{
1005
9C
1002
}
  0
TEXT
  5
9D
  8
TEAM-TXT
 10
-165.41311
 20
-410.355204
 30
851.0
 40
30.0
  1
team 232061
 41
0.8
 51
15.0
  7
TEAM
  0
ARC
  5
A0
  8
TEAM-NET
 10
-0.911868
 20
-60.836221
 30
857.010653
 40
17.5
 50
0.0
 51
180.0
  0
ARC
  5
898
  8
TEAM-NET
 10
-0.911868
 20
-60.836221
 30
857.010653
 40
17.5
 50
180.0
 51
0.0
1001
ACAD
1000
R13OBJECT
1002
{
1005
A0
1002
}
  0
LINE
  5
899
  8
TEAM-NET
 10
-236.911868
 20
-92.836221
 30
857.010653
 11
234.801177
 21
-92.836221
 31
857.010653
1001
ACAD
1000
R13OBJECT
1002
{
1005
A0
1002
}
  0
LINE
  5
89A
  8
TEAM-NET
 10
-236.911868
 20
-23.836221
 30
857.010653
 11
-236.911868
 21
-92.836221
 31
857.010653
1001
ACAD
1000
R13OBJECT
1002
{
1005
A0
1002
}
  0
LINE
  5
89B
  8
TEAM-NET
 10
234.801177
 20
-23.836221
 30
857.010653
 11
-236.911868
 21
-23.836221
 31
857.010653
1001
ACAD
1000
R13OBJECT
1002
{
1005
A0
1002
}
  0
LINE
  5
89C
  8
TEAM-NET
 10
234.801177
 20
-92.836221
 30
857.010653
 11
234.801177
 21
-23.836221
 31
857.010653
1001
ACAD
1000
R13OBJECT
1002
{
1005
A0
1002
}
  0
LINE
  5
A1
  8
TEAM-NET
 10
-236.911868
 20
-23.836221
 30
857.010653
 11
-236.911868
 21
-92.836221
 31
857.010653
  0
ARC
  5
89D
  8
TEAM-NET
 10
-236.911868
 20
854.010653
 30
92.836221
 40
3.0
210
0.0
220
-1.0
230
0.0
 50
90.0
 51
180.0
1001
ACAD
1000
R13OBJECT
1002
{
1005
A1
1002
}
  0
LINE
  5
89E
  8
TEAM-NET
 10
-239.911868
 20
-92.836221
 30
854.010653
 11
-239.911868
 21
-20.836221
 31
854.010653
1001
ACAD
1000
R13OBJECT
1002
{
1005
A1
1002
}
  0
POLYLINE
  5
89F
  8
TEAM-NET
 66
     1
 10
0.0
 20
0.0
 30
184.376742
 70
   128
210
-0.707107
220
-0.707107
230
0.0
1001
ACAD
1000
R13OBJECT
1002
{
1005
A1
1002
}
  0
VERTEX
  5
E25
  8
TEAM-NET
 10
-150.667235
 20
857.010653
 30
184.376742
  0
VERTEX
  5
E26
  8
TEAM-NET
 10
-151.221011
 20
856.984987
 30
184.376742
  0
VERTEX
  5
E27
  8
TEAM-NET
 10
-151.765311
 20
856.90843
 30
184.376742
  0
VERTEX
  5
E28
  8
TEAM-NET
 10
-152.290823
 20
856.782291
 30
184.376742
  0
VERTEX
  5
E29
  8
TEAM-NET
 10
-152.788555
 20
856.608729
 30
184.376742
  0
VERTEX
  5
E2A
  8
TEAM-NET
 10
-153.249991
 20
856.390713
 30
184.376742
  0
VERTEX
  5
E2B
  8
TEAM-NET
 10
-153.667235
 20
856.131973
 30
184.376742
  0
VERTEX
  5
E2C
  8
TEAM-NET
 10
-154.033148
 20
855.836937
 30
184.376742
  0
VERTEX
  5
E2D
  8
TEAM-NET
 10
-154.34147
 20
855.510653
 30
184.376742
  0
VERTEX
  5
E2E
  8
TEAM-NET
 10
-154.586924
 20
855.158703
 30
184.376742
  0
VERTEX
  5
E2F
  8
TEAM-NET
 10
-154.765311
 20
854.78711
 30
184.376742
  0
VERTEX
  5
E30
  8
TEAM-NET
 10
-154.873579
 20
854.402231
 30
184.376742
  0
VERTEX
  5
E31
  8
TEAM-NET
 10
-154.909876
 20
854.010653
 30
184.376742
  0
SEQEND
  5
E32
  8
TEAM-NET
  0
LINE
  5
A2
  8
TEAM-NET
 10
-239.911868
 20
-20.836221
 30
854.010653
 11
237.801177
 21
-20.836221
 31
854.010653
  0
POLYLINE
  5
8AE
  8
TEAM-NET
 66
     1
 10
0.0
 20
0.0
 30
-182.884258
 70
   128
210
-0.707107
220
0.707107
230
-0.0
1001
ACAD
1000
R13OBJECT
1002
{
1005
A2
1002
}
  0
VERTEX
  5
E33
  8
TEAM-NET
 10
-149.174751
 20
857.010653
 30
-182.884258
  0
VERTEX
  5
E34
  8
TEAM-NET
 10
-149.728527
 20
856.984987
 30
-182.884258
  0
VERTEX
  5
E35
  8
TEAM-NET
 10
-150.272827
 20
856.90843
 30
-182.884258
  0
VERTEX
  5
E36
  8
TEAM-NET
 10
-150.798339
 20
856.782291
 30
-182.884258
  0
VERTEX
  5
E37
  8
TEAM-NET
 10
-151.296071
 20
856.608729
 30
-182.884258
  0
VERTEX
  5
E38
  8
TEAM-NET
 10
-151.757507
 20
856.390713
 30
-182.884258
  0
VERTEX
  5
E39
  8
TEAM-NET
 10
-152.174751
 20
856.131973
 30
-182.884258
  0
VERTEX
  5
E3A
  8
TEAM-NET
 10
-152.540664
 20
855.836937
 30
-182.884258
  0
VERTEX
  5
E3B
  8
TEAM-NET
 10
-152.848986
 20
855.510653
 30
-182.884258
  0
VERTEX
  5
E3C
  8
TEAM-NET
 10
-153.09444
 20
855.158703
 30
-182.884258
  0
VERTEX
  5
E3D
  8
TEAM-NET
 10
-153.272827
 20
854.78711
 30
-182.884258
  0
VERTEX
  5
E3E
  8
TEAM-NET
 10
-153.381095
 20
854.402231
 30
-182.884258
  0
VERTEX
  5
E3F
  8
TEAM-NET
 10
-153.417392
 20
854.010653
 30
-182.884258
  0
SEQEND
  5
E40
  8
TEAM-NET
  0
LINE
  5
8BD
  8
TEAM-NET
 10
234.801177
 20
-23.836221
 30
857.010653
 11
-236.911868
 21
-23.836221
 31
857.010653
1001
ACAD
1000
R13OBJECT
1002
{
1005
A2
1002
}
  0
POLYLINE
  5
8BE
  8
TEAM-NET
 66
     1
 10
0.0
 20
0.0
 30
184.376742
 70
   128
210
-0.707107
220
-0.707107
230
0.0
1001
ACAD
1000
R13OBJECT
1002
{
1005
A2
1002
}
  0
VERTEX
  5
E41
  8
TEAM-NET
 10
-150.667235
 20
857.010653
 30
184.376742
  0
VERTEX
  5
E42
  8
TEAM-NET
 10
-151.221011
 20
856.984987
 30
184.376742
  0
VERTEX
  5
E43
  8
TEAM-NET
 10
-151.765311
 20
856.90843
 30
184.376742
  0
VERTEX
  5
E44
  8
TEAM-NET
 10
-152.290823
 20
856.782291
 30
184.376742
  0
VERTEX
  5
E45
  8
TEAM-NET
 10
-152.788555
 20
856.608729
 30
184.376742
  0
VERTEX
  5
E46
  8
TEAM-NET
 10
-153.249991
 20
856.390713
 30
184.376742
  0
VERTEX
  5
E47
  8
TEAM-NET
 10
-153.667235
 20
856.131973
 30
184.376742
  0
VERTEX
  5
E48
  8
TEAM-NET
 10
-154.033148
 20
855.836937
 30
184.376742
  0
VERTEX
  5
E49
  8
TEAM-NET
 10
-154.34147
 20
855.510653
 30
184.376742
  0
VERTEX
  5
E4A
  8
TEAM-NET
 10
-154.586924
 20
855.158703
 30
184.376742
  0
VERTEX
  5
E4B
  8
TEAM-NET
 10
-154.765311
 20
854.78711
 30
184.376742
  0
VERTEX
  5
E4C
  8
TEAM-NET
 10
-154.873579
 20
854.402231
 30
184.376742
  0
VERTEX
  5
E4D
  8
TEAM-NET
 10
-154.909876
 20
854.010653
 30
184.376742
  0
SEQEND
  5
E4E
  8
TEAM-NET
  0
LINE
  5
A3
  8
TEAM-NET
 10
237.801177
 20
-20.836221
 30
854.010653
 11
237.801177
 21
-92.836221
 31
854.010653
  0
ARC
  5
8CD
  8
TEAM-NET
 10
234.801177
 20
854.010653
 30
92.836221
 40
3.0
210
0.0
220
-1.0
230
0.0
 50
0.0
 51
90.0
1001
ACAD
1000
R13OBJECT
1002
{
1005
A3
1002
}
  0
LINE
  5
8CE
  8
TEAM-NET
 10
234.801177
 20
-92.836221
 30
857.010653
 11
234.801177
 21
-23.836221
 31
857.010653
1001
ACAD
1000
R13OBJECT
1002
{
1005
A3
1002
}
  0
POLYLINE
  5
8CF
  8
TEAM-NET
 66
     1
 10
0.0
 20
0.0
 30
-182.884258
 70
   128
210
-0.707107
220
0.707107
230
-0.0
1001
ACAD
1000
R13OBJECT
1002
{
1005
A3
1002
}
  0
VERTEX
  5
E4F
  8
TEAM-NET
 10
-149.174751
 20
857.010653
 30
-182.884258
  0
VERTEX
  5
E50
  8
TEAM-NET
 10
-149.728527
 20
856.984987
 30
-182.884258
  0
VERTEX
  5
E51
  8
TEAM-NET
 10
-150.272827
 20
856.90843
 30
-182.884258
  0
VERTEX
  5
E52
  8
TEAM-NET
 10
-150.798339
 20
856.782291
 30
-182.884258
  0
VERTEX
  5
E53
  8
TEAM-NET
 10
-151.296071
 20
856.608729
 30
-182.884258
  0
VERTEX
  5
E54
  8
TEAM-NET
 10
-151.757507
 20
856.390713
 30
-182.884258
  0
VERTEX
  5
E55
  8
TEAM-NET
 10
-152.174751
 20
856.131973
 30
-182.884258
  0
VERTEX
  5
E56
  8
TEAM-NET
 10
-152.540664
 20
855.836937
 30
-182.884258
  0
VERTEX
  5
E57
  8
TEAM-NET
 10
-152.848986
 20
855.510653
 30
-182.884258
  0
VERTEX
  5
E58
  8
TEAM-NET
 10
-153.09444
 20
855.158703
 30
-182.884258
  0
VERTEX
  5
E59
  8
TEAM-NET
 10
-153.272827
 20
854.78711
 30
-182.884258
  0
VERTEX
  5
E5A
  8
TEAM-NET
 10
-153.381095
 20
854.402231
 30
-182.884258
  0
VERTEX
  5
E5B
  8
TEAM-NET
 10
-153.417392
 20
854.010653
 30
-182.884258
  0
SEQEND
  5
E5C
  8
TEAM-NET
  0
ARC
  5
A4
  8
TEAM-NET
 10
92.836221
 20
854.010653
 30
236.911868
 40
3.0
210
-1.0
220
0.0
230
0.0
 50
0.0
 51
90.0
  0
LINE
  5
8DE
  8
TEAM-NET
 10
-236.911868
 20
-92.836221
 30
857.010653
 11
234.801177
 21
-92.836221
 31
857.010653
1001
ACAD
1000
R13OBJECT
1002
{
1005
A4
1002
}
  0
ARC
  5
8DF
  8
TEAM-NET
 10
-92.836221
 20
854.010653
 30
234.801177
 40
3.0
210
1.0
220
0.0
230
0.0
 50
90.0
 51
180.0
1001
ACAD
1000
R13OBJECT
1002
{
1005
A4
1002
}
  0
LINE
  5
8E0
  8
TEAM-NET
 10
234.801177
 20
-95.836221
 30
854.010653
 11
-236.911868
 21
-95.836221
 31
854.010653
1001
ACAD
1000
R13OBJECT
1002
{
1005
A4
1002
}
  0
ARC
  5
A5
  8
TEAM-NET
 10
234.801177
 20
854.010653
 30
92.836221
 40
3.0
210
0.0
220
-1.0
230
0.0
 50
0.0
 51
90.0
  0
ARC
  5
8E1
  8
TEAM-NET
 10
234.801177
 20
-92.836221
 30
854.010653
 40
3.0
 50
270.0
 51
360.0
1001
ACAD
1000
R13OBJECT
1002
{
1005
A5
1002
}
  0
ARC
  5
8E2
  8
TEAM-NET
 10
-92.836221
 20
854.010653
 30
234.801177
 40
3.0
210
1.0
220
0.0
230
0.0
 50
90.0
 51
180.0
1001
ACAD
1000
R13OBJECT
1002
{
1005
A5
1002
}
  0
ARC
  5
A6
  8
TEAM-NET
 10
92.836221
 20
854.010653
 30
236.911868
 40
3.0
210
-1.0
220
0.0
230
0.0
 50
0.0
 51
90.0
  0
ARC
  5
8E3
  8
TEAM-NET
 10
-236.911868
 20
-92.836221
 30
854.010653
 40
3.0
 50
180.0
 51
270.0
1001
ACAD
1000
R13OBJECT
1002
{
1005
A6
1002
}
  0
ARC
  5
8E4
  8
TEAM-NET
 10
-236.911868
 20
854.010653
 30
92.836221
 40
3.0
210
0.0
220
-1.0
230
0.0
 50
90.0
 51
180.0
1001
ACAD
1000
R13OBJECT
1002
{
1005
A6
1002
}
  0
LINE
  5
A7
  8
TEAM-NET
 10
-23.191353
 20
-66.989973
 30
1050.66284
 11
-23.191353
 21
-66.989973
 31
1012.66284
  0
ARC
  5
8E5
  8
TEAM-NET
 10
1.035904
 20
-63.067466
 30
-1012.66284
 40
22.5
210
0.0
220
-0.0
230
-1.0
 50
169.960116
 51
349.960116
1001
ACAD
1000
R13OBJECT
1002
{
1005
A7
1002
}
  0
LINE
  5
8E6
  8
TEAM-NET
 10
21.119546
 20
-59.144958
 30
1050.66284
 11
21.119546
 21
-59.144958
 31
1012.66284
1001
ACAD
1000
R13OBJECT
1002
{
1005
A7
1002
}
  0
ARC
  5
8E7
  8
TEAM-NET
 10
-1.035904
 20
-63.067466
 30
1050.66284
 40
22.5
 50
190.039884
 51
10.039884
1001
ACAD
1000
R13OBJECT
1002
{
1005
A7
1002
}
  0
LINE
  5
8E8
  8
TEAM-NET
 10
2.886604
 20
-85.222915
 30
1012.66284
 11
2.886604
 21
-85.222915
 31
1050.66284
1001
ACAD
1000
R13OBJECT
1002
{
1005
A7
1002
}
  0
LINE
  5
A8
  8
TEAM-NET
 10
-23.191353
 20
-66.989973
 30
1050.66284
 11
-23.191353
 21
-66.989973
 31
1012.66284
  0
ARC
  5
8E9
  8
TEAM-NET
 10
-1.035904
 20
-63.067466
 30
1050.66284
 40
22.5
 50
10.039884
 51
190.039884
1001
ACAD
1000
R13OBJECT
1002
{
1005
A8
1002
}
  0
LINE
  5
8EA
  8
TEAM-NET
 10
21.119546
 20
-59.144958
 30
1050.66284
 11
21.119546
 21
-59.144958
 31
1012.66284
1001
ACAD
1000
R13OBJECT
1002
{
1005
A8
1002
}
  0
ARC
  5
8EB
  8
TEAM-NET
 10
1.035904
 20
-63.067466
 30
-1012.66284
 40
22.5
210
0.0
220
0.0
230
-1.0
 50
349.960116
 51
169.960116
1001
ACAD
1000
R13OBJECT
1002
{
1005
A8
1002
}
  0
LINE
  5
8EC
  8
TEAM-NET
 10
-4.958411
 20
-40.912016
 30
1012.66284
 11
-4.958411
 21
-40.912016
 31
1050.66284
1001
ACAD
1000
R13OBJECT
1002
{
1005
A8
1002
}
  0
LINE
  5
A9
  8
TEAM-NET
 10
-23.683696
 20
-67.07714
 30
1012.66284
 11
-23.683696
 21
-67.07714
 31
892.66284
  0
ARC
  5
8ED
  8
TEAM-NET
 10
1.035904
 20
-63.067466
 30
-892.66284
 40
23.0
210
0.0
220
0.0
230
-1.0
 50
169.960116
 51
349.960116
1001
ACAD
1000
R13OBJECT
1002
{
1005
A9
1002
}
  0
LINE
  5
8EE
  8
TEAM-NET
 10
21.611889
 20
-59.057791
 30
1012.66284
 11
21.611889
 21
-59.057791
 31
892.66284
1001
ACAD
1000
R13OBJECT
1002
{
1005
A9
1002
}
  0
ARC
  5
8EF
  8
TEAM-NET
 10
1.035904
 20
-63.067466
 30
-1012.66284
 40
23.0
210
0.0
220
-0.0
230
-1.0
 50
169.960116
 51
349.960116
1001
ACAD
1000
R13OBJECT
1002
{
1005
A9
1002
}
  0
LINE
  5
8F0
  8
TEAM-NET
 10
2.97377
 20
-85.715258
 30
892.66284
 11
2.97377
 21
-85.715258
 31
1012.66284
1001
ACAD
1000
R13OBJECT
1002
{
1005
A9
1002
}
  0
LINE
  5
AA
  8
TEAM-NET
 10
-23.683696
 20
-67.07714
 30
1012.66284
 11
-23.683696
 21
-67.07714
 31
892.66284
  0
ARC
  5
8F1
  8
TEAM-NET
 10
1.035904
 20
-63.067466
 30
-1012.66284
 40
23.0
210
0.0
220
0.0
230
-1.0
 50
349.960116
 51
169.960116
1001
ACAD
1000
R13OBJECT
1002
{
1005
AA
1002
}
  0
LINE
  5
8F2
  8
TEAM-NET
 10
21.611889
 20
-59.057791
 30
1012.66284
 11
21.611889
 21
-59.057791
 31
892.66284
1001
ACAD
1000
R13OBJECT
1002
{
1005
AA
1002
}
  0
ARC
  5
8F3
  8
TEAM-NET
 10
1.035904
 20
-63.067466
 30
-892.66284
 40
23.0
210
0.0
220
0.0
230
-1.0
 50
349.960116
 51
169.960116
1001
ACAD
1000
R13OBJECT
1002
{
1005
AA
1002
}
  0
LINE
  5
8F4
  8
TEAM-NET
 10
-5.045578
 20
-40.419673
 30
892.66284
 11
-5.045578
 21
-40.419673
 31
1012.66284
1001
ACAD
1000
R13OBJECT
1002
{
1005
AA
1002
}
  0
ARC
  5
AB
  8
TEAM-NET
 10
-172.807259
 20
896.757887
 30
-1.400677
 40
48.0
210
0.999965
220
0.008339
230
0.0
 50
120.0
 51
177.508094
  0
POLYLINE
  5
8F5
  8
TEAM-NET
 66
     1
 10
0.0
 20
0.0
 30
0.0
 70
     8
1001
ACAD
1000
R13OBJECT
1002
{
1005
AB
1002
}
  0
VERTEX
  5
8F6
  8
TEAM-NET
 10
0.206452
 20
-192.729299
 30
898.576064
 70
    32
  0
VERTEX
  5
8F7
  8
TEAM-NET
 10
2.546598
 20
-192.907025
 30
898.579985
 70
    32
  0
VERTEX
  5
8F8
  8
TEAM-NET
 10
3.314812
 20
-193.052989
 30
898.582973
 70
    32
  0
VERTEX
  5
8F9
  8
TEAM-NET
 10
5.55682
 20
-193.74633
 30
898.596483
 70
    32
  0
VERTEX
  5
8FA
  8
TEAM-NET
 10
6.273324
 20
-194.059257
 30
898.602305
 70
    32
  0
VERTEX
  5
8FB
  8
TEAM-NET
 10
8.946514
 20
-195.706386
 30
898.630674
 70
    32
  0
VERTEX
  5
8FC
  8
TEAM-NET
 10
10.127935
 20
-196.744199
 30
898.646856
 70
    32
  0
VERTEX
  5
8FD
  8
TEAM-NET
 10
11.181206
 20
-197.901827
 30
898.663591
 70
    32
  0
VERTEX
  5
8FE
  8
TEAM-NET
 10
12.877615
 20
-200.548024
 30
898.697415
 70
    32
  0
VERTEX
  5
8FF
  8
TEAM-NET
 10
13.204645
 20
-201.261725
 30
898.705627
 70
    32
  0
VERTEX
  5
900
  8
TEAM-NET
 10
13.304497
 20
-201.502789
 30
898.708324
 70
    32
  0
VERTEX
  5
901
  8
TEAM-NET
 10
13.939601
 20
-203.493323
 30
898.729215
 70
    32
  0
VERTEX
  5
902
  8
TEAM-NET
 10
14.273279
 20
-205.566694
 30
898.748661
 70
    32
  0
VERTEX
  5
903
  8
TEAM-NET
 10
14.322691
 20
-206.612708
 30
898.75769
 70
    32
  0
VERTEX
  5
904
  8
TEAM-NET
 10
14.294395
 20
-207.655249
 30
898.766225
 70
    32
  0
VERTEX
  5
905
  8
TEAM-NET
 10
14.003941
 20
-209.730657
 30
898.781964
 70
    32
  0
VERTEX
  5
906
  8
TEAM-NET
 10
13.406564
 20
-211.741821
 30
898.79581
 70
    32
  0
VERTEX
  5
907
  8
TEAM-NET
 10
12.768999
 20
-213.171619
 30
898.804913
 70
    32
  0
VERTEX
  5
908
  8
TEAM-NET
 10
12.52077
 20
-213.632695
 30
898.807728
 70
    32
  0
VERTEX
  5
909
  8
TEAM-NET
 10
11.356089
 20
-215.380645
 30
898.817904
 70
    32
  0
VERTEX
  5
90A
  8
TEAM-NET
 10
9.94905
 20
-216.929495
 30
898.826313
 70
    32
  0
VERTEX
  5
90B
  8
TEAM-NET
 10
9.164478
 20
-217.619198
 30
898.829887
 70
    32
  0
VERTEX
  5
90C
  8
TEAM-NET
 10
8.326559
 20
-218.251604
 30
898.833075
 70
    32
  0
VERTEX
  5
90D
  8
TEAM-NET
 10
6.518322
 20
-219.31984
 30
898.838272
 70
    32
  0
VERTEX
  5
90E
  8
TEAM-NET
 10
4.581992
 20
-220.102949
 30
898.841926
 70
    32
  0
VERTEX
  5
90F
  8
TEAM-NET
 10
0.45173
 20
-220.766156
 30
898.844845
 70
    32
  0
VERTEX
  5
910
  8
TEAM-NET
 10
0.440407
 20
-220.766251
 30
898.844845
 70
    32
  0
SEQEND
  5
911
  8
TEAM-NET
  0
ARC
  5
912
  8
TEAM-NET
 10
-172.807259
 20
896.757887
 30
-1.400677
 40
20.0
210
0.999965
220
0.008339
230
0.0
 50
120.0
 51
174.784091
1001
ACAD
1000
R13OBJECT
1002
{
1005
AB
1002
}
  0
ARC
  5
913
  8
TEAM-NET
 10
-1.400677
 20
897.018741
 30
-298.723468
 40
14.0
210
0.007222
220
-0.865995
230
-0.5
 50
270.0
 51
90.0
1001
ACAD
1000
R13OBJECT
1002
{
1005
AB
1002
}
  0
ARC
  5
914
  8
TEAM-NET
 10
-0.243149
 20
-138.814112
 30
896.757887
 40
14.0
 50
267.679903
 51
93.275659
1001
ACAD
1000
R13OBJECT
1002
{
1005
AB
1002
}
  0
ARC
  5
915
  8
TEAM-NET
 10
-0.323886
 20
-206.811748
 30
-896.757887
 40
14.0
210
0.0
220
0.0
230
-1.0
 50
86.724341
 51
272.320097
1001
ACAD
1000
R13OBJECT
1002
{
1005
AB
1002
}
  0
ARC
  5
916
  8
TEAM-NET
 10
-1.400677
 20
930.757887
 30
172.807259
 40
14.0
210
0.008339
220
-0.999965
230
0.0
 50
267.202122
 51
92.797878
1001
ACAD
1000
R13OBJECT
1002
{
1005
AB
1002
}
  0
LINE
  5
AC
  8
TEAM-NET
 10
-0.974073
 20
-51.163349
 30
986.047306
 11
0.123756
 21
-182.812583
 31
914.078395
  0
ARC
  5
917
  8
TEAM-NET
 10
-1.400677
 20
897.018741
 30
-298.723468
 40
14.0
210
0.007222
220
-0.865995
230
-0.5
 50
90.0
 51
270.0
1001
ACAD
1000
R13OBJECT
1002
{
1005
AC
1002
}
  0
LINE
  5
918
  8
TEAM-NET
 10
-0.828144
 20
-68.662741
 30
1016.358195
 11
0.240499
 21
-196.812096
 31
938.327107
1001
ACAD
1000
R13OBJECT
1002
{
1005
AC
1002
}
  0
ARC
  5
919
  8
TEAM-NET
 10
1.400677
 20
897.018741
 30
448.723468
 40
17.5
210
-0.007222
220
0.865995
230
0.5
 50
270.0
 51
90.0
1001
ACAD
1000
R13OBJECT
1002
{
1005
AC
1002
}
  0
LINE
  5
91A
  8
TEAM-NET
 10
-13.817386
 20
-189.929082
 30
926.202751
 11
-18.4005
 21
-60.058973
 31
1001.202751
1001
ACAD
1000
R13OBJECT
1002
{
1005
AC
1002
}
  0
LINE
  5
AD
  8
TEAM-NET
 10
-0.974073
 20
-51.163349
 30
986.047306
 11
0.123756
 21
-182.812583
 31
914.078395
  0
ARC
  5
91B
  8
TEAM-NET
 10
1.400677
 20
897.018741
 30
448.723468
 40
17.5
210
-0.007222
220
0.865995
230
0.5
 50
90.0
 51
270.0
1001
ACAD
1000
R13OBJECT
1002
{
1005
AD
1002
}
  0
LINE
  5
91C
  8
TEAM-NET
 10
-0.828144
 20
-68.662741
 30
1016.358195
 11
0.240499
 21
-196.812096
 31
938.327107
1001
ACAD
1000
R13OBJECT
1002
{
1005
AD
1002
}
  0
ARC
  5
91D
  8
TEAM-NET
 10
-1.400677
 20
897.018741
 30
-298.723468
 40
14.0
210
0.007222
220
-0.865995
230
-0.5
 50
270.0
 51
90.0
1001
ACAD
1000
R13OBJECT
1002
{
1005
AD
1002
}
  0
LINE
  5
91E
  8
TEAM-NET
 10
14.181641
 20
-189.695597
 30
926.202751
 11
16.598283
 21
-59.767117
 31
1001.202751
1001
ACAD
1000
R13OBJECT
1002
{
1005
AD
1002
}
  0
ARC
  5
AE
  8
TEAM-NET
 10
-172.807259
 20
896.757887
 30
-1.400677
 40
48.0
210
0.999965
220
0.008339
230
0.0
 50
120.0
 51
177.508094
  0
ARC
  5
91F
  8
TEAM-NET
 10
-1.400677
 20
897.018741
 30
-298.723468
 40
14.0
210
0.007222
220
-0.865995
230
-0.5
 50
90.0
 51
270.0
1001
ACAD
1000
R13OBJECT
1002
{
1005
AE
1002
}
  0
ARC
  5
920
  8
TEAM-NET
 10
-172.807259
 20
896.757887
 30
-1.400677
 40
20.0
210
0.999965
220
0.008339
230
0.0
 50
120.0
 51
174.784091
1001
ACAD
1000
R13OBJECT
1002
{
1005
AE
1002
}
  0
POLYLINE
  5
921
  8
TEAM-NET
 66
     1
 10
0.0
 20
0.0
 30
0.0
 70
     8
1001
ACAD
1000
R13OBJECT
1002
{
1005
AE
1002
}
  0
VERTEX
  5
922
  8
TEAM-NET
 10
0.440253
 20
-220.766252
 30
898.844845
 70
    32
  0
VERTEX
  5
923
  8
TEAM-NET
 10
-0.330628
 20
-220.751016
 30
898.844746
 70
    32
  0
VERTEX
  5
924
  8
TEAM-NET
 10
-0.591522
 20
-220.736415
 30
898.844669
 70
    32
  0
VERTEX
  5
925
  8
TEAM-NET
 10
-1.634264
 20
-220.628704
 30
898.844133
 70
    32
  0
VERTEX
  5
926
  8
TEAM-NET
 10
-3.686441
 20
-220.179372
 30
898.841962
 70
    32
  0
VERTEX
  5
927
  8
TEAM-NET
 10
-4.678495
 20
-219.841545
 30
898.840326
 70
    32
  0
VERTEX
  5
928
  8
TEAM-NET
 10
-5.638278
 20
-219.43248
 30
898.838327
 70
    32
  0
VERTEX
  5
929
  8
TEAM-NET
 10
-7.462905
 20
-218.399526
 30
898.833157
 70
    32
  0
VERTEX
  5
92A
  8
TEAM-NET
 10
-9.113826
 20
-217.104395
 30
898.826398
 70
    32
  0
VERTEX
  5
92B
  8
TEAM-NET
 10
-10.546499
 20
-215.584897
 30
898.818026
 70
    32
  0
VERTEX
  5
92C
  8
TEAM-NET
 10
-11.025257
 20
-214.959444
 30
898.814429
 70
    32
  0
VERTEX
  5
92D
  8
TEAM-NET
 10
-11.743311
 20
-213.859225
 30
898.807874
 70
    32
  0
VERTEX
  5
92E
  8
TEAM-NET
 10
-12.390721
 20
-212.620091
 30
898.800118
 70
    32
  0
VERTEX
  5
92F
  8
TEAM-NET
 10
-12.90919
 20
-211.329122
 30
898.791582
 70
    32
  0
VERTEX
  5
930
  8
TEAM-NET
 10
-13.298984
 20
-209.986664
 30
898.782169
 70
    32
  0
VERTEX
  5
931
  8
TEAM-NET
 10
-13.628511
 20
-207.912845
 30
898.766422
 70
    32
  0
VERTEX
  5
932
  8
TEAM-NET
 10
-13.645893
 20
-205.825106
 30
898.748887
 70
    32
  0
VERTEX
  5
933
  8
TEAM-NET
 10
-13.351434
 20
-203.748589
 30
898.729489
 70
    32
  0
VERTEX
  5
934
  8
TEAM-NET
 10
-13.22933
 20
-203.237264
 30
898.724375
 70
    32
  0
VERTEX
  5
935
  8
TEAM-NET
 10
-12.75166
 20
-201.741676
 30
898.708563
 70
    32
  0
VERTEX
  5
936
  8
TEAM-NET
 10
-11.862987
 20
-199.851042
 30
898.686544
 70
    32
  0
VERTEX
  5
937
  8
TEAM-NET
 10
-10.696292
 20
-198.104728
 30
898.663871
 70
    32
  0
VERTEX
  5
938
  8
TEAM-NET
 10
-8.504427
 20
-195.869469
 30
898.630955
 70
    32
  0
VERTEX
  5
939
  8
TEAM-NET
 10
-5.858969
 20
-194.170648
 30
898.60249
 70
    32
  0
VERTEX
  5
93A
  8
TEAM-NET
 10
-4.418182
 20
-193.558221
 30
898.591421
 70
    32
  0
VERTEX
  5
93B
  8
TEAM-NET
 10
-2.910778
 20
-193.108199
 30
898.583037
 70
    32
  0
VERTEX
  5
93C
  8
TEAM-NET
 10
0.206353
 20
-192.7293
 30
898.576064
 70
    32
  0
VERTEX
  5
93D
  8
TEAM-NET
 10
0.206452
 20
-192.729299
 30
898.576064
 70
    32
  0
SEQEND
  5
93E
  8
TEAM-NET
  0
ARC
  5
93F
  8
TEAM-NET
 10
-0.243149
 20
-138.814112
 30
896.757887
 40
14.0
 50
87.679904
 51
273.275658
1001
ACAD
1000
R13OBJECT
1002
{
1005
AE
1002
}
  0
ARC
  5
940
  8
TEAM-NET
 10
-0.323886
 20
-206.811748
 30
-896.757887
 40
14.0
210
0.0
220
0.0
230
-1.0
 50
266.724342
 51
92.320096
1001
ACAD
1000
R13OBJECT
1002
{
1005
AE
1002
}
  0
ARC
  5
941
  8
TEAM-NET
 10
-1.400677
 20
930.757887
 30
172.807259
 40
14.0
210
0.008339
220
-0.999965
230
0.0
 50
87.202123
 51
272.797877
1001
ACAD
1000
R13OBJECT
1002
{
1005
AE
1002
}
  0
LINE
  5
AF
  8
TEAM-NET
 10
-9.61397
 20
-208.25623
 30
903.512072
 11
-9.61397
 21
-208.25623
 31
893.512072
  0
ARC
  5
942
  8
TEAM-NET
 10
-0.232897
 20
-206.512893
 30
-893.512072
 40
10.0
210
0.0
220
0.0
230
-1.0
 50
169.960116
 51
349.960116
1001
ACAD
1000
R13OBJECT
1002
{
1005
AF
1002
}
  0
LINE
  5
943
  8
TEAM-NET
 10
10.079763
 20
-204.769557
 30
903.512072
 11
10.079763
 21
-204.769557
 31
893.512072
1001
ACAD
1000
R13OBJECT
1002
{
1005
AF
1002
}
  0
ARC
  5
944
  8
TEAM-NET
 10
-0.232897
 20
-206.512893
 30
-903.512072
 40
10.0
210
0.0
220
0.0
230
-1.0
 50
169.960116
 51
349.960116
1001
ACAD
1000
R13OBJECT
1002
{
1005
AF
1002
}
  0
LINE
  5
945
  8
TEAM-NET
 10
1.976233
 20
-216.35976
 30
893.512072
 11
1.976233
 21
-216.35976
 31
903.512072
1001
ACAD
1000
R13OBJECT
1002
{
1005
AF
1002
}
  0
LINE
  5
B0
  8
TEAM-NET
 10
-7.644596
 20
-207.907563
 30
893.512072
 11
-7.644596
 21
-207.907563
 31
903.512072
  0
ARC
  5
946
  8
TEAM-NET
 10
-0.232897
 20
-206.512893
 30
-903.512072
 40
8.0
210
0.0
220
0.0
230
-1.0
 50
169.960116
 51
349.960116
1001
ACAD
1000
R13OBJECT
1002
{
1005
B0
1002
}
  0
LINE
  5
947
  8
TEAM-NET
 10
8.11039
 20
-205.118224
 30
893.512072
 11
8.11039
 21
-205.118224
 31
903.512072
1001
ACAD
1000
R13OBJECT
1002
{
1005
B0
1002
}
  0
ARC
  5
948
  8
TEAM-NET
 10
0.232897
 20
-206.512893
 30
893.512072
 40
8.0
 50
190.039884
 51
10.039884
1001
ACAD
1000
R13OBJECT
1002
{
1005
B0
1002
}
  0
LINE
  5
B1
  8
TEAM-NET
 10
-7.644596
 20
-207.907563
 30
893.512072
 11
-7.644596
 21
-207.907563
 31
903.512072
  0
ARC
  5
949
  8
TEAM-NET
 10
0.232897
 20
-206.512893
 30
893.512072
 40
8.0
 50
10.039884
 51
190.039884
1001
ACAD
1000
R13OBJECT
1002
{
1005
B1
1002
}
  0
LINE
  5
94A
  8
TEAM-NET
 10
8.11039
 20
-205.118224
 30
893.512072
 11
8.11039
 21
-205.118224
 31
903.512072
1001
ACAD
1000
R13OBJECT
1002
{
1005
B1
1002
}
  0
ARC
  5
94B
  8
TEAM-NET
 10
-0.232897
 20
-206.512893
 30
-903.512072
 40
8.0
210
0.0
220
0.0
230
-1.0
 50
349.960116
 51
169.960116
1001
ACAD
1000
R13OBJECT
1002
{
1005
B1
1002
}
  0
LINE
  5
B2
  8
TEAM-NET
 10
-9.61397
 20
-208.25623
 30
903.512072
 11
-9.61397
 21
-208.25623
 31
893.512072
  0
ARC
  5
94C
  8
TEAM-NET
 10
-0.232897
 20
-206.512893
 30
-903.512072
 40
10.0
210
0.0
220
0.0
230
-1.0
 50
349.960116
 51
169.960116
1001
ACAD
1000
R13OBJECT
1002
{
1005
B2
1002
}
  0
LINE
  5
94D
  8
TEAM-NET
 10
10.079763
 20
-204.769557
 30
903.512072
 11
10.079763
 21
-204.769557
 31
893.512072
1001
ACAD
1000
R13OBJECT
1002
{
1005
B2
1002
}
  0
ARC
  5
94E
  8
TEAM-NET
 10
-0.232897
 20
-206.512893
 30
-893.512072
 40
10.0
210
0.0
220
0.0
230
-1.0
 50
349.960116
 51
169.960116
1001
ACAD
1000
R13OBJECT
1002
{
1005
B2
1002
}
  0
LINE
  5
94F
  8
TEAM-NET
 10
-1.51044
 20
-196.666027
 30
893.512072
 11
-1.51044
 21
-196.666027
 31
903.512072
1001
ACAD
1000
R13OBJECT
1002
{
1005
B2
1002
}
  0
ARC
  5
B3
  8
TEAM-NET
 10
21.411868
 20
879.010653
 30
-60.836221
 40
3.0
210
0.0
220
1.0
230
0.0
 50
90.0
 51
180.0
  0
ARC
  5
950
  8
TEAM-NET
 10
0.911868
 20
-60.836221
 30
-879.010653
 40
17.5
210
0.0
220
0.0
230
-1.0
 50
0.0
 51
180.0
1001
ACAD
1000
R13OBJECT
1002
{
1005
B3
1002
}
  0
ARC
  5
951
  8
TEAM-NET
 10
19.588132
 20
879.010653
 30
60.836221
 40
3.0
210
0.0
220
-1.0
230
0.0
 50
90.0
 51
180.0
1001
ACAD
1000
R13OBJECT
1002
{
1005
B3
1002
}
  0
ARC
  5
952
  8
TEAM-NET
 10
-0.911868
 20
-60.836221
 30
882.010653
 40
20.5
 50
0.0
 51
180.0
1001
ACAD
1000
R13OBJECT
1002
{
1005
B3
1002
}
  0
ARC
  5
953
  8
TEAM-NET
 10
40.336221
 20
879.010653
 30
0.911868
 40
3.0
210
-1.0
220
0.0
230
0.0
 50
0.0
 51
90.0
1001
ACAD
1000
R13OBJECT
1002
{
1005
B3
1002
}
  0
ARC
  5
954
  8
TEAM-NET
 10
0.911868
 20
-60.836221
 30
-881.131973
 40
18.37868
210
0.0
220
0.0
230
-1.0
 50
360.0
 51
180.0
1001
ACAD
1000
R13OBJECT
1002
{
1005
B3
1002
}
  0
POLYLINE
  5
B4
  8
TEAM-NET
 66
     1
 10
0.0
 20
0.0
 30
191.007758
 70
   128
210
-0.358979
220
-0.933346
230
-0.0
  0
VERTEX
  5
CC5
  8
TEAM-NET
 10
-160.009409
 20
877.010653
 30
191.007758
  0
VERTEX
  5
CC6
  8
TEAM-NET
 10
-160.076478
 20
877.500738
 30
191.007758
  0
VERTEX
  5
CC7
  8
TEAM-NET
 10
-160.277039
 20
877.986104
 30
191.007758
  0
VERTEX
  5
CC8
  8
TEAM-NET
 10
-160.609161
 20
878.462076
 30
191.007758
  0
VERTEX
  5
CC9
  8
TEAM-NET
 10
-161.069645
 20
878.92407
 30
191.007758
  0
VERTEX
  5
CCA
  8
TEAM-NET
 10
-161.654056
 20
879.367636
 30
191.007758
  0
VERTEX
  5
CCB
  8
TEAM-NET
 10
-162.356766
 20
879.788504
 30
191.007758
  0
VERTEX
  5
CCC
  8
TEAM-NET
 10
-163.171008
 20
880.182619
 30
191.007758
  0
VERTEX
  5
CCD
  8
TEAM-NET
 10
-164.08894
 20
880.546187
 30
191.007758
  0
VERTEX
  5
CCE
  8
TEAM-NET
 10
-165.101722
 20
880.875705
 30
191.007758
  0
VERTEX
  5
CCF
  8
TEAM-NET
 10
-166.1996
 20
881.168001
 30
191.007758
  0
VERTEX
  5
CD0
  8
TEAM-NET
 10
-167.372001
 20
881.420259
 30
191.007758
  0
VERTEX
  5
CD1
  8
TEAM-NET
 10
-168.607634
 20
881.63005
 30
191.007758
  0
VERTEX
  5
CD2
  8
TEAM-NET
 10
-169.8946
 20
881.795354
 30
191.007758
  0
VERTEX
  5
CD3
  8
TEAM-NET
 10
-171.220504
 20
881.914579
 30
191.007758
  0
VERTEX
  5
CD4
  8
TEAM-NET
 10
-172.572577
 20
881.986576
 30
191.007758
  0
VERTEX
  5
CD5
  8
TEAM-NET
 10
-173.937798
 20
882.010653
 30
191.007758
  0
SEQEND
  5
CD6
  8
TEAM-NET
  0
LINE
  5
967
  8
TEAM-NET
 10
-217.911868
 20
-120.836221
 30
877.010653
 11
216.088132
 21
-120.836221
 31
877.010653
1001
ACAD
1000
R13OBJECT
1002
{
1005
B4
1002
}
  0
POLYLINE
  5
968
  8
TEAM-NET
 66
     1
 10
0.0
 20
0.0
 30
190.353074
 70
   128
210
0.358979
220
-0.933346
230
0.0
1001
ACAD
1000
R13OBJECT
1002
{
1005
B4
1002
}
  0
VERTEX
  5
E5D
  8
TEAM-NET
 10
172.235621
 20
882.010653
 30
190.353074
  0
VERTEX
  5
E5E
  8
TEAM-NET
 10
170.8704
 20
881.986576
 30
190.353074
  0
VERTEX
  5
E5F
  8
TEAM-NET
 10
169.518328
 20
881.914579
 30
190.353074
  0
VERTEX
  5
E60
  8
TEAM-NET
 10
168.192424
 20
881.795354
 30
190.353074
  0
VERTEX
  5
E61
  8
TEAM-NET
 10
166.905458
 20
881.63005
 30
190.353074
  0
VERTEX
  5
E62
  8
TEAM-NET
 10
165.669824
 20
881.420259
 30
190.353074
  0
VERTEX
  5
E63
  8
TEAM-NET
 10
164.497423
 20
881.168001
 30
190.353074
  0
VERTEX
  5
E64
  8
TEAM-NET
 10
163.399545
 20
880.875705
 30
190.353074
  0
VERTEX
  5
E65
  8
TEAM-NET
 10
162.386763
 20
880.546187
 30
190.353074
  0
VERTEX
  5
E66
  8
TEAM-NET
 10
161.468832
 20
880.182619
 30
190.353074
  0
VERTEX
  5
E67
  8
TEAM-NET
 10
160.65459
 20
879.788504
 30
190.353074
  0
VERTEX
  5
E68
  8
TEAM-NET
 10
159.951879
 20
879.367636
 30
190.353074
  0
VERTEX
  5
E69
  8
TEAM-NET
 10
159.367468
 20
878.92407
 30
190.353074
  0
VERTEX
  5
E6A
  8
TEAM-NET
 10
158.906985
 20
878.462076
 30
190.353074
  0
VERTEX
  5
E6B
  8
TEAM-NET
 10
158.574863
 20
877.986104
 30
190.353074
  0
VERTEX
  5
E6C
  8
TEAM-NET
 10
158.374302
 20
877.500738
 30
190.353074
  0
VERTEX
  5
E6D
  8
TEAM-NET
 10
158.307233
 20
877.010653
 30
190.353074
  0
SEQEND
  5
E6E
  8
TEAM-NET
  0
LINE
  5
97B
  8
TEAM-NET
 10
229.088132
 20
-115.836221
 30
882.010653
 11
-230.911868
 21
-115.836221
 31
882.010653
1001
ACAD
1000
R13OBJECT
1002
{
1005
B4
1002
}
  0
LINE
  5
97C
  8
TEAM-NET
 10
-221.71948
 20
-119.371755
 30
880.546187
 11
219.895744
 21
-119.371755
 31
880.546187
1001
ACAD
1000
R13OBJECT
1002
{
1005
B4
1002
}
  0
POLYLINE
  5
B5
  8
TEAM-NET
 66
     1
 10
0.0
 20
0.0
 30
-255.401181
 70
   128
210
-0.933346
220
0.358979
230
-0.0
  0
VERTEX
  5
CD7
  8
TEAM-NET
 10
39.80577
 20
877.010653
 30
-255.401181
  0
VERTEX
  5
CD8
  8
TEAM-NET
 10
39.738701
 20
877.500738
 30
-255.401181
  0
VERTEX
  5
CD9
  8
TEAM-NET
 10
39.538139
 20
877.986104
 30
-255.401181
  0
VERTEX
  5
CDA
  8
TEAM-NET
 10
39.206018
 20
878.462076
 30
-255.401181
  0
VERTEX
  5
CDB
  8
TEAM-NET
 10
38.745534
 20
878.92407
 30
-255.401181
  0
VERTEX
  5
CDC
  8
TEAM-NET
 10
38.161123
 20
879.367636
 30
-255.401181
  0
VERTEX
  5
CDD
  8
TEAM-NET
 10
37.458413
 20
879.788504
 30
-255.401181
  0
VERTEX
  5
CDE
  8
TEAM-NET
 10
36.644171
 20
880.182619
 30
-255.401181
  0
VERTEX
  5
CDF
  8
TEAM-NET
 10
35.726239
 20
880.546187
 30
-255.401181
  0
VERTEX
  5
CE0
  8
TEAM-NET
 10
34.713457
 20
880.875705
 30
-255.401181
  0
VERTEX
  5
CE1
  8
TEAM-NET
 10
33.615579
 20
881.168001
 30
-255.401181
  0
VERTEX
  5
CE2
  8
TEAM-NET
 10
32.443178
 20
881.420259
 30
-255.401181
  0
VERTEX
  5
CE3
  8
TEAM-NET
 10
31.207545
 20
881.63005
 30
-255.401181
  0
VERTEX
  5
CE4
  8
TEAM-NET
 10
29.920579
 20
881.795354
 30
-255.401181
  0
VERTEX
  5
CE5
  8
TEAM-NET
 10
28.594675
 20
881.914579
 30
-255.401181
  0
VERTEX
  5
CE6
  8
TEAM-NET
 10
27.242602
 20
881.986576
 30
-255.401181
  0
VERTEX
  5
CE7
  8
TEAM-NET
 10
25.877381
 20
882.010653
 30
-255.401181
  0
SEQEND
  5
CE8
  8
TEAM-NET
  0
LINE
  5
98F
  8
TEAM-NET
 10
224.088132
 20
-128.836221
 30
877.010653
 11
224.088132
 21
-407.836221
 31
877.010653
1001
ACAD
1000
R13OBJECT
1002
{
1005
B5
1002
}
  0
POLYLINE
  5
990
  8
TEAM-NET
 66
     1
 10
0.0
 20
0.0
 30
-62.747002
 70
   128
210
-0.933346
220
-0.358979
230
0.0
1001
ACAD
1000
R13OBJECT
1002
{
1005
B5
1002
}
  0
VERTEX
  5
E6F
  8
TEAM-NET
 10
475.023484
 20
882.010653
 30
-62.747002
  0
VERTEX
  5
E70
  8
TEAM-NET
 10
473.658264
 20
881.986576
 30
-62.747002
  0
VERTEX
  5
E71
  8
TEAM-NET
 10
472.306191
 20
881.914579
 30
-62.747002
  0
VERTEX
  5
E72
  8
TEAM-NET
 10
470.980287
 20
881.795354
 30
-62.747002
  0
VERTEX
  5
E73
  8
TEAM-NET
 10
469.693321
 20
881.63005
 30
-62.747002
  0
VERTEX
  5
E74
  8
TEAM-NET
 10
468.457688
 20
881.420259
 30
-62.747002
  0
VERTEX
  5
E75
  8
TEAM-NET
 10
467.285286
 20
881.168001
 30
-62.747002
  0
VERTEX
  5
E76
  8
TEAM-NET
 10
466.187408
 20
880.875705
 30
-62.747002
  0
VERTEX
  5
E77
  8
TEAM-NET
 10
465.174627
 20
880.546187
 30
-62.747002
  0
VERTEX
  5
E78
  8
TEAM-NET
 10
464.256695
 20
880.182619
 30
-62.747002
  0
VERTEX
  5
E79
  8
TEAM-NET
 10
463.442453
 20
879.788504
 30
-62.747002
  0
VERTEX
  5
E7A
  8
TEAM-NET
 10
462.739743
 20
879.367636
 30
-62.747002
  0
VERTEX
  5
E7B
  8
TEAM-NET
 10
462.155332
 20
878.92407
 30
-62.747002
  0
VERTEX
  5
E7C
  8
TEAM-NET
 10
461.694848
 20
878.462076
 30
-62.747002
  0
VERTEX
  5
E7D
  8
TEAM-NET
 10
461.362726
 20
877.986104
 30
-62.747002
  0
VERTEX
  5
E7E
  8
TEAM-NET
 10
461.162165
 20
877.500738
 30
-62.747002
  0
VERTEX
  5
E7F
  8
TEAM-NET
 10
461.095096
 20
877.010653
 30
-62.747002
  0
SEQEND
  5
E80
  8
TEAM-NET
  0
LINE
  5
9A3
  8
TEAM-NET
 10
229.088132
 20
-420.836221
 30
882.010653
 11
229.088132
 21
-115.836221
 31
882.010653
1001
ACAD
1000
R13OBJECT
1002
{
1005
B5
1002
}
  0
LINE
  5
9A4
  8
TEAM-NET
 10
225.552598
 20
-125.028609
 30
880.546187
 11
225.552598
 21
-411.643833
 31
880.546187
1001
ACAD
1000
R13OBJECT
1002
{
1005
B5
1002
}
  0
POLYLINE
  5
B6
  8
TEAM-NET
 66
     1
 10
0.0
 20
0.0
 30
-257.103358
 70
   128
210
0.933346
220
0.358979
230
-0.0
  0
VERTEX
  5
CE9
  8
TEAM-NET
 10
-25.222698
 20
882.010653
 30
-257.103358
  0
VERTEX
  5
CEA
  8
TEAM-NET
 10
-26.587919
 20
881.986576
 30
-257.103358
  0
VERTEX
  5
CEB
  8
TEAM-NET
 10
-27.939992
 20
881.914579
 30
-257.103358
  0
VERTEX
  5
CEC
  8
TEAM-NET
 10
-29.265896
 20
881.795354
 30
-257.103358
  0
VERTEX
  5
CED
  8
TEAM-NET
 10
-30.552861
 20
881.63005
 30
-257.103358
  0
VERTEX
  5
CEE
  8
TEAM-NET
 10
-31.788495
 20
881.420259
 30
-257.103358
  0
VERTEX
  5
CEF
  8
TEAM-NET
 10
-32.960896
 20
881.168001
 30
-257.103358
  0
VERTEX
  5
CF0
  8
TEAM-NET
 10
-34.058774
 20
880.875705
 30
-257.103358
  0
VERTEX
  5
CF1
  8
TEAM-NET
 10
-35.071556
 20
880.546187
 30
-257.103358
  0
VERTEX
  5
CF2
  8
TEAM-NET
 10
-35.989488
 20
880.182619
 30
-257.103358
  0
VERTEX
  5
CF3
  8
TEAM-NET
 10
-36.80373
 20
879.788504
 30
-257.103358
  0
VERTEX
  5
CF4
  8
TEAM-NET
 10
-37.50644
 20
879.367636
 30
-257.103358
  0
VERTEX
  5
CF5
  8
TEAM-NET
 10
-38.090851
 20
878.92407
 30
-257.103358
  0
VERTEX
  5
CF6
  8
TEAM-NET
 10
-38.551335
 20
878.462076
 30
-257.103358
  0
VERTEX
  5
CF7
  8
TEAM-NET
 10
-38.883456
 20
877.986104
 30
-257.103358
  0
VERTEX
  5
CF8
  8
TEAM-NET
 10
-39.084017
 20
877.500738
 30
-257.103358
  0
VERTEX
  5
CF9
  8
TEAM-NET
 10
-39.151086
 20
877.010653
 30
-257.103358
  0
SEQEND
  5
CFA
  8
TEAM-NET
  0
LINE
  5
9B7
  8
TEAM-NET
 10
-230.911868
 20
-115.836221
 30
882.010653
 11
-230.911868
 21
-420.836221
 31
882.010653
1001
ACAD
1000
R13OBJECT
1002
{
1005
B6
1002
}
  0
POLYLINE
  5
9B8
  8
TEAM-NET
 66
     1
 10
0.0
 20
0.0
 30
-64.449178
 70
   128
210
0.933346
220
-0.358979
230
-0.0
1001
ACAD
1000
R13OBJECT
1002
{
1005
B6
1002
}
  0
VERTEX
  5
E81
  8
TEAM-NET
 10
-461.749779
 20
877.010653
 30
-64.449178
  0
VERTEX
  5
E82
  8
TEAM-NET
 10
-461.816848
 20
877.500738
 30
-64.449178
  0
VERTEX
  5
E83
  8
TEAM-NET
 10
-462.017409
 20
877.986104
 30
-64.449178
  0
VERTEX
  5
E84
  8
TEAM-NET
 10
-462.349531
 20
878.462076
 30
-64.449178
  0
VERTEX
  5
E85
  8
TEAM-NET
 10
-462.810015
 20
878.92407
 30
-64.449178
  0
VERTEX
  5
E86
  8
TEAM-NET
 10
-463.394426
 20
879.367636
 30
-64.449178
  0
VERTEX
  5
E87
  8
TEAM-NET
 10
-464.097136
 20
879.788504
 30
-64.449178
  0
VERTEX
  5
E88
  8
TEAM-NET
 10
-464.911378
 20
880.182619
 30
-64.449178
  0
VERTEX
  5
E89
  8
TEAM-NET
 10
-465.82931
 20
880.546187
 30
-64.449178
  0
VERTEX
  5
E8A
  8
TEAM-NET
 10
-466.842092
 20
880.875705
 30
-64.449178
  0
VERTEX
  5
E8B
  8
TEAM-NET
 10
-467.93997
 20
881.168001
 30
-64.449178
  0
VERTEX
  5
E8C
  8
TEAM-NET
 10
-469.112371
 20
881.420259
 30
-64.449178
  0
VERTEX
  5
E8D
  8
TEAM-NET
 10
-470.348004
 20
881.63005
 30
-64.449178
  0
VERTEX
  5
E8E
  8
TEAM-NET
 10
-471.63497
 20
881.795354
 30
-64.449178
  0
VERTEX
  5
E8F
  8
TEAM-NET
 10
-472.960874
 20
881.914579
 30
-64.449178
  0
VERTEX
  5
E90
  8
TEAM-NET
 10
-474.312947
 20
881.986576
 30
-64.449178
  0
VERTEX
  5
E91
  8
TEAM-NET
 10
-475.678168
 20
882.010653
 30
-64.449178
  0
SEQEND
  5
E92
  8
TEAM-NET
  0
LINE
  5
9CB
  8
TEAM-NET
 10
-225.911868
 20
-407.836221
 30
877.010653
 11
-225.911868
 21
-128.836221
 31
877.010653
1001
ACAD
1000
R13OBJECT
1002
{
1005
B6
1002
}
  0
LINE
  5
9CC
  8
TEAM-NET
 10
-227.376334
 20
-411.643833
 30
880.546187
 11
-227.376334
 21
-125.028609
 31
880.546187
1001
ACAD
1000
R13OBJECT
1002
{
1005
B6
1002
}
  0
ARC
  5
B7
  8
TEAM-NET
 10
-8.836221
 20
874.010653
 30
266.088132
 40
8.0
210
1.0
220
0.0
230
0.0
 50
0.0
 51
90.0
  0
LINE
  5
9CD
  8
TEAM-NET
 10
266.088132
 20
-0.836221
 30
874.010653
 11
-267.911868
 21
-0.836221
 31
874.010653
1001
ACAD
1000
R13OBJECT
1002
{
1005
B7
1002
}
  0
ARC
  5
9CE
  8
TEAM-NET
 10
8.836221
 20
874.010653
 30
267.911868
 40
8.0
210
-1.0
220
0.0
230
0.0
 50
90.0
 51
180.0
1001
ACAD
1000
R13OBJECT
1002
{
1005
B7
1002
}
  0
LINE
  5
9CF
  8
TEAM-NET
 10
-267.911868
 20
-8.836221
 30
882.010653
 11
266.088132
 21
-8.836221
 31
882.010653
1001
ACAD
1000
R13OBJECT
1002
{
1005
B7
1002
}
  0
LINE
  5
9D0
  8
TEAM-NET
 10
-267.911868
 20
-3.179367
 30
879.667507
 11
266.088132
 21
-3.179367
 31
879.667507
1001
ACAD
1000
R13OBJECT
1002
{
1005
B7
1002
}
  0
ARC
  5
B8
  8
TEAM-NET
 10
-267.911868
 20
874.010653
 30
8.836221
 40
8.0
210
0.0
220
-1.0
230
0.0
 50
90.0
 51
180.0
  0
LINE
  5
9D1
  8
TEAM-NET
 10
-275.911868
 20
-8.836221
 30
874.010653
 11
-275.911868
 21
-457.836221
 31
874.010653
1001
ACAD
1000
R13OBJECT
1002
{
1005
B8
1002
}
  0
ARC
  5
9D2
  8
TEAM-NET
 10
-267.911868
 20
874.010653
 30
457.836221
 40
8.0
210
0.0
220
-1.0
230
0.0
 50
90.0
 51
180.0
1001
ACAD
1000
R13OBJECT
1002
{
1005
B8
1002
}
  0
LINE
  5
9D3
  8
TEAM-NET
 10
-267.911868
 20
-457.836221
 30
882.010653
 11
-267.911868
 21
-8.836221
 31
882.010653
1001
ACAD
1000
R13OBJECT
1002
{
1005
B8
1002
}
  0
LINE
  5
9D4
  8
TEAM-NET
 10
-273.568722
 20
-457.836221
 30
879.667507
 11
-273.568722
 21
-8.836221
 31
879.667507
1001
ACAD
1000
R13OBJECT
1002
{
1005
B8
1002
}
  0
ARC
  5
B9
  8
TEAM-NET
 10
266.088132
 20
874.010653
 30
457.836221
 40
8.0
210
0.0
220
-1.0
230
0.0
 50
0.0
 51
90.0
  0
LINE
  5
9D5
  8
TEAM-NET
 10
274.088132
 20
-457.836221
 30
874.010653
 11
274.088132
 21
-8.836221
 31
874.010653
1001
ACAD
1000
R13OBJECT
1002
{
1005
B9
1002
}
  0
ARC
  5
9D6
  8
TEAM-NET
 10
266.088132
 20
874.010653
 30
8.836221
 40
8.0
210
0.0
220
-1.0
230
0.0
 50
0.0
 51
90.0
1001
ACAD
1000
R13OBJECT
1002
{
1005
B9
1002
}
  0
LINE
  5
9D7
  8
TEAM-NET
 10
266.088132
 20
-8.836221
 30
882.010653
 11
266.088132
 21
-457.836221
 31
882.010653
1001
ACAD
1000
R13OBJECT
1002
{
1005
B9
1002
}
  0
LINE
  5
9D8
  8
TEAM-NET
 10
271.744986
 20
-8.836221
 30
879.667507
 11
271.744986
 21
-457.836221
 31
879.667507
1001
ACAD
1000
R13OBJECT
1002
{
1005
B9
1002
}
  0
ARC
  5
BA
  8
TEAM-NET
 10
-457.836221
 20
874.010653
 30
-267.911868
 40
8.0
210
1.0
220
0.0
230
0.0
 50
90.0
 51
180.0
  0
LINE
  5
9D9
  8
TEAM-NET
 10
-267.911868
 20
-465.836221
 30
874.010653
 11
266.088132
 21
-465.836221
 31
874.010653
1001
ACAD
1000
R13OBJECT
1002
{
1005
BA
1002
}
  0
ARC
  5
9DA
  8
TEAM-NET
 10
457.836221
 20
874.010653
 30
-266.088132
 40
8.0
210
-1.0
220
0.0
230
0.0
 50
360.0
 51
90.0
1001
ACAD
1000
R13OBJECT
1002
{
1005
BA
1002
}
  0
LINE
  5
9DB
  8
TEAM-NET
 10
266.088132
 20
-457.836221
 30
882.010653
 11
-267.911868
 21
-457.836221
 31
882.010653
1001
ACAD
1000
R13OBJECT
1002
{
1005
BA
1002
}
  0
LINE
  5
9DC
  8
TEAM-NET
 10
266.088132
 20
-463.493075
 30
879.667507
 11
-267.911868
 21
-463.493075
 31
879.667507
1001
ACAD
1000
R13OBJECT
1002
{
1005
BA
1002
}
  0
ARC
  5
BB
  8
TEAM-NET
 10
266.088132
 20
874.010653
 30
457.836221
 40
8.0
210
0.0
220
-1.0
230
0.0
 50
0.0
 51
90.0
  0
ARC
  5
9DD
  8
TEAM-NET
 10
457.836221
 20
874.010653
 30
-266.088132
 40
8.0
210
-1.0
220
0.0
230
0.0
 50
360.0
 51
90.0
1001
ACAD
1000
R13OBJECT
1002
{
1005
BB
1002
}
  0
ARC
  5
9DE
  8
TEAM-NET
 10
266.088132
 20
-457.836221
 30
874.010653
 40
8.0
 50
270.0
 51
0.0
1001
ACAD
1000
R13OBJECT
1002
{
1005
BB
1002
}
  0
ARC
  5
9DF
  8
TEAM-NET
 10
266.088132
 20
-457.836221
 30
879.667507
 40
5.656854
 50
270.0
 51
360.0
1001
ACAD
1000
R13OBJECT
1002
{
1005
BB
1002
}
  0
ARC
  5
BC
  8
TEAM-NET
 10
-267.911868
 20
-457.836221
 30
874.010653
 40
8.0
 50
180.0
 51
270.0
  0
ARC
  5
9E0
  8
TEAM-NET
 10
-457.836221
 20
874.010653
 30
-267.911868
 40
8.0
210
1.0
220
0.0
230
0.0
 50
90.0
 51
180.0
1001
ACAD
1000
R13OBJECT
1002
{
1005
BC
1002
}
  0
ARC
  5
9E1
  8
TEAM-NET
 10
-267.911868
 20
874.010653
 30
457.836221
 40
8.0
210
0.0
220
-1.0
230
0.0
 50
90.0
 51
180.0
1001
ACAD
1000
R13OBJECT
1002
{
1005
BC
1002
}
  0
ARC
  5
9E2
  8
TEAM-NET
 10
-267.911868
 20
-457.836221
 30
879.667507
 40
5.656854
 50
180.0
 51
270.0
1001
ACAD
1000
R13OBJECT
1002
{
1005
BC
1002
}
  0
ARC
  5
BD
  8
TEAM-NET
 10
-8.836221
 20
874.010653
 30
266.088132
 40
8.0
210
1.0
220
0.0
230
0.0
 50
0.0
 51
90.0
  0
ARC
  5
9E3
  8
TEAM-NET
 10
266.088132
 20
874.010653
 30
8.836221
 40
8.0
210
0.0
220
-1.0
230
0.0
 50
0.0
 51
90.0
1001
ACAD
1000
R13OBJECT
1002
{
1005
BD
1002
}
  0
ARC
  5
9E4
  8
TEAM-NET
 10
266.088132
 20
-8.836221
 30
874.010653
 40
8.0
 50
0.0
 51
90.0
1001
ACAD
1000
R13OBJECT
1002
{
1005
BD
1002
}
  0
ARC
  5
9E5
  8
TEAM-NET
 10
266.088132
 20
-8.836221
 30
879.667507
 40
5.656854
 50
360.0
 51
90.0
1001
ACAD
1000
R13OBJECT
1002
{
1005
BD
1002
}
  0
ARC
  5
BE
  8
TEAM-NET
 10
-267.911868
 20
-8.836221
 30
874.010653
 40
8.0
 50
90.0
 51
180.0
  0
ARC
  5
9E6
  8
TEAM-NET
 10
-267.911868
 20
874.010653
 30
8.836221
 40
8.0
210
0.0
220
-1.0
230
0.0
 50
90.0
 51
180.0
1001
ACAD
1000
R13OBJECT
1002
{
1005
BE
1002
}
  0
ARC
  5
9E7
  8
TEAM-NET
 10
8.836221
 20
874.010653
 30
267.911868
 40
8.0
210
-1.0
220
0.0
230
0.0
 50
90.0
 51
180.0
1001
ACAD
1000
R13OBJECT
1002
{
1005
BE
1002
}
  0
ARC
  5
9E8
  8
TEAM-NET
 10
-267.911868
 20
-8.836221
 30
879.667507
 40
5.656854
 50
90.0
 51
180.0
1001
ACAD
1000
R13OBJECT
1002
{
1005
BE
1002
}
  0
POLYLINE
  5
BF
  8
TEAM-NET
 66
     1
 10
0.0
 20
0.0
 30
0.0
 70
     8
  0
VERTEX
  5
9E9
  8
TEAM-NET
 10
-230.911868
 20
-420.836221
 30
882.010653
 70
    32
  0
VERTEX
  5
9EA
  8
TEAM-NET
 10
-229.637645
 20
-420.346135
 30
881.986576
 70
    32
  0
VERTEX
  5
9EB
  8
TEAM-NET
 10
-228.375694
 20
-419.860769
 30
881.914579
 70
    32
  0
VERTEX
  5
9EC
  8
TEAM-NET
 10
-227.138167
 20
-419.384798
 30
881.795354
 70
    32
  0
VERTEX
  5
9ED
  8
TEAM-NET
 10
-225.936984
 20
-418.922804
 30
881.63005
 70
    32
  0
VERTEX
  5
9EE
  8
TEAM-NET
 10
-224.783711
 20
-418.479237
 30
881.420259
 70
    32
  0
VERTEX
  5
9EF
  8
TEAM-NET
 10
-223.689455
 20
-418.05837
 30
881.168001
 70
    32
  0
VERTEX
  5
9F0
  8
TEAM-NET
 10
-222.664756
 20
-417.664255
 30
880.875705
 70
    32
  0
VERTEX
  5
9F1
  8
TEAM-NET
 10
-221.71948
 20
-417.300687
 30
880.546187
 70
    32
  0
VERTEX
  5
9F2
  8
TEAM-NET
 10
-220.862732
 20
-416.971169
 30
880.182619
 70
    32
  0
VERTEX
  5
9F3
  8
TEAM-NET
 10
-220.102763
 20
-416.678873
 30
879.788504
 70
    32
  0
VERTEX
  5
9F4
  8
TEAM-NET
 10
-219.446892
 20
-416.426615
 30
879.367636
 70
    32
  0
VERTEX
  5
9F5
  8
TEAM-NET
 10
-218.901434
 20
-416.216823
 30
878.92407
 70
    32
  0
VERTEX
  5
9F6
  8
TEAM-NET
 10
-218.471644
 20
-416.051519
 30
878.462076
 70
    32
  0
VERTEX
  5
9F7
  8
TEAM-NET
 10
-218.16166
 20
-415.932295
 30
877.986104
 70
    32
  0
VERTEX
  5
9F8
  8
TEAM-NET
 10
-217.974467
 20
-415.860297
 30
877.500738
 70
    32
  0
VERTEX
  5
9F9
  8
TEAM-NET
 10
-217.911868
 20
-415.836221
 30
877.010653
 70
    32
  0
SEQEND
  5
9FA
  8
TEAM-NET
  0
LINE
  5
9FB
  8
TEAM-NET
 10
-230.911868
 20
-420.836221
 30
882.010653
 11
229.088132
 21
-420.836221
 31
882.010653
1001
ACAD
1000
R13OBJECT
1002
{
1005
BF
1002
}
  0
POLYLINE
  5
9FC
  8
TEAM-NET
 66
     1
 10
0.0
 20
0.0
 30
-310.547791
 70
   128
210
0.358979
220
0.933346
230
-0.0
1001
ACAD
1000
R13OBJECT
1002
{
1005
BF
1002
}
  0
VERTEX
  5
E93
  8
TEAM-NET
 10
-350.961412
 20
877.010653
 30
-310.547791
  0
VERTEX
  5
E94
  8
TEAM-NET
 10
-351.028481
 20
877.500738
 30
-310.547791
  0
VERTEX
  5
E95
  8
TEAM-NET
 10
-351.229042
 20
877.986104
 30
-310.547791
  0
VERTEX
  5
E96
  8
TEAM-NET
 10
-351.561164
 20
878.462076
 30
-310.547791
  0
VERTEX
  5
E97
  8
TEAM-NET
 10
-352.021648
 20
878.92407
 30
-310.547791
  0
VERTEX
  5
E98
  8
TEAM-NET
 10
-352.606059
 20
879.367636
 30
-310.547791
  0
VERTEX
  5
E99
  8
TEAM-NET
 10
-353.308769
 20
879.788504
 30
-310.547791
  0
VERTEX
  5
E9A
  8
TEAM-NET
 10
-354.123011
 20
880.182619
 30
-310.547791
  0
VERTEX
  5
E9B
  8
TEAM-NET
 10
-355.040943
 20
880.546187
 30
-310.547791
  0
VERTEX
  5
E9C
  8
TEAM-NET
 10
-356.053724
 20
880.875705
 30
-310.547791
  0
VERTEX
  5
E9D
  8
TEAM-NET
 10
-357.151602
 20
881.168001
 30
-310.547791
  0
VERTEX
  5
E9E
  8
TEAM-NET
 10
-358.324004
 20
881.420259
 30
-310.547791
  0
VERTEX
  5
E9F
  8
TEAM-NET
 10
-359.559637
 20
881.63005
 30
-310.547791
  0
VERTEX
  5
EA0
  8
TEAM-NET
 10
-360.846603
 20
881.795354
 30
-310.547791
  0
VERTEX
  5
EA1
  8
TEAM-NET
 10
-362.172507
 20
881.914579
 30
-310.547791
  0
VERTEX
  5
EA2
  8
TEAM-NET
 10
-363.52458
 20
881.986576
 30
-310.547791
  0
VERTEX
  5
EA3
  8
TEAM-NET
 10
-364.8898
 20
882.010653
 30
-310.547791
  0
SEQEND
  5
EA4
  8
TEAM-NET
  0
LINE
  5
A0F
  8
TEAM-NET
 10
216.088132
 20
-415.836221
 30
877.010653
 11
-217.911868
 21
-415.836221
 31
877.010653
1001
ACAD
1000
R13OBJECT
1002
{
1005
BF
1002
}
  0
LINE
  5
A10
  8
TEAM-NET
 10
219.895744
 20
-417.300687
 30
880.546187
 11
-221.71948
 21
-417.300687
 31
880.546187
1001
ACAD
1000
R13OBJECT
1002
{
1005
BF
1002
}
  0
ARC
  5
C0
  8
TEAM-NET
 10
216.088132
 20
-407.836221
 30
877.010653
 40
8.0
 50
270.0
 51
360.0
  0
POLYLINE
  5
A11
  8
TEAM-NET
 66
     1
 10
0.0
 20
0.0
 30
-310.547791
 70
   128
210
0.358979
220
0.933346
230
-0.0
1001
ACAD
1000
R13OBJECT
1002
{
1005
C0
1002
}
  0
VERTEX
  5
EA5
  8
TEAM-NET
 10
-350.961412
 20
877.010653
 30
-310.547791
  0
VERTEX
  5
EA6
  8
TEAM-NET
 10
-351.028481
 20
877.500738
 30
-310.547791
  0
VERTEX
  5
EA7
  8
TEAM-NET
 10
-351.229042
 20
877.986104
 30
-310.547791
  0
VERTEX
  5
EA8
  8
TEAM-NET
 10
-351.561164
 20
878.462076
 30
-310.547791
  0
VERTEX
  5
EA9
  8
TEAM-NET
 10
-352.021648
 20
878.92407
 30
-310.547791
  0
VERTEX
  5
EAA
  8
TEAM-NET
 10
-352.606059
 20
879.367636
 30
-310.547791
  0
VERTEX
  5
EAB
  8
TEAM-NET
 10
-353.308769
 20
879.788504
 30
-310.547791
  0
VERTEX
  5
EAC
  8
TEAM-NET
 10
-354.123011
 20
880.182619
 30
-310.547791
  0
VERTEX
  5
EAD
  8
TEAM-NET
 10
-355.040943
 20
880.546187
 30
-310.547791
  0
VERTEX
  5
EAE
  8
TEAM-NET
 10
-356.053724
 20
880.875705
 30
-310.547791
  0
VERTEX
  5
EAF
  8
TEAM-NET
 10
-357.151602
 20
881.168001
 30
-310.547791
  0
VERTEX
  5
EB0
  8
TEAM-NET
 10
-358.324004
 20
881.420259
 30
-310.547791
  0
VERTEX
  5
EB1
  8
TEAM-NET
 10
-359.559637
 20
881.63005
 30
-310.547791
  0
VERTEX
  5
EB2
  8
TEAM-NET
 10
-360.846603
 20
881.795354
 30
-310.547791
  0
VERTEX
  5
EB3
  8
TEAM-NET
 10
-362.172507
 20
881.914579
 30
-310.547791
  0
VERTEX
  5
EB4
  8
TEAM-NET
 10
-363.52458
 20
881.986576
 30
-310.547791
  0
VERTEX
  5
EB5
  8
TEAM-NET
 10
-364.8898
 20
882.010653
 30
-310.547791
  0
SEQEND
  5
EB6
  8
TEAM-NET
  0
POLYLINE
  5
A24
  8
TEAM-NET
 66
     1
 10
0.0
 20
0.0
 30
-62.747002
 70
   128
210
-0.933346
220
-0.358979
230
0.0
1001
ACAD
1000
R13OBJECT
1002
{
1005
C0
1002
}
  0
VERTEX
  5
EB7
  8
TEAM-NET
 10
475.023484
 20
882.010653
 30
-62.747002
  0
VERTEX
  5
EB8
  8
TEAM-NET
 10
473.658264
 20
881.986576
 30
-62.747002
  0
VERTEX
  5
EB9
  8
TEAM-NET
 10
472.306191
 20
881.914579
 30
-62.747002
  0
VERTEX
  5
EBA
  8
TEAM-NET
 10
470.980287
 20
881.795354
 30
-62.747002
  0
VERTEX
  5
EBB
  8
TEAM-NET
 10
469.693321
 20
881.63005
 30
-62.747002
  0
VERTEX
  5
EBC
  8
TEAM-NET
 10
468.457688
 20
881.420259
 30
-62.747002
  0
VERTEX
  5
EBD
  8
TEAM-NET
 10
467.285286
 20
881.168001
 30
-62.747002
  0
VERTEX
  5
EBE
  8
TEAM-NET
 10
466.187408
 20
880.875705
 30
-62.747002
  0
VERTEX
  5
EBF
  8
TEAM-NET
 10
465.174627
 20
880.546187
 30
-62.747002
  0
VERTEX
  5
EC0
  8
TEAM-NET
 10
464.256695
 20
880.182619
 30
-62.747002
  0
VERTEX
  5
EC1
  8
TEAM-NET
 10
463.442453
 20
879.788504
 30
-62.747002
  0
VERTEX
  5
EC2
  8
TEAM-NET
 10
462.739743
 20
879.367636
 30
-62.747002
  0
VERTEX
  5
EC3
  8
TEAM-NET
 10
462.155332
 20
878.92407
 30
-62.747002
  0
VERTEX
  5
EC4
  8
TEAM-NET
 10
461.694848
 20
878.462076
 30
-62.747002
  0
VERTEX
  5
EC5
  8
TEAM-NET
 10
461.362726
 20
877.986104
 30
-62.747002
  0
VERTEX
  5
EC6
  8
TEAM-NET
 10
461.162165
 20
877.500738
 30
-62.747002
  0
VERTEX
  5
EC7
  8
TEAM-NET
 10
461.095096
 20
877.010653
 30
-62.747002
  0
SEQEND
  5
EC8
  8
TEAM-NET
  0
ARC
  5
C1
  8
TEAM-NET
 10
-217.911868
 20
-407.836221
 30
877.010653
 40
8.0
 50
180.0
 51
270.0
  0
POLYLINE
  5
A37
  8
TEAM-NET
 66
     1
 10
0.0
 20
0.0
 30
-64.449178
 70
   128
210
0.933346
220
-0.358979
230
-0.0
1001
ACAD
1000
R13OBJECT
1002
{
1005
C1
1002
}
  0
VERTEX
  5
EC9
  8
TEAM-NET
 10
-461.749779
 20
877.010653
 30
-64.449178
  0
VERTEX
  5
ECA
  8
TEAM-NET
 10
-461.816848
 20
877.500738
 30
-64.449178
  0
VERTEX
  5
ECB
  8
TEAM-NET
 10
-462.017409
 20
877.986104
 30
-64.449178
  0
VERTEX
  5
ECC
  8
TEAM-NET
 10
-462.349531
 20
878.462076
 30
-64.449178
  0
VERTEX
  5
ECD
  8
TEAM-NET
 10
-462.810015
 20
878.92407
 30
-64.449178
  0
VERTEX
  5
ECE
  8
TEAM-NET
 10
-463.394426
 20
879.367636
 30
-64.449178
  0
VERTEX
  5
ECF
  8
TEAM-NET
 10
-464.097136
 20
879.788504
 30
-64.449178
  0
VERTEX
  5
ED0
  8
TEAM-NET
 10
-464.911378
 20
880.182619
 30
-64.449178
  0
VERTEX
  5
ED1
  8
TEAM-NET
 10
-465.82931
 20
880.546187
 30
-64.449178
  0
VERTEX
  5
ED2
  8
TEAM-NET
 10
-466.842092
 20
880.875705
 30
-64.449178
  0
VERTEX
  5
ED3
  8
TEAM-NET
 10
-467.93997
 20
881.168001
 30
-64.449178
  0
VERTEX
  5
ED4
  8
TEAM-NET
 10
-469.112371
 20
881.420259
 30
-64.449178
  0
VERTEX
  5
ED5
  8
TEAM-NET
 10
-470.348004
 20
881.63005
 30
-64.449178
  0
VERTEX
  5
ED6
  8
TEAM-NET
 10
-471.63497
 20
881.795354
 30
-64.449178
  0
VERTEX
  5
ED7
  8
TEAM-NET
 10
-472.960874
 20
881.914579
 30
-64.449178
  0
VERTEX
  5
ED8
  8
TEAM-NET
 10
-474.312947
 20
881.986576
 30
-64.449178
  0
VERTEX
  5
ED9
  8
TEAM-NET
 10
-475.678168
 20
882.010653
 30
-64.449178
  0
SEQEND
  5
EDA
  8
TEAM-NET
  0
POLYLINE
  5
A4A
  8
TEAM-NET
 66
     1
 10
0.0
 20
0.0
 30
0.0
 70
     8
1001
ACAD
1000
R13OBJECT
1002
{
1005
C1
1002
}
  0
VERTEX
  5
A4B
  8
TEAM-NET
 10
-230.911868
 20
-420.836221
 30
882.010653
 70
    32
  0
VERTEX
  5
A4C
  8
TEAM-NET
 10
-229.637645
 20
-420.346135
 30
881.986576
 70
    32
  0
VERTEX
  5
A4D
  8
TEAM-NET
 10
-228.375694
 20
-419.860769
 30
881.914579
 70
    32
  0
VERTEX
  5
A4E
  8
TEAM-NET
 10
-227.138167
 20
-419.384798
 30
881.795354
 70
    32
  0
VERTEX
  5
A4F
  8
TEAM-NET
 10
-225.936984
 20
-418.922804
 30
881.63005
 70
    32
  0
VERTEX
  5
A50
  8
TEAM-NET
 10
-224.783711
 20
-418.479237
 30
881.420259
 70
    32
  0
VERTEX
  5
A51
  8
TEAM-NET
 10
-223.689455
 20
-418.05837
 30
881.168001
 70
    32
  0
VERTEX
  5
A52
  8
TEAM-NET
 10
-222.664756
 20
-417.664255
 30
880.875705
 70
    32
  0
VERTEX
  5
A53
  8
TEAM-NET
 10
-221.71948
 20
-417.300687
 30
880.546187
 70
    32
  0
VERTEX
  5
A54
  8
TEAM-NET
 10
-220.862732
 20
-416.971169
 30
880.182619
 70
    32
  0
VERTEX
  5
A55
  8
TEAM-NET
 10
-220.102763
 20
-416.678873
 30
879.788504
 70
    32
  0
VERTEX
  5
A56
  8
TEAM-NET
 10
-219.446892
 20
-416.426615
 30
879.367636
 70
    32
  0
VERTEX
  5
A57
  8
TEAM-NET
 10
-218.901434
 20
-416.216823
 30
878.92407
 70
    32
  0
VERTEX
  5
A58
  8
TEAM-NET
 10
-218.471644
 20
-416.051519
 30
878.462076
 70
    32
  0
VERTEX
  5
A59
  8
TEAM-NET
 10
-218.16166
 20
-415.932295
 30
877.986104
 70
    32
  0
VERTEX
  5
A5A
  8
TEAM-NET
 10
-217.974467
 20
-415.860297
 30
877.500738
 70
    32
  0
VERTEX
  5
A5B
  8
TEAM-NET
 10
-217.911868
 20
-415.836221
 30
877.010653
 70
    32
  0
SEQEND
  5
A5C
  8
TEAM-NET
  0
ARC
  5
C2
  8
TEAM-NET
 10
216.088132
 20
-128.836221
 30
877.010653
 40
8.0
 50
0.0
 51
90.0
  0
POLYLINE
  5
A5D
  8
TEAM-NET
 66
     1
 10
0.0
 20
0.0
 30
-255.401181
 70
   128
210
-0.933346
220
0.358979
230
-0.0
1001
ACAD
1000
R13OBJECT
1002
{
1005
C2
1002
}
  0
VERTEX
  5
EDB
  8
TEAM-NET
 10
39.80577
 20
877.010653
 30
-255.401181
  0
VERTEX
  5
EDC
  8
TEAM-NET
 10
39.738701
 20
877.500738
 30
-255.401181
  0
VERTEX
  5
EDD
  8
TEAM-NET
 10
39.538139
 20
877.986104
 30
-255.401181
  0
VERTEX
  5
EDE
  8
TEAM-NET
 10
39.206018
 20
878.462076
 30
-255.401181
  0
VERTEX
  5
EDF
  8
TEAM-NET
 10
38.745534
 20
878.92407
 30
-255.401181
  0
VERTEX
  5
EE0
  8
TEAM-NET
 10
38.161123
 20
879.367636
 30
-255.401181
  0
VERTEX
  5
EE1
  8
TEAM-NET
 10
37.458413
 20
879.788504
 30
-255.401181
  0
VERTEX
  5
EE2
  8
TEAM-NET
 10
36.644171
 20
880.182619
 30
-255.401181
  0
VERTEX
  5
EE3
  8
TEAM-NET
 10
35.726239
 20
880.546187
 30
-255.401181
  0
VERTEX
  5
EE4
  8
TEAM-NET
 10
34.713457
 20
880.875705
 30
-255.401181
  0
VERTEX
  5
EE5
  8
TEAM-NET
 10
33.615579
 20
881.168001
 30
-255.401181
  0
VERTEX
  5
EE6
  8
TEAM-NET
 10
32.443178
 20
881.420259
 30
-255.401181
  0
VERTEX
  5
EE7
  8
TEAM-NET
 10
31.207545
 20
881.63005
 30
-255.401181
  0
VERTEX
  5
EE8
  8
TEAM-NET
 10
29.920579
 20
881.795354
 30
-255.401181
  0
VERTEX
  5
EE9
  8
TEAM-NET
 10
28.594675
 20
881.914579
 30
-255.401181
  0
VERTEX
  5
EEA
  8
TEAM-NET
 10
27.242602
 20
881.986576
 30
-255.401181
  0
VERTEX
  5
EEB
  8
TEAM-NET
 10
25.877381
 20
882.010653
 30
-255.401181
  0
SEQEND
  5
EEC
  8
TEAM-NET
  0
POLYLINE
  5
A70
  8
TEAM-NET
 66
     1
 10
0.0
 20
0.0
 30
190.353074
 70
   128
210
0.358979
220
-0.933346
230
0.0
1001
ACAD
1000
R13OBJECT
1002
{
1005
C2
1002
}
  0
VERTEX
  5
EED
  8
TEAM-NET
 10
172.235621
 20
882.010653
 30
190.353074
  0
VERTEX
  5
EEE
  8
TEAM-NET
 10
170.8704
 20
881.986576
 30
190.353074
  0
VERTEX
  5
EEF
  8
TEAM-NET
 10
169.518328
 20
881.914579
 30
190.353074
  0
VERTEX
  5
EF0
  8
TEAM-NET
 10
168.192424
 20
881.795354
 30
190.353074
  0
VERTEX
  5
EF1
  8
TEAM-NET
 10
166.905458
 20
881.63005
 30
190.353074
  0
VERTEX
  5
EF2
  8
TEAM-NET
 10
165.669824
 20
881.420259
 30
190.353074
  0
VERTEX
  5
EF3
  8
TEAM-NET
 10
164.497423
 20
881.168001
 30
190.353074
  0
VERTEX
  5
EF4
  8
TEAM-NET
 10
163.399545
 20
880.875705
 30
190.353074
  0
VERTEX
  5
EF5
  8
TEAM-NET
 10
162.386763
 20
880.546187
 30
190.353074
  0
VERTEX
  5
EF6
  8
TEAM-NET
 10
161.468832
 20
880.182619
 30
190.353074
  0
VERTEX
  5
EF7
  8
TEAM-NET
 10
160.65459
 20
879.788504
 30
190.353074
  0
VERTEX
  5
EF8
  8
TEAM-NET
 10
159.951879
 20
879.367636
 30
190.353074
  0
VERTEX
  5
EF9
  8
TEAM-NET
 10
159.367468
 20
878.92407
 30
190.353074
  0
VERTEX
  5
EFA
  8
TEAM-NET
 10
158.906985
 20
878.462076
 30
190.353074
  0
VERTEX
  5
EFB
  8
TEAM-NET
 10
158.574863
 20
877.986104
 30
190.353074
  0
VERTEX
  5
EFC
  8
TEAM-NET
 10
158.374302
 20
877.500738
 30
190.353074
  0
VERTEX
  5
EFD
  8
TEAM-NET
 10
158.307233
 20
877.010653
 30
190.353074
  0
SEQEND
  5
EFE
  8
TEAM-NET
  0
ARC
  5
C3
  8
TEAM-NET
 10
-217.911868
 20
-128.836221
 30
877.010653
 40
8.0
 50
90.0
 51
180.0
  0
POLYLINE
  5
A83
  8
TEAM-NET
 66
     1
 10
0.0
 20
0.0
 30
191.007758
 70
   128
210
-0.358979
220
-0.933346
230
-0.0
1001
ACAD
1000
R13OBJECT
1002
{
1005
C3
1002
}
  0
VERTEX
  5
EFF
  8
TEAM-NET
 10
-160.009409
 20
877.010653
 30
191.007758
  0
VERTEX
  5
F00
  8
TEAM-NET
 10
-160.076478
 20
877.500738
 30
191.007758
  0
VERTEX
  5
F01
  8
TEAM-NET
 10
-160.277039
 20
877.986104
 30
191.007758
  0
VERTEX
  5
F02
  8
TEAM-NET
 10
-160.609161
 20
878.462076
 30
191.007758
  0
VERTEX
  5
F03
  8
TEAM-NET
 10
-161.069645
 20
878.92407
 30
191.007758
  0
VERTEX
  5
F04
  8
TEAM-NET
 10
-161.654056
 20
879.367636
 30
191.007758
  0
VERTEX
  5
F05
  8
TEAM-NET
 10
-162.356766
 20
879.788504
 30
191.007758
  0
VERTEX
  5
F06
  8
TEAM-NET
 10
-163.171008
 20
880.182619
 30
191.007758
  0
VERTEX
  5
F07
  8
TEAM-NET
 10
-164.08894
 20
880.546187
 30
191.007758
  0
VERTEX
  5
F08
  8
TEAM-NET
 10
-165.101722
 20
880.875705
 30
191.007758
  0
VERTEX
  5
F09
  8
TEAM-NET
 10
-166.1996
 20
881.168001
 30
191.007758
  0
VERTEX
  5
F0A
  8
TEAM-NET
 10
-167.372001
 20
881.420259
 30
191.007758
  0
VERTEX
  5
F0B
  8
TEAM-NET
 10
-168.607634
 20
881.63005
 30
191.007758
  0
VERTEX
  5
F0C
  8
TEAM-NET
 10
-169.8946
 20
881.795354
 30
191.007758
  0
VERTEX
  5
F0D
  8
TEAM-NET
 10
-171.220504
 20
881.914579
 30
191.007758
  0
VERTEX
  5
F0E
  8
TEAM-NET
 10
-172.572577
 20
881.986576
 30
191.007758
  0
VERTEX
  5
F0F
  8
TEAM-NET
 10
-173.937798
 20
882.010653
 30
191.007758
  0
SEQEND
  5
F10
  8
TEAM-NET
  0
POLYLINE
  5
A96
  8
TEAM-NET
 66
     1
 10
0.0
 20
0.0
 30
-257.103358
 70
   128
210
0.933346
220
0.358979
230
-0.0
1001
ACAD
1000
R13OBJECT
1002
{
1005
C3
1002
}
  0
VERTEX
  5
F11
  8
TEAM-NET
 10
-25.222698
 20
882.010653
 30
-257.103358
  0
VERTEX
  5
F12
  8
TEAM-NET
 10
-26.587919
 20
881.986576
 30
-257.103358
  0
VERTEX
  5
F13
  8
TEAM-NET
 10
-27.939992
 20
881.914579
 30
-257.103358
  0
VERTEX
  5
F14
  8
TEAM-NET
 10
-29.265896
 20
881.795354
 30
-257.103358
  0
VERTEX
  5
F15
  8
TEAM-NET
 10
-30.552861
 20
881.63005
 30
-257.103358
  0
VERTEX
  5
F16
  8
TEAM-NET
 10
-31.788495
 20
881.420259
 30
-257.103358
  0
VERTEX
  5
F17
  8
TEAM-NET
 10
-32.960896
 20
881.168001
 30
-257.103358
  0
VERTEX
  5
F18
  8
TEAM-NET
 10
-34.058774
 20
880.875705
 30
-257.103358
  0
VERTEX
  5
F19
  8
TEAM-NET
 10
-35.071556
 20
880.546187
 30
-257.103358
  0
VERTEX
  5
F1A
  8
TEAM-NET
 10
-35.989488
 20
880.182619
 30
-257.103358
  0
VERTEX
  5
F1B
  8
TEAM-NET
 10
-36.80373
 20
879.788504
 30
-257.103358
  0
VERTEX
  5
F1C
  8
TEAM-NET
 10
-37.50644
 20
879.367636
 30
-257.103358
  0
VERTEX
  5
F1D
  8
TEAM-NET
 10
-38.090851
 20
878.92407
 30
-257.103358
  0
VERTEX
  5
F1E
  8
TEAM-NET
 10
-38.551335
 20
878.462076
 30
-257.103358
  0
VERTEX
  5
F1F
  8
TEAM-NET
 10
-38.883456
 20
877.986104
 30
-257.103358
  0
VERTEX
  5
F20
  8
TEAM-NET
 10
-39.084017
 20
877.500738
 30
-257.103358
  0
VERTEX
  5
F21
  8
TEAM-NET
 10
-39.151086
 20
877.010653
 30
-257.103358
  0
SEQEND
  5
F22
  8
TEAM-NET
  0
ARC
  5
C4
  8
TEAM-NET
 10
21.411868
 20
879.010653
 30
-60.836221
 40
3.0
210
0.0
220
1.0
230
0.0
 50
90.0
 51
180.0
  0
ARC
  5
AA9
  8
TEAM-NET
 10
-0.911868
 20
-60.836221
 30
882.010653
 40
20.5
 50
180.0
 51
360.0
1001
ACAD
1000
R13OBJECT
1002
{
1005
C4
1002
}
  0
ARC
  5
AAA
  8
TEAM-NET
 10
19.588132
 20
879.010653
 30
60.836221
 40
3.0
210
0.0
220
-1.0
230
0.0
 50
90.0
 51
180.0
1001
ACAD
1000
R13OBJECT
1002
{
1005
C4
1002
}
  0
ARC
  5
AAB
  8
TEAM-NET
 10
0.911868
 20
-60.836221
 30
-879.010653
 40
17.5
210
0.0
220
0.0
230
-1.0
 50
180.0
 51
0.0
1001
ACAD
1000
R13OBJECT
1002
{
1005
C4
1002
}
  0
ARC
  5
AAC
  8
TEAM-NET
 10
-81.336221
 20
879.010653
 30
-0.911868
 40
3.0
210
1.0
220
0.0
230
0.0
 50
0.0
 51
90.0
1001
ACAD
1000
R13OBJECT
1002
{
1005
C4
1002
}
  0
ARC
  5
AAD
  8
TEAM-NET
 10
0.911868
 20
-60.836221
 30
-881.131973
 40
18.37868
210
0.0
220
0.0
230
-1.0
 50
180.0
 51
0.0
1001
ACAD
1000
R13OBJECT
1002
{
1005
C4
1002
}
  0
ARC
  5
C5
  8
TEAM-NET
 10
0.232897
 20
-206.512893
 30
893.512072
 40
8.0
 50
10.039884
 51
190.039884
  0
ARC
  5
AAE
  8
TEAM-NET
 10
0.232897
 20
-206.512893
 30
893.512072
 40
8.0
 50
190.039884
 51
10.039884
1001
ACAD
1000
R13OBJECT
1002
{
1005
C5
1002
}
  0
ARC
  5
AAF
  8
TEAM-NET
 10
-0.232897
 20
-206.512893
 30
-893.512072
 40
10.0
210
0.0
220
0.0
230
-1.0
 50
169.960116
 51
349.960116
1001
ACAD
1000
R13OBJECT
1002
{
1005
C5
1002
}
  0
ARC
  5
AB0
  8
TEAM-NET
 10
-0.232897
 20
-206.512893
 30
-893.512072
 40
10.0
210
0.0
220
0.0
230
-1.0
 50
349.960116
 51
169.960116
1001
ACAD
1000
R13OBJECT
1002
{
1005
C5
1002
}
  0
ARC
  5
C6
  8
TEAM-NET
 10
1.035904
 20
-63.067466
 30
-882.66284
 40
25.0
210
0.0
220
0.0
230
-1.0
 50
169.960116
 51
349.960116
  0
ARC
  5
AB1
  8
TEAM-NET
 10
1.035904
 20
-63.067466
 30
-882.66284
 40
25.0
210
0.0
220
0.0
230
-1.0
 50
349.960116
 51
169.960116
1001
ACAD
1000
R13OBJECT
1002
{
1005
C6
1002
}
  0
ARC
  5
C7
  8
TEAM-NET
 10
1.035904
 20
-63.067466
 30
-892.66284
 40
23.0
210
0.0
220
0.0
230
-1.0
 50
169.960116
 51
349.960116
  0
ARC
  5
AB2
  8
TEAM-NET
 10
1.035904
 20
-63.067466
 30
-892.66284
 40
23.0
210
0.0
220
0.0
230
-1.0
 50
349.960116
 51
169.960116
1001
ACAD
1000
R13OBJECT
1002
{
1005
C7
1002
}
  0
ARC
  5
AB3
  8
TEAM-NET
 10
1.035904
 20
-63.067466
 30
-892.66284
 40
24.0
210
0.0
220
0.0
230
-1.0
 50
169.960116
 51
349.960116
1001
ACAD
1000
R13OBJECT
1002
{
1005
C7
1002
}
  0
ARC
  5
AB4
  8
TEAM-NET
 10
1.035904
 20
-63.067466
 30
-892.66284
 40
24.0
210
0.0
220
0.0
230
-1.0
 50
349.960116
 51
169.960116
1001
ACAD
1000
R13OBJECT
1002
{
1005
C7
1002
}
  0
LINE
  5
C8
  8
TEAM-NET
 10
-25.65307
 20
-67.425807
 30
891.66284
 11
-25.65307
 21
-67.425807
 31
882.66284
  0
ARC
  5
AB5
  8
TEAM-NET
 10
1.035904
 20
-63.067466
 30
-882.66284
 40
25.0
210
0.0
220
0.0
230
-1.0
 50
169.960116
 51
349.960116
1001
ACAD
1000
R13OBJECT
1002
{
1005
C8
1002
}
  0
LINE
  5
AB6
  8
TEAM-NET
 10
23.581262
 20
-58.709124
 30
891.66284
 11
23.581262
 21
-58.709124
 31
882.66284
1001
ACAD
1000
R13OBJECT
1002
{
1005
C8
1002
}
  0
ARC
  5
AB7
  8
TEAM-NET
 10
-1.035904
 20
-63.067466
 30
891.66284
 40
25.0
 50
190.039884
 51
10.039884
1001
ACAD
1000
R13OBJECT
1002
{
1005
C8
1002
}
  0
LINE
  5
AB8
  8
TEAM-NET
 10
3.322438
 20
-87.684631
 30
882.66284
 11
3.322438
 21
-87.684631
 31
891.66284
1001
ACAD
1000
R13OBJECT
1002
{
1005
C8
1002
}
  0
LINE
  5
C9
  8
TEAM-NET
 10
-25.65307
 20
-67.425807
 30
891.66284
 11
-24.668383
 21
-67.251473
 31
892.66284
  0
ARC
  5
AB9
  8
TEAM-NET
 10
1.035904
 20
-63.067466
 30
-892.66284
 40
24.0
210
0.0
220
0.0
230
-1.0
 50
349.960116
 51
169.960116
1001
ACAD
1000
R13OBJECT
1002
{
1005
C9
1002
}
  0
LINE
  5
ABA
  8
TEAM-NET
 10
23.581262
 20
-58.709124
 30
891.66284
 11
22.596575
 21
-58.883458
 31
892.66284
1001
ACAD
1000
R13OBJECT
1002
{
1005
C9
1002
}
  0
ARC
  5
ABB
  8
TEAM-NET
 10
-1.035904
 20
-63.067466
 30
891.66284
 40
25.0
 50
10.039884
 51
190.039884
1001
ACAD
1000
R13OBJECT
1002
{
1005
C9
1002
}
  0
LINE
  5
ABC
  8
TEAM-NET
 10
-5.219912
 20
-39.434986
 30
892.66284
 11
-5.394245
 21
-38.4503
 31
891.66284
1001
ACAD
1000
R13OBJECT
1002
{
1005
C9
1002
}
  0
LINE
  5
CA
  8
TEAM-NET
 10
-25.65307
 20
-67.425807
 30
891.66284
 11
-24.668383
 21
-67.251473
 31
892.66284
  0
ARC
  5
ABD
  8
TEAM-NET
 10
-1.035904
 20
-63.067466
 30
891.66284
 40
25.0
 50
190.039884
 51
10.039884
1001
ACAD
1000
R13OBJECT
1002
{
1005
CA
1002
}
  0
LINE
  5
ABE
  8
TEAM-NET
 10
23.581262
 20
-58.709124
 30
891.66284
 11
22.596575
 21
-58.883458
 31
892.66284
1001
ACAD
1000
R13OBJECT
1002
{
1005
CA
1002
}
  0
ARC
  5
ABF
  8
TEAM-NET
 10
1.035904
 20
-63.067466
 30
-892.66284
 40
24.0
210
0.0
220
0.0
230
-1.0
 50
169.960116
 51
349.960116
1001
ACAD
1000
R13OBJECT
1002
{
1005
CA
1002
}
  0
LINE
  5
AC0
  8
TEAM-NET
 10
3.148104
 20
-86.699945
 30
892.66284
 11
3.322438
 21
-87.684631
 31
891.66284
1001
ACAD
1000
R13OBJECT
1002
{
1005
CA
1002
}
  0
LINE
  5
CB
  8
TEAM-NET
 10
-25.65307
 20
-67.425807
 30
891.66284
 11
-25.65307
 21
-67.425807
 31
882.66284
  0
ARC
  5
AC1
  8
TEAM-NET
 10
-1.035904
 20
-63.067466
 30
891.66284
 40
25.0
 50
10.039884
 51
190.039884
1001
ACAD
1000
R13OBJECT
1002
{
1005
CB
1002
}
  0
LINE
  5
AC2
  8
TEAM-NET
 10
23.581262
 20
-58.709124
 30
891.66284
 11
23.581262
 21
-58.709124
 31
882.66284
1001
ACAD
1000
R13OBJECT
1002
{
1005
CB
1002
}
  0
ARC
  5
AC3
  8
TEAM-NET
 10
1.035904
 20
-63.067466
 30
-882.66284
 40
25.0
210
0.0
220
0.0
230
-1.0
 50
349.960116
 51
169.960116
1001
ACAD
1000
R13OBJECT
1002
{
1005
CB
1002
}
  0
LINE
  5
AC4
  8
TEAM-NET
 10
-5.394245
 20
-38.4503
 30
882.66284
 11
-5.394245
 21
-38.4503
 31
891.66284
1001
ACAD
1000
R13OBJECT
1002
{
1005
CB
1002
}
  0
POLYLINE
  5
CC
  8
TEAM-NET
 66
     1
 10
0.0
 20
0.0
 30
0.0
 70
     9
  0
VERTEX
  5
AC5
  8
TEAM-NET
 10
0.223061
 20
-194.720965
 30
896.757887
 70
    32
  0
VERTEX
  5
AC6
  8
TEAM-NET
 10
0.222976
 20
-194.720966
 30
896.757887
 70
    32
  0
VERTEX
  5
AC7
  8
TEAM-NET
 10
-2.448847
 20
-195.046278
 30
896.757887
 70
    32
  0
VERTEX
  5
AC8
  8
TEAM-NET
 10
-3.740902
 20
-195.432653
 30
896.757887
 70
    32
  0
VERTEX
  5
AC9
  8
TEAM-NET
 10
-4.975855
 20
-195.958421
 30
896.757887
 70
    32
  0
VERTEX
  5
ACA
  8
TEAM-NET
 10
-7.243374
 20
-197.416604
 30
896.757887
 70
    32
  0
VERTEX
  5
ACB
  8
TEAM-NET
 10
-9.122096
 20
-199.334757
 30
896.757887
 70
    32
  0
VERTEX
  5
ACC
  8
TEAM-NET
 10
-10.122109
 20
-200.833028
 30
896.757887
 70
    32
  0
VERTEX
  5
ACD
  8
TEAM-NET
 10
-10.883817
 20
-202.454886
 30
896.757887
 70
    32
  0
VERTEX
  5
ACE
  8
TEAM-NET
 10
-11.293241
 20
-203.737716
 30
896.757887
 70
    32
  0
VERTEX
  5
ACF
  8
TEAM-NET
 10
-11.3979
 20
-204.176277
 30
896.757887
 70
    32
  0
VERTEX
  5
AD0
  8
TEAM-NET
 10
-11.650284
 20
-205.957184
 30
896.757887
 70
    32
  0
VERTEX
  5
AD1
  8
TEAM-NET
 10
-11.635378
 20
-207.747561
 30
896.757887
 70
    32
  0
VERTEX
  5
AD2
  8
TEAM-NET
 10
-11.35292
 20
-209.525875
 30
896.757887
 70
    32
  0
VERTEX
  5
AD3
  8
TEAM-NET
 10
-11.018807
 20
-210.676988
 30
896.757887
 70
    32
  0
VERTEX
  5
AD4
  8
TEAM-NET
 10
-10.574402
 20
-211.783915
 30
896.757887
 70
    32
  0
VERTEX
  5
AD5
  8
TEAM-NET
 10
-10.019476
 20
-212.846367
 30
896.757887
 70
    32
  0
VERTEX
  5
AD6
  8
TEAM-NET
 10
-9.403999
 20
-213.78969
 30
896.757887
 70
    32
  0
VERTEX
  5
AD7
  8
TEAM-NET
 10
-8.993634
 20
-214.325942
 30
896.757887
 70
    32
  0
VERTEX
  5
AD8
  8
TEAM-NET
 10
-7.765626
 20
-215.62871
 30
896.757887
 70
    32
  0
VERTEX
  5
AD9
  8
TEAM-NET
 10
-6.350548
 20
-216.73909
 30
896.757887
 70
    32
  0
VERTEX
  5
ADA
  8
TEAM-NET
 10
-4.78658
 20
-217.62468
 30
896.757887
 70
    32
  0
VERTEX
  5
ADB
  8
TEAM-NET
 10
-3.963909
 20
-217.975382
 30
896.757887
 70
    32
  0
VERTEX
  5
ADC
  8
TEAM-NET
 10
-3.113576
 20
-218.265011
 30
896.757887
 70
    32
  0
VERTEX
  5
ADD
  8
TEAM-NET
 10
-1.354566
 20
-218.650233
 30
896.757887
 70
    32
  0
VERTEX
  5
ADE
  8
TEAM-NET
 10
-0.460787
 20
-218.742578
 30
896.757887
 70
    32
  0
VERTEX
  5
ADF
  8
TEAM-NET
 10
-0.237164
 20
-218.755095
 30
896.757887
 70
    32
  0
VERTEX
  5
AE0
  8
TEAM-NET
 10
0.433428
 20
-218.768076
 30
896.757887
 70
    32
  0
VERTEX
  5
AE1
  8
TEAM-NET
 10
3.973652
 20
-218.199504
 30
896.757887
 70
    32
  0
VERTEX
  5
AE2
  8
TEAM-NET
 10
5.633362
 20
-217.528128
 30
896.757887
 70
    32
  0
VERTEX
  5
AE3
  8
TEAM-NET
 10
7.183278
 20
-216.612297
 30
896.757887
 70
    32
  0
VERTEX
  5
AE4
  8
TEAM-NET
 10
7.901493
 20
-216.070109
 30
896.757887
 70
    32
  0
VERTEX
  5
AE5
  8
TEAM-NET
 10
8.573983
 20
-215.478793
 30
896.757887
 70
    32
  0
VERTEX
  5
AE6
  8
TEAM-NET
 10
9.780013
 20
-214.150864
 30
896.757887
 70
    32
  0
VERTEX
  5
AE7
  8
TEAM-NET
 10
10.778307
 20
-212.652192
 30
896.757887
 70
    32
  0
VERTEX
  5
AE8
  8
TEAM-NET
 10
10.991074
 20
-212.256863
 30
896.757887
 70
    32
  0
VERTEX
  5
AE9
  8
TEAM-NET
 10
11.537555
 20
-211.030921
 30
896.757887
 70
    32
  0
VERTEX
  5
AEA
  8
TEAM-NET
 10
12.049587
 20
-209.306431
 30
896.757887
 70
    32
  0
VERTEX
  5
AEB
  8
TEAM-NET
 10
12.298541
 20
-207.526754
 30
896.757887
 70
    32
  0
VERTEX
  5
AEC
  8
TEAM-NET
 10
12.322792
 20
-206.632722
 30
896.757887
 70
    32
  0
VERTEX
  5
AED
  8
TEAM-NET
 10
12.280434
 20
-205.735676
 30
896.757887
 70
    32
  0
VERTEX
  5
AEE
  8
TEAM-NET
 10
11.994417
 20
-203.957463
 30
896.757887
 70
    32
  0
VERTEX
  5
AEF
  8
TEAM-NET
 10
11.450031
 20
-202.250111
 30
896.757887
 70
    32
  0
VERTEX
  5
AF0
  8
TEAM-NET
 10
11.364443
 20
-202.043328
 30
896.757887
 70
    32
  0
VERTEX
  5
AF1
  8
TEAM-NET
 10
11.084127
 20
-201.431099
 30
896.757887
 70
    32
  0
VERTEX
  5
AF2
  8
TEAM-NET
 10
9.630045
 20
-199.160823
 30
896.757887
 70
    32
  0
VERTEX
  5
AF3
  8
TEAM-NET
 10
8.727232
 20
-198.167464
 30
896.757887
 70
    32
  0
VERTEX
  5
AF4
  8
TEAM-NET
 10
7.714576
 20
-197.276799
 30
896.757887
 70
    32
  0
VERTEX
  5
AF5
  8
TEAM-NET
 10
5.423254
 20
-195.86293
 30
896.757887
 70
    32
  0
VERTEX
  5
AF6
  8
TEAM-NET
 10
4.809103
 20
-195.594272
 30
896.757887
 70
    32
  0
VERTEX
  5
AF7
  8
TEAM-NET
 10
2.887374
 20
-194.998951
 30
896.757887
 70
    32
  0
VERTEX
  5
AF8
  8
TEAM-NET
 10
2.228902
 20
-194.873608
 30
896.757887
 70
    32
  0
SEQEND
  5
AF9
  8
TEAM-NET
  0
ARC
  5
CD
  8
TEAM-NET
 10
194.716161
 20
898.757887
 30
1.400677
 40
2.0
210
-0.999965
220
-0.008339
230
0.0
 50
185.215909
 51
270.0
  0
POLYLINE
  5
AFA
  8
TEAM-NET
 66
     1
 10
0.0
 20
0.0
 30
0.0
 70
     9
1001
ACAD
1000
R13OBJECT
1002
{
1005
CD
1002
}
  0
VERTEX
  5
AFB
  8
TEAM-NET
 10
0.223061
 20
-194.720965
 30
896.757887
 70
    32
  0
VERTEX
  5
AFC
  8
TEAM-NET
 10
0.222976
 20
-194.720966
 30
896.757887
 70
    32
  0
VERTEX
  5
AFD
  8
TEAM-NET
 10
-2.448847
 20
-195.046278
 30
896.757887
 70
    32
  0
VERTEX
  5
AFE
  8
TEAM-NET
 10
-3.740902
 20
-195.432653
 30
896.757887
 70
    32
  0
VERTEX
  5
AFF
  8
TEAM-NET
 10
-4.975855
 20
-195.958421
 30
896.757887
 70
    32
  0
VERTEX
  5
B00
  8
TEAM-NET
 10
-7.243374
 20
-197.416604
 30
896.757887
 70
    32
  0
VERTEX
  5
B01
  8
TEAM-NET
 10
-9.122096
 20
-199.334757
 30
896.757887
 70
    32
  0
VERTEX
  5
B02
  8
TEAM-NET
 10
-10.122109
 20
-200.833028
 30
896.757887
 70
    32
  0
VERTEX
  5
B03
  8
TEAM-NET
 10
-10.883817
 20
-202.454886
 30
896.757887
 70
    32
  0
VERTEX
  5
B04
  8
TEAM-NET
 10
-11.293241
 20
-203.737716
 30
896.757887
 70
    32
  0
VERTEX
  5
B05
  8
TEAM-NET
 10
-11.3979
 20
-204.176277
 30
896.757887
 70
    32
  0
VERTEX
  5
B06
  8
TEAM-NET
 10
-11.650284
 20
-205.957184
 30
896.757887
 70
    32
  0
VERTEX
  5
B07
  8
TEAM-NET
 10
-11.635378
 20
-207.747561
 30
896.757887
 70
    32
  0
VERTEX
  5
B08
  8
TEAM-NET
 10
-11.35292
 20
-209.525875
 30
896.757887
 70
    32
  0
VERTEX
  5
B09
  8
TEAM-NET
 10
-11.018807
 20
-210.676988
 30
896.757887
 70
    32
  0
VERTEX
  5
B0A
  8
TEAM-NET
 10
-10.574402
 20
-211.783915
 30
896.757887
 70
    32
  0
VERTEX
  5
B0B
  8
TEAM-NET
 10
-10.019476
 20
-212.846367
 30
896.757887
 70
    32
  0
VERTEX
  5
B0C
  8
TEAM-NET
 10
-9.403999
 20
-213.78969
 30
896.757887
 70
    32
  0
VERTEX
  5
B0D
  8
TEAM-NET
 10
-8.993634
 20
-214.325942
 30
896.757887
 70
    32
  0
VERTEX
  5
B0E
  8
TEAM-NET
 10
-7.765626
 20
-215.62871
 30
896.757887
 70
    32
  0
VERTEX
  5
B0F
  8
TEAM-NET
 10
-6.350548
 20
-216.73909
 30
896.757887
 70
    32
  0
VERTEX
  5
B10
  8
TEAM-NET
 10
-4.78658
 20
-217.62468
 30
896.757887
 70
    32
  0
VERTEX
  5
B11
  8
TEAM-NET
 10
-3.963909
 20
-217.975382
 30
896.757887
 70
    32
  0
VERTEX
  5
B12
  8
TEAM-NET
 10
-3.113576
 20
-218.265011
 30
896.757887
 70
    32
  0
VERTEX
  5
B13
  8
TEAM-NET
 10
-1.354566
 20
-218.650233
 30
896.757887
 70
    32
  0
VERTEX
  5
B14
  8
TEAM-NET
 10
-0.460787
 20
-218.742578
 30
896.757887
 70
    32
  0
VERTEX
  5
B15
  8
TEAM-NET
 10
-0.237164
 20
-218.755095
 30
896.757887
 70
    32
  0
VERTEX
  5
B16
  8
TEAM-NET
 10
0.433428
 20
-218.768076
 30
896.757887
 70
    32
  0
VERTEX
  5
B17
  8
TEAM-NET
 10
3.973652
 20
-218.199504
 30
896.757887
 70
    32
  0
VERTEX
  5
B18
  8
TEAM-NET
 10
5.633362
 20
-217.528128
 30
896.757887
 70
    32
  0
VERTEX
  5
B19
  8
TEAM-NET
 10
7.183278
 20
-216.612297
 30
896.757887
 70
    32
  0
VERTEX
  5
B1A
  8
TEAM-NET
 10
7.901493
 20
-216.070109
 30
896.757887
 70
    32
  0
VERTEX
  5
B1B
  8
TEAM-NET
 10
8.573983
 20
-215.478793
 30
896.757887
 70
    32
  0
VERTEX
  5
B1C
  8
TEAM-NET
 10
9.780013
 20
-214.150864
 30
896.757887
 70
    32
  0
VERTEX
  5
B1D
  8
TEAM-NET
 10
10.778307
 20
-212.652192
 30
896.757887
 70
    32
  0
VERTEX
  5
B1E
  8
TEAM-NET
 10
10.991074
 20
-212.256863
 30
896.757887
 70
    32
  0
VERTEX
  5
B1F
  8
TEAM-NET
 10
11.537555
 20
-211.030921
 30
896.757887
 70
    32
  0
VERTEX
  5
B20
  8
TEAM-NET
 10
12.049587
 20
-209.306431
 30
896.757887
 70
    32
  0
VERTEX
  5
B21
  8
TEAM-NET
 10
12.298541
 20
-207.526754
 30
896.757887
 70
    32
  0
VERTEX
  5
B22
  8
TEAM-NET
 10
12.322792
 20
-206.632722
 30
896.757887
 70
    32
  0
VERTEX
  5
B23
  8
TEAM-NET
 10
12.280434
 20
-205.735676
 30
896.757887
 70
    32
  0
VERTEX
  5
B24
  8
TEAM-NET
 10
11.994417
 20
-203.957463
 30
896.757887
 70
    32
  0
VERTEX
  5
B25
  8
TEAM-NET
 10
11.450031
 20
-202.250111
 30
896.757887
 70
    32
  0
VERTEX
  5
B26
  8
TEAM-NET
 10
11.364443
 20
-202.043328
 30
896.757887
 70
    32
  0
VERTEX
  5
B27
  8
TEAM-NET
 10
11.084127
 20
-201.431099
 30
896.757887
 70
    32
  0
VERTEX
  5
B28
  8
TEAM-NET
 10
9.630045
 20
-199.160823
 30
896.757887
 70
    32
  0
VERTEX
  5
B29
  8
TEAM-NET
 10
8.727232
 20
-198.167464
 30
896.757887
 70
    32
  0
VERTEX
  5
B2A
  8
TEAM-NET
 10
7.714576
 20
-197.276799
 30
896.757887
 70
    32
  0
VERTEX
  5
B2B
  8
TEAM-NET
 10
5.423254
 20
-195.86293
 30
896.757887
 70
    32
  0
VERTEX
  5
B2C
  8
TEAM-NET
 10
4.809103
 20
-195.594272
 30
896.757887
 70
    32
  0
VERTEX
  5
B2D
  8
TEAM-NET
 10
2.887374
 20
-194.998951
 30
896.757887
 70
    32
  0
VERTEX
  5
B2E
  8
TEAM-NET
 10
2.228902
 20
-194.873608
 30
896.757887
 70
    32
  0
SEQEND
  5
B2F
  8
TEAM-NET
  0
POLYLINE
  5
B30
  8
TEAM-NET
 66
     1
 10
0.0
 20
0.0
 30
0.0
 70
     8
1001
ACAD
1000
R13OBJECT
1002
{
1005
CD
1002
}
  0
VERTEX
  5
B31
  8
TEAM-NET
 10
0.206452
 20
-192.729299
 30
898.576064
 70
    32
  0
VERTEX
  5
B32
  8
TEAM-NET
 10
2.546598
 20
-192.907025
 30
898.579985
 70
    32
  0
VERTEX
  5
B33
  8
TEAM-NET
 10
3.314812
 20
-193.052989
 30
898.582973
 70
    32
  0
VERTEX
  5
B34
  8
TEAM-NET
 10
5.55682
 20
-193.74633
 30
898.596483
 70
    32
  0
VERTEX
  5
B35
  8
TEAM-NET
 10
6.273324
 20
-194.059257
 30
898.602305
 70
    32
  0
VERTEX
  5
B36
  8
TEAM-NET
 10
8.946514
 20
-195.706386
 30
898.630674
 70
    32
  0
VERTEX
  5
B37
  8
TEAM-NET
 10
10.127935
 20
-196.744199
 30
898.646856
 70
    32
  0
VERTEX
  5
B38
  8
TEAM-NET
 10
11.181206
 20
-197.901827
 30
898.663591
 70
    32
  0
VERTEX
  5
B39
  8
TEAM-NET
 10
12.877615
 20
-200.548024
 30
898.697415
 70
    32
  0
VERTEX
  5
B3A
  8
TEAM-NET
 10
13.204645
 20
-201.261725
 30
898.705627
 70
    32
  0
VERTEX
  5
B3B
  8
TEAM-NET
 10
13.304497
 20
-201.502789
 30
898.708324
 70
    32
  0
VERTEX
  5
B3C
  8
TEAM-NET
 10
13.939601
 20
-203.493323
 30
898.729215
 70
    32
  0
VERTEX
  5
B3D
  8
TEAM-NET
 10
14.273279
 20
-205.566694
 30
898.748661
 70
    32
  0
VERTEX
  5
B3E
  8
TEAM-NET
 10
14.322691
 20
-206.612708
 30
898.75769
 70
    32
  0
VERTEX
  5
B3F
  8
TEAM-NET
 10
14.294395
 20
-207.655249
 30
898.766225
 70
    32
  0
VERTEX
  5
B40
  8
TEAM-NET
 10
14.003941
 20
-209.730657
 30
898.781964
 70
    32
  0
VERTEX
  5
B41
  8
TEAM-NET
 10
13.406564
 20
-211.741821
 30
898.79581
 70
    32
  0
VERTEX
  5
B42
  8
TEAM-NET
 10
12.768999
 20
-213.171619
 30
898.804913
 70
    32
  0
VERTEX
  5
B43
  8
TEAM-NET
 10
12.52077
 20
-213.632695
 30
898.807728
 70
    32
  0
VERTEX
  5
B44
  8
TEAM-NET
 10
11.356089
 20
-215.380645
 30
898.817904
 70
    32
  0
VERTEX
  5
B45
  8
TEAM-NET
 10
9.94905
 20
-216.929495
 30
898.826313
 70
    32
  0
VERTEX
  5
B46
  8
TEAM-NET
 10
9.164478
 20
-217.619198
 30
898.829887
 70
    32
  0
VERTEX
  5
B47
  8
TEAM-NET
 10
8.326559
 20
-218.251604
 30
898.833075
 70
    32
  0
VERTEX
  5
B48
  8
TEAM-NET
 10
6.518322
 20
-219.31984
 30
898.838272
 70
    32
  0
VERTEX
  5
B49
  8
TEAM-NET
 10
4.581992
 20
-220.102949
 30
898.841926
 70
    32
  0
VERTEX
  5
B4A
  8
TEAM-NET
 10
0.45173
 20
-220.766156
 30
898.844845
 70
    32
  0
VERTEX
  5
B4B
  8
TEAM-NET
 10
0.440407
 20
-220.766251
 30
898.844845
 70
    32
  0
SEQEND
  5
B4C
  8
TEAM-NET
  0
POLYLINE
  5
B4D
  8
TEAM-NET
 66
     1
 10
0.0
 20
0.0
 30
0.0
 70
     8
1001
ACAD
1000
R13OBJECT
1002
{
1005
CD
1002
}
  0
VERTEX
  5
B4E
  8
TEAM-NET
 10
0.440253
 20
-220.766252
 30
898.844845
 70
    32
  0
VERTEX
  5
B4F
  8
TEAM-NET
 10
-0.330628
 20
-220.751016
 30
898.844746
 70
    32
  0
VERTEX
  5
B50
  8
TEAM-NET
 10
-0.591522
 20
-220.736415
 30
898.844669
 70
    32
  0
VERTEX
  5
B51
  8
TEAM-NET
 10
-1.634264
 20
-220.628704
 30
898.844133
 70
    32
  0
VERTEX
  5
B52
  8
TEAM-NET
 10
-3.686441
 20
-220.179372
 30
898.841962
 70
    32
  0
VERTEX
  5
B53
  8
TEAM-NET
 10
-4.678495
 20
-219.841545
 30
898.840326
 70
    32
  0
VERTEX
  5
B54
  8
TEAM-NET
 10
-5.638278
 20
-219.43248
 30
898.838327
 70
    32
  0
VERTEX
  5
B55
  8
TEAM-NET
 10
-7.462905
 20
-218.399526
 30
898.833157
 70
    32
  0
VERTEX
  5
B56
  8
TEAM-NET
 10
-9.113826
 20
-217.104395
 30
898.826398
 70
    32
  0
VERTEX
  5
B57
  8
TEAM-NET
 10
-10.546499
 20
-215.584897
 30
898.818026
 70
    32
  0
VERTEX
  5
B58
  8
TEAM-NET
 10
-11.025257
 20
-214.959444
 30
898.814429
 70
    32
  0
VERTEX
  5
B59
  8
TEAM-NET
 10
-11.743311
 20
-213.859225
 30
898.807874
 70
    32
  0
VERTEX
  5
B5A
  8
TEAM-NET
 10
-12.390721
 20
-212.620091
 30
898.800118
 70
    32
  0
VERTEX
  5
B5B
  8
TEAM-NET
 10
-12.90919
 20
-211.329122
 30
898.791582
 70
    32
  0
VERTEX
  5
B5C
  8
TEAM-NET
 10
-13.298984
 20
-209.986664
 30
898.782169
 70
    32
  0
VERTEX
  5
B5D
  8
TEAM-NET
 10
-13.628511
 20
-207.912845
 30
898.766422
 70
    32
  0
VERTEX
  5
B5E
  8
TEAM-NET
 10
-13.645893
 20
-205.825106
 30
898.748887
 70
    32
  0
VERTEX
  5
B5F
  8
TEAM-NET
 10
-13.351434
 20
-203.748589
 30
898.729489
 70
    32
  0
VERTEX
  5
B60
  8
TEAM-NET
 10
-13.22933
 20
-203.237264
 30
898.724375
 70
    32
  0
VERTEX
  5
B61
  8
TEAM-NET
 10
-12.75166
 20
-201.741676
 30
898.708563
 70
    32
  0
VERTEX
  5
B62
  8
TEAM-NET
 10
-11.862987
 20
-199.851042
 30
898.686544
 70
    32
  0
VERTEX
  5
B63
  8
TEAM-NET
 10
-10.696292
 20
-198.104728
 30
898.663871
 70
    32
  0
VERTEX
  5
B64
  8
TEAM-NET
 10
-8.504427
 20
-195.869469
 30
898.630955
 70
    32
  0
VERTEX
  5
B65
  8
TEAM-NET
 10
-5.858969
 20
-194.170648
 30
898.60249
 70
    32
  0
VERTEX
  5
B66
  8
TEAM-NET
 10
-4.418182
 20
-193.558221
 30
898.591421
 70
    32
  0
VERTEX
  5
B67
  8
TEAM-NET
 10
-2.910778
 20
-193.108199
 30
898.583037
 70
    32
  0
VERTEX
  5
B68
  8
TEAM-NET
 10
0.206353
 20
-192.7293
 30
898.576064
 70
    32
  0
VERTEX
  5
B69
  8
TEAM-NET
 10
0.206452
 20
-192.729299
 30
898.576064
 70
    32
  0
SEQEND
  5
B6A
  8
TEAM-NET
  0
ARC
  5
CE
  8
TEAM-NET
 10
-0.911868
 20
-60.836221
 30
882.010653
 40
20.5
 50
0.0
 51
180.0
  0
ARC
  5
B6B
  8
TEAM-NET
 10
-0.911868
 20
-60.836221
 30
882.010653
 40
20.5
 50
180.0
 51
360.0
1001
ACAD
1000
R13OBJECT
1002
{
1005
CE
1002
}
  0
LINE
  5
B6C
  8
TEAM-NET
 10
-230.911868
 20
-115.836221
 30
882.010653
 11
-230.911868
 21
-420.836221
 31
882.010653
1001
ACAD
1000
R13OBJECT
1002
{
1005
CE
1002
}
  0
LINE
  5
B6D
  8
TEAM-NET
 10
229.088132
 20
-115.836221
 30
882.010653
 11
-230.911868
 21
-115.836221
 31
882.010653
1001
ACAD
1000
R13OBJECT
1002
{
1005
CE
1002
}
  0
LINE
  5
B6E
  8
TEAM-NET
 10
229.088132
 20
-420.836221
 30
882.010653
 11
229.088132
 21
-115.836221
 31
882.010653
1001
ACAD
1000
R13OBJECT
1002
{
1005
CE
1002
}
  0
LINE
  5
B6F
  8
TEAM-NET
 10
-230.911868
 20
-420.836221
 30
882.010653
 11
229.088132
 21
-420.836221
 31
882.010653
1001
ACAD
1000
R13OBJECT
1002
{
1005
CE
1002
}
  0
LINE
  5
B70
  8
TEAM-NET
 10
266.088132
 20
-457.836221
 30
882.010653
 11
-267.911868
 21
-457.836221
 31
882.010653
1001
ACAD
1000
R13OBJECT
1002
{
1005
CE
1002
}
  0
LINE
  5
B71
  8
TEAM-NET
 10
266.088132
 20
-8.836221
 30
882.010653
 11
266.088132
 21
-457.836221
 31
882.010653
1001
ACAD
1000
R13OBJECT
1002
{
1005
CE
1002
}
  0
LINE
  5
B72
  8
TEAM-NET
 10
-267.911868
 20
-8.836221
 30
882.010653
 11
266.088132
 21
-8.836221
 31
882.010653
1001
ACAD
1000
R13OBJECT
1002
{
1005
CE
1002
}
  0
LINE
  5
B73
  8
TEAM-NET
 10
-267.911868
 20
-457.836221
 30
882.010653
 11
-267.911868
 21
-8.836221
 31
882.010653
1001
ACAD
1000
R13OBJECT
1002
{
1005
CE
1002
}
  0
ARC
  5
CF
  8
TEAM-NET
 10
-0.232897
 20
-206.512893
 30
-903.512072
 40
8.0
210
0.0
220
0.0
230
-1.0
 50
169.960116
 51
349.960116
  0
ARC
  5
B74
  8
TEAM-NET
 10
-0.232897
 20
-206.512893
 30
-903.512072
 40
8.0
210
0.0
220
0.0
230
-1.0
 50
349.960116
 51
169.960116
1001
ACAD
1000
R13OBJECT
1002
{
1005
CF
1002
}
  0
ARC
  5
B75
  8
TEAM-NET
 10
-0.232897
 20
-206.512893
 30
-903.512072
 40
10.0
210
0.0
220
0.0
230
-1.0
 50
169.960116
 51
349.960116
1001
ACAD
1000
R13OBJECT
1002
{
1005
CF
1002
}
  0
ARC
  5
B76
  8
TEAM-NET
 10
-0.232897
 20
-206.512893
 30
-903.512072
 40
10.0
210
0.0
220
0.0
230
-1.0
 50
349.960116
 51
169.960116
1001
ACAD
1000
R13OBJECT
1002
{
1005
CF
1002
}
  0
ARC
  5
D0
  8
TEAM-NET
 10
-1.400677
 20
897.018741
 30
-458.723468
 40
17.5
210
0.007222
220
-0.865995
230
-0.5
 50
90.0
 51
270.0
  0
ARC
  5
B77
  8
TEAM-NET
 10
-1.400677
 20
897.018741
 30
-458.723468
 40
17.5
210
0.007222
220
-0.865995
230
-0.5
 50
270.0
 51
90.0
1001
ACAD
1000
R13OBJECT
1002
{
1005
D0
1002
}
  0
LINE
  5
D1
  8
TEAM-NET
 10
-1.046288
 20
-42.503397
 30
991.047306
 11
-0.974073
 21
-51.163349
 31
986.047306
  0
ARC
  5
B78
  8
TEAM-NET
 10
1.400677
 20
897.018741
 30
448.723468
 40
17.5
210
-0.007222
220
0.865995
230
0.5
 50
270.0
 51
90.0
1001
ACAD
1000
R13OBJECT
1002
{
1005
D1
1002
}
  0
LINE
  5
B79
  8
TEAM-NET
 10
-0.90036
 20
-60.002788
 30
1021.358195
 11
-0.828144
 21
-68.662741
 31
1016.358195
1001
ACAD
1000
R13OBJECT
1002
{
1005
D1
1002
}
  0
ARC
  5
B7A
  8
TEAM-NET
 10
-1.400677
 20
897.018741
 30
-458.723468
 40
17.5
210
0.007222
220
-0.865995
230
-0.5
 50
90.0
 51
270.0
1001
ACAD
1000
R13OBJECT
1002
{
1005
D1
1002
}
  0
LINE
  5
B7B
  8
TEAM-NET
 10
-18.4005
 20
-60.058973
 30
1001.202751
 11
-18.472716
 21
-51.399021
 31
1006.202751
1001
ACAD
1000
R13OBJECT
1002
{
1005
D1
1002
}
  0
LINE
  5
D2
  8
TEAM-NET
 10
-1.046288
 20
-42.503397
 30
991.047306
 11
-0.974073
 21
-51.163349
 31
986.047306
  0
ARC
  5
B7C
  8
TEAM-NET
 10
-1.400677
 20
897.018741
 30
-458.723468
 40
17.5
210
0.007222
220
-0.865995
230
-0.5
 50
270.0
 51
90.0
1001
ACAD
1000
R13OBJECT
1002
{
1005
D2
1002
}
  0
LINE
  5
B7D
  8
TEAM-NET
 10
-0.90036
 20
-60.002788
 30
1021.358195
 11
-0.828144
 21
-68.662741
 31
1016.358195
1001
ACAD
1000
R13OBJECT
1002
{
1005
D2
1002
}
  0
ARC
  5
B7E
  8
TEAM-NET
 10
1.400677
 20
897.018741
 30
448.723468
 40
17.5
210
-0.007222
220
0.865995
230
0.5
 50
90.0
 51
270.0
1001
ACAD
1000
R13OBJECT
1002
{
1005
D2
1002
}
  0
LINE
  5
B7F
  8
TEAM-NET
 10
16.598283
 20
-59.767117
 30
1001.202751
 11
16.526067
 21
-51.107164
 31
1006.202751
1001
ACAD
1000
R13OBJECT
1002
{
1005
D2
1002
}
  0
ARC
  5
D3
  8
TEAM-NET
 10
1.035904
 20
-63.067466
 30
-1012.66284
 40
22.5
210
0.0
220
-0.0
230
-1.0
 50
169.960116
 51
349.960116
  0
ARC
  5
B80
  8
TEAM-NET
 10
1.035904
 20
-63.067466
 30
-1012.66284
 40
22.5
210
0.0
220
0.0
230
-1.0
 50
349.960116
 51
169.960116
1001
ACAD
1000
R13OBJECT
1002
{
1005
D3
1002
}
  0
ARC
  5
B81
  8
TEAM-NET
 10
1.035904
 20
-63.067466
 30
-1012.66284
 40
23.0
210
0.0
220
-0.0
230
-1.0
 50
169.960116
 51
349.960116
1001
ACAD
1000
R13OBJECT
1002
{
1005
D3
1002
}
  0
ARC
  5
B82
  8
TEAM-NET
 10
1.035904
 20
-63.067466
 30
-1012.66284
 40
23.0
210
0.0
220
0.0
230
-1.0
 50
349.960116
 51
169.960116
1001
ACAD
1000
R13OBJECT
1002
{
1005
D3
1002
}
  0
CIRCLE
  5
D4
  8
TEAM-NET
 10
-1.035904
 20
-63.067466
 30
1012.66284
 40
23.0
1001
ACAD
1000
RTLwPs
1070
   128
  0
LINE
  5
D5
  8
TEAM-NET
 10
-1.035904
 20
-63.067466
 30
1012.66284
 11
2.97377
 21
-85.715258
 31
1012.66284
1001
ACAD
1000
RTLwPs
1070
   128
  0
POLYLINE
  5
D6
  8
TEAM-NET
 66
     1
 10
0.0
 20
0.0
 30
58.423258
 70
   128
210
-0.0
220
-1.0
230
-0.0
  0
VERTEX
  5
CFB
  8
TEAM-NET
 10
10.167716
 20
1052.662923
 30
58.423258
  0
VERTEX
  5
CFC
  8
TEAM-NET
 10
9.523768
 20
1053.261923
 30
58.423258
  0
VERTEX
  5
CFD
  8
TEAM-NET
 10
7.789546
 20
1054.57438
 30
58.423258
  0
VERTEX
  5
CFE
  8
TEAM-NET
 10
5.885414
 20
1055.622991
 30
58.423258
  0
VERTEX
  5
CFF
  8
TEAM-NET
 10
4.88759
 20
1056.039574
 30
58.423258
  0
VERTEX
  5
D00
  8
TEAM-NET
 10
3.858897
 20
1056.384808
 30
58.423258
  0
VERTEX
  5
D01
  8
TEAM-NET
 10
1.73232
 20
1056.85104
 30
58.423258
  0
VERTEX
  5
D02
  8
TEAM-NET
 10
0.28986
 20
1056.98966
 30
58.423258
  0
VERTEX
  5
D03
  8
TEAM-NET
 10
-1.15201
 20
1056.989961
 30
58.423258
  0
VERTEX
  5
D04
  8
TEAM-NET
 10
-2.594293
 20
1056.852199
 30
58.423258
  0
VERTEX
  5
D05
  8
TEAM-NET
 10
-5.410574
 20
1056.164939
 30
58.423258
  0
VERTEX
  5
D06
  8
TEAM-NET
 10
-6.748373
 20
1055.625721
 30
58.423258
  0
VERTEX
  5
D07
  8
TEAM-NET
 10
-8.652784
 20
1054.578213
 30
58.423258
  0
VERTEX
  5
D08
  8
TEAM-NET
 10
-10.387734
 20
1053.26649
 30
58.423258
  0
VERTEX
  5
D09
  8
TEAM-NET
 10
-11.03691
 20
1052.662919
 30
58.423258
  0
SEQEND
  5
D0A
  8
TEAM-NET
  0
LINE
  5
B93
  8
TEAM-NET
 10
10.167635
 20
-58.423258
 30
1052.66284
 11
-11.036833
 21
-58.423258
 31
1052.66284
1001
ACAD
1000
R13OBJECT
1002
{
1005
D6
1002
}
  0
POLYLINE
  5
D7
  8
TEAM-NET
 66
     1
 10
0.0
 20
0.0
 30
0.0
 70
     8
  0
VERTEX
  5
B94
  8
TEAM-NET
 10
-17.392488
 20
-63.844371
 30
1052.66284
 70
    32
  0
VERTEX
  5
B95
  8
TEAM-NET
 10
-15.699024
 20
-63.763838
 30
1054.969013
 70
    32
  0
VERTEX
  5
B96
  8
TEAM-NET
 10
-13.678618
 20
-63.692474
 30
1057.021165
 70
    32
  0
VERTEX
  5
B97
  8
TEAM-NET
 10
-11.369953
 20
-63.631875
 30
1058.770295
 70
    32
  0
VERTEX
  5
B98
  8
TEAM-NET
 10
-8.835548
 20
-63.583662
 30
1060.166369
 70
    32
  0
VERTEX
  5
B99
  8
TEAM-NET
 10
-7.055287
 20
-63.558909
 30
1060.88472
 70
    32
  0
VERTEX
  5
B9A
  8
TEAM-NET
 10
-3.307984
 20
-63.527427
 30
1061.799969
 70
    32
  0
VERTEX
  5
B9B
  8
TEAM-NET
 10
-1.389074
 20
-63.521126
 30
1061.983386
 70
    32
  0
VERTEX
  5
B9C
  8
TEAM-NET
 10
0.529253
 20
-63.52114
 30
1061.982985
 70
    32
  0
VERTEX
  5
B9D
  8
TEAM-NET
 10
2.448399
 20
-63.52748
 30
1061.798426
 70
    32
  0
VERTEX
  5
B9E
  8
TEAM-NET
 10
5.27794
 20
-63.548829
 30
1061.177568
 70
    32
  0
VERTEX
  5
B9F
  8
TEAM-NET
 10
6.646798
 20
-63.56466
 30
1060.717728
 70
    32
  0
VERTEX
  5
BA0
  8
TEAM-NET
 10
7.974653
 20
-63.583788
 30
1060.162732
 70
    32
  0
VERTEX
  5
BA1
  8
TEAM-NET
 10
10.508687
 20
-63.632051
 30
1058.765186
 70
    32
  0
VERTEX
  5
BA2
  8
TEAM-NET
 10
12.816381
 20
-63.692685
 30
1057.015074
 70
    32
  0
VERTEX
  5
BA3
  8
TEAM-NET
 10
14.835919
 20
-63.764087
 30
1054.961875
 70
    32
  0
VERTEX
  5
BA4
  8
TEAM-NET
 10
16.523289
 20
-63.844371
 30
1052.66284
 70
    32
  0
SEQEND
  5
BA5
  8
TEAM-NET
  0
POLYLINE
  5
BA6
  8
TEAM-NET
 66
     1
 10
0.0
 20
0.0
 30
1052.66284
 70
   128
1001
ACAD
1000
R13OBJECT
1002
{
1005
D7
1002
}
  0
VERTEX
  5
F23
  8
TEAM-NET
 10
-7.934599
 20
-158.423258
 30
1052.66284
  0
VERTEX
  5
F24
  8
TEAM-NET
 10
-11.323989
 20
-124.529362
 30
1052.66284
  0
VERTEX
  5
F25
  8
TEAM-NET
 10
-17.392488
 20
-63.844371
 30
1052.66284
  0
SEQEND
  5
F26
  8
TEAM-NET
  0
ARC
  5
BAB
  8
TEAM-NET
 10
0.434599
 20
1052.66284
 30
-158.423258
 40
7.5
210
0.0
220
1.0
230
0.0
 50
0.0
 51
90.0
1001
ACAD
1000
R13OBJECT
1002
{
1005
D7
1002
}
  0
ARC
  5
BAC
  8
TEAM-NET
 10
0.434599
 20
1052.66284
 30
-158.423258
 40
7.5
210
0.0
220
1.0
230
0.0
 50
90.0
 51
180.0
1001
ACAD
1000
R13OBJECT
1002
{
1005
D7
1002
}
  0
POLYLINE
  5
BAD
  8
TEAM-NET
 66
     1
 10
0.0
 20
0.0
 30
1052.66284
 70
   128
1001
ACAD
1000
R13OBJECT
1002
{
1005
D7
1002
}
  0
VERTEX
  5
F27
  8
TEAM-NET
 10
7.065401
 20
-158.423258
 30
1052.66284
  0
VERTEX
  5
F28
  8
TEAM-NET
 10
10.45479
 20
-124.529362
 30
1052.66284
  0
VERTEX
  5
F29
  8
TEAM-NET
 10
16.52329
 20
-63.844371
 30
1052.66284
  0
SEQEND
  5
F2A
  8
TEAM-NET
  0
ARC
  5
D8
  8
TEAM-NET
 10
3.45985
 20
-152.423258
 30
1052.66284
 40
7.0
 50
270.0
 51
301.002719
  0
LINE
  5
BB2
  8
TEAM-NET
 10
3.45985
 20
-159.423258
 30
1052.66284
 11
-4.329048
 21
-159.423258
 31
1052.66284
1001
ACAD
1000
R13OBJECT
1002
{
1005
D8
1002
}
  0
ARC
  5
BB3
  8
TEAM-NET
 10
-4.329048
 20
-152.423258
 30
1052.66284
 40
7.0
 50
238.997281
 51
270.0
1001
ACAD
1000
R13OBJECT
1002
{
1005
D8
1002
}
  0
POLYLINE
  5
BB4
  8
TEAM-NET
 66
     1
 10
0.0
 20
0.0
 30
1052.66284
 70
   128
1001
ACAD
1000
R13OBJECT
1002
{
1005
D8
1002
}
  0
VERTEX
  5
F2B
  8
TEAM-NET
 10
-7.934599
 20
-158.423258
 30
1052.66284
  0
VERTEX
  5
F2C
  8
TEAM-NET
 10
-11.323989
 20
-124.529362
 30
1052.66284
  0
VERTEX
  5
F2D
  8
TEAM-NET
 10
-17.392488
 20
-63.844371
 30
1052.66284
  0
SEQEND
  5
F2E
  8
TEAM-NET
  0
POLYLINE
  5
BB9
  8
TEAM-NET
 66
     1
 10
0.0
 20
0.0
 30
0.0
 70
     8
1001
ACAD
1000
R13OBJECT
1002
{
1005
D8
1002
}
  0
VERTEX
  5
BBA
  8
TEAM-NET
 10
-11.036833
 20
-58.423258
 30
1052.66284
 70
    32
  0
VERTEX
  5
BBB
  8
TEAM-NET
 10
-14.109706
 20
-58.982014
 30
1052.66284
 70
    32
  0
VERTEX
  5
BBC
  8
TEAM-NET
 10
-16.026947
 20
-60.223642
 30
1052.66284
 70
    32
  0
VERTEX
  5
BBD
  8
TEAM-NET
 10
-17.079256
 20
-61.768374
 30
1052.66284
 70
    32
  0
VERTEX
  5
BBE
  8
TEAM-NET
 10
-17.366419
 20
-62.793689
 30
1052.66284
 70
    32
  0
VERTEX
  5
BBF
  8
TEAM-NET
 10
-17.392488
 20
-63.844371
 30
1052.66284
 70
    32
  0
SEQEND
  5
BC0
  8
TEAM-NET
  0
LINE
  5
BC1
  8
TEAM-NET
 10
10.167635
 20
-58.423258
 30
1052.66284
 11
-11.036833
 21
-58.423258
 31
1052.66284
1001
ACAD
1000
R13OBJECT
1002
{
1005
D8
1002
}
  0
POLYLINE
  5
BC2
  8
TEAM-NET
 66
     1
 10
0.0
 20
0.0
 30
0.0
 70
     8
1001
ACAD
1000
R13OBJECT
1002
{
1005
D8
1002
}
  0
VERTEX
  5
BC3
  8
TEAM-NET
 10
16.52329
 20
-63.844371
 30
1052.66284
 70
    32
  0
VERTEX
  5
BC4
  8
TEAM-NET
 10
16.365353
 20
-62.20344
 30
1052.66284
 70
    32
  0
VERTEX
  5
BC5
  8
TEAM-NET
 10
15.566204
 20
-60.679776
 30
1052.66284
 70
    32
  0
VERTEX
  5
BC6
  8
TEAM-NET
 10
14.077676
 20
-59.39562
 30
1052.66284
 70
    32
  0
VERTEX
  5
BC7
  8
TEAM-NET
 10
12.273327
 20
-58.668527
 30
1052.66284
 70
    32
  0
VERTEX
  5
BC8
  8
TEAM-NET
 10
10.167635
 20
-58.423258
 30
1052.66284
 70
    32
  0
SEQEND
  5
BC9
  8
TEAM-NET
  0
POLYLINE
  5
BCA
  8
TEAM-NET
 66
     1
 10
0.0
 20
0.0
 30
1052.66284
 70
   128
1001
ACAD
1000
R13OBJECT
1002
{
1005
D8
1002
}
  0
VERTEX
  5
F2F
  8
TEAM-NET
 10
7.065401
 20
-158.423258
 30
1052.66284
  0
VERTEX
  5
F30
  8
TEAM-NET
 10
10.45479
 20
-124.529362
 30
1052.66284
  0
VERTEX
  5
F31
  8
TEAM-NET
 10
16.52329
 20
-63.844371
 30
1052.66284
  0
SEQEND
  5
F32
  8
TEAM-NET
  0
POLYLINE
  5
D9
  8
TEAM-NET
 66
     1
 10
0.0
 20
0.0
 30
0.0
 70
     8
  0
VERTEX
  5
BCF
  8
TEAM-NET
 10
16.52329
 20
-63.844371
 30
1052.66284
 70
    32
  0
VERTEX
  5
BD0
  8
TEAM-NET
 10
16.365353
 20
-62.20344
 30
1052.66284
 70
    32
  0
VERTEX
  5
BD1
  8
TEAM-NET
 10
15.566204
 20
-60.679776
 30
1052.66284
 70
    32
  0
VERTEX
  5
BD2
  8
TEAM-NET
 10
14.077676
 20
-59.39562
 30
1052.66284
 70
    32
  0
VERTEX
  5
BD3
  8
TEAM-NET
 10
12.273327
 20
-58.668527
 30
1052.66284
 70
    32
  0
VERTEX
  5
BD4
  8
TEAM-NET
 10
10.167635
 20
-58.423258
 30
1052.66284
 70
    32
  0
SEQEND
  5
BD5
  8
TEAM-NET
  0
POLYLINE
  5
BD6
  8
TEAM-NET
 66
     1
 10
0.0
 20
0.0
 30
58.423258
 70
   128
210
-0.0
220
-1.0
230
-0.0
1001
ACAD
1000
R13OBJECT
1002
{
1005
D9
1002
}
  0
VERTEX
  5
F33
  8
TEAM-NET
 10
10.167716
 20
1052.662923
 30
58.423258
  0
VERTEX
  5
F34
  8
TEAM-NET
 10
9.523768
 20
1053.261923
 30
58.423258
  0
VERTEX
  5
F35
  8
TEAM-NET
 10
7.789546
 20
1054.57438
 30
58.423258
  0
VERTEX
  5
F36
  8
TEAM-NET
 10
5.885414
 20
1055.622991
 30
58.423258
  0
VERTEX
  5
F37
  8
TEAM-NET
 10
4.88759
 20
1056.039574
 30
58.423258
  0
VERTEX
  5
F38
  8
TEAM-NET
 10
3.858897
 20
1056.384808
 30
58.423258
  0
VERTEX
  5
F39
  8
TEAM-NET
 10
1.73232
 20
1056.85104
 30
58.423258
  0
VERTEX
  5
F3A
  8
TEAM-NET
 10
0.28986
 20
1056.98966
 30
58.423258
  0
VERTEX
  5
F3B
  8
TEAM-NET
 10
-1.15201
 20
1056.989961
 30
58.423258
  0
VERTEX
  5
F3C
  8
TEAM-NET
 10
-2.594293
 20
1056.852199
 30
58.423258
  0
VERTEX
  5
F3D
  8
TEAM-NET
 10
-5.410574
 20
1056.164939
 30
58.423258
  0
VERTEX
  5
F3E
  8
TEAM-NET
 10
-6.748373
 20
1055.625721
 30
58.423258
  0
VERTEX
  5
F3F
  8
TEAM-NET
 10
-8.652784
 20
1054.578213
 30
58.423258
  0
VERTEX
  5
F40
  8
TEAM-NET
 10
-10.387734
 20
1053.26649
 30
58.423258
  0
VERTEX
  5
F41
  8
TEAM-NET
 10
-11.03691
 20
1052.662919
 30
58.423258
  0
SEQEND
  5
F42
  8
TEAM-NET
  0
POLYLINE
  5
BE7
  8
TEAM-NET
 66
     1
 10
0.0
 20
0.0
 30
0.0
 70
     8
1001
ACAD
1000
R13OBJECT
1002
{
1005
D9
1002
}
  0
VERTEX
  5
BE8
  8
TEAM-NET
 10
-11.036833
 20
-58.423258
 30
1052.66284
 70
    32
  0
VERTEX
  5
BE9
  8
TEAM-NET
 10
-14.109706
 20
-58.982014
 30
1052.66284
 70
    32
  0
VERTEX
  5
BEA
  8
TEAM-NET
 10
-16.026947
 20
-60.223642
 30
1052.66284
 70
    32
  0
VERTEX
  5
BEB
  8
TEAM-NET
 10
-17.079256
 20
-61.768374
 30
1052.66284
 70
    32
  0
VERTEX
  5
BEC
  8
TEAM-NET
 10
-17.366419
 20
-62.793689
 30
1052.66284
 70
    32
  0
VERTEX
  5
BED
  8
TEAM-NET
 10
-17.392488
 20
-63.844371
 30
1052.66284
 70
    32
  0
SEQEND
  5
BEE
  8
TEAM-NET
  0
POLYLINE
  5
BEF
  8
TEAM-NET
 66
     1
 10
0.0
 20
0.0
 30
0.0
 70
     8
1001
ACAD
1000
R13OBJECT
1002
{
1005
D9
1002
}
  0
VERTEX
  5
BF0
  8
TEAM-NET
 10
-17.392488
 20
-63.844371
 30
1052.66284
 70
    32
  0
VERTEX
  5
BF1
  8
TEAM-NET
 10
-15.699024
 20
-63.763838
 30
1054.969013
 70
    32
  0
VERTEX
  5
BF2
  8
TEAM-NET
 10
-13.678618
 20
-63.692474
 30
1057.021165
 70
    32
  0
VERTEX
  5
BF3
  8
TEAM-NET
 10
-11.369953
 20
-63.631875
 30
1058.770295
 70
    32
  0
VERTEX
  5
BF4
  8
TEAM-NET
 10
-8.835548
 20
-63.583662
 30
1060.166369
 70
    32
  0
VERTEX
  5
BF5
  8
TEAM-NET
 10
-7.055287
 20
-63.558909
 30
1060.88472
 70
    32
  0
VERTEX
  5
BF6
  8
TEAM-NET
 10
-3.307984
 20
-63.527427
 30
1061.799969
 70
    32
  0
VERTEX
  5
BF7
  8
TEAM-NET
 10
-1.389074
 20
-63.521126
 30
1061.983386
 70
    32
  0
VERTEX
  5
BF8
  8
TEAM-NET
 10
0.529253
 20
-63.52114
 30
1061.982985
 70
    32
  0
VERTEX
  5
BF9
  8
TEAM-NET
 10
2.448399
 20
-63.52748
 30
1061.798426
 70
    32
  0
VERTEX
  5
BFA
  8
TEAM-NET
 10
5.27794
 20
-63.548829
 30
1061.177568
 70
    32
  0
VERTEX
  5
BFB
  8
TEAM-NET
 10
6.646798
 20
-63.56466
 30
1060.717728
 70
    32
  0
VERTEX
  5
BFC
  8
TEAM-NET
 10
7.974653
 20
-63.583788
 30
1060.162732
 70
    32
  0
VERTEX
  5
BFD
  8
TEAM-NET
 10
10.508687
 20
-63.632051
 30
1058.765186
 70
    32
  0
VERTEX
  5
BFE
  8
TEAM-NET
 10
12.816381
 20
-63.692685
 30
1057.015074
 70
    32
  0
VERTEX
  5
BFF
  8
TEAM-NET
 10
14.835919
 20
-63.764087
 30
1054.961875
 70
    32
  0
VERTEX
  5
C00
  8
TEAM-NET
 10
16.523289
 20
-63.844371
 30
1052.66284
 70
    32
  0
SEQEND
  5
C01
  8
TEAM-NET
  0
ARC
  5
DA
  8
TEAM-NET
 10
0.434599
 20
1052.66284
 30
-159.423258
 40
3.894449
210
0.0
220
1.0
230
0.0
 50
90.0
 51
180.0
  0
ARC
  5
C02
  8
TEAM-NET
 10
0.434599
 20
1052.66284
 30
-159.423258
 40
3.894449
210
0.0
220
1.0
230
0.0
 50
0.0
 51
90.0
1001
ACAD
1000
R13OBJECT
1002
{
1005
DA
1002
}
  0
LINE
  5
C03
  8
TEAM-NET
 10
3.45985
 20
-159.423258
 30
1052.66284
 11
-4.329048
 21
-159.423258
 31
1052.66284
1001
ACAD
1000
R13OBJECT
1002
{
1005
DA
1002
}
  0
ARC
  5
DB
  8
TEAM-NET
 10
3.45985
 20
-152.423258
 30
1052.66284
 40
7.0
 50
270.0
 51
301.002719
  0
ARC
  5
C04
  8
TEAM-NET
 10
0.434599
 20
1052.66284
 30
-158.423258
 40
7.5
210
0.0
220
1.0
230
0.0
 50
90.0
 51
180.0
1001
ACAD
1000
R13OBJECT
1002
{
1005
DB
1002
}
  0
ARC
  5
C05
  8
TEAM-NET
 10
0.434599
 20
1052.66284
 30
-158.423258
 40
7.5
210
0.0
220
1.0
230
0.0
 50
0.0
 51
90.0
1001
ACAD
1000
R13OBJECT
1002
{
1005
DB
1002
}
  0
ARC
  5
C06
  8
TEAM-NET
 10
-4.329048
 20
-152.423258
 30
1052.66284
 40
7.0
 50
238.997281
 51
270.0
1001
ACAD
1000
R13OBJECT
1002
{
1005
DB
1002
}
  0
ARC
  5
C07
  8
TEAM-NET
 10
0.434599
 20
1052.66284
 30
-159.423258
 40
3.894449
210
0.0
220
1.0
230
0.0
 50
0.0
 51
90.0
1001
ACAD
1000
R13OBJECT
1002
{
1005
DB
1002
}
  0
ARC
  5
C08
  8
TEAM-NET
 10
0.434599
 20
1052.66284
 30
-159.423258
 40
3.894449
210
0.0
220
1.0
230
0.0
 50
90.0
 51
180.0
1001
ACAD
1000
R13OBJECT
1002
{
1005
DB
1002
}
  0
ARC
  5
DC
  8
TEAM-NET
 10
1.035904
 20
-63.067466
 30
-1052.66284
 40
20.5
210
0.0
220
0.0
230
-1.0
 50
169.960116
 51
349.960116
  0
ARC
  5
C09
  8
TEAM-NET
 10
1.035904
 20
-63.067466
 30
-1052.66284
 40
20.5
210
0.0
220
0.0
230
-1.0
 50
349.960116
 51
169.960116
1001
ACAD
1000
R13OBJECT
1002
{
1005
DC
1002
}
  0
ARC
  5
DD
  8
TEAM-NET
 10
32.514823
 20
1050.66284
 30
-61.921098
 40
2.0
210
-0.174334
220
0.984687
230
0.0
 50
360.0
 51
90.0
  0
ARC
  5
C0A
  8
TEAM-NET
 10
1.035904
 20
-63.067466
 30
-1052.66284
 40
20.5
210
0.0
220
0.0
230
-1.0
 50
349.960116
 51
169.960116
1001
ACAD
1000
R13OBJECT
1002
{
1005
DD
1002
}
  0
ARC
  5
C0B
  8
TEAM-NET
 10
8.485177
 20
1050.66284
 30
61.921098
 40
2.0
210
0.174334
220
-0.984687
230
0.0
 50
0.0
 51
90.0
1001
ACAD
1000
R13OBJECT
1002
{
1005
DD
1002
}
  0
ARC
  5
C0C
  8
TEAM-NET
 10
-1.035904
 20
-63.067466
 30
1050.66284
 40
22.5
 50
10.039884
 51
190.039884
1001
ACAD
1000
R13OBJECT
1002
{
1005
DD
1002
}
  0
ARC
  5
C0D
  8
TEAM-NET
 10
41.421098
 20
1050.66284
 30
12.014823
 40
2.0
210
-0.984687
220
-0.174334
230
-0.0
 50
90.0
 51
180.0
1001
ACAD
1000
R13OBJECT
1002
{
1005
DD
1002
}
  0
ARC
  5
C0E
  8
TEAM-NET
 10
1.035904
 20
-63.067466
 30
-1052.077054
 40
21.914214
210
0.0
220
0.0
230
-1.0
 50
349.960116
 51
169.960116
1001
ACAD
1000
R13OBJECT
1002
{
1005
DD
1002
}
  0
ARC
  5
DE
  8
TEAM-NET
 10
32.514823
 20
1050.66284
 30
-61.921098
 40
2.0
210
-0.174334
220
0.984687
230
0.0
 50
360.0
 51
90.0
  0
ARC
  5
C0F
  8
TEAM-NET
 10
-1.035904
 20
-63.067466
 30
1050.66284
 40
22.5
 50
190.039884
 51
10.039884
1001
ACAD
1000
R13OBJECT
1002
{
1005
DE
1002
}
  0
ARC
  5
C10
  8
TEAM-NET
 10
8.485177
 20
1050.66284
 30
61.921098
 40
2.0
210
0.174334
220
-0.984687
230
0.0
 50
0.0
 51
90.0
1001
ACAD
1000
R13OBJECT
1002
{
1005
DE
1002
}
  0
ARC
  5
C11
  8
TEAM-NET
 10
1.035904
 20
-63.067466
 30
-1052.66284
 40
20.5
210
0.0
220
0.0
230
-1.0
 50
169.960116
 51
349.960116
1001
ACAD
1000
R13OBJECT
1002
{
1005
DE
1002
}
  0
ARC
  5
C12
  8
TEAM-NET
 10
-82.421098
 20
1050.66284
 30
-12.014823
 40
2.0
210
0.984687
220
0.174334
230
-0.0
 50
90.0
 51
180.0
1001
ACAD
1000
R13OBJECT
1002
{
1005
DE
1002
}
  0
ARC
  5
C13
  8
TEAM-NET
 10
1.035904
 20
-63.067466
 30
-1052.077054
 40
21.914214
210
0.0
220
0.0
230
-1.0
 50
169.960116
 51
349.960116
1001
ACAD
1000
R13OBJECT
1002
{
1005
DE
1002
}
  0
ENDSEC
  0
EOF
