  0
SECTION
  2
HEADER
  9
$ACADVER
  1
AC1009
  9
$INSBASE
 10
0.0
 20
0.0
 30
842.0
  9
$EXTMIN
 10
-212.512969
 20
-325.010223
 30
-0.025938
  9
$EXTMAX
 10
212.512971
 20
10.010224
 30
850.025942
  9
$LIMMIN
 10
-212.512969
 20
-325.010223
  9
$LIMMAX
 10
212.512971
 20
10.010224
  9
$ORTHOMODE
 70
     1
  9
$REGENMODE
 70
     1
  9
$FILLMODE
 70
     1
  9
$QTEXTMODE
 70
     0
  9
$MIRRTEXT
 70
     0
  9
$DRAGMODE
 70
     2
  9
$LTSCALE
 40
50.0
  9
$OSMODE
 70
     7
  9
$ATTMODE
 70
     1
  9
$TEXTSIZE
 40
200.0
  9
$TRACEWID
 40
1.0
  9
$TEXTSTYLE
  7
STANDARD
  9
$CLAYER
  8
TEAM-MAS
  9
$CELTYPE
  6
BYLAYER
  9
$CECOLOR
 62
   256
  9
$DIMSCALE
 40
1.0
  9
$DIMASZ
 40
20.0
  9
$DIMEXO
 40
10.0
  9
$DIMDLI
 40
1.0
  9
$DIMRND
 40
0.0
  9
$DIMDLE
 40
0.0
  9
$DIMEXE
 40
1.0
  9
$DIMTP
 40
0.0
  9
$DIMTM
 40
0.0
  9
$DIMTXT
 40
35.0
  9
$DIMCEN
 40
1.0
  9
$DIMTSZ
 40
0.0
  9
$DIMTOL
 70
     0
  9
$DIMLIM
 70
     0
  9
$DIMTIH
 70
     0
  9
$DIMTOH
 70
     0
  9
$DIMSE1
 70
     0
  9
$DIMSE2
 70
     0
  9
$DIMTAD
 70
     0
  9
$DIMZIN
 70
     0
  9
$DIMBLK
  1

  9
$DIMASO
 70
     1
  9
$DIMSHO
 70
     0
  9
$DIMPOST
  1

  9
$DIMAPOST
  1

  9
$DIMALT
 70
     0
  9
$DIMALTD
 70
     2
  9
$DIMALTF
 40
25.4
  9
$DIMLFAC
 40
1.0
  9
$DIMTOFL
 70
     0
  9
$DIMTVP
 40
0.0
  9
$DIMTIX
 70
     0
  9
$DIMSOXD
 70
     0
  9
$DIMSAH
 70
     0
  9
$DIMBLK1
  1

  9
$DIMBLK2
  1

  9
$DIMSTYLE
  2
TEAM
  9
$DIMCLRD
 70
     9
  9
$DIMCLRE
 70
     9
  9
$DIMCLRT
 70
    11
  9
$DIMTFAC
 40
1.0
  9
$DIMGAP
 40
7.0
  9
$LUNITS
 70
     2
  9
$LUPREC
 70
     1
  9
$SKETCHINC
 40
1.0
  9
$FILLETRAD
 40
44.0
  9
$AUNITS
 70
     0
  9
$AUPREC
 70
     0
  9
$MENU
  1
ROPLANS
  9
$ELEVATION
 40
0.0
  9
$PELEVATION
 40
0.0
  9
$THICKNESS
 40
0.0
  9
$LIMCHECK
 70
     0
  9
$BLIPMODE
 70
     1
  9
$CHAMFERA
 40
0.0
  9
$CHAMFERB
 40
0.0
  9
$SKPOLY
 70
     0
  9
$TDCREATE
 40
2450392.957851
  9
$TDUPDATE
 40
2455981.928629
  9
$TDINDWG
 40
3.777306
  9
$TDUSRTIMER
 40
3.777306
  9
$USRTIMER
 70
     1
  9
$ANGBASE
 50
0.0
  9
$ANGDIR
 70
     0
  9
$PDMODE
 70
     0
  9
$PDSIZE
 40
0.0
  9
$PLINEWID
 40
0.0
  9
$COORDS
 70
     2
  9
$SPLFRAME
 70
     0
  9
$SPLINETYPE
 70
     6
  9
$SPLINESEGS
 70
     8
  9
$ATTDIA
 70
     0
  9
$ATTREQ
 70
     0
  9
$HANDLING
 70
     1
  9
$HANDSEED
  5
8DA
  9
$SURFTAB1
 70
    36
  9
$SURFTAB2
 70
    36
  9
$SURFTYPE
 70
     6
  9
$SURFU
 70
     6
  9
$SURFV
 70
     6
  9
$UCSNAME
  2

  9
$UCSORG
 10
0.0
 20
0.0
 30
0.0
  9
$UCSXDIR
 10
1.0
 20
0.0
 30
0.0
  9
$UCSYDIR
 10
0.0
 20
1.0
 30
0.0
  9
$PUCSNAME
  2

  9
$PUCSORG
 10
0.0
 20
0.0
 30
0.0
  9
$PUCSXDIR
 10
1.0
 20
0.0
 30
0.0
  9
$PUCSYDIR
 10
0.0
 20
1.0
 30
0.0
  9
$USERI1
 70
     0
  9
$USERI2
 70
     0
  9
$USERI3
 70
     0
  9
$USERI4
 70
     0
  9
$USERI5
 70
     0
  9
$USERR1
 40
0.0
  9
$USERR2
 40
0.0
  9
$USERR3
 40
0.0
  9
$USERR4
 40
0.0
  9
$USERR5
 40
0.0
  9
$WORLDVIEW
 70
     1
  9
$SHADEDGE
 70
     0
  9
$SHADEDIF
 70
    70
  9
$TILEMODE
 70
     1
  9
$MAXACTVP
 70
    16
  9
$PLIMCHECK
 70
     0
  9
$PEXTMIN
 10
-0.805942
 20
0.005011
 30
0.0
  9
$PEXTMAX
 10
20.250094
 20
11.356329
 30
0.0
  9
$PLIMMIN
 10
0.0
 20
0.0
  9
$PLIMMAX
 10
12.0
 20
9.0
  9
$UNITMODE
 70
     0
  9
$VISRETAIN
 70
     0
  9
$PLINEGEN
 70
     0
  9
$PSLTSCALE
 70
     0
  0
ENDSEC
  0
SECTION
  2
TABLES
  0
TABLE
  2
VPORT
 70
     2
  0
VPORT
  2
*ACTIVE
 70
     0
 10
0.0
 20
0.0
 11
1.0
 21
1.0
 12
0.000001
 22
-157.499999
 13
0.0
 23
0.0
 14
1.0
 24
1.0
 15
50.0
 25
50.0
 16
0.0
 26
0.0
 36
1.0
 17
0.0
 27
0.0
 37
0.0
 40
337.120888
 41
1.903766
 42
50.0
 43
0.0
 44
0.0
 50
0.0
 51
0.0
 71
     0
 72
   100
 73
     1
 74
     1
 75
     0
 76
     0
 77
     0
 78
     0
  0
ENDTAB
  0
TABLE
  2
LTYPE
 70
     2
  0
LTYPE
  2
CONTINUOUS
 70
     0
  3
Solid Line
 72
    65
 73
     0
 40
0.0
  0
LTYPE
  2
31
 70
     0
  3

 72
    65
 73
     4
 40
2.1
 49
1.5
 49
-0.3
 49
0.0
 49
-0.3
  0
ENDTAB
  0
TABLE
  2
LAYER
 70
     9
  0
LAYER
  2
0
 70
     0
 62
     7
  6
CONTINUOUS
  0
LAYER
  2
TEAM-BODY
 70
     0
 62
     2
  6
CONTINUOUS
  0
LAYER
  2
TEAM-AXE
 70
     0
 62
    10
  6
31
  0
LAYER
  2
TEAM-MAS
 70
     0
 62
     9
  6
CONTINUOUS
  0
LAYER
  2
TEAM-TXT
 70
     0
 62
    11
  6
CONTINUOUS
  0
LAYER
  2
TEAM-DET1
 70
     0
 62
     4
  6
CONTINUOUS
  0
LAYER
  2
TEAM-KAN
 70
     0
 62
     6
  6
CONTINUOUS
  0
LAYER
  2
TEAM-NET
 70
     0
 62
    15
  6
CONTINUOUS
  0
LAYER
  2
TEAM-INSP
 70
     0
 62
     5
  6
CONTINUOUS
  0
ENDTAB
  0
TABLE
  2
STYLE
 70
     2
  0
STYLE
  2
STANDARD
 70
     0
 40
0.0
 41
1.0
 50
0.0
 71
     0
 42
200.0
  3
txt
  4

  0
STYLE
  2
TEAM
 70
     0
 40
0.0
 41
0.8
 50
15.0
 71
     0
 42
7.0
  3
ROMANS.shx
  4

  0
ENDTAB
  0
TABLE
  2
VIEW
 70
     0
  0
ENDTAB
  0
TABLE
  2
UCS
 70
     0
  0
ENDTAB
  0
TABLE
  2
APPID
 70
     1
  0
APPID
  2
ACAD
 70
     0
  0
ENDTAB
  0
TABLE
  2
DIMSTYLE
 70
     1
  0
DIMSTYLE
  2
TEAM
 70
     0
  3

  4

  5

  6

  7

 40
1.0
 41
20.0
 42
10.0
 43
1.0
 44
1.0
 45
0.0
 46
0.0
 47
0.0
 48
0.0
140
35.0
141
1.0
142
0.0
143
25.4
144
1.0
145
0.0
146
1.0
147
7.0
 71
     0
 72
     0
 73
     0
 74
     0
 75
     0
 76
     0
 77
     0
 78
     0
170
     0
171
     2
172
     0
173
     0
174
     0
175
     0
176
     9
177
     9
178
    11
  0
ENDTAB
  0
ENDSEC
  0
SECTION
  2
BLOCKS
  0
BLOCK
  8
0
  2
$MODEL_SPACE
 70
     0
 10
0.0
 20
0.0
 30
0.0
  3
$MODEL_SPACE
  1

  0
ENDBLK
  5
7E1
  8
0
  0
BLOCK
 67
     1
  8
0
  2
$PAPER_SPACE
 70
     0
 10
0.0
 20
0.0
 30
0.0
  3
$PAPER_SPACE
  1

  0
ENDBLK
  5
7DF
 67
     1
  8
0
  0
ENDSEC
  0
SECTION
  2
ENTITIES
  0
CIRCLE
  5
20
  8
TEAM-INSP
 10
0.0
 20
0.0
 30
0.0
 40
10.0
  0
POLYLINE
  5
22
  8
TEAM-NET
 66
     1
 10
0.0
 20
0.0
 30
0.0
 70
    16
 71
    37
 72
    37
  0
VERTEX
  5
23
  8
TEAM-NET
 10
187.5
 20
-162.5
 30
850.0
 70
    64
  0
VERTEX
  5
24
  8
TEAM-NET
 10
186.494964
 20
-148.282438
 30
850.0
 70
    64
  0
VERTEX
  5
25
  8
TEAM-NET
 10
183.526118
 20
-134.341394
 30
850.0
 70
    64
  0
VERTEX
  5
26
  8
TEAM-NET
 10
178.721756
 20
-120.920687
 30
850.0
 70
    64
  0
VERTEX
  5
27
  8
TEAM-NET
 10
172.265998
 20
-108.210169
 30
850.0
 70
    64
  0
VERTEX
  5
28
  8
TEAM-NET
 10
164.368353
 20
-96.340105
 30
850.0
 70
    64
  0
VERTEX
  5
29
  8
TEAM-NET
 10
155.238745
 20
-85.3877
 30
850.0
 70
    64
  0
VERTEX
  5
2A
  8
TEAM-NET
 10
145.071823
 20
-75.389334
 30
850.0
 70
    64
  0
VERTEX
  5
2B
  8
TEAM-NET
 10
134.039721
 20
-66.353307
 30
850.0
 70
    64
  0
VERTEX
  5
2C
  8
TEAM-NET
 10
122.290533
 20
-58.270459
 30
850.0
 70
    64
  0
VERTEX
  5
2D
  8
TEAM-NET
 10
109.949945
 20
-51.121997
 30
850.0
 70
    64
  0
VERTEX
  5
2E
  8
TEAM-NET
 10
97.124202
 20
-44.884811
 30
850.0
 70
    64
  0
VERTEX
  5
2F
  8
TEAM-NET
 10
83.903395
 20
-39.534912
 30
850.0
 70
    64
  0
VERTEX
  5
30
  8
TEAM-NET
 10
70.364578
 20
-35.049544
 30
850.0
 70
    64
  0
VERTEX
  5
31
  8
TEAM-NET
 10
56.57452
 20
-31.408439
 30
850.0
 70
    64
  0
VERTEX
  5
32
  8
TEAM-NET
 10
42.592062
 20
-28.594526
 30
850.0
 70
    64
  0
VERTEX
  5
33
  8
TEAM-NET
 10
28.470123
 20
-26.594314
 30
850.0
 70
    64
  0
VERTEX
  5
34
  8
TEAM-NET
 10
14.257424
 20
-25.39809
 30
850.0
 70
    64
  0
VERTEX
  5
35
  8
TEAM-NET
 10
0.0
 20
-25.0
 30
850.0
 70
    64
  0
VERTEX
  5
36
  8
TEAM-NET
 10
-14.257424
 20
-25.39809
 30
850.0
 70
    64
  0
VERTEX
  5
37
  8
TEAM-NET
 10
-28.470123
 20
-26.594314
 30
850.0
 70
    64
  0
VERTEX
  5
38
  8
TEAM-NET
 10
-42.592062
 20
-28.594526
 30
850.0
 70
    64
  0
VERTEX
  5
39
  8
TEAM-NET
 10
-56.57452
 20
-31.408439
 30
850.0
 70
    64
  0
VERTEX
  5
3A
  8
TEAM-NET
 10
-70.364578
 20
-35.049544
 30
850.0
 70
    64
  0
VERTEX
  5
3B
  8
TEAM-NET
 10
-83.903395
 20
-39.534912
 30
850.0
 70
    64
  0
VERTEX
  5
3C
  8
TEAM-NET
 10
-97.124202
 20
-44.884811
 30
850.0
 70
    64
  0
VERTEX
  5
3D
  8
TEAM-NET
 10
-109.949945
 20
-51.121997
 30
850.0
 70
    64
  0
VERTEX
  5
3E
  8
TEAM-NET
 10
-122.290533
 20
-58.270459
 30
850.0
 70
    64
  0
VERTEX
  5
3F
  8
TEAM-NET
 10
-134.039721
 20
-66.353307
 30
850.0
 70
    64
  0
VERTEX
  5
40
  8
TEAM-NET
 10
-145.071823
 20
-75.389334
 30
850.0
 70
    64
  0
VERTEX
  5
41
  8
TEAM-NET
 10
-155.238745
 20
-85.3877
 30
850.0
 70
    64
  0
VERTEX
  5
42
  8
TEAM-NET
 10
-164.368353
 20
-96.340105
 30
850.0
 70
    64
  0
VERTEX
  5
43
  8
TEAM-NET
 10
-172.265998
 20
-108.210169
 30
850.0
 70
    64
  0
VERTEX
  5
44
  8
TEAM-NET
 10
-178.721756
 20
-120.920687
 30
850.0
 70
    64
  0
VERTEX
  5
45
  8
TEAM-NET
 10
-183.526118
 20
-134.341394
 30
850.0
 70
    64
  0
VERTEX
  5
46
  8
TEAM-NET
 10
-186.494964
 20
-148.282438
 30
850.0
 70
    64
  0
VERTEX
  5
47
  8
TEAM-NET
 10
-187.5
 20
-162.5
 30
850.0
 70
    64
  0
VERTEX
  5
48
  8
TEAM-NET
 10
187.5
 20
-162.5
 30
850.0
 70
    64
  0
VERTEX
  5
49
  8
TEAM-NET
 10
186.494964
 20
-148.33654
 30
848.760858
 70
    64
  0
VERTEX
  5
4A
  8
TEAM-NET
 10
183.526118
 20
-134.448546
 30
847.545816
 70
    64
  0
VERTEX
  5
4B
  8
TEAM-NET
 10
178.721756
 20
-121.078909
 30
846.376124
 70
    64
  0
VERTEX
  5
4C
  8
TEAM-NET
 10
172.265998
 20
-108.416758
 30
845.268329
 70
    64
  0
VERTEX
  5
4D
  8
TEAM-NET
 10
164.368353
 20
-96.591863
 30
844.233785
 70
    64
  0
VERTEX
  5
4E
  8
TEAM-NET
 10
155.238745
 20
-85.681135
 30
843.27922
 70
    64
  0
VERTEX
  5
4F
  8
TEAM-NET
 10
145.071823
 20
-75.720816
 30
842.407805
 70
    64
  0
VERTEX
  5
50
  8
TEAM-NET
 10
134.039721
 20
-66.719174
 30
841.620264
 70
    64
  0
VERTEX
  5
51
  8
TEAM-NET
 10
122.290533
 20
-58.667084
 30
840.915797
 70
    64
  0
VERTEX
  5
52
  8
TEAM-NET
 10
109.949945
 20
-51.545824
 30
840.292767
 70
    64
  0
VERTEX
  5
53
  8
TEAM-NET
 10
97.124202
 20
-45.332372
 30
839.749161
 70
    64
  0
VERTEX
  5
54
  8
TEAM-NET
 10
83.903395
 20
-40.002831
 30
839.282886
 70
    64
  0
VERTEX
  5
55
  8
TEAM-NET
 10
70.364578
 20
-35.534531
 30
838.891961
 70
    64
  0
VERTEX
  5
56
  8
TEAM-NET
 10
56.57452
 20
-31.907282
 30
838.574618
 70
    64
  0
VERTEX
  5
57
  8
TEAM-NET
 10
42.592062
 20
-29.104076
 30
838.329369
 70
    64
  0
VERTEX
  5
58
  8
TEAM-NET
 10
28.470123
 20
-27.111477
 30
838.155039
 70
    64
  0
VERTEX
  5
59
  8
TEAM-NET
 10
14.257424
 20
-25.919804
 30
838.050781
 70
    64
  0
VERTEX
  5
5A
  8
TEAM-NET
 10
0.0
 20
-25.523229
 30
838.016085
 70
    64
  0
VERTEX
  5
5B
  8
TEAM-NET
 10
-14.257424
 20
-25.919804
 30
838.050781
 70
    64
  0
VERTEX
  5
5C
  8
TEAM-NET
 10
-28.470123
 20
-27.111477
 30
838.155039
 70
    64
  0
VERTEX
  5
5D
  8
TEAM-NET
 10
-42.592062
 20
-29.104076
 30
838.329369
 70
    64
  0
VERTEX
  5
5E
  8
TEAM-NET
 10
-56.57452
 20
-31.907282
 30
838.574618
 70
    64
  0
VERTEX
  5
5F
  8
TEAM-NET
 10
-70.364578
 20
-35.534531
 30
838.891961
 70
    64
  0
VERTEX
  5
60
  8
TEAM-NET
 10
-83.903395
 20
-40.002831
 30
839.282886
 70
    64
  0
VERTEX
  5
61
  8
TEAM-NET
 10
-97.124202
 20
-45.332372
 30
839.749161
 70
    64
  0
VERTEX
  5
62
  8
TEAM-NET
 10
-109.949945
 20
-51.545824
 30
840.292767
 70
    64
  0
VERTEX
  5
63
  8
TEAM-NET
 10
-122.290533
 20
-58.667084
 30
840.915797
 70
    64
  0
VERTEX
  5
64
  8
TEAM-NET
 10
-134.039721
 20
-66.719174
 30
841.620264
 70
    64
  0
VERTEX
  5
65
  8
TEAM-NET
 10
-145.071823
 20
-75.720816
 30
842.407805
 70
    64
  0
VERTEX
  5
66
  8
TEAM-NET
 10
-155.238745
 20
-85.681135
 30
843.27922
 70
    64
  0
VERTEX
  5
67
  8
TEAM-NET
 10
-164.368353
 20
-96.591863
 30
844.233785
 70
    64
  0
VERTEX
  5
68
  8
TEAM-NET
 10
-172.265998
 20
-108.416758
 30
845.268329
 70
    64
  0
VERTEX
  5
69
  8
TEAM-NET
 10
-178.721756
 20
-121.078909
 30
846.376124
 70
    64
  0
VERTEX
  5
6A
  8
TEAM-NET
 10
-183.526118
 20
-134.448546
 30
847.545816
 70
    64
  0
VERTEX
  5
6B
  8
TEAM-NET
 10
-186.494964
 20
-148.33654
 30
848.760858
 70
    64
  0
VERTEX
  5
6C
  8
TEAM-NET
 10
-187.5
 20
-162.5
 30
850.0
 70
    64
  0
VERTEX
  5
6D
  8
TEAM-NET
 10
187.5
 20
-162.5
 30
850.0
 70
    64
  0
VERTEX
  5
6E
  8
TEAM-NET
 10
186.494964
 20
-148.498435
 30
847.531146
 70
    64
  0
VERTEX
  5
6F
  8
TEAM-NET
 10
183.526118
 20
-134.769187
 30
845.110309
 70
    64
  0
VERTEX
  5
70
  8
TEAM-NET
 10
178.721756
 20
-121.55237
 30
842.779828
 70
    64
  0
VERTEX
  5
71
  8
TEAM-NET
 10
172.265998
 20
-109.034953
 30
840.57267
 70
    64
  0
VERTEX
  5
72
  8
TEAM-NET
 10
164.368353
 20
-97.345222
 30
838.511455
 70
    64
  0
VERTEX
  5
73
  8
TEAM-NET
 10
155.238745
 20
-86.559209
 30
836.60959
 70
    64
  0
VERTEX
  5
74
  8
TEAM-NET
 10
145.071823
 20
-76.71274
 30
834.873392
 70
    64
  0
VERTEX
  5
75
  8
TEAM-NET
 10
134.039721
 20
-67.813991
 30
833.304302
 70
    64
  0
VERTEX
  5
76
  8
TEAM-NET
 10
122.290533
 20
-59.85394
 30
831.90073
 70
    64
  0
VERTEX
  5
77
  8
TEAM-NET
 10
109.949945
 20
-52.814079
 30
830.659413
 70
    64
  0
VERTEX
  5
78
  8
TEAM-NET
 10
97.124202
 20
-46.67165
 30
829.576337
 70
    64
  0
VERTEX
  5
79
  8
TEAM-NET
 10
83.903395
 20
-41.403028
 30
828.647336
 70
    64
  0
VERTEX
  5
7A
  8
TEAM-NET
 10
70.364578
 20
-36.985803
 30
827.868461
 70
    64
  0
VERTEX
  5
7B
  8
TEAM-NET
 10
56.57452
 20
-33.400014
 30
827.236189
 70
    64
  0
VERTEX
  5
7C
  8
TEAM-NET
 10
42.592062
 20
-30.628851
 30
826.747558
 70
    64
  0
VERTEX
  5
7D
  8
TEAM-NET
 10
28.470123
 20
-28.659027
 30
826.400225
 70
    64
  0
VERTEX
  5
7E
  8
TEAM-NET
 10
14.257424
 20
-27.480976
 30
826.192503
 70
    64
  0
VERTEX
  5
7F
  8
TEAM-NET
 10
0.0
 20
-27.088934
 30
826.123376
 70
    64
  0
VERTEX
  5
80
  8
TEAM-NET
 10
-14.257424
 20
-27.480976
 30
826.192503
 70
    64
  0
VERTEX
  5
81
  8
TEAM-NET
 10
-28.470123
 20
-28.659027
 30
826.400225
 70
    64
  0
VERTEX
  5
82
  8
TEAM-NET
 10
-42.592062
 20
-30.628851
 30
826.747558
 70
    64
  0
VERTEX
  5
83
  8
TEAM-NET
 10
-56.57452
 20
-33.400014
 30
827.236189
 70
    64
  0
VERTEX
  5
84
  8
TEAM-NET
 10
-70.364578
 20
-36.985803
 30
827.868461
 70
    64
  0
VERTEX
  5
85
  8
TEAM-NET
 10
-83.903395
 20
-41.403028
 30
828.647336
 70
    64
  0
VERTEX
  5
86
  8
TEAM-NET
 10
-97.124202
 20
-46.67165
 30
829.576337
 70
    64
  0
VERTEX
  5
87
  8
TEAM-NET
 10
-109.949945
 20
-52.814079
 30
830.659413
 70
    64
  0
VERTEX
  5
88
  8
TEAM-NET
 10
-122.290533
 20
-59.85394
 30
831.90073
 70
    64
  0
VERTEX
  5
89
  8
TEAM-NET
 10
-134.039721
 20
-67.813991
 30
833.304302
 70
    64
  0
VERTEX
  5
8A
  8
TEAM-NET
 10
-145.071823
 20
-76.71274
 30
834.873392
 70
    64
  0
VERTEX
  5
8B
  8
TEAM-NET
 10
-155.238745
 20
-86.559209
 30
836.60959
 70
    64
  0
VERTEX
  5
8C
  8
TEAM-NET
 10
-164.368353
 20
-97.345222
 30
838.511455
 70
    64
  0
VERTEX
  5
8D
  8
TEAM-NET
 10
-172.265998
 20
-109.034953
 30
840.57267
 70
    64
  0
VERTEX
  5
8E
  8
TEAM-NET
 10
-178.721756
 20
-121.55237
 30
842.779828
 70
    64
  0
VERTEX
  5
8F
  8
TEAM-NET
 10
-183.526118
 20
-134.769187
 30
845.110309
 70
    64
  0
VERTEX
  5
90
  8
TEAM-NET
 10
-186.494964
 20
-148.498435
 30
847.531146
 70
    64
  0
VERTEX
  5
91
  8
TEAM-NET
 10
-187.5
 20
-162.5
 30
850.0
 70
    64
  0
VERTEX
  5
92
  8
TEAM-NET
 10
187.5
 20
-162.5
 30
850.0
 70
    64
  0
VERTEX
  5
93
  8
TEAM-NET
 10
186.494964
 20
-148.76689
 30
846.320224
 70
    64
  0
VERTEX
  5
94
  8
TEAM-NET
 10
183.526118
 20
-135.300876
 30
842.712017
 70
    64
  0
VERTEX
  5
95
  8
TEAM-NET
 10
178.721756
 20
-122.337467
 30
839.238482
 70
    64
  0
VERTEX
  5
96
  8
TEAM-NET
 10
172.265998
 20
-110.06005
 30
835.948758
 70
    64
  0
VERTEX
  5
97
  8
TEAM-NET
 10
164.368353
 20
-98.594449
 30
832.876559
 70
    64
  0
VERTEX
  5
98
  8
TEAM-NET
 10
155.238745
 20
-88.015238
 30
830.041868
 70
    64
  0
VERTEX
  5
99
  8
TEAM-NET
 10
145.071823
 20
-78.357558
 30
827.454101
 70
    64
  0
VERTEX
  5
9A
  8
TEAM-NET
 10
134.039721
 20
-69.629426
 30
825.115405
 70
    64
  0
VERTEX
  5
9B
  8
TEAM-NET
 10
122.290533
 20
-61.821995
 30
823.02341
 70
    64
  0
VERTEX
  5
9C
  8
TEAM-NET
 10
109.949945
 20
-54.91711
 30
821.173252
 70
    64
  0
VERTEX
  5
9D
  8
TEAM-NET
 10
97.124202
 20
-48.892451
 30
819.558949
 70
    64
  0
VERTEX
  5
9E
  8
TEAM-NET
 10
83.903395
 20
-43.724845
 30
818.174293
 70
    64
  0
VERTEX
  5
9F
  8
TEAM-NET
 10
70.364578
 20
-39.392313
 30
817.013395
 70
    64
  0
VERTEX
  5
A0
  8
TEAM-NET
 10
56.57452
 20
-35.875275
 30
816.071007
 70
    64
  0
VERTEX
  5
A1
  8
TEAM-NET
 10
42.592062
 20
-33.157244
 30
815.342713
 70
    64
  0
VERTEX
  5
A2
  8
TEAM-NET
 10
28.470123
 20
-31.225188
 30
814.82502
 70
    64
  0
VERTEX
  5
A3
  8
TEAM-NET
 10
14.257424
 20
-30.069724
 30
814.515415
 70
    64
  0
VERTEX
  5
A4
  8
TEAM-NET
 10
0.0
 20
-29.685199
 30
814.412381
 70
    64
  0
VERTEX
  5
A5
  8
TEAM-NET
 10
-14.257424
 20
-30.069724
 30
814.515415
 70
    64
  0
VERTEX
  5
A6
  8
TEAM-NET
 10
-28.470123
 20
-31.225188
 30
814.82502
 70
    64
  0
VERTEX
  5
A7
  8
TEAM-NET
 10
-42.592062
 20
-33.157244
 30
815.342713
 70
    64
  0
VERTEX
  5
A8
  8
TEAM-NET
 10
-56.57452
 20
-35.875275
 30
816.071007
 70
    64
  0
VERTEX
  5
A9
  8
TEAM-NET
 10
-70.364578
 20
-39.392313
 30
817.013395
 70
    64
  0
VERTEX
  5
AA
  8
TEAM-NET
 10
-83.903395
 20
-43.724845
 30
818.174293
 70
    64
  0
VERTEX
  5
AB
  8
TEAM-NET
 10
-97.124202
 20
-48.892451
 30
819.558949
 70
    64
  0
VERTEX
  5
AC
  8
TEAM-NET
 10
-109.949945
 20
-54.91711
 30
821.173252
 70
    64
  0
VERTEX
  5
AD
  8
TEAM-NET
 10
-122.290533
 20
-61.821995
 30
823.02341
 70
    64
  0
VERTEX
  5
AE
  8
TEAM-NET
 10
-134.039721
 20
-69.629426
 30
825.115405
 70
    64
  0
VERTEX
  5
AF
  8
TEAM-NET
 10
-145.071823
 20
-78.357558
 30
827.454101
 70
    64
  0
VERTEX
  5
B0
  8
TEAM-NET
 10
-155.238745
 20
-88.015238
 30
830.041868
 70
    64
  0
VERTEX
  5
B1
  8
TEAM-NET
 10
-164.368353
 20
-98.594449
 30
832.876559
 70
    64
  0
VERTEX
  5
B2
  8
TEAM-NET
 10
-172.265998
 20
-110.06005
 30
835.948758
 70
    64
  0
VERTEX
  5
B3
  8
TEAM-NET
 10
-178.721756
 20
-122.337467
 30
839.238482
 70
    64
  0
VERTEX
  5
B4
  8
TEAM-NET
 10
-183.526118
 20
-135.300876
 30
842.712017
 70
    64
  0
VERTEX
  5
B5
  8
TEAM-NET
 10
-186.494964
 20
-148.76689
 30
846.320224
 70
    64
  0
VERTEX
  5
B6
  8
TEAM-NET
 10
-187.5
 20
-162.5
 30
850.0
 70
    64
  0
VERTEX
  5
B7
  8
TEAM-NET
 10
187.5
 20
-162.5
 30
850.0
 70
    64
  0
VERTEX
  5
B8
  8
TEAM-NET
 10
186.494964
 20
-149.139862
 30
845.137307
 70
    64
  0
VERTEX
  5
B9
  8
TEAM-NET
 10
183.526118
 20
-136.039566
 30
840.36919
 70
    64
  0
VERTEX
  5
BA
  8
TEAM-NET
 10
178.721756
 20
-123.428226
 30
835.779037
 70
    64
  0
VERTEX
  5
BB
  8
TEAM-NET
 10
172.265998
 20
-111.484246
 30
831.431784
 70
    64
  0
VERTEX
  5
BC
  8
TEAM-NET
 10
164.368353
 20
-100.330035
 30
827.371983
 70
    64
  0
VERTEX
  5
BD
  8
TEAM-NET
 10
155.238745
 20
-90.038141
 30
823.62604
 70
    64
  0
VERTEX
  5
BE
  8
TEAM-NET
 10
145.071823
 20
-80.64275
 30
820.206397
 70
    64
  0
VERTEX
  5
BF
  8
TEAM-NET
 10
134.039721
 20
-72.151662
 30
817.115894
 70
    64
  0
VERTEX
  5
C0
  8
TEAM-NET
 10
122.290533
 20
-64.55627
 30
814.351398
 70
    64
  0
VERTEX
  5
C1
  8
TEAM-NET
 10
109.949945
 20
-57.838912
 30
811.906479
 70
    64
  0
VERTEX
  5
C2
  8
TEAM-NET
 10
97.124202
 20
-51.977875
 30
809.773236
 70
    64
  0
VERTEX
  5
C3
  8
TEAM-NET
 10
83.903395
 20
-46.950614
 30
807.943463
 70
    64
  0
VERTEX
  5
C4
  8
TEAM-NET
 10
70.364578
 20
-42.735747
 30
806.409377
 70
    64
  0
VERTEX
  5
C5
  8
TEAM-NET
 10
56.57452
 20
-39.314227
 30
805.164045
 70
    64
  0
VERTEX
  5
C6
  8
TEAM-NET
 10
42.592062
 20
-36.670014
 30
804.20163
 70
    64
  0
VERTEX
  5
C7
  8
TEAM-NET
 10
28.470123
 20
-34.79043
 30
803.517518
 70
    64
  0
VERTEX
  5
C8
  8
TEAM-NET
 10
14.257424
 20
-33.666347
 30
803.108385
 70
    64
  0
VERTEX
  5
C9
  8
TEAM-NET
 10
0.0
 20
-33.292265
 30
802.97223
 70
    64
  0
VERTEX
  5
CA
  8
TEAM-NET
 10
-14.257424
 20
-33.666347
 30
803.108385
 70
    64
  0
VERTEX
  5
CB
  8
TEAM-NET
 10
-28.470123
 20
-34.79043
 30
803.517518
 70
    64
  0
VERTEX
  5
CC
  8
TEAM-NET
 10
-42.592062
 20
-36.670014
 30
804.20163
 70
    64
  0
VERTEX
  5
CD
  8
TEAM-NET
 10
-56.57452
 20
-39.314227
 30
805.164045
 70
    64
  0
VERTEX
  5
CE
  8
TEAM-NET
 10
-70.364578
 20
-42.735747
 30
806.409377
 70
    64
  0
VERTEX
  5
CF
  8
TEAM-NET
 10
-83.903395
 20
-46.950614
 30
807.943463
 70
    64
  0
VERTEX
  5
D0
  8
TEAM-NET
 10
-97.124202
 20
-51.977875
 30
809.773236
 70
    64
  0
VERTEX
  5
D1
  8
TEAM-NET
 10
-109.949945
 20
-57.838912
 30
811.906479
 70
    64
  0
VERTEX
  5
D2
  8
TEAM-NET
 10
-122.290533
 20
-64.55627
 30
814.351398
 70
    64
  0
VERTEX
  5
D3
  8
TEAM-NET
 10
-134.039721
 20
-72.151662
 30
817.115894
 70
    64
  0
VERTEX
  5
D4
  8
TEAM-NET
 10
-145.071823
 20
-80.64275
 30
820.206397
 70
    64
  0
VERTEX
  5
D5
  8
TEAM-NET
 10
-155.238745
 20
-90.038141
 30
823.62604
 70
    64
  0
VERTEX
  5
D6
  8
TEAM-NET
 10
-164.368353
 20
-100.330035
 30
827.371983
 70
    64
  0
VERTEX
  5
D7
  8
TEAM-NET
 10
-172.265998
 20
-111.484246
 30
831.431784
 70
    64
  0
VERTEX
  5
D8
  8
TEAM-NET
 10
-178.721756
 20
-123.428226
 30
835.779037
 70
    64
  0
VERTEX
  5
D9
  8
TEAM-NET
 10
-183.526118
 20
-136.039566
 30
840.36919
 70
    64
  0
VERTEX
  5
DA
  8
TEAM-NET
 10
-186.494964
 20
-149.139862
 30
845.137307
 70
    64
  0
VERTEX
  5
DB
  8
TEAM-NET
 10
-187.5
 20
-162.5
 30
850.0
 70
    64
  0
VERTEX
  5
DC
  8
TEAM-NET
 10
187.5
 20
-162.5
 30
850.0
 70
    64
  0
VERTEX
  5
DD
  8
TEAM-NET
 10
186.494964
 20
-149.614513
 30
843.991399
 70
    64
  0
VERTEX
  5
DE
  8
TEAM-NET
 10
183.526118
 20
-136.979636
 30
838.099659
 70
    64
  0
VERTEX
  5
DF
  8
TEAM-NET
 10
178.721756
 20
-124.816345
 30
832.427823
 70
    64
  0
VERTEX
  5
E0
  8
TEAM-NET
 10
172.265998
 20
-113.296703
 30
827.056126
 70
    64
  0
VERTEX
  5
E1
  8
TEAM-NET
 10
164.368353
 20
-102.538772
 30
822.03962
 70
    64
  0
VERTEX
  5
E2
  8
TEAM-NET
 10
155.238745
 20
-92.612522
 30
817.410934
 70
    64
  0
VERTEX
  5
E3
  8
TEAM-NET
 10
145.071823
 20
-83.550925
 30
813.185442
 70
    64
  0
VERTEX
  5
E4
  8
TEAM-NET
 10
134.039721
 20
-75.361503
 30
809.366652
 70
    64
  0
VERTEX
  5
E5
  8
TEAM-NET
 10
122.290533
 20
-68.035956
 30
805.950693
 70
    64
  0
VERTEX
  5
E6
  8
TEAM-NET
 10
109.949945
 20
-61.557248
 30
802.929622
 70
    64
  0
VERTEX
  5
E7
  8
TEAM-NET
 10
97.124202
 20
-55.904438
 30
800.293673
 70
    64
  0
VERTEX
  5
E8
  8
TEAM-NET
 10
83.903395
 20
-51.055783
 30
798.032708
 70
    64
  0
VERTEX
  5
E9
  8
TEAM-NET
 10
70.364578
 20
-46.990659
 30
796.13711
 70
    64
  0
VERTEX
  5
EA
  8
TEAM-NET
 10
56.57452
 20
-43.690697
 30
794.598312
 70
    64
  0
VERTEX
  5
EB
  8
TEAM-NET
 10
42.592062
 20
-41.140426
 30
793.409101
 70
    64
  0
VERTEX
  5
EC
  8
TEAM-NET
 10
28.470123
 20
-39.327619
 30
792.563775
 70
    64
  0
VERTEX
  5
ED
  8
TEAM-NET
 10
14.257424
 20
-38.243471
 30
792.058229
 70
    64
  0
VERTEX
  5
EE
  8
TEAM-NET
 10
0.0
 20
-37.882679
 30
791.889989
 70
    64
  0
VERTEX
  5
EF
  8
TEAM-NET
 10
-14.257424
 20
-38.243471
 30
792.058229
 70
    64
  0
VERTEX
  5
F0
  8
TEAM-NET
 10
-28.470123
 20
-39.327619
 30
792.563775
 70
    64
  0
VERTEX
  5
F1
  8
TEAM-NET
 10
-42.592062
 20
-41.140426
 30
793.409101
 70
    64
  0
VERTEX
  5
F2
  8
TEAM-NET
 10
-56.57452
 20
-43.690697
 30
794.598312
 70
    64
  0
VERTEX
  5
F3
  8
TEAM-NET
 10
-70.364578
 20
-46.990659
 30
796.13711
 70
    64
  0
VERTEX
  5
F4
  8
TEAM-NET
 10
-83.903395
 20
-51.055783
 30
798.032708
 70
    64
  0
VERTEX
  5
F5
  8
TEAM-NET
 10
-97.124202
 20
-55.904438
 30
800.293673
 70
    64
  0
VERTEX
  5
F6
  8
TEAM-NET
 10
-109.949945
 20
-61.557248
 30
802.929622
 70
    64
  0
VERTEX
  5
F7
  8
TEAM-NET
 10
-122.290533
 20
-68.035956
 30
805.950693
 70
    64
  0
VERTEX
  5
F8
  8
TEAM-NET
 10
-134.039721
 20
-75.361503
 30
809.366652
 70
    64
  0
VERTEX
  5
F9
  8
TEAM-NET
 10
-145.071823
 20
-83.550925
 30
813.185442
 70
    64
  0
VERTEX
  5
FA
  8
TEAM-NET
 10
-155.238745
 20
-92.612522
 30
817.410934
 70
    64
  0
VERTEX
  5
FB
  8
TEAM-NET
 10
-164.368353
 20
-102.538772
 30
822.03962
 70
    64
  0
VERTEX
  5
FC
  8
TEAM-NET
 10
-172.265998
 20
-113.296703
 30
827.056126
 70
    64
  0
VERTEX
  5
FD
  8
TEAM-NET
 10
-178.721756
 20
-124.816345
 30
832.427823
 70
    64
  0
VERTEX
  5
FE
  8
TEAM-NET
 10
-183.526118
 20
-136.979636
 30
838.099659
 70
    64
  0
VERTEX
  5
FF
  8
TEAM-NET
 10
-186.494964
 20
-149.614513
 30
843.991399
 70
    64
  0
VERTEX
  5
100
  8
TEAM-NET
 10
-187.5
 20
-162.5
 30
850.0
 70
    64
  0
VERTEX
  5
101
  8
TEAM-NET
 10
187.5
 20
-162.5
 30
850.0
 70
    64
  0
VERTEX
  5
102
  8
TEAM-NET
 10
186.494964
 20
-150.18723
 30
842.891219
 70
    64
  0
VERTEX
  5
103
  8
TEAM-NET
 10
183.526118
 20
-138.113932
 30
835.920697
 70
    64
  0
VERTEX
  5
104
  8
TEAM-NET
 10
178.721756
 20
-126.491258
 30
829.210343
 70
    64
  0
VERTEX
  5
105
  8
TEAM-NET
 10
172.265998
 20
-115.483627
 30
822.855084
 70
    64
  0
VERTEX
  5
106
  8
TEAM-NET
 10
164.368353
 20
-105.20385
 30
816.920052
 70
    64
  0
VERTEX
  5
107
  8
TEAM-NET
 10
155.238745
 20
-95.718789
 30
811.44385
 70
    64
  0
VERTEX
  5
108
  8
TEAM-NET
 10
145.071823
 20
-87.05995
 30
806.444667
 70
    64
  0
VERTEX
  5
109
  8
TEAM-NET
 10
134.039721
 20
-79.234521
 30
801.926653
 70
    64
  0
VERTEX
  5
10A
  8
TEAM-NET
 10
122.290533
 20
-72.23457
 30
797.88523
 70
    64
  0
VERTEX
  5
10B
  8
TEAM-NET
 10
109.949945
 20
-66.04382
 30
794.310998
 70
    64
  0
VERTEX
  5
10C
  8
TEAM-NET
 10
97.124202
 20
-60.642258
 30
791.192405
 70
    64
  0
VERTEX
  5
10D
  8
TEAM-NET
 10
83.903395
 20
-56.00911
 30
788.517456
 70
    64
  0
VERTEX
  5
10E
  8
TEAM-NET
 10
70.364578
 20
-52.124667
 30
786.274772
 70
    64
  0
VERTEX
  5
10F
  8
TEAM-NET
 10
56.57452
 20
-48.971378
 30
784.454219
 70
    64
  0
VERTEX
  5
110
  8
TEAM-NET
 10
42.592062
 20
-46.534457
 30
783.047263
 70
    64
  0
VERTEX
  5
111
  8
TEAM-NET
 10
28.470123
 20
-44.802224
 30
782.047157
 70
    64
  0
VERTEX
  5
112
  8
TEAM-NET
 10
14.257424
 20
-43.766263
 30
781.449045
 70
    64
  0
VERTEX
  5
113
  8
TEAM-NET
 10
0.0
 20
-43.421507
 30
781.25
 70
    64
  0
VERTEX
  5
114
  8
TEAM-NET
 10
-14.257424
 20
-43.766263
 30
781.449045
 70
    64
  0
VERTEX
  5
115
  8
TEAM-NET
 10
-28.470123
 20
-44.802224
 30
782.047157
 70
    64
  0
VERTEX
  5
116
  8
TEAM-NET
 10
-42.592062
 20
-46.534457
 30
783.047263
 70
    64
  0
VERTEX
  5
117
  8
TEAM-NET
 10
-56.57452
 20
-48.971378
 30
784.454219
 70
    64
  0
VERTEX
  5
118
  8
TEAM-NET
 10
-70.364578
 20
-52.124667
 30
786.274772
 70
    64
  0
VERTEX
  5
119
  8
TEAM-NET
 10
-83.903395
 20
-56.00911
 30
788.517456
 70
    64
  0
VERTEX
  5
11A
  8
TEAM-NET
 10
-97.124202
 20
-60.642258
 30
791.192405
 70
    64
  0
VERTEX
  5
11B
  8
TEAM-NET
 10
-109.949945
 20
-66.04382
 30
794.310998
 70
    64
  0
VERTEX
  5
11C
  8
TEAM-NET
 10
-122.290533
 20
-72.23457
 30
797.88523
 70
    64
  0
VERTEX
  5
11D
  8
TEAM-NET
 10
-134.039721
 20
-79.234521
 30
801.926653
 70
    64
  0
VERTEX
  5
11E
  8
TEAM-NET
 10
-145.071823
 20
-87.05995
 30
806.444667
 70
    64
  0
VERTEX
  5
11F
  8
TEAM-NET
 10
-155.238745
 20
-95.718789
 30
811.44385
 70
    64
  0
VERTEX
  5
120
  8
TEAM-NET
 10
-164.368353
 20
-105.20385
 30
816.920052
 70
    64
  0
VERTEX
  5
121
  8
TEAM-NET
 10
-172.265998
 20
-115.483627
 30
822.855084
 70
    64
  0
VERTEX
  5
122
  8
TEAM-NET
 10
-178.721756
 20
-126.491258
 30
829.210343
 70
    64
  0
VERTEX
  5
123
  8
TEAM-NET
 10
-183.526118
 20
-138.113932
 30
835.920697
 70
    64
  0
VERTEX
  5
124
  8
TEAM-NET
 10
-186.494964
 20
-150.18723
 30
842.891219
 70
    64
  0
VERTEX
  5
125
  8
TEAM-NET
 10
-187.5
 20
-162.5
 30
850.0
 70
    64
  0
VERTEX
  5
126
  8
TEAM-NET
 10
187.5
 20
-162.5
 30
850.0
 70
    64
  0
VERTEX
  5
127
  8
TEAM-NET
 10
186.494964
 20
-150.853655
 30
841.845142
 70
    64
  0
VERTEX
  5
128
  8
TEAM-NET
 10
183.526118
 20
-139.433821
 30
833.848887
 70
    64
  0
VERTEX
  5
129
  8
TEAM-NET
 10
178.721756
 20
-128.440221
 30
826.151086
 70
    64
  0
VERTEX
  5
12A
  8
TEAM-NET
 10
172.265998
 20
-118.028374
 30
818.860632
 70
    64
  0
VERTEX
  5
12B
  8
TEAM-NET
 10
164.368353
 20
-108.304987
 30
812.052243
 70
    64
  0
VERTEX
  5
12C
  8
TEAM-NET
 10
155.238745
 20
-99.333302
 30
805.770202
 70
    64
  0
VERTEX
  5
12D
  8
TEAM-NET
 10
145.071823
 20
-91.14312
 30
800.035374
 70
    64
  0
VERTEX
  5
12E
  8
TEAM-NET
 10
134.039721
 20
-83.741239
 30
794.852522
 70
    64
  0
VERTEX
  5
12F
  8
TEAM-NET
 10
122.290533
 20
-77.120159
 30
790.216392
 70
    64
  0
VERTEX
  5
130
  8
TEAM-NET
 10
109.949945
 20
-71.264481
 30
786.116202
 70
    64
  0
VERTEX
  5
131
  8
TEAM-NET
 10
97.124202
 20
-66.155277
 30
782.538699
 70
    64
  0
VERTEX
  5
132
  8
TEAM-NET
 10
83.903395
 20
-61.772897
 30
779.470123
 70
    64
  0
VERTEX
  5
133
  8
TEAM-NET
 10
70.364578
 20
-58.098698
 30
776.897422
 70
    64
  0
VERTEX
  5
134
  8
TEAM-NET
 10
56.57452
 20
-55.11608
 30
774.80897
 70
    64
  0
VERTEX
  5
135
  8
TEAM-NET
 10
42.592062
 20
-52.811057
 30
773.194975
 70
    64
  0
VERTEX
  5
136
  8
TEAM-NET
 10
28.470123
 20
-51.17258
 30
772.047701
 70
    64
  0
VERTEX
  5
137
  8
TEAM-NET
 10
14.257424
 20
-50.19269
 30
771.361575
 70
    64
  0
VERTEX
  5
138
  8
TEAM-NET
 10
0.0
 20
-49.866594
 30
771.13324
 70
    64
  0
VERTEX
  5
139
  8
TEAM-NET
 10
-14.257424
 20
-50.19269
 30
771.361575
 70
    64
  0
VERTEX
  5
13A
  8
TEAM-NET
 10
-28.470123
 20
-51.17258
 30
772.047701
 70
    64
  0
VERTEX
  5
13B
  8
TEAM-NET
 10
-42.592062
 20
-52.811057
 30
773.194975
 70
    64
  0
VERTEX
  5
13C
  8
TEAM-NET
 10
-56.57452
 20
-55.11608
 30
774.80897
 70
    64
  0
VERTEX
  5
13D
  8
TEAM-NET
 10
-70.364578
 20
-58.098698
 30
776.897422
 70
    64
  0
VERTEX
  5
13E
  8
TEAM-NET
 10
-83.903395
 20
-61.772897
 30
779.470123
 70
    64
  0
VERTEX
  5
13F
  8
TEAM-NET
 10
-97.124202
 20
-66.155277
 30
782.538699
 70
    64
  0
VERTEX
  5
140
  8
TEAM-NET
 10
-109.949945
 20
-71.264481
 30
786.116202
 70
    64
  0
VERTEX
  5
141
  8
TEAM-NET
 10
-122.290533
 20
-77.120159
 30
790.216392
 70
    64
  0
VERTEX
  5
142
  8
TEAM-NET
 10
-134.039721
 20
-83.741239
 30
794.852522
 70
    64
  0
VERTEX
  5
143
  8
TEAM-NET
 10
-145.071823
 20
-91.14312
 30
800.035374
 70
    64
  0
VERTEX
  5
144
  8
TEAM-NET
 10
-155.238745
 20
-99.333302
 30
805.770202
 70
    64
  0
VERTEX
  5
145
  8
TEAM-NET
 10
-164.368353
 20
-108.304987
 30
812.052243
 70
    64
  0
VERTEX
  5
146
  8
TEAM-NET
 10
-172.265998
 20
-118.028374
 30
818.860632
 70
    64
  0
VERTEX
  5
147
  8
TEAM-NET
 10
-178.721756
 20
-128.440221
 30
826.151086
 70
    64
  0
VERTEX
  5
148
  8
TEAM-NET
 10
-183.526118
 20
-139.433821
 30
833.848887
 70
    64
  0
VERTEX
  5
149
  8
TEAM-NET
 10
-186.494964
 20
-150.853655
 30
841.845142
 70
    64
  0
VERTEX
  5
14A
  8
TEAM-NET
 10
-187.5
 20
-162.5
 30
850.0
 70
    64
  0
VERTEX
  5
14B
  8
TEAM-NET
 10
187.5
 20
-162.5
 30
850.0
 70
    64
  0
VERTEX
  5
14C
  8
TEAM-NET
 10
186.494964
 20
-151.608716
 30
840.861127
 70
    64
  0
VERTEX
  5
14D
  8
TEAM-NET
 10
183.526118
 20
-140.929257
 30
831.899997
 70
    64
  0
VERTEX
  5
14E
  8
TEAM-NET
 10
178.721756
 20
-130.648398
 30
823.273333
 70
    64
  0
VERTEX
  5
14F
  8
TEAM-NET
 10
172.265998
 20
-120.911576
 30
815.103169
 70
    64
  0
VERTEX
  5
150
  8
TEAM-NET
 10
164.368353
 20
-111.81858
 30
807.473239
 70
    64
  0
VERTEX
  5
151
  8
TEAM-NET
 10
155.238745
 20
-103.428551
 30
800.433169
 70
    64
  0
VERTEX
  5
152
  8
TEAM-NET
 10
145.071823
 20
-95.769358
 30
794.006343
 70
    64
  0
VERTEX
  5
153
  8
TEAM-NET
 10
134.039721
 20
-88.84736
 30
788.198097
 70
    64
  0
VERTEX
  5
154
  8
TEAM-NET
 10
122.290533
 20
-82.65554
 30
783.002543
 70
    64
  0
VERTEX
  5
155
  8
TEAM-NET
 10
109.949945
 20
-77.1795
 30
778.4076
 70
    64
  0
VERTEX
  5
156
  8
TEAM-NET
 10
97.124202
 20
-72.401538
 30
774.398414
 70
    64
  0
VERTEX
  5
157
  8
TEAM-NET
 10
83.903395
 20
-68.303277
 30
770.959565
 70
    64
  0
VERTEX
  5
158
  8
TEAM-NET
 10
70.364578
 20
-64.867286
 30
768.076426
 70
    64
  0
VERTEX
  5
159
  8
TEAM-NET
 10
56.57452
 20
-62.078038
 30
765.735969
 70
    64
  0
VERTEX
  5
15A
  8
TEAM-NET
 10
42.592062
 20
-59.922455
 30
763.92722
 70
    64
  0
VERTEX
  5
15B
  8
TEAM-NET
 10
28.470123
 20
-58.390205
 30
762.641509
 70
    64
  0
VERTEX
  5
15C
  8
TEAM-NET
 10
14.257424
 20
-57.473844
 30
761.872591
 70
    64
  0
VERTEX
  5
15D
  8
TEAM-NET
 10
0.0
 20
-57.168889
 30
761.616704
 70
    64
  0
VERTEX
  5
15E
  8
TEAM-NET
 10
-14.257424
 20
-57.473844
 30
761.872591
 70
    64
  0
VERTEX
  5
15F
  8
TEAM-NET
 10
-28.470123
 20
-58.390205
 30
762.641509
 70
    64
  0
VERTEX
  5
160
  8
TEAM-NET
 10
-42.592062
 20
-59.922455
 30
763.92722
 70
    64
  0
VERTEX
  5
161
  8
TEAM-NET
 10
-56.57452
 20
-62.078038
 30
765.735969
 70
    64
  0
VERTEX
  5
162
  8
TEAM-NET
 10
-70.364578
 20
-64.867286
 30
768.076426
 70
    64
  0
VERTEX
  5
163
  8
TEAM-NET
 10
-83.903395
 20
-68.303277
 30
770.959565
 70
    64
  0
VERTEX
  5
164
  8
TEAM-NET
 10
-97.124202
 20
-72.401538
 30
774.398414
 70
    64
  0
VERTEX
  5
165
  8
TEAM-NET
 10
-109.949945
 20
-77.1795
 30
778.4076
 70
    64
  0
VERTEX
  5
166
  8
TEAM-NET
 10
-122.290533
 20
-82.65554
 30
783.002543
 70
    64
  0
VERTEX
  5
167
  8
TEAM-NET
 10
-134.039721
 20
-88.84736
 30
788.198097
 70
    64
  0
VERTEX
  5
168
  8
TEAM-NET
 10
-145.071823
 20
-95.769358
 30
794.006343
 70
    64
  0
VERTEX
  5
169
  8
TEAM-NET
 10
-155.238745
 20
-103.428551
 30
800.433169
 70
    64
  0
VERTEX
  5
16A
  8
TEAM-NET
 10
-164.368353
 20
-111.81858
 30
807.473239
 70
    64
  0
VERTEX
  5
16B
  8
TEAM-NET
 10
-172.265998
 20
-120.911576
 30
815.103169
 70
    64
  0
VERTEX
  5
16C
  8
TEAM-NET
 10
-178.721756
 20
-130.648398
 30
823.273333
 70
    64
  0
VERTEX
  5
16D
  8
TEAM-NET
 10
-183.526118
 20
-140.929257
 30
831.899997
 70
    64
  0
VERTEX
  5
16E
  8
TEAM-NET
 10
-186.494964
 20
-151.608716
 30
840.861127
 70
    64
  0
VERTEX
  5
16F
  8
TEAM-NET
 10
-187.5
 20
-162.5
 30
850.0
 70
    64
  0
VERTEX
  5
170
  8
TEAM-NET
 10
187.5
 20
-162.5
 30
850.0
 70
    64
  0
VERTEX
  5
171
  8
TEAM-NET
 10
186.494964
 20
-152.446666
 30
839.946666
 70
    64
  0
VERTEX
  5
172
  8
TEAM-NET
 10
183.526118
 20
-142.588859
 30
830.088859
 70
    64
  0
VERTEX
  5
173
  8
TEAM-NET
 10
178.721756
 20
-133.098986
 30
820.598986
 70
    64
  0
VERTEX
  5
174
  8
TEAM-NET
 10
172.265998
 20
-124.111292
 30
811.611292
 70
    64
  0
VERTEX
  5
175
  8
TEAM-NET
 10
164.368353
 20
-115.717889
 30
803.217889
 70
    64
  0
VERTEX
  5
176
  8
TEAM-NET
 10
155.238745
 20
-107.97337
 30
795.47337
 70
    64
  0
VERTEX
  5
177
  8
TEAM-NET
 10
145.071823
 20
-100.903457
 30
788.403457
 70
    64
  0
VERTEX
  5
178
  8
TEAM-NET
 10
134.039721
 20
-94.514021
 30
782.014021
 70
    64
  0
VERTEX
  5
179
  8
TEAM-NET
 10
122.290533
 20
-88.798585
 30
776.298585
 70
    64
  0
VERTEX
  5
17A
  8
TEAM-NET
 10
109.949945
 20
-83.743859
 30
771.243859
 70
    64
  0
VERTEX
  5
17B
  8
TEAM-NET
 10
97.124202
 20
-79.333502
 30
766.833502
 70
    64
  0
VERTEX
  5
17C
  8
TEAM-NET
 10
83.903395
 20
-75.550552
 30
763.050552
 70
    64
  0
VERTEX
  5
17D
  8
TEAM-NET
 10
70.364578
 20
-72.378918
 30
759.878918
 70
    64
  0
VERTEX
  5
17E
  8
TEAM-NET
 10
56.57452
 20
-69.804268
 30
757.304268
 70
    64
  0
VERTEX
  5
17F
  8
TEAM-NET
 10
42.592062
 20
-67.814531
 30
755.314531
 70
    64
  0
VERTEX
  5
180
  8
TEAM-NET
 10
28.470123
 20
-66.400168
 30
753.900168
 70
    64
  0
VERTEX
  5
181
  8
TEAM-NET
 10
14.257424
 20
-65.55431
 30
753.05431
 70
    64
  0
VERTEX
  5
182
  8
TEAM-NET
 10
0.0
 20
-65.272818
 30
752.772818
 70
    64
  0
VERTEX
  5
183
  8
TEAM-NET
 10
-14.257424
 20
-65.55431
 30
753.05431
 70
    64
  0
VERTEX
  5
184
  8
TEAM-NET
 10
-28.470123
 20
-66.400168
 30
753.900168
 70
    64
  0
VERTEX
  5
185
  8
TEAM-NET
 10
-42.592062
 20
-67.814531
 30
755.314531
 70
    64
  0
VERTEX
  5
186
  8
TEAM-NET
 10
-56.57452
 20
-69.804268
 30
757.304268
 70
    64
  0
VERTEX
  5
187
  8
TEAM-NET
 10
-70.364578
 20
-72.378918
 30
759.878918
 70
    64
  0
VERTEX
  5
188
  8
TEAM-NET
 10
-83.903395
 20
-75.550552
 30
763.050552
 70
    64
  0
VERTEX
  5
189
  8
TEAM-NET
 10
-97.124202
 20
-79.333502
 30
766.833502
 70
    64
  0
VERTEX
  5
18A
  8
TEAM-NET
 10
-109.949945
 20
-83.743859
 30
771.243859
 70
    64
  0
VERTEX
  5
18B
  8
TEAM-NET
 10
-122.290533
 20
-88.798585
 30
776.298585
 70
    64
  0
VERTEX
  5
18C
  8
TEAM-NET
 10
-134.039721
 20
-94.514021
 30
782.014021
 70
    64
  0
VERTEX
  5
18D
  8
TEAM-NET
 10
-145.071823
 20
-100.903457
 30
788.403457
 70
    64
  0
VERTEX
  5
18E
  8
TEAM-NET
 10
-155.238745
 20
-107.97337
 30
795.47337
 70
    64
  0
VERTEX
  5
18F
  8
TEAM-NET
 10
-164.368353
 20
-115.717889
 30
803.217889
 70
    64
  0
VERTEX
  5
190
  8
TEAM-NET
 10
-172.265998
 20
-124.111292
 30
811.611292
 70
    64
  0
VERTEX
  5
191
  8
TEAM-NET
 10
-178.721756
 20
-133.098986
 30
820.598986
 70
    64
  0
VERTEX
  5
192
  8
TEAM-NET
 10
-183.526118
 20
-142.588859
 30
830.088859
 70
    64
  0
VERTEX
  5
193
  8
TEAM-NET
 10
-186.494964
 20
-152.446666
 30
839.946666
 70
    64
  0
VERTEX
  5
194
  8
TEAM-NET
 10
-187.5
 20
-162.5
 30
850.0
 70
    64
  0
VERTEX
  5
195
  8
TEAM-NET
 10
187.5
 20
-162.5
 30
850.0
 70
    64
  0
VERTEX
  5
196
  8
TEAM-NET
 10
186.494964
 20
-153.361127
 30
839.108716
 70
    64
  0
VERTEX
  5
197
  8
TEAM-NET
 10
183.526118
 20
-144.399997
 30
828.429257
 70
    64
  0
VERTEX
  5
198
  8
TEAM-NET
 10
178.721756
 20
-135.773333
 30
818.148398
 70
    64
  0
VERTEX
  5
199
  8
TEAM-NET
 10
172.265998
 20
-127.603169
 30
808.411576
 70
    64
  0
VERTEX
  5
19A
  8
TEAM-NET
 10
164.368353
 20
-119.973239
 30
799.31858
 70
    64
  0
VERTEX
  5
19B
  8
TEAM-NET
 10
155.238745
 20
-112.933169
 30
790.928551
 70
    64
  0
VERTEX
  5
19C
  8
TEAM-NET
 10
145.071823
 20
-106.506343
 30
783.269358
 70
    64
  0
VERTEX
  5
19D
  8
TEAM-NET
 10
134.039721
 20
-100.698097
 30
776.34736
 70
    64
  0
VERTEX
  5
19E
  8
TEAM-NET
 10
122.290533
 20
-95.502543
 30
770.15554
 70
    64
  0
VERTEX
  5
19F
  8
TEAM-NET
 10
109.949945
 20
-90.9076
 30
764.6795
 70
    64
  0
VERTEX
  5
1A0
  8
TEAM-NET
 10
97.124202
 20
-86.898414
 30
759.901538
 70
    64
  0
VERTEX
  5
1A1
  8
TEAM-NET
 10
83.903395
 20
-83.459565
 30
755.803277
 70
    64
  0
VERTEX
  5
1A2
  8
TEAM-NET
 10
70.364578
 20
-80.576426
 30
752.367286
 70
    64
  0
VERTEX
  5
1A3
  8
TEAM-NET
 10
56.57452
 20
-78.235969
 30
749.578038
 70
    64
  0
VERTEX
  5
1A4
  8
TEAM-NET
 10
42.592062
 20
-76.42722
 30
747.422455
 70
    64
  0
VERTEX
  5
1A5
  8
TEAM-NET
 10
28.470123
 20
-75.141509
 30
745.890205
 70
    64
  0
VERTEX
  5
1A6
  8
TEAM-NET
 10
14.257424
 20
-74.372591
 30
744.973844
 70
    64
  0
VERTEX
  5
1A7
  8
TEAM-NET
 10
0.0
 20
-74.116704
 30
744.668889
 70
    64
  0
VERTEX
  5
1A8
  8
TEAM-NET
 10
-14.257424
 20
-74.372591
 30
744.973844
 70
    64
  0
VERTEX
  5
1A9
  8
TEAM-NET
 10
-28.470123
 20
-75.141509
 30
745.890205
 70
    64
  0
VERTEX
  5
1AA
  8
TEAM-NET
 10
-42.592062
 20
-76.42722
 30
747.422455
 70
    64
  0
VERTEX
  5
1AB
  8
TEAM-NET
 10
-56.57452
 20
-78.235969
 30
749.578038
 70
    64
  0
VERTEX
  5
1AC
  8
TEAM-NET
 10
-70.364578
 20
-80.576426
 30
752.367286
 70
    64
  0
VERTEX
  5
1AD
  8
TEAM-NET
 10
-83.903395
 20
-83.459565
 30
755.803277
 70
    64
  0
VERTEX
  5
1AE
  8
TEAM-NET
 10
-97.124202
 20
-86.898414
 30
759.901538
 70
    64
  0
VERTEX
  5
1AF
  8
TEAM-NET
 10
-109.949945
 20
-90.9076
 30
764.6795
 70
    64
  0
VERTEX
  5
1B0
  8
TEAM-NET
 10
-122.290533
 20
-95.502543
 30
770.15554
 70
    64
  0
VERTEX
  5
1B1
  8
TEAM-NET
 10
-134.039721
 20
-100.698097
 30
776.34736
 70
    64
  0
VERTEX
  5
1B2
  8
TEAM-NET
 10
-145.071823
 20
-106.506343
 30
783.269358
 70
    64
  0
VERTEX
  5
1B3
  8
TEAM-NET
 10
-155.238745
 20
-112.933169
 30
790.928551
 70
    64
  0
VERTEX
  5
1B4
  8
TEAM-NET
 10
-164.368353
 20
-119.973239
 30
799.31858
 70
    64
  0
VERTEX
  5
1B5
  8
TEAM-NET
 10
-172.265998
 20
-127.603169
 30
808.411576
 70
    64
  0
VERTEX
  5
1B6
  8
TEAM-NET
 10
-178.721756
 20
-135.773333
 30
818.148398
 70
    64
  0
VERTEX
  5
1B7
  8
TEAM-NET
 10
-183.526118
 20
-144.399997
 30
828.429257
 70
    64
  0
VERTEX
  5
1B8
  8
TEAM-NET
 10
-186.494964
 20
-153.361127
 30
839.108716
 70
    64
  0
VERTEX
  5
1B9
  8
TEAM-NET
 10
-187.5
 20
-162.5
 30
850.0
 70
    64
  0
VERTEX
  5
1BA
  8
TEAM-NET
 10
187.5
 20
-162.5
 30
850.0
 70
    64
  0
VERTEX
  5
1BB
  8
TEAM-NET
 10
186.494964
 20
-154.345142
 30
838.353655
 70
    64
  0
VERTEX
  5
1BC
  8
TEAM-NET
 10
183.526118
 20
-146.348887
 30
826.933821
 70
    64
  0
VERTEX
  5
1BD
  8
TEAM-NET
 10
178.721756
 20
-138.651086
 30
815.940221
 70
    64
  0
VERTEX
  5
1BE
  8
TEAM-NET
 10
172.265998
 20
-131.360632
 30
805.528374
 70
    64
  0
VERTEX
  5
1BF
  8
TEAM-NET
 10
164.368353
 20
-124.552243
 30
795.804987
 70
    64
  0
VERTEX
  5
1C0
  8
TEAM-NET
 10
155.238745
 20
-118.270202
 30
786.833302
 70
    64
  0
VERTEX
  5
1C1
  8
TEAM-NET
 10
145.071823
 20
-112.535374
 30
778.64312
 70
    64
  0
VERTEX
  5
1C2
  8
TEAM-NET
 10
134.039721
 20
-107.352522
 30
771.241239
 70
    64
  0
VERTEX
  5
1C3
  8
TEAM-NET
 10
122.290533
 20
-102.716392
 30
764.620159
 70
    64
  0
VERTEX
  5
1C4
  8
TEAM-NET
 10
109.949945
 20
-98.616202
 30
758.764481
 70
    64
  0
VERTEX
  5
1C5
  8
TEAM-NET
 10
97.124202
 20
-95.038699
 30
753.655277
 70
    64
  0
VERTEX
  5
1C6
  8
TEAM-NET
 10
83.903395
 20
-91.970123
 30
749.272897
 70
    64
  0
VERTEX
  5
1C7
  8
TEAM-NET
 10
70.364578
 20
-89.397422
 30
745.598698
 70
    64
  0
VERTEX
  5
1C8
  8
TEAM-NET
 10
56.57452
 20
-87.30897
 30
742.61608
 70
    64
  0
VERTEX
  5
1C9
  8
TEAM-NET
 10
42.592062
 20
-85.694975
 30
740.311057
 70
    64
  0
VERTEX
  5
1CA
  8
TEAM-NET
 10
28.470123
 20
-84.547701
 30
738.67258
 70
    64
  0
VERTEX
  5
1CB
  8
TEAM-NET
 10
14.257424
 20
-83.861575
 30
737.69269
 70
    64
  0
VERTEX
  5
1CC
  8
TEAM-NET
 10
0.0
 20
-83.63324
 30
737.366594
 70
    64
  0
VERTEX
  5
1CD
  8
TEAM-NET
 10
-14.257424
 20
-83.861575
 30
737.69269
 70
    64
  0
VERTEX
  5
1CE
  8
TEAM-NET
 10
-28.470123
 20
-84.547701
 30
738.67258
 70
    64
  0
VERTEX
  5
1CF
  8
TEAM-NET
 10
-42.592062
 20
-85.694975
 30
740.311057
 70
    64
  0
VERTEX
  5
1D0
  8
TEAM-NET
 10
-56.57452
 20
-87.30897
 30
742.61608
 70
    64
  0
VERTEX
  5
1D1
  8
TEAM-NET
 10
-70.364578
 20
-89.397422
 30
745.598698
 70
    64
  0
VERTEX
  5
1D2
  8
TEAM-NET
 10
-83.903395
 20
-91.970123
 30
749.272897
 70
    64
  0
VERTEX
  5
1D3
  8
TEAM-NET
 10
-97.124202
 20
-95.038699
 30
753.655277
 70
    64
  0
VERTEX
  5
1D4
  8
TEAM-NET
 10
-109.949945
 20
-98.616202
 30
758.764481
 70
    64
  0
VERTEX
  5
1D5
  8
TEAM-NET
 10
-122.290533
 20
-102.716392
 30
764.620159
 70
    64
  0
VERTEX
  5
1D6
  8
TEAM-NET
 10
-134.039721
 20
-107.352522
 30
771.241239
 70
    64
  0
VERTEX
  5
1D7
  8
TEAM-NET
 10
-145.071823
 20
-112.535374
 30
778.64312
 70
    64
  0
VERTEX
  5
1D8
  8
TEAM-NET
 10
-155.238745
 20
-118.270202
 30
786.833302
 70
    64
  0
VERTEX
  5
1D9
  8
TEAM-NET
 10
-164.368353
 20
-124.552243
 30
795.804987
 70
    64
  0
VERTEX
  5
1DA
  8
TEAM-NET
 10
-172.265998
 20
-131.360632
 30
805.528374
 70
    64
  0
VERTEX
  5
1DB
  8
TEAM-NET
 10
-178.721756
 20
-138.651086
 30
815.940221
 70
    64
  0
VERTEX
  5
1DC
  8
TEAM-NET
 10
-183.526118
 20
-146.348887
 30
826.933821
 70
    64
  0
VERTEX
  5
1DD
  8
TEAM-NET
 10
-186.494964
 20
-154.345142
 30
838.353655
 70
    64
  0
VERTEX
  5
1DE
  8
TEAM-NET
 10
-187.5
 20
-162.5
 30
850.0
 70
    64
  0
VERTEX
  5
1DF
  8
TEAM-NET
 10
187.5
 20
-162.5
 30
850.0
 70
    64
  0
VERTEX
  5
1E0
  8
TEAM-NET
 10
186.494964
 20
-155.391219
 30
837.68723
 70
    64
  0
VERTEX
  5
1E1
  8
TEAM-NET
 10
183.526118
 20
-148.420697
 30
825.613932
 70
    64
  0
VERTEX
  5
1E2
  8
TEAM-NET
 10
178.721756
 20
-141.710343
 30
813.991258
 70
    64
  0
VERTEX
  5
1E3
  8
TEAM-NET
 10
172.265998
 20
-135.355084
 30
802.983627
 70
    64
  0
VERTEX
  5
1E4
  8
TEAM-NET
 10
164.368353
 20
-129.420052
 30
792.70385
 70
    64
  0
VERTEX
  5
1E5
  8
TEAM-NET
 10
155.238745
 20
-123.94385
 30
783.218789
 70
    64
  0
VERTEX
  5
1E6
  8
TEAM-NET
 10
145.071823
 20
-118.944667
 30
774.55995
 70
    64
  0
VERTEX
  5
1E7
  8
TEAM-NET
 10
134.039721
 20
-114.426653
 30
766.734521
 70
    64
  0
VERTEX
  5
1E8
  8
TEAM-NET
 10
122.290533
 20
-110.38523
 30
759.73457
 70
    64
  0
VERTEX
  5
1E9
  8
TEAM-NET
 10
109.949945
 20
-106.810998
 30
753.54382
 70
    64
  0
VERTEX
  5
1EA
  8
TEAM-NET
 10
97.124202
 20
-103.692405
 30
748.142258
 70
    64
  0
VERTEX
  5
1EB
  8
TEAM-NET
 10
83.903395
 20
-101.017456
 30
743.50911
 70
    64
  0
VERTEX
  5
1EC
  8
TEAM-NET
 10
70.364578
 20
-98.774772
 30
739.624667
 70
    64
  0
VERTEX
  5
1ED
  8
TEAM-NET
 10
56.57452
 20
-96.954219
 30
736.471378
 70
    64
  0
VERTEX
  5
1EE
  8
TEAM-NET
 10
42.592062
 20
-95.547263
 30
734.034457
 70
    64
  0
VERTEX
  5
1EF
  8
TEAM-NET
 10
28.470123
 20
-94.547157
 30
732.302224
 70
    64
  0
VERTEX
  5
1F0
  8
TEAM-NET
 10
14.257424
 20
-93.949045
 30
731.266263
 70
    64
  0
VERTEX
  5
1F1
  8
TEAM-NET
 10
0.0
 20
-93.75
 30
730.921507
 70
    64
  0
VERTEX
  5
1F2
  8
TEAM-NET
 10
-14.257424
 20
-93.949045
 30
731.266263
 70
    64
  0
VERTEX
  5
1F3
  8
TEAM-NET
 10
-28.470123
 20
-94.547157
 30
732.302224
 70
    64
  0
VERTEX
  5
1F4
  8
TEAM-NET
 10
-42.592062
 20
-95.547263
 30
734.034457
 70
    64
  0
VERTEX
  5
1F5
  8
TEAM-NET
 10
-56.57452
 20
-96.954219
 30
736.471378
 70
    64
  0
VERTEX
  5
1F6
  8
TEAM-NET
 10
-70.364578
 20
-98.774772
 30
739.624667
 70
    64
  0
VERTEX
  5
1F7
  8
TEAM-NET
 10
-83.903395
 20
-101.017456
 30
743.50911
 70
    64
  0
VERTEX
  5
1F8
  8
TEAM-NET
 10
-97.124202
 20
-103.692405
 30
748.142258
 70
    64
  0
VERTEX
  5
1F9
  8
TEAM-NET
 10
-109.949945
 20
-106.810998
 30
753.54382
 70
    64
  0
VERTEX
  5
1FA
  8
TEAM-NET
 10
-122.290533
 20
-110.38523
 30
759.73457
 70
    64
  0
VERTEX
  5
1FB
  8
TEAM-NET
 10
-134.039721
 20
-114.426653
 30
766.734521
 70
    64
  0
VERTEX
  5
1FC
  8
TEAM-NET
 10
-145.071823
 20
-118.944667
 30
774.55995
 70
    64
  0
VERTEX
  5
1FD
  8
TEAM-NET
 10
-155.238745
 20
-123.94385
 30
783.218789
 70
    64
  0
VERTEX
  5
1FE
  8
TEAM-NET
 10
-164.368353
 20
-129.420052
 30
792.70385
 70
    64
  0
VERTEX
  5
1FF
  8
TEAM-NET
 10
-172.265998
 20
-135.355084
 30
802.983627
 70
    64
  0
VERTEX
  5
200
  8
TEAM-NET
 10
-178.721756
 20
-141.710343
 30
813.991258
 70
    64
  0
VERTEX
  5
201
  8
TEAM-NET
 10
-183.526118
 20
-148.420697
 30
825.613932
 70
    64
  0
VERTEX
  5
202
  8
TEAM-NET
 10
-186.494964
 20
-155.391219
 30
837.68723
 70
    64
  0
VERTEX
  5
203
  8
TEAM-NET
 10
-187.5
 20
-162.5
 30
850.0
 70
    64
  0
VERTEX
  5
204
  8
TEAM-NET
 10
187.5
 20
-162.5
 30
850.0
 70
    64
  0
VERTEX
  5
205
  8
TEAM-NET
 10
186.494964
 20
-156.491399
 30
837.114513
 70
    64
  0
VERTEX
  5
206
  8
TEAM-NET
 10
183.526118
 20
-150.599659
 30
824.479636
 70
    64
  0
VERTEX
  5
207
  8
TEAM-NET
 10
178.721756
 20
-144.927823
 30
812.316345
 70
    64
  0
VERTEX
  5
208
  8
TEAM-NET
 10
172.265998
 20
-139.556126
 30
800.796703
 70
    64
  0
VERTEX
  5
209
  8
TEAM-NET
 10
164.368353
 20
-134.53962
 30
790.038772
 70
    64
  0
VERTEX
  5
20A
  8
TEAM-NET
 10
155.238745
 20
-129.910934
 30
780.112522
 70
    64
  0
VERTEX
  5
20B
  8
TEAM-NET
 10
145.071823
 20
-125.685442
 30
771.050925
 70
    64
  0
VERTEX
  5
20C
  8
TEAM-NET
 10
134.039721
 20
-121.866652
 30
762.861503
 70
    64
  0
VERTEX
  5
20D
  8
TEAM-NET
 10
122.290533
 20
-118.450693
 30
755.535956
 70
    64
  0
VERTEX
  5
20E
  8
TEAM-NET
 10
109.949945
 20
-115.429622
 30
749.057248
 70
    64
  0
VERTEX
  5
20F
  8
TEAM-NET
 10
97.124202
 20
-112.793673
 30
743.404438
 70
    64
  0
VERTEX
  5
210
  8
TEAM-NET
 10
83.903395
 20
-110.532708
 30
738.555783
 70
    64
  0
VERTEX
  5
211
  8
TEAM-NET
 10
70.364578
 20
-108.63711
 30
734.490659
 70
    64
  0
VERTEX
  5
212
  8
TEAM-NET
 10
56.57452
 20
-107.098312
 30
731.190697
 70
    64
  0
VERTEX
  5
213
  8
TEAM-NET
 10
42.592062
 20
-105.909101
 30
728.640426
 70
    64
  0
VERTEX
  5
214
  8
TEAM-NET
 10
28.470123
 20
-105.063775
 30
726.827619
 70
    64
  0
VERTEX
  5
215
  8
TEAM-NET
 10
14.257424
 20
-104.558229
 30
725.743471
 70
    64
  0
VERTEX
  5
216
  8
TEAM-NET
 10
0.0
 20
-104.389989
 30
725.382679
 70
    64
  0
VERTEX
  5
217
  8
TEAM-NET
 10
-14.257424
 20
-104.558229
 30
725.743471
 70
    64
  0
VERTEX
  5
218
  8
TEAM-NET
 10
-28.470123
 20
-105.063775
 30
726.827619
 70
    64
  0
VERTEX
  5
219
  8
TEAM-NET
 10
-42.592062
 20
-105.909101
 30
728.640426
 70
    64
  0
VERTEX
  5
21A
  8
TEAM-NET
 10
-56.57452
 20
-107.098312
 30
731.190697
 70
    64
  0
VERTEX
  5
21B
  8
TEAM-NET
 10
-70.364578
 20
-108.63711
 30
734.490659
 70
    64
  0
VERTEX
  5
21C
  8
TEAM-NET
 10
-83.903395
 20
-110.532708
 30
738.555783
 70
    64
  0
VERTEX
  5
21D
  8
TEAM-NET
 10
-97.124202
 20
-112.793673
 30
743.404438
 70
    64
  0
VERTEX
  5
21E
  8
TEAM-NET
 10
-109.949945
 20
-115.429622
 30
749.057248
 70
    64
  0
VERTEX
  5
21F
  8
TEAM-NET
 10
-122.290533
 20
-118.450693
 30
755.535956
 70
    64
  0
VERTEX
  5
220
  8
TEAM-NET
 10
-134.039721
 20
-121.866652
 30
762.861503
 70
    64
  0
VERTEX
  5
221
  8
TEAM-NET
 10
-145.071823
 20
-125.685442
 30
771.050925
 70
    64
  0
VERTEX
  5
222
  8
TEAM-NET
 10
-155.238745
 20
-129.910934
 30
780.112522
 70
    64
  0
VERTEX
  5
223
  8
TEAM-NET
 10
-164.368353
 20
-134.53962
 30
790.038772
 70
    64
  0
VERTEX
  5
224
  8
TEAM-NET
 10
-172.265998
 20
-139.556126
 30
800.796703
 70
    64
  0
VERTEX
  5
225
  8
TEAM-NET
 10
-178.721756
 20
-144.927823
 30
812.316345
 70
    64
  0
VERTEX
  5
226
  8
TEAM-NET
 10
-183.526118
 20
-150.599659
 30
824.479636
 70
    64
  0
VERTEX
  5
227
  8
TEAM-NET
 10
-186.494964
 20
-156.491399
 30
837.114513
 70
    64
  0
VERTEX
  5
228
  8
TEAM-NET
 10
-187.5
 20
-162.5
 30
850.0
 70
    64
  0
VERTEX
  5
229
  8
TEAM-NET
 10
187.5
 20
-162.5
 30
850.0
 70
    64
  0
VERTEX
  5
22A
  8
TEAM-NET
 10
186.494964
 20
-157.637307
 30
836.639862
 70
    64
  0
VERTEX
  5
22B
  8
TEAM-NET
 10
183.526118
 20
-152.86919
 30
823.539566
 70
    64
  0
VERTEX
  5
22C
  8
TEAM-NET
 10
178.721756
 20
-148.279037
 30
810.928226
 70
    64
  0
VERTEX
  5
22D
  8
TEAM-NET
 10
172.265998
 20
-143.931784
 30
798.984246
 70
    64
  0
VERTEX
  5
22E
  8
TEAM-NET
 10
164.368353
 20
-139.871983
 30
787.830035
 70
    64
  0
VERTEX
  5
22F
  8
TEAM-NET
 10
155.238745
 20
-136.12604
 30
777.538141
 70
    64
  0
VERTEX
  5
230
  8
TEAM-NET
 10
145.071823
 20
-132.706397
 30
768.14275
 70
    64
  0
VERTEX
  5
231
  8
TEAM-NET
 10
134.039721
 20
-129.615894
 30
759.651662
 70
    64
  0
VERTEX
  5
232
  8
TEAM-NET
 10
122.290533
 20
-126.851398
 30
752.05627
 70
    64
  0
VERTEX
  5
233
  8
TEAM-NET
 10
109.949945
 20
-124.406479
 30
745.338912
 70
    64
  0
VERTEX
  5
234
  8
TEAM-NET
 10
97.124202
 20
-122.273236
 30
739.477875
 70
    64
  0
VERTEX
  5
235
  8
TEAM-NET
 10
83.903395
 20
-120.443463
 30
734.450614
 70
    64
  0
VERTEX
  5
236
  8
TEAM-NET
 10
70.364578
 20
-118.909377
 30
730.235747
 70
    64
  0
VERTEX
  5
237
  8
TEAM-NET
 10
56.57452
 20
-117.664045
 30
726.814227
 70
    64
  0
VERTEX
  5
238
  8
TEAM-NET
 10
42.592062
 20
-116.70163
 30
724.170014
 70
    64
  0
VERTEX
  5
239
  8
TEAM-NET
 10
28.470123
 20
-116.017518
 30
722.29043
 70
    64
  0
VERTEX
  5
23A
  8
TEAM-NET
 10
14.257424
 20
-115.608385
 30
721.166347
 70
    64
  0
VERTEX
  5
23B
  8
TEAM-NET
 10
0.0
 20
-115.47223
 30
720.792265
 70
    64
  0
VERTEX
  5
23C
  8
TEAM-NET
 10
-14.257424
 20
-115.608385
 30
721.166347
 70
    64
  0
VERTEX
  5
23D
  8
TEAM-NET
 10
-28.470123
 20
-116.017518
 30
722.29043
 70
    64
  0
VERTEX
  5
23E
  8
TEAM-NET
 10
-42.592062
 20
-116.70163
 30
724.170014
 70
    64
  0
VERTEX
  5
23F
  8
TEAM-NET
 10
-56.57452
 20
-117.664045
 30
726.814227
 70
    64
  0
VERTEX
  5
240
  8
TEAM-NET
 10
-70.364578
 20
-118.909377
 30
730.235747
 70
    64
  0
VERTEX
  5
241
  8
TEAM-NET
 10
-83.903395
 20
-120.443463
 30
734.450614
 70
    64
  0
VERTEX
  5
242
  8
TEAM-NET
 10
-97.124202
 20
-122.273236
 30
739.477875
 70
    64
  0
VERTEX
  5
243
  8
TEAM-NET
 10
-109.949945
 20
-124.406479
 30
745.338912
 70
    64
  0
VERTEX
  5
244
  8
TEAM-NET
 10
-122.290533
 20
-126.851398
 30
752.05627
 70
    64
  0
VERTEX
  5
245
  8
TEAM-NET
 10
-134.039721
 20
-129.615894
 30
759.651662
 70
    64
  0
VERTEX
  5
246
  8
TEAM-NET
 10
-145.071823
 20
-132.706397
 30
768.14275
 70
    64
  0
VERTEX
  5
247
  8
TEAM-NET
 10
-155.238745
 20
-136.12604
 30
777.538141
 70
    64
  0
VERTEX
  5
248
  8
TEAM-NET
 10
-164.368353
 20
-139.871983
 30
787.830035
 70
    64
  0
VERTEX
  5
249
  8
TEAM-NET
 10
-172.265998
 20
-143.931784
 30
798.984246
 70
    64
  0
VERTEX
  5
24A
  8
TEAM-NET
 10
-178.721756
 20
-148.279037
 30
810.928226
 70
    64
  0
VERTEX
  5
24B
  8
TEAM-NET
 10
-183.526118
 20
-152.86919
 30
823.539566
 70
    64
  0
VERTEX
  5
24C
  8
TEAM-NET
 10
-186.494964
 20
-157.637307
 30
836.639862
 70
    64
  0
VERTEX
  5
24D
  8
TEAM-NET
 10
-187.5
 20
-162.5
 30
850.0
 70
    64
  0
VERTEX
  5
24E
  8
TEAM-NET
 10
187.5
 20
-162.5
 30
850.0
 70
    64
  0
VERTEX
  5
24F
  8
TEAM-NET
 10
186.494964
 20
-158.820224
 30
836.26689
 70
    64
  0
VERTEX
  5
250
  8
TEAM-NET
 10
183.526118
 20
-155.212017
 30
822.800876
 70
    64
  0
VERTEX
  5
251
  8
TEAM-NET
 10
178.721756
 20
-151.738482
 30
809.837467
 70
    64
  0
VERTEX
  5
252
  8
TEAM-NET
 10
172.265998
 20
-148.448758
 30
797.56005
 70
    64
  0
VERTEX
  5
253
  8
TEAM-NET
 10
164.368353
 20
-145.376559
 30
786.094449
 70
    64
  0
VERTEX
  5
254
  8
TEAM-NET
 10
155.238745
 20
-142.541868
 30
775.515238
 70
    64
  0
VERTEX
  5
255
  8
TEAM-NET
 10
145.071823
 20
-139.954101
 30
765.857558
 70
    64
  0
VERTEX
  5
256
  8
TEAM-NET
 10
134.039721
 20
-137.615405
 30
757.129426
 70
    64
  0
VERTEX
  5
257
  8
TEAM-NET
 10
122.290533
 20
-135.52341
 30
749.321995
 70
    64
  0
VERTEX
  5
258
  8
TEAM-NET
 10
109.949945
 20
-133.673252
 30
742.41711
 70
    64
  0
VERTEX
  5
259
  8
TEAM-NET
 10
97.124202
 20
-132.058949
 30
736.392451
 70
    64
  0
VERTEX
  5
25A
  8
TEAM-NET
 10
83.903395
 20
-130.674293
 30
731.224845
 70
    64
  0
VERTEX
  5
25B
  8
TEAM-NET
 10
70.364578
 20
-129.513395
 30
726.892313
 70
    64
  0
VERTEX
  5
25C
  8
TEAM-NET
 10
56.57452
 20
-128.571007
 30
723.375275
 70
    64
  0
VERTEX
  5
25D
  8
TEAM-NET
 10
42.592062
 20
-127.842713
 30
720.657244
 70
    64
  0
VERTEX
  5
25E
  8
TEAM-NET
 10
28.470123
 20
-127.32502
 30
718.725188
 70
    64
  0
VERTEX
  5
25F
  8
TEAM-NET
 10
14.257424
 20
-127.015415
 30
717.569724
 70
    64
  0
VERTEX
  5
260
  8
TEAM-NET
 10
0.0
 20
-126.912381
 30
717.185199
 70
    64
  0
VERTEX
  5
261
  8
TEAM-NET
 10
-14.257424
 20
-127.015415
 30
717.569724
 70
    64
  0
VERTEX
  5
262
  8
TEAM-NET
 10
-28.470123
 20
-127.32502
 30
718.725188
 70
    64
  0
VERTEX
  5
263
  8
TEAM-NET
 10
-42.592062
 20
-127.842713
 30
720.657244
 70
    64
  0
VERTEX
  5
264
  8
TEAM-NET
 10
-56.57452
 20
-128.571007
 30
723.375275
 70
    64
  0
VERTEX
  5
265
  8
TEAM-NET
 10
-70.364578
 20
-129.513395
 30
726.892313
 70
    64
  0
VERTEX
  5
266
  8
TEAM-NET
 10
-83.903395
 20
-130.674293
 30
731.224845
 70
    64
  0
VERTEX
  5
267
  8
TEAM-NET
 10
-97.124202
 20
-132.058949
 30
736.392451
 70
    64
  0
VERTEX
  5
268
  8
TEAM-NET
 10
-109.949945
 20
-133.673252
 30
742.41711
 70
    64
  0
VERTEX
  5
269
  8
TEAM-NET
 10
-122.290533
 20
-135.52341
 30
749.321995
 70
    64
  0
VERTEX
  5
26A
  8
TEAM-NET
 10
-134.039721
 20
-137.615405
 30
757.129426
 70
    64
  0
VERTEX
  5
26B
  8
TEAM-NET
 10
-145.071823
 20
-139.954101
 30
765.857558
 70
    64
  0
VERTEX
  5
26C
  8
TEAM-NET
 10
-155.238745
 20
-142.541868
 30
775.515238
 70
    64
  0
VERTEX
  5
26D
  8
TEAM-NET
 10
-164.368353
 20
-145.376559
 30
786.094449
 70
    64
  0
VERTEX
  5
26E
  8
TEAM-NET
 10
-172.265998
 20
-148.448758
 30
797.56005
 70
    64
  0
VERTEX
  5
26F
  8
TEAM-NET
 10
-178.721756
 20
-151.738482
 30
809.837467
 70
    64
  0
VERTEX
  5
270
  8
TEAM-NET
 10
-183.526118
 20
-155.212017
 30
822.800876
 70
    64
  0
VERTEX
  5
271
  8
TEAM-NET
 10
-186.494964
 20
-158.820224
 30
836.26689
 70
    64
  0
VERTEX
  5
272
  8
TEAM-NET
 10
-187.5
 20
-162.5
 30
850.0
 70
    64
  0
VERTEX
  5
273
  8
TEAM-NET
 10
187.5
 20
-162.5
 30
850.0
 70
    64
  0
VERTEX
  5
274
  8
TEAM-NET
 10
186.494964
 20
-160.031146
 30
835.998435
 70
    64
  0
VERTEX
  5
275
  8
TEAM-NET
 10
183.526118
 20
-157.610309
 30
822.269187
 70
    64
  0
VERTEX
  5
276
  8
TEAM-NET
 10
178.721756
 20
-155.279828
 30
809.05237
 70
    64
  0
VERTEX
  5
277
  8
TEAM-NET
 10
172.265998
 20
-153.07267
 30
796.534953
 70
    64
  0
VERTEX
  5
278
  8
TEAM-NET
 10
164.368353
 20
-151.011455
 30
784.845222
 70
    64
  0
VERTEX
  5
279
  8
TEAM-NET
 10
155.238745
 20
-149.10959
 30
774.059209
 70
    64
  0
VERTEX
  5
27A
  8
TEAM-NET
 10
145.071823
 20
-147.373392
 30
764.21274
 70
    64
  0
VERTEX
  5
27B
  8
TEAM-NET
 10
134.039721
 20
-145.804302
 30
755.313991
 70
    64
  0
VERTEX
  5
27C
  8
TEAM-NET
 10
122.290533
 20
-144.40073
 30
747.35394
 70
    64
  0
VERTEX
  5
27D
  8
TEAM-NET
 10
109.949945
 20
-143.159413
 30
740.314079
 70
    64
  0
VERTEX
  5
27E
  8
TEAM-NET
 10
97.124202
 20
-142.076337
 30
734.17165
 70
    64
  0
VERTEX
  5
27F
  8
TEAM-NET
 10
83.903395
 20
-141.147336
 30
728.903028
 70
    64
  0
VERTEX
  5
280
  8
TEAM-NET
 10
70.364578
 20
-140.368461
 30
724.485803
 70
    64
  0
VERTEX
  5
281
  8
TEAM-NET
 10
56.57452
 20
-139.736189
 30
720.900014
 70
    64
  0
VERTEX
  5
282
  8
TEAM-NET
 10
42.592062
 20
-139.247558
 30
718.128851
 70
    64
  0
VERTEX
  5
283
  8
TEAM-NET
 10
28.470123
 20
-138.900225
 30
716.159027
 70
    64
  0
VERTEX
  5
284
  8
TEAM-NET
 10
14.257424
 20
-138.692503
 30
714.980976
 70
    64
  0
VERTEX
  5
285
  8
TEAM-NET
 10
0.0
 20
-138.623376
 30
714.588934
 70
    64
  0
VERTEX
  5
286
  8
TEAM-NET
 10
-14.257424
 20
-138.692503
 30
714.980976
 70
    64
  0
VERTEX
  5
287
  8
TEAM-NET
 10
-28.470123
 20
-138.900225
 30
716.159027
 70
    64
  0
VERTEX
  5
288
  8
TEAM-NET
 10
-42.592062
 20
-139.247558
 30
718.128851
 70
    64
  0
VERTEX
  5
289
  8
TEAM-NET
 10
-56.57452
 20
-139.736189
 30
720.900014
 70
    64
  0
VERTEX
  5
28A
  8
TEAM-NET
 10
-70.364578
 20
-140.368461
 30
724.485803
 70
    64
  0
VERTEX
  5
28B
  8
TEAM-NET
 10
-83.903395
 20
-141.147336
 30
728.903028
 70
    64
  0
VERTEX
  5
28C
  8
TEAM-NET
 10
-97.124202
 20
-142.076337
 30
734.17165
 70
    64
  0
VERTEX
  5
28D
  8
TEAM-NET
 10
-109.949945
 20
-143.159413
 30
740.314079
 70
    64
  0
VERTEX
  5
28E
  8
TEAM-NET
 10
-122.290533
 20
-144.40073
 30
747.35394
 70
    64
  0
VERTEX
  5
28F
  8
TEAM-NET
 10
-134.039721
 20
-145.804302
 30
755.313991
 70
    64
  0
VERTEX
  5
290
  8
TEAM-NET
 10
-145.071823
 20
-147.373392
 30
764.21274
 70
    64
  0
VERTEX
  5
291
  8
TEAM-NET
 10
-155.238745
 20
-149.10959
 30
774.059209
 70
    64
  0
VERTEX
  5
292
  8
TEAM-NET
 10
-164.368353
 20
-151.011455
 30
784.845222
 70
    64
  0
VERTEX
  5
293
  8
TEAM-NET
 10
-172.265998
 20
-153.07267
 30
796.534953
 70
    64
  0
VERTEX
  5
294
  8
TEAM-NET
 10
-178.721756
 20
-155.279828
 30
809.05237
 70
    64
  0
VERTEX
  5
295
  8
TEAM-NET
 10
-183.526118
 20
-157.610309
 30
822.269187
 70
    64
  0
VERTEX
  5
296
  8
TEAM-NET
 10
-186.494964
 20
-160.031146
 30
835.998435
 70
    64
  0
VERTEX
  5
297
  8
TEAM-NET
 10
-187.5
 20
-162.5
 30
850.0
 70
    64
  0
VERTEX
  5
298
  8
TEAM-NET
 10
187.5
 20
-162.5
 30
850.0
 70
    64
  0
VERTEX
  5
299
  8
TEAM-NET
 10
186.494964
 20
-161.260858
 30
835.83654
 70
    64
  0
VERTEX
  5
29A
  8
TEAM-NET
 10
183.526118
 20
-160.045816
 30
821.948546
 70
    64
  0
VERTEX
  5
29B
  8
TEAM-NET
 10
178.721756
 20
-158.876124
 30
808.578909
 70
    64
  0
VERTEX
  5
29C
  8
TEAM-NET
 10
172.265998
 20
-157.768329
 30
795.916758
 70
    64
  0
VERTEX
  5
29D
  8
TEAM-NET
 10
164.368353
 20
-156.733785
 30
784.091863
 70
    64
  0
VERTEX
  5
29E
  8
TEAM-NET
 10
155.238745
 20
-155.77922
 30
773.181135
 70
    64
  0
VERTEX
  5
29F
  8
TEAM-NET
 10
145.071823
 20
-154.907805
 30
763.220816
 70
    64
  0
VERTEX
  5
2A0
  8
TEAM-NET
 10
134.039721
 20
-154.120264
 30
754.219174
 70
    64
  0
VERTEX
  5
2A1
  8
TEAM-NET
 10
122.290533
 20
-153.415797
 30
746.167084
 70
    64
  0
VERTEX
  5
2A2
  8
TEAM-NET
 10
109.949945
 20
-152.792767
 30
739.045824
 70
    64
  0
VERTEX
  5
2A3
  8
TEAM-NET
 10
97.124202
 20
-152.249161
 30
732.832372
 70
    64
  0
VERTEX
  5
2A4
  8
TEAM-NET
 10
83.903395
 20
-151.782886
 30
727.502831
 70
    64
  0
VERTEX
  5
2A5
  8
TEAM-NET
 10
70.364578
 20
-151.391961
 30
723.034531
 70
    64
  0
VERTEX
  5
2A6
  8
TEAM-NET
 10
56.57452
 20
-151.074618
 30
719.407282
 70
    64
  0
VERTEX
  5
2A7
  8
TEAM-NET
 10
42.592062
 20
-150.829369
 30
716.604076
 70
    64
  0
VERTEX
  5
2A8
  8
TEAM-NET
 10
28.470123
 20
-150.655039
 30
714.611477
 70
    64
  0
VERTEX
  5
2A9
  8
TEAM-NET
 10
14.257424
 20
-150.550781
 30
713.419804
 70
    64
  0
VERTEX
  5
2AA
  8
TEAM-NET
 10
0.0
 20
-150.516085
 30
713.023229
 70
    64
  0
VERTEX
  5
2AB
  8
TEAM-NET
 10
-14.257424
 20
-150.550781
 30
713.419804
 70
    64
  0
VERTEX
  5
2AC
  8
TEAM-NET
 10
-28.470123
 20
-150.655039
 30
714.611477
 70
    64
  0
VERTEX
  5
2AD
  8
TEAM-NET
 10
-42.592062
 20
-150.829369
 30
716.604076
 70
    64
  0
VERTEX
  5
2AE
  8
TEAM-NET
 10
-56.57452
 20
-151.074618
 30
719.407282
 70
    64
  0
VERTEX
  5
2AF
  8
TEAM-NET
 10
-70.364578
 20
-151.391961
 30
723.034531
 70
    64
  0
VERTEX
  5
2B0
  8
TEAM-NET
 10
-83.903395
 20
-151.782886
 30
727.502831
 70
    64
  0
VERTEX
  5
2B1
  8
TEAM-NET
 10
-97.124202
 20
-152.249161
 30
732.832372
 70
    64
  0
VERTEX
  5
2B2
  8
TEAM-NET
 10
-109.949945
 20
-152.792767
 30
739.045824
 70
    64
  0
VERTEX
  5
2B3
  8
TEAM-NET
 10
-122.290533
 20
-153.415797
 30
746.167084
 70
    64
  0
VERTEX
  5
2B4
  8
TEAM-NET
 10
-134.039721
 20
-154.120264
 30
754.219174
 70
    64
  0
VERTEX
  5
2B5
  8
TEAM-NET
 10
-145.071823
 20
-154.907805
 30
763.220816
 70
    64
  0
VERTEX
  5
2B6
  8
TEAM-NET
 10
-155.238745
 20
-155.77922
 30
773.181135
 70
    64
  0
VERTEX
  5
2B7
  8
TEAM-NET
 10
-164.368353
 20
-156.733785
 30
784.091863
 70
    64
  0
VERTEX
  5
2B8
  8
TEAM-NET
 10
-172.265998
 20
-157.768329
 30
795.916758
 70
    64
  0
VERTEX
  5
2B9
  8
TEAM-NET
 10
-178.721756
 20
-158.876124
 30
808.578909
 70
    64
  0
VERTEX
  5
2BA
  8
TEAM-NET
 10
-183.526118
 20
-160.045816
 30
821.948546
 70
    64
  0
VERTEX
  5
2BB
  8
TEAM-NET
 10
-186.494964
 20
-161.260858
 30
835.83654
 70
    64
  0
VERTEX
  5
2BC
  8
TEAM-NET
 10
-187.5
 20
-162.5
 30
850.0
 70
    64
  0
VERTEX
  5
2BD
  8
TEAM-NET
 10
187.5
 20
-162.5
 30
850.0
 70
    64
  0
VERTEX
  5
2BE
  8
TEAM-NET
 10
186.494964
 20
-162.5
 30
835.782438
 70
    64
  0
VERTEX
  5
2BF
  8
TEAM-NET
 10
183.526118
 20
-162.5
 30
821.841394
 70
    64
  0
VERTEX
  5
2C0
  8
TEAM-NET
 10
178.721756
 20
-162.5
 30
808.420687
 70
    64
  0
VERTEX
  5
2C1
  8
TEAM-NET
 10
172.265998
 20
-162.5
 30
795.710169
 70
    64
  0
VERTEX
  5
2C2
  8
TEAM-NET
 10
164.368353
 20
-162.5
 30
783.840105
 70
    64
  0
VERTEX
  5
2C3
  8
TEAM-NET
 10
155.238745
 20
-162.5
 30
772.8877
 70
    64
  0
VERTEX
  5
2C4
  8
TEAM-NET
 10
145.071823
 20
-162.5
 30
762.889334
 70
    64
  0
VERTEX
  5
2C5
  8
TEAM-NET
 10
134.039721
 20
-162.5
 30
753.853307
 70
    64
  0
VERTEX
  5
2C6
  8
TEAM-NET
 10
122.290533
 20
-162.5
 30
745.770459
 70
    64
  0
VERTEX
  5
2C7
  8
TEAM-NET
 10
109.949945
 20
-162.5
 30
738.621997
 70
    64
  0
VERTEX
  5
2C8
  8
TEAM-NET
 10
97.124202
 20
-162.5
 30
732.384811
 70
    64
  0
VERTEX
  5
2C9
  8
TEAM-NET
 10
83.903395
 20
-162.5
 30
727.034912
 70
    64
  0
VERTEX
  5
2CA
  8
TEAM-NET
 10
70.364578
 20
-162.5
 30
722.549544
 70
    64
  0
VERTEX
  5
2CB
  8
TEAM-NET
 10
56.57452
 20
-162.5
 30
718.908439
 70
    64
  0
VERTEX
  5
2CC
  8
TEAM-NET
 10
42.592062
 20
-162.5
 30
716.094526
 70
    64
  0
VERTEX
  5
2CD
  8
TEAM-NET
 10
28.470123
 20
-162.5
 30
714.094314
 70
    64
  0
VERTEX
  5
2CE
  8
TEAM-NET
 10
14.257424
 20
-162.5
 30
712.89809
 70
    64
  0
VERTEX
  5
2CF
  8
TEAM-NET
 10
0.0
 20
-162.5
 30
712.5
 70
    64
  0
VERTEX
  5
2D0
  8
TEAM-NET
 10
-14.257424
 20
-162.5
 30
712.89809
 70
    64
  0
VERTEX
  5
2D1
  8
TEAM-NET
 10
-28.470123
 20
-162.5
 30
714.094314
 70
    64
  0
VERTEX
  5
2D2
  8
TEAM-NET
 10
-42.592062
 20
-162.5
 30
716.094526
 70
    64
  0
VERTEX
  5
2D3
  8
TEAM-NET
 10
-56.57452
 20
-162.5
 30
718.908439
 70
    64
  0
VERTEX
  5
2D4
  8
TEAM-NET
 10
-70.364578
 20
-162.5
 30
722.549544
 70
    64
  0
VERTEX
  5
2D5
  8
TEAM-NET
 10
-83.903395
 20
-162.5
 30
727.034912
 70
    64
  0
VERTEX
  5
2D6
  8
TEAM-NET
 10
-97.124202
 20
-162.5
 30
732.384811
 70
    64
  0
VERTEX
  5
2D7
  8
TEAM-NET
 10
-109.949945
 20
-162.5
 30
738.621997
 70
    64
  0
VERTEX
  5
2D8
  8
TEAM-NET
 10
-122.290533
 20
-162.5
 30
745.770459
 70
    64
  0
VERTEX
  5
2D9
  8
TEAM-NET
 10
-134.039721
 20
-162.5
 30
753.853307
 70
    64
  0
VERTEX
  5
2DA
  8
TEAM-NET
 10
-145.071823
 20
-162.5
 30
762.889334
 70
    64
  0
VERTEX
  5
2DB
  8
TEAM-NET
 10
-155.238745
 20
-162.5
 30
772.8877
 70
    64
  0
VERTEX
  5
2DC
  8
TEAM-NET
 10
-164.368353
 20
-162.5
 30
783.840105
 70
    64
  0
VERTEX
  5
2DD
  8
TEAM-NET
 10
-172.265998
 20
-162.5
 30
795.710169
 70
    64
  0
VERTEX
  5
2DE
  8
TEAM-NET
 10
-178.721756
 20
-162.5
 30
808.420687
 70
    64
  0
VERTEX
  5
2DF
  8
TEAM-NET
 10
-183.526118
 20
-162.5
 30
821.841394
 70
    64
  0
VERTEX
  5
2E0
  8
TEAM-NET
 10
-186.494964
 20
-162.5
 30
835.782438
 70
    64
  0
VERTEX
  5
2E1
  8
TEAM-NET
 10
-187.5
 20
-162.5
 30
850.0
 70
    64
  0
VERTEX
  5
2E2
  8
TEAM-NET
 10
187.5
 20
-162.5
 30
850.0
 70
    64
  0
VERTEX
  5
2E3
  8
TEAM-NET
 10
186.494964
 20
-163.739142
 30
835.83654
 70
    64
  0
VERTEX
  5
2E4
  8
TEAM-NET
 10
183.526118
 20
-164.954184
 30
821.948546
 70
    64
  0
VERTEX
  5
2E5
  8
TEAM-NET
 10
178.721756
 20
-166.123876
 30
808.578909
 70
    64
  0
VERTEX
  5
2E6
  8
TEAM-NET
 10
172.265998
 20
-167.231671
 30
795.916758
 70
    64
  0
VERTEX
  5
2E7
  8
TEAM-NET
 10
164.368353
 20
-168.266215
 30
784.091863
 70
    64
  0
VERTEX
  5
2E8
  8
TEAM-NET
 10
155.238745
 20
-169.22078
 30
773.181135
 70
    64
  0
VERTEX
  5
2E9
  8
TEAM-NET
 10
145.071823
 20
-170.092195
 30
763.220816
 70
    64
  0
VERTEX
  5
2EA
  8
TEAM-NET
 10
134.039721
 20
-170.879736
 30
754.219174
 70
    64
  0
VERTEX
  5
2EB
  8
TEAM-NET
 10
122.290533
 20
-171.584203
 30
746.167084
 70
    64
  0
VERTEX
  5
2EC
  8
TEAM-NET
 10
109.949945
 20
-172.207233
 30
739.045824
 70
    64
  0
VERTEX
  5
2ED
  8
TEAM-NET
 10
97.124202
 20
-172.750839
 30
732.832372
 70
    64
  0
VERTEX
  5
2EE
  8
TEAM-NET
 10
83.903395
 20
-173.217114
 30
727.502831
 70
    64
  0
VERTEX
  5
2EF
  8
TEAM-NET
 10
70.364578
 20
-173.608039
 30
723.034531
 70
    64
  0
VERTEX
  5
2F0
  8
TEAM-NET
 10
56.57452
 20
-173.925382
 30
719.407282
 70
    64
  0
VERTEX
  5
2F1
  8
TEAM-NET
 10
42.592062
 20
-174.170631
 30
716.604076
 70
    64
  0
VERTEX
  5
2F2
  8
TEAM-NET
 10
28.470123
 20
-174.344961
 30
714.611477
 70
    64
  0
VERTEX
  5
2F3
  8
TEAM-NET
 10
14.257424
 20
-174.449219
 30
713.419804
 70
    64
  0
VERTEX
  5
2F4
  8
TEAM-NET
 10
0.0
 20
-174.483915
 30
713.023229
 70
    64
  0
VERTEX
  5
2F5
  8
TEAM-NET
 10
-14.257424
 20
-174.449219
 30
713.419804
 70
    64
  0
VERTEX
  5
2F6
  8
TEAM-NET
 10
-28.470123
 20
-174.344961
 30
714.611477
 70
    64
  0
VERTEX
  5
2F7
  8
TEAM-NET
 10
-42.592062
 20
-174.170631
 30
716.604076
 70
    64
  0
VERTEX
  5
2F8
  8
TEAM-NET
 10
-56.57452
 20
-173.925382
 30
719.407282
 70
    64
  0
VERTEX
  5
2F9
  8
TEAM-NET
 10
-70.364578
 20
-173.608039
 30
723.034531
 70
    64
  0
VERTEX
  5
2FA
  8
TEAM-NET
 10
-83.903395
 20
-173.217114
 30
727.502831
 70
    64
  0
VERTEX
  5
2FB
  8
TEAM-NET
 10
-97.124202
 20
-172.750839
 30
732.832372
 70
    64
  0
VERTEX
  5
2FC
  8
TEAM-NET
 10
-109.949945
 20
-172.207233
 30
739.045824
 70
    64
  0
VERTEX
  5
2FD
  8
TEAM-NET
 10
-122.290533
 20
-171.584203
 30
746.167084
 70
    64
  0
VERTEX
  5
2FE
  8
TEAM-NET
 10
-134.039721
 20
-170.879736
 30
754.219174
 70
    64
  0
VERTEX
  5
2FF
  8
TEAM-NET
 10
-145.071823
 20
-170.092195
 30
763.220816
 70
    64
  0
VERTEX
  5
300
  8
TEAM-NET
 10
-155.238745
 20
-169.22078
 30
773.181135
 70
    64
  0
VERTEX
  5
301
  8
TEAM-NET
 10
-164.368353
 20
-168.266215
 30
784.091863
 70
    64
  0
VERTEX
  5
302
  8
TEAM-NET
 10
-172.265998
 20
-167.231671
 30
795.916758
 70
    64
  0
VERTEX
  5
303
  8
TEAM-NET
 10
-178.721756
 20
-166.123876
 30
808.578909
 70
    64
  0
VERTEX
  5
304
  8
TEAM-NET
 10
-183.526118
 20
-164.954184
 30
821.948546
 70
    64
  0
VERTEX
  5
305
  8
TEAM-NET
 10
-186.494964
 20
-163.739142
 30
835.83654
 70
    64
  0
VERTEX
  5
306
  8
TEAM-NET
 10
-187.5
 20
-162.5
 30
850.0
 70
    64
  0
VERTEX
  5
307
  8
TEAM-NET
 10
187.5
 20
-162.5
 30
850.0
 70
    64
  0
VERTEX
  5
308
  8
TEAM-NET
 10
186.494964
 20
-164.968854
 30
835.998435
 70
    64
  0
VERTEX
  5
309
  8
TEAM-NET
 10
183.526118
 20
-167.389691
 30
822.269187
 70
    64
  0
VERTEX
  5
30A
  8
TEAM-NET
 10
178.721756
 20
-169.720172
 30
809.05237
 70
    64
  0
VERTEX
  5
30B
  8
TEAM-NET
 10
172.265998
 20
-171.92733
 30
796.534953
 70
    64
  0
VERTEX
  5
30C
  8
TEAM-NET
 10
164.368353
 20
-173.988545
 30
784.845222
 70
    64
  0
VERTEX
  5
30D
  8
TEAM-NET
 10
155.238745
 20
-175.89041
 30
774.059209
 70
    64
  0
VERTEX
  5
30E
  8
TEAM-NET
 10
145.071823
 20
-177.626608
 30
764.21274
 70
    64
  0
VERTEX
  5
30F
  8
TEAM-NET
 10
134.039721
 20
-179.195698
 30
755.313991
 70
    64
  0
VERTEX
  5
310
  8
TEAM-NET
 10
122.290533
 20
-180.59927
 30
747.35394
 70
    64
  0
VERTEX
  5
311
  8
TEAM-NET
 10
109.949945
 20
-181.840587
 30
740.314079
 70
    64
  0
VERTEX
  5
312
  8
TEAM-NET
 10
97.124202
 20
-182.923663
 30
734.17165
 70
    64
  0
VERTEX
  5
313
  8
TEAM-NET
 10
83.903395
 20
-183.852664
 30
728.903028
 70
    64
  0
VERTEX
  5
314
  8
TEAM-NET
 10
70.364578
 20
-184.631539
 30
724.485803
 70
    64
  0
VERTEX
  5
315
  8
TEAM-NET
 10
56.57452
 20
-185.263811
 30
720.900014
 70
    64
  0
VERTEX
  5
316
  8
TEAM-NET
 10
42.592062
 20
-185.752442
 30
718.128851
 70
    64
  0
VERTEX
  5
317
  8
TEAM-NET
 10
28.470123
 20
-186.099775
 30
716.159027
 70
    64
  0
VERTEX
  5
318
  8
TEAM-NET
 10
14.257424
 20
-186.307497
 30
714.980976
 70
    64
  0
VERTEX
  5
319
  8
TEAM-NET
 10
0.0
 20
-186.376624
 30
714.588934
 70
    64
  0
VERTEX
  5
31A
  8
TEAM-NET
 10
-14.257424
 20
-186.307497
 30
714.980976
 70
    64
  0
VERTEX
  5
31B
  8
TEAM-NET
 10
-28.470123
 20
-186.099775
 30
716.159027
 70
    64
  0
VERTEX
  5
31C
  8
TEAM-NET
 10
-42.592062
 20
-185.752442
 30
718.128851
 70
    64
  0
VERTEX
  5
31D
  8
TEAM-NET
 10
-56.57452
 20
-185.263811
 30
720.900014
 70
    64
  0
VERTEX
  5
31E
  8
TEAM-NET
 10
-70.364578
 20
-184.631539
 30
724.485803
 70
    64
  0
VERTEX
  5
31F
  8
TEAM-NET
 10
-83.903395
 20
-183.852664
 30
728.903028
 70
    64
  0
VERTEX
  5
320
  8
TEAM-NET
 10
-97.124202
 20
-182.923663
 30
734.17165
 70
    64
  0
VERTEX
  5
321
  8
TEAM-NET
 10
-109.949945
 20
-181.840587
 30
740.314079
 70
    64
  0
VERTEX
  5
322
  8
TEAM-NET
 10
-122.290533
 20
-180.59927
 30
747.35394
 70
    64
  0
VERTEX
  5
323
  8
TEAM-NET
 10
-134.039721
 20
-179.195698
 30
755.313991
 70
    64
  0
VERTEX
  5
324
  8
TEAM-NET
 10
-145.071823
 20
-177.626608
 30
764.21274
 70
    64
  0
VERTEX
  5
325
  8
TEAM-NET
 10
-155.238745
 20
-175.89041
 30
774.059209
 70
    64
  0
VERTEX
  5
326
  8
TEAM-NET
 10
-164.368353
 20
-173.988545
 30
784.845222
 70
    64
  0
VERTEX
  5
327
  8
TEAM-NET
 10
-172.265998
 20
-171.92733
 30
796.534953
 70
    64
  0
VERTEX
  5
328
  8
TEAM-NET
 10
-178.721756
 20
-169.720172
 30
809.05237
 70
    64
  0
VERTEX
  5
329
  8
TEAM-NET
 10
-183.526118
 20
-167.389691
 30
822.269187
 70
    64
  0
VERTEX
  5
32A
  8
TEAM-NET
 10
-186.494964
 20
-164.968854
 30
835.998435
 70
    64
  0
VERTEX
  5
32B
  8
TEAM-NET
 10
-187.5
 20
-162.5
 30
850.0
 70
    64
  0
VERTEX
  5
32C
  8
TEAM-NET
 10
187.5
 20
-162.5
 30
850.0
 70
    64
  0
VERTEX
  5
32D
  8
TEAM-NET
 10
186.494964
 20
-166.179776
 30
836.26689
 70
    64
  0
VERTEX
  5
32E
  8
TEAM-NET
 10
183.526118
 20
-169.787983
 30
822.800876
 70
    64
  0
VERTEX
  5
32F
  8
TEAM-NET
 10
178.721756
 20
-173.261518
 30
809.837467
 70
    64
  0
VERTEX
  5
330
  8
TEAM-NET
 10
172.265998
 20
-176.551242
 30
797.56005
 70
    64
  0
VERTEX
  5
331
  8
TEAM-NET
 10
164.368353
 20
-179.623441
 30
786.094449
 70
    64
  0
VERTEX
  5
332
  8
TEAM-NET
 10
155.238745
 20
-182.458132
 30
775.515238
 70
    64
  0
VERTEX
  5
333
  8
TEAM-NET
 10
145.071823
 20
-185.045899
 30
765.857558
 70
    64
  0
VERTEX
  5
334
  8
TEAM-NET
 10
134.039721
 20
-187.384595
 30
757.129426
 70
    64
  0
VERTEX
  5
335
  8
TEAM-NET
 10
122.290533
 20
-189.47659
 30
749.321995
 70
    64
  0
VERTEX
  5
336
  8
TEAM-NET
 10
109.949945
 20
-191.326748
 30
742.41711
 70
    64
  0
VERTEX
  5
337
  8
TEAM-NET
 10
97.124202
 20
-192.941051
 30
736.392451
 70
    64
  0
VERTEX
  5
338
  8
TEAM-NET
 10
83.903395
 20
-194.325707
 30
731.224845
 70
    64
  0
VERTEX
  5
339
  8
TEAM-NET
 10
70.364578
 20
-195.486605
 30
726.892313
 70
    64
  0
VERTEX
  5
33A
  8
TEAM-NET
 10
56.57452
 20
-196.428993
 30
723.375275
 70
    64
  0
VERTEX
  5
33B
  8
TEAM-NET
 10
42.592062
 20
-197.157287
 30
720.657244
 70
    64
  0
VERTEX
  5
33C
  8
TEAM-NET
 10
28.470123
 20
-197.67498
 30
718.725188
 70
    64
  0
VERTEX
  5
33D
  8
TEAM-NET
 10
14.257424
 20
-197.984585
 30
717.569724
 70
    64
  0
VERTEX
  5
33E
  8
TEAM-NET
 10
0.0
 20
-198.087619
 30
717.185199
 70
    64
  0
VERTEX
  5
33F
  8
TEAM-NET
 10
-14.257424
 20
-197.984585
 30
717.569724
 70
    64
  0
VERTEX
  5
340
  8
TEAM-NET
 10
-28.470123
 20
-197.67498
 30
718.725188
 70
    64
  0
VERTEX
  5
341
  8
TEAM-NET
 10
-42.592062
 20
-197.157287
 30
720.657244
 70
    64
  0
VERTEX
  5
342
  8
TEAM-NET
 10
-56.57452
 20
-196.428993
 30
723.375275
 70
    64
  0
VERTEX
  5
343
  8
TEAM-NET
 10
-70.364578
 20
-195.486605
 30
726.892313
 70
    64
  0
VERTEX
  5
344
  8
TEAM-NET
 10
-83.903395
 20
-194.325707
 30
731.224845
 70
    64
  0
VERTEX
  5
345
  8
TEAM-NET
 10
-97.124202
 20
-192.941051
 30
736.392451
 70
    64
  0
VERTEX
  5
346
  8
TEAM-NET
 10
-109.949945
 20
-191.326748
 30
742.41711
 70
    64
  0
VERTEX
  5
347
  8
TEAM-NET
 10
-122.290533
 20
-189.47659
 30
749.321995
 70
    64
  0
VERTEX
  5
348
  8
TEAM-NET
 10
-134.039721
 20
-187.384595
 30
757.129426
 70
    64
  0
VERTEX
  5
349
  8
TEAM-NET
 10
-145.071823
 20
-185.045899
 30
765.857558
 70
    64
  0
VERTEX
  5
34A
  8
TEAM-NET
 10
-155.238745
 20
-182.458132
 30
775.515238
 70
    64
  0
VERTEX
  5
34B
  8
TEAM-NET
 10
-164.368353
 20
-179.623441
 30
786.094449
 70
    64
  0
VERTEX
  5
34C
  8
TEAM-NET
 10
-172.265998
 20
-176.551242
 30
797.56005
 70
    64
  0
VERTEX
  5
34D
  8
TEAM-NET
 10
-178.721756
 20
-173.261518
 30
809.837467
 70
    64
  0
VERTEX
  5
34E
  8
TEAM-NET
 10
-183.526118
 20
-169.787983
 30
822.800876
 70
    64
  0
VERTEX
  5
34F
  8
TEAM-NET
 10
-186.494964
 20
-166.179776
 30
836.26689
 70
    64
  0
VERTEX
  5
350
  8
TEAM-NET
 10
-187.5
 20
-162.5
 30
850.0
 70
    64
  0
VERTEX
  5
351
  8
TEAM-NET
 10
187.5
 20
-162.5
 30
850.0
 70
    64
  0
VERTEX
  5
352
  8
TEAM-NET
 10
186.494964
 20
-167.362693
 30
836.639862
 70
    64
  0
VERTEX
  5
353
  8
TEAM-NET
 10
183.526118
 20
-172.13081
 30
823.539566
 70
    64
  0
VERTEX
  5
354
  8
TEAM-NET
 10
178.721756
 20
-176.720963
 30
810.928226
 70
    64
  0
VERTEX
  5
355
  8
TEAM-NET
 10
172.265998
 20
-181.068216
 30
798.984246
 70
    64
  0
VERTEX
  5
356
  8
TEAM-NET
 10
164.368353
 20
-185.128017
 30
787.830035
 70
    64
  0
VERTEX
  5
357
  8
TEAM-NET
 10
155.238745
 20
-188.87396
 30
777.538141
 70
    64
  0
VERTEX
  5
358
  8
TEAM-NET
 10
145.071823
 20
-192.293603
 30
768.14275
 70
    64
  0
VERTEX
  5
359
  8
TEAM-NET
 10
134.039721
 20
-195.384106
 30
759.651662
 70
    64
  0
VERTEX
  5
35A
  8
TEAM-NET
 10
122.290533
 20
-198.148602
 30
752.05627
 70
    64
  0
VERTEX
  5
35B
  8
TEAM-NET
 10
109.949945
 20
-200.593521
 30
745.338912
 70
    64
  0
VERTEX
  5
35C
  8
TEAM-NET
 10
97.124202
 20
-202.726764
 30
739.477875
 70
    64
  0
VERTEX
  5
35D
  8
TEAM-NET
 10
83.903395
 20
-204.556537
 30
734.450614
 70
    64
  0
VERTEX
  5
35E
  8
TEAM-NET
 10
70.364578
 20
-206.090623
 30
730.235747
 70
    64
  0
VERTEX
  5
35F
  8
TEAM-NET
 10
56.57452
 20
-207.335955
 30
726.814227
 70
    64
  0
VERTEX
  5
360
  8
TEAM-NET
 10
42.592062
 20
-208.29837
 30
724.170014
 70
    64
  0
VERTEX
  5
361
  8
TEAM-NET
 10
28.470123
 20
-208.982482
 30
722.29043
 70
    64
  0
VERTEX
  5
362
  8
TEAM-NET
 10
14.257424
 20
-209.391615
 30
721.166347
 70
    64
  0
VERTEX
  5
363
  8
TEAM-NET
 10
0.0
 20
-209.52777
 30
720.792265
 70
    64
  0
VERTEX
  5
364
  8
TEAM-NET
 10
-14.257424
 20
-209.391615
 30
721.166347
 70
    64
  0
VERTEX
  5
365
  8
TEAM-NET
 10
-28.470123
 20
-208.982482
 30
722.29043
 70
    64
  0
VERTEX
  5
366
  8
TEAM-NET
 10
-42.592062
 20
-208.29837
 30
724.170014
 70
    64
  0
VERTEX
  5
367
  8
TEAM-NET
 10
-56.57452
 20
-207.335955
 30
726.814227
 70
    64
  0
VERTEX
  5
368
  8
TEAM-NET
 10
-70.364578
 20
-206.090623
 30
730.235747
 70
    64
  0
VERTEX
  5
369
  8
TEAM-NET
 10
-83.903395
 20
-204.556537
 30
734.450614
 70
    64
  0
VERTEX
  5
36A
  8
TEAM-NET
 10
-97.124202
 20
-202.726764
 30
739.477875
 70
    64
  0
VERTEX
  5
36B
  8
TEAM-NET
 10
-109.949945
 20
-200.593521
 30
745.338912
 70
    64
  0
VERTEX
  5
36C
  8
TEAM-NET
 10
-122.290533
 20
-198.148602
 30
752.05627
 70
    64
  0
VERTEX
  5
36D
  8
TEAM-NET
 10
-134.039721
 20
-195.384106
 30
759.651662
 70
    64
  0
VERTEX
  5
36E
  8
TEAM-NET
 10
-145.071823
 20
-192.293603
 30
768.14275
 70
    64
  0
VERTEX
  5
36F
  8
TEAM-NET
 10
-155.238745
 20
-188.87396
 30
777.538141
 70
    64
  0
VERTEX
  5
370
  8
TEAM-NET
 10
-164.368353
 20
-185.128017
 30
787.830035
 70
    64
  0
VERTEX
  5
371
  8
TEAM-NET
 10
-172.265998
 20
-181.068216
 30
798.984246
 70
    64
  0
VERTEX
  5
372
  8
TEAM-NET
 10
-178.721756
 20
-176.720963
 30
810.928226
 70
    64
  0
VERTEX
  5
373
  8
TEAM-NET
 10
-183.526118
 20
-172.13081
 30
823.539566
 70
    64
  0
VERTEX
  5
374
  8
TEAM-NET
 10
-186.494964
 20
-167.362693
 30
836.639862
 70
    64
  0
VERTEX
  5
375
  8
TEAM-NET
 10
-187.5
 20
-162.5
 30
850.0
 70
    64
  0
VERTEX
  5
376
  8
TEAM-NET
 10
187.5
 20
-162.5
 30
850.0
 70
    64
  0
VERTEX
  5
377
  8
TEAM-NET
 10
186.494964
 20
-168.508601
 30
837.114513
 70
    64
  0
VERTEX
  5
378
  8
TEAM-NET
 10
183.526118
 20
-174.400341
 30
824.479636
 70
    64
  0
VERTEX
  5
379
  8
TEAM-NET
 10
178.721756
 20
-180.072177
 30
812.316345
 70
    64
  0
VERTEX
  5
37A
  8
TEAM-NET
 10
172.265998
 20
-185.443874
 30
800.796703
 70
    64
  0
VERTEX
  5
37B
  8
TEAM-NET
 10
164.368353
 20
-190.46038
 30
790.038772
 70
    64
  0
VERTEX
  5
37C
  8
TEAM-NET
 10
155.238745
 20
-195.089066
 30
780.112522
 70
    64
  0
VERTEX
  5
37D
  8
TEAM-NET
 10
145.071823
 20
-199.314558
 30
771.050925
 70
    64
  0
VERTEX
  5
37E
  8
TEAM-NET
 10
134.039721
 20
-203.133348
 30
762.861503
 70
    64
  0
VERTEX
  5
37F
  8
TEAM-NET
 10
122.290533
 20
-206.549307
 30
755.535956
 70
    64
  0
VERTEX
  5
380
  8
TEAM-NET
 10
109.949945
 20
-209.570378
 30
749.057248
 70
    64
  0
VERTEX
  5
381
  8
TEAM-NET
 10
97.124202
 20
-212.206327
 30
743.404438
 70
    64
  0
VERTEX
  5
382
  8
TEAM-NET
 10
83.903395
 20
-214.467292
 30
738.555783
 70
    64
  0
VERTEX
  5
383
  8
TEAM-NET
 10
70.364578
 20
-216.36289
 30
734.490659
 70
    64
  0
VERTEX
  5
384
  8
TEAM-NET
 10
56.57452
 20
-217.901688
 30
731.190697
 70
    64
  0
VERTEX
  5
385
  8
TEAM-NET
 10
42.592062
 20
-219.090899
 30
728.640426
 70
    64
  0
VERTEX
  5
386
  8
TEAM-NET
 10
28.470123
 20
-219.936225
 30
726.827619
 70
    64
  0
VERTEX
  5
387
  8
TEAM-NET
 10
14.257424
 20
-220.441771
 30
725.743471
 70
    64
  0
VERTEX
  5
388
  8
TEAM-NET
 10
0.0
 20
-220.610011
 30
725.382679
 70
    64
  0
VERTEX
  5
389
  8
TEAM-NET
 10
-14.257424
 20
-220.441771
 30
725.743471
 70
    64
  0
VERTEX
  5
38A
  8
TEAM-NET
 10
-28.470123
 20
-219.936225
 30
726.827619
 70
    64
  0
VERTEX
  5
38B
  8
TEAM-NET
 10
-42.592062
 20
-219.090899
 30
728.640426
 70
    64
  0
VERTEX
  5
38C
  8
TEAM-NET
 10
-56.57452
 20
-217.901688
 30
731.190697
 70
    64
  0
VERTEX
  5
38D
  8
TEAM-NET
 10
-70.364578
 20
-216.36289
 30
734.490659
 70
    64
  0
VERTEX
  5
38E
  8
TEAM-NET
 10
-83.903395
 20
-214.467292
 30
738.555783
 70
    64
  0
VERTEX
  5
38F
  8
TEAM-NET
 10
-97.124202
 20
-212.206327
 30
743.404438
 70
    64
  0
VERTEX
  5
390
  8
TEAM-NET
 10
-109.949945
 20
-209.570378
 30
749.057248
 70
    64
  0
VERTEX
  5
391
  8
TEAM-NET
 10
-122.290533
 20
-206.549307
 30
755.535956
 70
    64
  0
VERTEX
  5
392
  8
TEAM-NET
 10
-134.039721
 20
-203.133348
 30
762.861503
 70
    64
  0
VERTEX
  5
393
  8
TEAM-NET
 10
-145.071823
 20
-199.314558
 30
771.050925
 70
    64
  0
VERTEX
  5
394
  8
TEAM-NET
 10
-155.238745
 20
-195.089066
 30
780.112522
 70
    64
  0
VERTEX
  5
395
  8
TEAM-NET
 10
-164.368353
 20
-190.46038
 30
790.038772
 70
    64
  0
VERTEX
  5
396
  8
TEAM-NET
 10
-172.265998
 20
-185.443874
 30
800.796703
 70
    64
  0
VERTEX
  5
397
  8
TEAM-NET
 10
-178.721756
 20
-180.072177
 30
812.316345
 70
    64
  0
VERTEX
  5
398
  8
TEAM-NET
 10
-183.526118
 20
-174.400341
 30
824.479636
 70
    64
  0
VERTEX
  5
399
  8
TEAM-NET
 10
-186.494964
 20
-168.508601
 30
837.114513
 70
    64
  0
VERTEX
  5
39A
  8
TEAM-NET
 10
-187.5
 20
-162.5
 30
850.0
 70
    64
  0
VERTEX
  5
39B
  8
TEAM-NET
 10
187.5
 20
-162.5
 30
850.0
 70
    64
  0
VERTEX
  5
39C
  8
TEAM-NET
 10
186.494964
 20
-169.608781
 30
837.68723
 70
    64
  0
VERTEX
  5
39D
  8
TEAM-NET
 10
183.526118
 20
-176.579303
 30
825.613932
 70
    64
  0
VERTEX
  5
39E
  8
TEAM-NET
 10
178.721756
 20
-183.289657
 30
813.991258
 70
    64
  0
VERTEX
  5
39F
  8
TEAM-NET
 10
172.265998
 20
-189.644916
 30
802.983627
 70
    64
  0
VERTEX
  5
3A0
  8
TEAM-NET
 10
164.368353
 20
-195.579948
 30
792.70385
 70
    64
  0
VERTEX
  5
3A1
  8
TEAM-NET
 10
155.238745
 20
-201.05615
 30
783.218789
 70
    64
  0
VERTEX
  5
3A2
  8
TEAM-NET
 10
145.071823
 20
-206.055333
 30
774.55995
 70
    64
  0
VERTEX
  5
3A3
  8
TEAM-NET
 10
134.039721
 20
-210.573347
 30
766.734521
 70
    64
  0
VERTEX
  5
3A4
  8
TEAM-NET
 10
122.290533
 20
-214.61477
 30
759.73457
 70
    64
  0
VERTEX
  5
3A5
  8
TEAM-NET
 10
109.949945
 20
-218.189002
 30
753.54382
 70
    64
  0
VERTEX
  5
3A6
  8
TEAM-NET
 10
97.124202
 20
-221.307595
 30
748.142258
 70
    64
  0
VERTEX
  5
3A7
  8
TEAM-NET
 10
83.903395
 20
-223.982544
 30
743.50911
 70
    64
  0
VERTEX
  5
3A8
  8
TEAM-NET
 10
70.364578
 20
-226.225228
 30
739.624667
 70
    64
  0
VERTEX
  5
3A9
  8
TEAM-NET
 10
56.57452
 20
-228.045781
 30
736.471378
 70
    64
  0
VERTEX
  5
3AA
  8
TEAM-NET
 10
42.592062
 20
-229.452737
 30
734.034457
 70
    64
  0
VERTEX
  5
3AB
  8
TEAM-NET
 10
28.470123
 20
-230.452843
 30
732.302224
 70
    64
  0
VERTEX
  5
3AC
  8
TEAM-NET
 10
14.257424
 20
-231.050955
 30
731.266263
 70
    64
  0
VERTEX
  5
3AD
  8
TEAM-NET
 10
0.0
 20
-231.25
 30
730.921507
 70
    64
  0
VERTEX
  5
3AE
  8
TEAM-NET
 10
-14.257424
 20
-231.050955
 30
731.266263
 70
    64
  0
VERTEX
  5
3AF
  8
TEAM-NET
 10
-28.470123
 20
-230.452843
 30
732.302224
 70
    64
  0
VERTEX
  5
3B0
  8
TEAM-NET
 10
-42.592062
 20
-229.452737
 30
734.034457
 70
    64
  0
VERTEX
  5
3B1
  8
TEAM-NET
 10
-56.57452
 20
-228.045781
 30
736.471378
 70
    64
  0
VERTEX
  5
3B2
  8
TEAM-NET
 10
-70.364578
 20
-226.225228
 30
739.624667
 70
    64
  0
VERTEX
  5
3B3
  8
TEAM-NET
 10
-83.903395
 20
-223.982544
 30
743.50911
 70
    64
  0
VERTEX
  5
3B4
  8
TEAM-NET
 10
-97.124202
 20
-221.307595
 30
748.142258
 70
    64
  0
VERTEX
  5
3B5
  8
TEAM-NET
 10
-109.949945
 20
-218.189002
 30
753.54382
 70
    64
  0
VERTEX
  5
3B6
  8
TEAM-NET
 10
-122.290533
 20
-214.61477
 30
759.73457
 70
    64
  0
VERTEX
  5
3B7
  8
TEAM-NET
 10
-134.039721
 20
-210.573347
 30
766.734521
 70
    64
  0
VERTEX
  5
3B8
  8
TEAM-NET
 10
-145.071823
 20
-206.055333
 30
774.55995
 70
    64
  0
VERTEX
  5
3B9
  8
TEAM-NET
 10
-155.238745
 20
-201.05615
 30
783.218789
 70
    64
  0
VERTEX
  5
3BA
  8
TEAM-NET
 10
-164.368353
 20
-195.579948
 30
792.70385
 70
    64
  0
VERTEX
  5
3BB
  8
TEAM-NET
 10
-172.265998
 20
-189.644916
 30
802.983627
 70
    64
  0
VERTEX
  5
3BC
  8
TEAM-NET
 10
-178.721756
 20
-183.289657
 30
813.991258
 70
    64
  0
VERTEX
  5
3BD
  8
TEAM-NET
 10
-183.526118
 20
-176.579303
 30
825.613932
 70
    64
  0
VERTEX
  5
3BE
  8
TEAM-NET
 10
-186.494964
 20
-169.608781
 30
837.68723
 70
    64
  0
VERTEX
  5
3BF
  8
TEAM-NET
 10
-187.5
 20
-162.5
 30
850.0
 70
    64
  0
VERTEX
  5
3C0
  8
TEAM-NET
 10
187.5
 20
-162.5
 30
850.0
 70
    64
  0
VERTEX
  5
3C1
  8
TEAM-NET
 10
186.494964
 20
-170.654858
 30
838.353655
 70
    64
  0
VERTEX
  5
3C2
  8
TEAM-NET
 10
183.526118
 20
-178.651113
 30
826.933821
 70
    64
  0
VERTEX
  5
3C3
  8
TEAM-NET
 10
178.721756
 20
-186.348914
 30
815.940221
 70
    64
  0
VERTEX
  5
3C4
  8
TEAM-NET
 10
172.265998
 20
-193.639368
 30
805.528374
 70
    64
  0
VERTEX
  5
3C5
  8
TEAM-NET
 10
164.368353
 20
-200.447757
 30
795.804987
 70
    64
  0
VERTEX
  5
3C6
  8
TEAM-NET
 10
155.238745
 20
-206.729798
 30
786.833302
 70
    64
  0
VERTEX
  5
3C7
  8
TEAM-NET
 10
145.071823
 20
-212.464626
 30
778.64312
 70
    64
  0
VERTEX
  5
3C8
  8
TEAM-NET
 10
134.039721
 20
-217.647478
 30
771.241239
 70
    64
  0
VERTEX
  5
3C9
  8
TEAM-NET
 10
122.290533
 20
-222.283608
 30
764.620159
 70
    64
  0
VERTEX
  5
3CA
  8
TEAM-NET
 10
109.949945
 20
-226.383798
 30
758.764481
 70
    64
  0
VERTEX
  5
3CB
  8
TEAM-NET
 10
97.124202
 20
-229.961301
 30
753.655277
 70
    64
  0
VERTEX
  5
3CC
  8
TEAM-NET
 10
83.903395
 20
-233.029877
 30
749.272897
 70
    64
  0
VERTEX
  5
3CD
  8
TEAM-NET
 10
70.364578
 20
-235.602578
 30
745.598698
 70
    64
  0
VERTEX
  5
3CE
  8
TEAM-NET
 10
56.57452
 20
-237.69103
 30
742.61608
 70
    64
  0
VERTEX
  5
3CF
  8
TEAM-NET
 10
42.592062
 20
-239.305025
 30
740.311057
 70
    64
  0
VERTEX
  5
3D0
  8
TEAM-NET
 10
28.470123
 20
-240.452299
 30
738.67258
 70
    64
  0
VERTEX
  5
3D1
  8
TEAM-NET
 10
14.257424
 20
-241.138425
 30
737.69269
 70
    64
  0
VERTEX
  5
3D2
  8
TEAM-NET
 10
0.0
 20
-241.36676
 30
737.366594
 70
    64
  0
VERTEX
  5
3D3
  8
TEAM-NET
 10
-14.257424
 20
-241.138425
 30
737.69269
 70
    64
  0
VERTEX
  5
3D4
  8
TEAM-NET
 10
-28.470123
 20
-240.452299
 30
738.67258
 70
    64
  0
VERTEX
  5
3D5
  8
TEAM-NET
 10
-42.592062
 20
-239.305025
 30
740.311057
 70
    64
  0
VERTEX
  5
3D6
  8
TEAM-NET
 10
-56.57452
 20
-237.69103
 30
742.61608
 70
    64
  0
VERTEX
  5
3D7
  8
TEAM-NET
 10
-70.364578
 20
-235.602578
 30
745.598698
 70
    64
  0
VERTEX
  5
3D8
  8
TEAM-NET
 10
-83.903395
 20
-233.029877
 30
749.272897
 70
    64
  0
VERTEX
  5
3D9
  8
TEAM-NET
 10
-97.124202
 20
-229.961301
 30
753.655277
 70
    64
  0
VERTEX
  5
3DA
  8
TEAM-NET
 10
-109.949945
 20
-226.383798
 30
758.764481
 70
    64
  0
VERTEX
  5
3DB
  8
TEAM-NET
 10
-122.290533
 20
-222.283608
 30
764.620159
 70
    64
  0
VERTEX
  5
3DC
  8
TEAM-NET
 10
-134.039721
 20
-217.647478
 30
771.241239
 70
    64
  0
VERTEX
  5
3DD
  8
TEAM-NET
 10
-145.071823
 20
-212.464626
 30
778.64312
 70
    64
  0
VERTEX
  5
3DE
  8
TEAM-NET
 10
-155.238745
 20
-206.729798
 30
786.833302
 70
    64
  0
VERTEX
  5
3DF
  8
TEAM-NET
 10
-164.368353
 20
-200.447757
 30
795.804987
 70
    64
  0
VERTEX
  5
3E0
  8
TEAM-NET
 10
-172.265998
 20
-193.639368
 30
805.528374
 70
    64
  0
VERTEX
  5
3E1
  8
TEAM-NET
 10
-178.721756
 20
-186.348914
 30
815.940221
 70
    64
  0
VERTEX
  5
3E2
  8
TEAM-NET
 10
-183.526118
 20
-178.651113
 30
826.933821
 70
    64
  0
VERTEX
  5
3E3
  8
TEAM-NET
 10
-186.494964
 20
-170.654858
 30
838.353655
 70
    64
  0
VERTEX
  5
3E4
  8
TEAM-NET
 10
-187.5
 20
-162.5
 30
850.0
 70
    64
  0
VERTEX
  5
3E5
  8
TEAM-NET
 10
187.5
 20
-162.5
 30
850.0
 70
    64
  0
VERTEX
  5
3E6
  8
TEAM-NET
 10
186.494964
 20
-171.638873
 30
839.108716
 70
    64
  0
VERTEX
  5
3E7
  8
TEAM-NET
 10
183.526118
 20
-180.600003
 30
828.429257
 70
    64
  0
VERTEX
  5
3E8
  8
TEAM-NET
 10
178.721756
 20
-189.226667
 30
818.148398
 70
    64
  0
VERTEX
  5
3E9
  8
TEAM-NET
 10
172.265998
 20
-197.396831
 30
808.411576
 70
    64
  0
VERTEX
  5
3EA
  8
TEAM-NET
 10
164.368353
 20
-205.026761
 30
799.31858
 70
    64
  0
VERTEX
  5
3EB
  8
TEAM-NET
 10
155.238745
 20
-212.066831
 30
790.928551
 70
    64
  0
VERTEX
  5
3EC
  8
TEAM-NET
 10
145.071823
 20
-218.493657
 30
783.269358
 70
    64
  0
VERTEX
  5
3ED
  8
TEAM-NET
 10
134.039721
 20
-224.301903
 30
776.34736
 70
    64
  0
VERTEX
  5
3EE
  8
TEAM-NET
 10
122.290533
 20
-229.497457
 30
770.15554
 70
    64
  0
VERTEX
  5
3EF
  8
TEAM-NET
 10
109.949945
 20
-234.0924
 30
764.6795
 70
    64
  0
VERTEX
  5
3F0
  8
TEAM-NET
 10
97.124202
 20
-238.101586
 30
759.901538
 70
    64
  0
VERTEX
  5
3F1
  8
TEAM-NET
 10
83.903395
 20
-241.540435
 30
755.803277
 70
    64
  0
VERTEX
  5
3F2
  8
TEAM-NET
 10
70.364578
 20
-244.423574
 30
752.367286
 70
    64
  0
VERTEX
  5
3F3
  8
TEAM-NET
 10
56.57452
 20
-246.764031
 30
749.578038
 70
    64
  0
VERTEX
  5
3F4
  8
TEAM-NET
 10
42.592062
 20
-248.57278
 30
747.422455
 70
    64
  0
VERTEX
  5
3F5
  8
TEAM-NET
 10
28.470123
 20
-249.858491
 30
745.890205
 70
    64
  0
VERTEX
  5
3F6
  8
TEAM-NET
 10
14.257424
 20
-250.627409
 30
744.973844
 70
    64
  0
VERTEX
  5
3F7
  8
TEAM-NET
 10
0.0
 20
-250.883296
 30
744.668889
 70
    64
  0
VERTEX
  5
3F8
  8
TEAM-NET
 10
-14.257424
 20
-250.627409
 30
744.973844
 70
    64
  0
VERTEX
  5
3F9
  8
TEAM-NET
 10
-28.470123
 20
-249.858491
 30
745.890205
 70
    64
  0
VERTEX
  5
3FA
  8
TEAM-NET
 10
-42.592062
 20
-248.57278
 30
747.422455
 70
    64
  0
VERTEX
  5
3FB
  8
TEAM-NET
 10
-56.57452
 20
-246.764031
 30
749.578038
 70
    64
  0
VERTEX
  5
3FC
  8
TEAM-NET
 10
-70.364578
 20
-244.423574
 30
752.367286
 70
    64
  0
VERTEX
  5
3FD
  8
TEAM-NET
 10
-83.903395
 20
-241.540435
 30
755.803277
 70
    64
  0
VERTEX
  5
3FE
  8
TEAM-NET
 10
-97.124202
 20
-238.101586
 30
759.901538
 70
    64
  0
VERTEX
  5
3FF
  8
TEAM-NET
 10
-109.949945
 20
-234.0924
 30
764.6795
 70
    64
  0
VERTEX
  5
400
  8
TEAM-NET
 10
-122.290533
 20
-229.497457
 30
770.15554
 70
    64
  0
VERTEX
  5
401
  8
TEAM-NET
 10
-134.039721
 20
-224.301903
 30
776.34736
 70
    64
  0
VERTEX
  5
402
  8
TEAM-NET
 10
-145.071823
 20
-218.493657
 30
783.269358
 70
    64
  0
VERTEX
  5
403
  8
TEAM-NET
 10
-155.238745
 20
-212.066831
 30
790.928551
 70
    64
  0
VERTEX
  5
404
  8
TEAM-NET
 10
-164.368353
 20
-205.026761
 30
799.31858
 70
    64
  0
VERTEX
  5
405
  8
TEAM-NET
 10
-172.265998
 20
-197.396831
 30
808.411576
 70
    64
  0
VERTEX
  5
406
  8
TEAM-NET
 10
-178.721756
 20
-189.226667
 30
818.148398
 70
    64
  0
VERTEX
  5
407
  8
TEAM-NET
 10
-183.526118
 20
-180.600003
 30
828.429257
 70
    64
  0
VERTEX
  5
408
  8
TEAM-NET
 10
-186.494964
 20
-171.638873
 30
839.108716
 70
    64
  0
VERTEX
  5
409
  8
TEAM-NET
 10
-187.5
 20
-162.5
 30
850.0
 70
    64
  0
VERTEX
  5
40A
  8
TEAM-NET
 10
187.5
 20
-162.5
 30
850.0
 70
    64
  0
VERTEX
  5
40B
  8
TEAM-NET
 10
186.494964
 20
-172.553334
 30
839.946666
 70
    64
  0
VERTEX
  5
40C
  8
TEAM-NET
 10
183.526118
 20
-182.411141
 30
830.088859
 70
    64
  0
VERTEX
  5
40D
  8
TEAM-NET
 10
178.721756
 20
-191.901014
 30
820.598986
 70
    64
  0
VERTEX
  5
40E
  8
TEAM-NET
 10
172.265998
 20
-200.888708
 30
811.611292
 70
    64
  0
VERTEX
  5
40F
  8
TEAM-NET
 10
164.368353
 20
-209.282111
 30
803.217889
 70
    64
  0
VERTEX
  5
410
  8
TEAM-NET
 10
155.238745
 20
-217.02663
 30
795.47337
 70
    64
  0
VERTEX
  5
411
  8
TEAM-NET
 10
145.071823
 20
-224.096543
 30
788.403457
 70
    64
  0
VERTEX
  5
412
  8
TEAM-NET
 10
134.039721
 20
-230.485979
 30
782.014021
 70
    64
  0
VERTEX
  5
413
  8
TEAM-NET
 10
122.290533
 20
-236.201415
 30
776.298585
 70
    64
  0
VERTEX
  5
414
  8
TEAM-NET
 10
109.949945
 20
-241.256141
 30
771.243859
 70
    64
  0
VERTEX
  5
415
  8
TEAM-NET
 10
97.124202
 20
-245.666498
 30
766.833502
 70
    64
  0
VERTEX
  5
416
  8
TEAM-NET
 10
83.903395
 20
-249.449448
 30
763.050552
 70
    64
  0
VERTEX
  5
417
  8
TEAM-NET
 10
70.364578
 20
-252.621082
 30
759.878918
 70
    64
  0
VERTEX
  5
418
  8
TEAM-NET
 10
56.57452
 20
-255.195732
 30
757.304268
 70
    64
  0
VERTEX
  5
419
  8
TEAM-NET
 10
42.592062
 20
-257.185469
 30
755.314531
 70
    64
  0
VERTEX
  5
41A
  8
TEAM-NET
 10
28.470123
 20
-258.599832
 30
753.900168
 70
    64
  0
VERTEX
  5
41B
  8
TEAM-NET
 10
14.257424
 20
-259.44569
 30
753.05431
 70
    64
  0
VERTEX
  5
41C
  8
TEAM-NET
 10
0.0
 20
-259.727182
 30
752.772818
 70
    64
  0
VERTEX
  5
41D
  8
TEAM-NET
 10
-14.257424
 20
-259.44569
 30
753.05431
 70
    64
  0
VERTEX
  5
41E
  8
TEAM-NET
 10
-28.470123
 20
-258.599832
 30
753.900168
 70
    64
  0
VERTEX
  5
41F
  8
TEAM-NET
 10
-42.592062
 20
-257.185469
 30
755.314531
 70
    64
  0
VERTEX
  5
420
  8
TEAM-NET
 10
-56.57452
 20
-255.195732
 30
757.304268
 70
    64
  0
VERTEX
  5
421
  8
TEAM-NET
 10
-70.364578
 20
-252.621082
 30
759.878918
 70
    64
  0
VERTEX
  5
422
  8
TEAM-NET
 10
-83.903395
 20
-249.449448
 30
763.050552
 70
    64
  0
VERTEX
  5
423
  8
TEAM-NET
 10
-97.124202
 20
-245.666498
 30
766.833502
 70
    64
  0
VERTEX
  5
424
  8
TEAM-NET
 10
-109.949945
 20
-241.256141
 30
771.243859
 70
    64
  0
VERTEX
  5
425
  8
TEAM-NET
 10
-122.290533
 20
-236.201415
 30
776.298585
 70
    64
  0
VERTEX
  5
426
  8
TEAM-NET
 10
-134.039721
 20
-230.485979
 30
782.014021
 70
    64
  0
VERTEX
  5
427
  8
TEAM-NET
 10
-145.071823
 20
-224.096543
 30
788.403457
 70
    64
  0
VERTEX
  5
428
  8
TEAM-NET
 10
-155.238745
 20
-217.02663
 30
795.47337
 70
    64
  0
VERTEX
  5
429
  8
TEAM-NET
 10
-164.368353
 20
-209.282111
 30
803.217889
 70
    64
  0
VERTEX
  5
42A
  8
TEAM-NET
 10
-172.265998
 20
-200.888708
 30
811.611292
 70
    64
  0
VERTEX
  5
42B
  8
TEAM-NET
 10
-178.721756
 20
-191.901014
 30
820.598986
 70
    64
  0
VERTEX
  5
42C
  8
TEAM-NET
 10
-183.526118
 20
-182.411141
 30
830.088859
 70
    64
  0
VERTEX
  5
42D
  8
TEAM-NET
 10
-186.494964
 20
-172.553334
 30
839.946666
 70
    64
  0
VERTEX
  5
42E
  8
TEAM-NET
 10
-187.5
 20
-162.5
 30
850.0
 70
    64
  0
VERTEX
  5
42F
  8
TEAM-NET
 10
187.5
 20
-162.5
 30
850.0
 70
    64
  0
VERTEX
  5
430
  8
TEAM-NET
 10
186.494964
 20
-173.391284
 30
840.861127
 70
    64
  0
VERTEX
  5
431
  8
TEAM-NET
 10
183.526118
 20
-184.070743
 30
831.899997
 70
    64
  0
VERTEX
  5
432
  8
TEAM-NET
 10
178.721756
 20
-194.351602
 30
823.273333
 70
    64
  0
VERTEX
  5
433
  8
TEAM-NET
 10
172.265998
 20
-204.088424
 30
815.103169
 70
    64
  0
VERTEX
  5
434
  8
TEAM-NET
 10
164.368353
 20
-213.18142
 30
807.473239
 70
    64
  0
VERTEX
  5
435
  8
TEAM-NET
 10
155.238745
 20
-221.571449
 30
800.433169
 70
    64
  0
VERTEX
  5
436
  8
TEAM-NET
 10
145.071823
 20
-229.230642
 30
794.006343
 70
    64
  0
VERTEX
  5
437
  8
TEAM-NET
 10
134.039721
 20
-236.15264
 30
788.198097
 70
    64
  0
VERTEX
  5
438
  8
TEAM-NET
 10
122.290533
 20
-242.34446
 30
783.002543
 70
    64
  0
VERTEX
  5
439
  8
TEAM-NET
 10
109.949945
 20
-247.8205
 30
778.4076
 70
    64
  0
VERTEX
  5
43A
  8
TEAM-NET
 10
97.124202
 20
-252.598462
 30
774.398414
 70
    64
  0
VERTEX
  5
43B
  8
TEAM-NET
 10
83.903395
 20
-256.696723
 30
770.959565
 70
    64
  0
VERTEX
  5
43C
  8
TEAM-NET
 10
70.364578
 20
-260.132714
 30
768.076426
 70
    64
  0
VERTEX
  5
43D
  8
TEAM-NET
 10
56.57452
 20
-262.921962
 30
765.735969
 70
    64
  0
VERTEX
  5
43E
  8
TEAM-NET
 10
42.592062
 20
-265.077545
 30
763.92722
 70
    64
  0
VERTEX
  5
43F
  8
TEAM-NET
 10
28.470123
 20
-266.609795
 30
762.641509
 70
    64
  0
VERTEX
  5
440
  8
TEAM-NET
 10
14.257424
 20
-267.526156
 30
761.872591
 70
    64
  0
VERTEX
  5
441
  8
TEAM-NET
 10
0.0
 20
-267.831111
 30
761.616704
 70
    64
  0
VERTEX
  5
442
  8
TEAM-NET
 10
-14.257424
 20
-267.526156
 30
761.872591
 70
    64
  0
VERTEX
  5
443
  8
TEAM-NET
 10
-28.470123
 20
-266.609795
 30
762.641509
 70
    64
  0
VERTEX
  5
444
  8
TEAM-NET
 10
-42.592062
 20
-265.077545
 30
763.92722
 70
    64
  0
VERTEX
  5
445
  8
TEAM-NET
 10
-56.57452
 20
-262.921962
 30
765.735969
 70
    64
  0
VERTEX
  5
446
  8
TEAM-NET
 10
-70.364578
 20
-260.132714
 30
768.076426
 70
    64
  0
VERTEX
  5
447
  8
TEAM-NET
 10
-83.903395
 20
-256.696723
 30
770.959565
 70
    64
  0
VERTEX
  5
448
  8
TEAM-NET
 10
-97.124202
 20
-252.598462
 30
774.398414
 70
    64
  0
VERTEX
  5
449
  8
TEAM-NET
 10
-109.949945
 20
-247.8205
 30
778.4076
 70
    64
  0
VERTEX
  5
44A
  8
TEAM-NET
 10
-122.290533
 20
-242.34446
 30
783.002543
 70
    64
  0
VERTEX
  5
44B
  8
TEAM-NET
 10
-134.039721
 20
-236.15264
 30
788.198097
 70
    64
  0
VERTEX
  5
44C
  8
TEAM-NET
 10
-145.071823
 20
-229.230642
 30
794.006343
 70
    64
  0
VERTEX
  5
44D
  8
TEAM-NET
 10
-155.238745
 20
-221.571449
 30
800.433169
 70
    64
  0
VERTEX
  5
44E
  8
TEAM-NET
 10
-164.368353
 20
-213.18142
 30
807.473239
 70
    64
  0
VERTEX
  5
44F
  8
TEAM-NET
 10
-172.265998
 20
-204.088424
 30
815.103169
 70
    64
  0
VERTEX
  5
450
  8
TEAM-NET
 10
-178.721756
 20
-194.351602
 30
823.273333
 70
    64
  0
VERTEX
  5
451
  8
TEAM-NET
 10
-183.526118
 20
-184.070743
 30
831.899997
 70
    64
  0
VERTEX
  5
452
  8
TEAM-NET
 10
-186.494964
 20
-173.391284
 30
840.861127
 70
    64
  0
VERTEX
  5
453
  8
TEAM-NET
 10
-187.5
 20
-162.5
 30
850.0
 70
    64
  0
VERTEX
  5
454
  8
TEAM-NET
 10
187.5
 20
-162.5
 30
850.0
 70
    64
  0
VERTEX
  5
455
  8
TEAM-NET
 10
186.494964
 20
-174.146345
 30
841.845142
 70
    64
  0
VERTEX
  5
456
  8
TEAM-NET
 10
183.526118
 20
-185.566179
 30
833.848887
 70
    64
  0
VERTEX
  5
457
  8
TEAM-NET
 10
178.721756
 20
-196.559779
 30
826.151086
 70
    64
  0
VERTEX
  5
458
  8
TEAM-NET
 10
172.265998
 20
-206.971626
 30
818.860632
 70
    64
  0
VERTEX
  5
459
  8
TEAM-NET
 10
164.368353
 20
-216.695013
 30
812.052243
 70
    64
  0
VERTEX
  5
45A
  8
TEAM-NET
 10
155.238745
 20
-225.666698
 30
805.770202
 70
    64
  0
VERTEX
  5
45B
  8
TEAM-NET
 10
145.071823
 20
-233.85688
 30
800.035374
 70
    64
  0
VERTEX
  5
45C
  8
TEAM-NET
 10
134.039721
 20
-241.258761
 30
794.852522
 70
    64
  0
VERTEX
  5
45D
  8
TEAM-NET
 10
122.290533
 20
-247.879841
 30
790.216392
 70
    64
  0
VERTEX
  5
45E
  8
TEAM-NET
 10
109.949945
 20
-253.735519
 30
786.116202
 70
    64
  0
VERTEX
  5
45F
  8
TEAM-NET
 10
97.124202
 20
-258.844723
 30
782.538699
 70
    64
  0
VERTEX
  5
460
  8
TEAM-NET
 10
83.903395
 20
-263.227103
 30
779.470123
 70
    64
  0
VERTEX
  5
461
  8
TEAM-NET
 10
70.364578
 20
-266.901302
 30
776.897422
 70
    64
  0
VERTEX
  5
462
  8
TEAM-NET
 10
56.57452
 20
-269.88392
 30
774.80897
 70
    64
  0
VERTEX
  5
463
  8
TEAM-NET
 10
42.592062
 20
-272.188943
 30
773.194975
 70
    64
  0
VERTEX
  5
464
  8
TEAM-NET
 10
28.470123
 20
-273.82742
 30
772.047701
 70
    64
  0
VERTEX
  5
465
  8
TEAM-NET
 10
14.257424
 20
-274.80731
 30
771.361575
 70
    64
  0
VERTEX
  5
466
  8
TEAM-NET
 10
0.0
 20
-275.133406
 30
771.13324
 70
    64
  0
VERTEX
  5
467
  8
TEAM-NET
 10
-14.257424
 20
-274.80731
 30
771.361575
 70
    64
  0
VERTEX
  5
468
  8
TEAM-NET
 10
-28.470123
 20
-273.82742
 30
772.047701
 70
    64
  0
VERTEX
  5
469
  8
TEAM-NET
 10
-42.592062
 20
-272.188943
 30
773.194975
 70
    64
  0
VERTEX
  5
46A
  8
TEAM-NET
 10
-56.57452
 20
-269.88392
 30
774.80897
 70
    64
  0
VERTEX
  5
46B
  8
TEAM-NET
 10
-70.364578
 20
-266.901302
 30
776.897422
 70
    64
  0
VERTEX
  5
46C
  8
TEAM-NET
 10
-83.903395
 20
-263.227103
 30
779.470123
 70
    64
  0
VERTEX
  5
46D
  8
TEAM-NET
 10
-97.124202
 20
-258.844723
 30
782.538699
 70
    64
  0
VERTEX
  5
46E
  8
TEAM-NET
 10
-109.949945
 20
-253.735519
 30
786.116202
 70
    64
  0
VERTEX
  5
46F
  8
TEAM-NET
 10
-122.290533
 20
-247.879841
 30
790.216392
 70
    64
  0
VERTEX
  5
470
  8
TEAM-NET
 10
-134.039721
 20
-241.258761
 30
794.852522
 70
    64
  0
VERTEX
  5
471
  8
TEAM-NET
 10
-145.071823
 20
-233.85688
 30
800.035374
 70
    64
  0
VERTEX
  5
472
  8
TEAM-NET
 10
-155.238745
 20
-225.666698
 30
805.770202
 70
    64
  0
VERTEX
  5
473
  8
TEAM-NET
 10
-164.368353
 20
-216.695013
 30
812.052243
 70
    64
  0
VERTEX
  5
474
  8
TEAM-NET
 10
-172.265998
 20
-206.971626
 30
818.860632
 70
    64
  0
VERTEX
  5
475
  8
TEAM-NET
 10
-178.721756
 20
-196.559779
 30
826.151086
 70
    64
  0
VERTEX
  5
476
  8
TEAM-NET
 10
-183.526118
 20
-185.566179
 30
833.848887
 70
    64
  0
VERTEX
  5
477
  8
TEAM-NET
 10
-186.494964
 20
-174.146345
 30
841.845142
 70
    64
  0
VERTEX
  5
478
  8
TEAM-NET
 10
-187.5
 20
-162.5
 30
850.0
 70
    64
  0
VERTEX
  5
479
  8
TEAM-NET
 10
187.5
 20
-162.5
 30
850.0
 70
    64
  0
VERTEX
  5
47A
  8
TEAM-NET
 10
186.494964
 20
-174.81277
 30
842.891219
 70
    64
  0
VERTEX
  5
47B
  8
TEAM-NET
 10
183.526118
 20
-186.886068
 30
835.920697
 70
    64
  0
VERTEX
  5
47C
  8
TEAM-NET
 10
178.721756
 20
-198.508742
 30
829.210343
 70
    64
  0
VERTEX
  5
47D
  8
TEAM-NET
 10
172.265998
 20
-209.516373
 30
822.855084
 70
    64
  0
VERTEX
  5
47E
  8
TEAM-NET
 10
164.368353
 20
-219.79615
 30
816.920052
 70
    64
  0
VERTEX
  5
47F
  8
TEAM-NET
 10
155.238745
 20
-229.281211
 30
811.44385
 70
    64
  0
VERTEX
  5
480
  8
TEAM-NET
 10
145.071823
 20
-237.94005
 30
806.444667
 70
    64
  0
VERTEX
  5
481
  8
TEAM-NET
 10
134.039721
 20
-245.765479
 30
801.926653
 70
    64
  0
VERTEX
  5
482
  8
TEAM-NET
 10
122.290533
 20
-252.76543
 30
797.88523
 70
    64
  0
VERTEX
  5
483
  8
TEAM-NET
 10
109.949945
 20
-258.95618
 30
794.310998
 70
    64
  0
VERTEX
  5
484
  8
TEAM-NET
 10
97.124202
 20
-264.357742
 30
791.192405
 70
    64
  0
VERTEX
  5
485
  8
TEAM-NET
 10
83.903395
 20
-268.99089
 30
788.517456
 70
    64
  0
VERTEX
  5
486
  8
TEAM-NET
 10
70.364578
 20
-272.875333
 30
786.274772
 70
    64
  0
VERTEX
  5
487
  8
TEAM-NET
 10
56.57452
 20
-276.028622
 30
784.454219
 70
    64
  0
VERTEX
  5
488
  8
TEAM-NET
 10
42.592062
 20
-278.465543
 30
783.047263
 70
    64
  0
VERTEX
  5
489
  8
TEAM-NET
 10
28.470123
 20
-280.197776
 30
782.047157
 70
    64
  0
VERTEX
  5
48A
  8
TEAM-NET
 10
14.257424
 20
-281.233737
 30
781.449045
 70
    64
  0
VERTEX
  5
48B
  8
TEAM-NET
 10
0.0
 20
-281.578493
 30
781.25
 70
    64
  0
VERTEX
  5
48C
  8
TEAM-NET
 10
-14.257424
 20
-281.233737
 30
781.449045
 70
    64
  0
VERTEX
  5
48D
  8
TEAM-NET
 10
-28.470123
 20
-280.197776
 30
782.047157
 70
    64
  0
VERTEX
  5
48E
  8
TEAM-NET
 10
-42.592062
 20
-278.465543
 30
783.047263
 70
    64
  0
VERTEX
  5
48F
  8
TEAM-NET
 10
-56.57452
 20
-276.028622
 30
784.454219
 70
    64
  0
VERTEX
  5
490
  8
TEAM-NET
 10
-70.364578
 20
-272.875333
 30
786.274772
 70
    64
  0
VERTEX
  5
491
  8
TEAM-NET
 10
-83.903395
 20
-268.99089
 30
788.517456
 70
    64
  0
VERTEX
  5
492
  8
TEAM-NET
 10
-97.124202
 20
-264.357742
 30
791.192405
 70
    64
  0
VERTEX
  5
493
  8
TEAM-NET
 10
-109.949945
 20
-258.95618
 30
794.310998
 70
    64
  0
VERTEX
  5
494
  8
TEAM-NET
 10
-122.290533
 20
-252.76543
 30
797.88523
 70
    64
  0
VERTEX
  5
495
  8
TEAM-NET
 10
-134.039721
 20
-245.765479
 30
801.926653
 70
    64
  0
VERTEX
  5
496
  8
TEAM-NET
 10
-145.071823
 20
-237.94005
 30
806.444667
 70
    64
  0
VERTEX
  5
497
  8
TEAM-NET
 10
-155.238745
 20
-229.281211
 30
811.44385
 70
    64
  0
VERTEX
  5
498
  8
TEAM-NET
 10
-164.368353
 20
-219.79615
 30
816.920052
 70
    64
  0
VERTEX
  5
499
  8
TEAM-NET
 10
-172.265998
 20
-209.516373
 30
822.855084
 70
    64
  0
VERTEX
  5
49A
  8
TEAM-NET
 10
-178.721756
 20
-198.508742
 30
829.210343
 70
    64
  0
VERTEX
  5
49B
  8
TEAM-NET
 10
-183.526118
 20
-186.886068
 30
835.920697
 70
    64
  0
VERTEX
  5
49C
  8
TEAM-NET
 10
-186.494964
 20
-174.81277
 30
842.891219
 70
    64
  0
VERTEX
  5
49D
  8
TEAM-NET
 10
-187.5
 20
-162.5
 30
850.0
 70
    64
  0
VERTEX
  5
49E
  8
TEAM-NET
 10
187.5
 20
-162.5
 30
850.0
 70
    64
  0
VERTEX
  5
49F
  8
TEAM-NET
 10
186.494964
 20
-175.385487
 30
843.991399
 70
    64
  0
VERTEX
  5
4A0
  8
TEAM-NET
 10
183.526118
 20
-188.020364
 30
838.099659
 70
    64
  0
VERTEX
  5
4A1
  8
TEAM-NET
 10
178.721756
 20
-200.183655
 30
832.427823
 70
    64
  0
VERTEX
  5
4A2
  8
TEAM-NET
 10
172.265998
 20
-211.703297
 30
827.056126
 70
    64
  0
VERTEX
  5
4A3
  8
TEAM-NET
 10
164.368353
 20
-222.461228
 30
822.03962
 70
    64
  0
VERTEX
  5
4A4
  8
TEAM-NET
 10
155.238745
 20
-232.387478
 30
817.410934
 70
    64
  0
VERTEX
  5
4A5
  8
TEAM-NET
 10
145.071823
 20
-241.449075
 30
813.185442
 70
    64
  0
VERTEX
  5
4A6
  8
TEAM-NET
 10
134.039721
 20
-249.638497
 30
809.366652
 70
    64
  0
VERTEX
  5
4A7
  8
TEAM-NET
 10
122.290533
 20
-256.964044
 30
805.950693
 70
    64
  0
VERTEX
  5
4A8
  8
TEAM-NET
 10
109.949945
 20
-263.442752
 30
802.929622
 70
    64
  0
VERTEX
  5
4A9
  8
TEAM-NET
 10
97.124202
 20
-269.095562
 30
800.293673
 70
    64
  0
VERTEX
  5
4AA
  8
TEAM-NET
 10
83.903395
 20
-273.944217
 30
798.032708
 70
    64
  0
VERTEX
  5
4AB
  8
TEAM-NET
 10
70.364578
 20
-278.009341
 30
796.13711
 70
    64
  0
VERTEX
  5
4AC
  8
TEAM-NET
 10
56.57452
 20
-281.309303
 30
794.598312
 70
    64
  0
VERTEX
  5
4AD
  8
TEAM-NET
 10
42.592062
 20
-283.859574
 30
793.409101
 70
    64
  0
VERTEX
  5
4AE
  8
TEAM-NET
 10
28.470123
 20
-285.672381
 30
792.563775
 70
    64
  0
VERTEX
  5
4AF
  8
TEAM-NET
 10
14.257424
 20
-286.756529
 30
792.058229
 70
    64
  0
VERTEX
  5
4B0
  8
TEAM-NET
 10
0.0
 20
-287.117321
 30
791.889989
 70
    64
  0
VERTEX
  5
4B1
  8
TEAM-NET
 10
-14.257424
 20
-286.756529
 30
792.058229
 70
    64
  0
VERTEX
  5
4B2
  8
TEAM-NET
 10
-28.470123
 20
-285.672381
 30
792.563775
 70
    64
  0
VERTEX
  5
4B3
  8
TEAM-NET
 10
-42.592062
 20
-283.859574
 30
793.409101
 70
    64
  0
VERTEX
  5
4B4
  8
TEAM-NET
 10
-56.57452
 20
-281.309303
 30
794.598312
 70
    64
  0
VERTEX
  5
4B5
  8
TEAM-NET
 10
-70.364578
 20
-278.009341
 30
796.13711
 70
    64
  0
VERTEX
  5
4B6
  8
TEAM-NET
 10
-83.903395
 20
-273.944217
 30
798.032708
 70
    64
  0
VERTEX
  5
4B7
  8
TEAM-NET
 10
-97.124202
 20
-269.095562
 30
800.293673
 70
    64
  0
VERTEX
  5
4B8
  8
TEAM-NET
 10
-109.949945
 20
-263.442752
 30
802.929622
 70
    64
  0
VERTEX
  5
4B9
  8
TEAM-NET
 10
-122.290533
 20
-256.964044
 30
805.950693
 70
    64
  0
VERTEX
  5
4BA
  8
TEAM-NET
 10
-134.039721
 20
-249.638497
 30
809.366652
 70
    64
  0
VERTEX
  5
4BB
  8
TEAM-NET
 10
-145.071823
 20
-241.449075
 30
813.185442
 70
    64
  0
VERTEX
  5
4BC
  8
TEAM-NET
 10
-155.238745
 20
-232.387478
 30
817.410934
 70
    64
  0
VERTEX
  5
4BD
  8
TEAM-NET
 10
-164.368353
 20
-222.461228
 30
822.03962
 70
    64
  0
VERTEX
  5
4BE
  8
TEAM-NET
 10
-172.265998
 20
-211.703297
 30
827.056126
 70
    64
  0
VERTEX
  5
4BF
  8
TEAM-NET
 10
-178.721756
 20
-200.183655
 30
832.427823
 70
    64
  0
VERTEX
  5
4C0
  8
TEAM-NET
 10
-183.526118
 20
-188.020364
 30
838.099659
 70
    64
  0
VERTEX
  5
4C1
  8
TEAM-NET
 10
-186.494964
 20
-175.385487
 30
843.991399
 70
    64
  0
VERTEX
  5
4C2
  8
TEAM-NET
 10
-187.5
 20
-162.5
 30
850.0
 70
    64
  0
VERTEX
  5
4C3
  8
TEAM-NET
 10
187.5
 20
-162.5
 30
850.0
 70
    64
  0
VERTEX
  5
4C4
  8
TEAM-NET
 10
186.494964
 20
-175.860138
 30
845.137307
 70
    64
  0
VERTEX
  5
4C5
  8
TEAM-NET
 10
183.526118
 20
-188.960434
 30
840.36919
 70
    64
  0
VERTEX
  5
4C6
  8
TEAM-NET
 10
178.721756
 20
-201.571774
 30
835.779037
 70
    64
  0
VERTEX
  5
4C7
  8
TEAM-NET
 10
172.265998
 20
-213.515754
 30
831.431784
 70
    64
  0
VERTEX
  5
4C8
  8
TEAM-NET
 10
164.368353
 20
-224.669965
 30
827.371983
 70
    64
  0
VERTEX
  5
4C9
  8
TEAM-NET
 10
155.238745
 20
-234.961859
 30
823.62604
 70
    64
  0
VERTEX
  5
4CA
  8
TEAM-NET
 10
145.071823
 20
-244.35725
 30
820.206397
 70
    64
  0
VERTEX
  5
4CB
  8
TEAM-NET
 10
134.039721
 20
-252.848338
 30
817.115894
 70
    64
  0
VERTEX
  5
4CC
  8
TEAM-NET
 10
122.290533
 20
-260.44373
 30
814.351398
 70
    64
  0
VERTEX
  5
4CD
  8
TEAM-NET
 10
109.949945
 20
-267.161088
 30
811.906479
 70
    64
  0
VERTEX
  5
4CE
  8
TEAM-NET
 10
97.124202
 20
-273.022125
 30
809.773236
 70
    64
  0
VERTEX
  5
4CF
  8
TEAM-NET
 10
83.903395
 20
-278.049386
 30
807.943463
 70
    64
  0
VERTEX
  5
4D0
  8
TEAM-NET
 10
70.364578
 20
-282.264253
 30
806.409377
 70
    64
  0
VERTEX
  5
4D1
  8
TEAM-NET
 10
56.57452
 20
-285.685773
 30
805.164045
 70
    64
  0
VERTEX
  5
4D2
  8
TEAM-NET
 10
42.592062
 20
-288.329986
 30
804.20163
 70
    64
  0
VERTEX
  5
4D3
  8
TEAM-NET
 10
28.470123
 20
-290.20957
 30
803.517518
 70
    64
  0
VERTEX
  5
4D4
  8
TEAM-NET
 10
14.257424
 20
-291.333653
 30
803.108385
 70
    64
  0
VERTEX
  5
4D5
  8
TEAM-NET
 10
0.0
 20
-291.707735
 30
802.97223
 70
    64
  0
VERTEX
  5
4D6
  8
TEAM-NET
 10
-14.257424
 20
-291.333653
 30
803.108385
 70
    64
  0
VERTEX
  5
4D7
  8
TEAM-NET
 10
-28.470123
 20
-290.20957
 30
803.517518
 70
    64
  0
VERTEX
  5
4D8
  8
TEAM-NET
 10
-42.592062
 20
-288.329986
 30
804.20163
 70
    64
  0
VERTEX
  5
4D9
  8
TEAM-NET
 10
-56.57452
 20
-285.685773
 30
805.164045
 70
    64
  0
VERTEX
  5
4DA
  8
TEAM-NET
 10
-70.364578
 20
-282.264253
 30
806.409377
 70
    64
  0
VERTEX
  5
4DB
  8
TEAM-NET
 10
-83.903395
 20
-278.049386
 30
807.943463
 70
    64
  0
VERTEX
  5
4DC
  8
TEAM-NET
 10
-97.124202
 20
-273.022125
 30
809.773236
 70
    64
  0
VERTEX
  5
4DD
  8
TEAM-NET
 10
-109.949945
 20
-267.161088
 30
811.906479
 70
    64
  0
VERTEX
  5
4DE
  8
TEAM-NET
 10
-122.290533
 20
-260.44373
 30
814.351398
 70
    64
  0
VERTEX
  5
4DF
  8
TEAM-NET
 10
-134.039721
 20
-252.848338
 30
817.115894
 70
    64
  0
VERTEX
  5
4E0
  8
TEAM-NET
 10
-145.071823
 20
-244.35725
 30
820.206397
 70
    64
  0
VERTEX
  5
4E1
  8
TEAM-NET
 10
-155.238745
 20
-234.961859
 30
823.62604
 70
    64
  0
VERTEX
  5
4E2
  8
TEAM-NET
 10
-164.368353
 20
-224.669965
 30
827.371983
 70
    64
  0
VERTEX
  5
4E3
  8
TEAM-NET
 10
-172.265998
 20
-213.515754
 30
831.431784
 70
    64
  0
VERTEX
  5
4E4
  8
TEAM-NET
 10
-178.721756
 20
-201.571774
 30
835.779037
 70
    64
  0
VERTEX
  5
4E5
  8
TEAM-NET
 10
-183.526118
 20
-188.960434
 30
840.36919
 70
    64
  0
VERTEX
  5
4E6
  8
TEAM-NET
 10
-186.494964
 20
-175.860138
 30
845.137307
 70
    64
  0
VERTEX
  5
4E7
  8
TEAM-NET
 10
-187.5
 20
-162.5
 30
850.0
 70
    64
  0
VERTEX
  5
4E8
  8
TEAM-NET
 10
187.5
 20
-162.5
 30
850.0
 70
    64
  0
VERTEX
  5
4E9
  8
TEAM-NET
 10
186.494964
 20
-176.23311
 30
846.320224
 70
    64
  0
VERTEX
  5
4EA
  8
TEAM-NET
 10
183.526118
 20
-189.699124
 30
842.712017
 70
    64
  0
VERTEX
  5
4EB
  8
TEAM-NET
 10
178.721756
 20
-202.662533
 30
839.238482
 70
    64
  0
VERTEX
  5
4EC
  8
TEAM-NET
 10
172.265998
 20
-214.93995
 30
835.948758
 70
    64
  0
VERTEX
  5
4ED
  8
TEAM-NET
 10
164.368353
 20
-226.405551
 30
832.876559
 70
    64
  0
VERTEX
  5
4EE
  8
TEAM-NET
 10
155.238745
 20
-236.984762
 30
830.041868
 70
    64
  0
VERTEX
  5
4EF
  8
TEAM-NET
 10
145.071823
 20
-246.642442
 30
827.454101
 70
    64
  0
VERTEX
  5
4F0
  8
TEAM-NET
 10
134.039721
 20
-255.370574
 30
825.115405
 70
    64
  0
VERTEX
  5
4F1
  8
TEAM-NET
 10
122.290533
 20
-263.178005
 30
823.02341
 70
    64
  0
VERTEX
  5
4F2
  8
TEAM-NET
 10
109.949945
 20
-270.08289
 30
821.173252
 70
    64
  0
VERTEX
  5
4F3
  8
TEAM-NET
 10
97.124202
 20
-276.107549
 30
819.558949
 70
    64
  0
VERTEX
  5
4F4
  8
TEAM-NET
 10
83.903395
 20
-281.275155
 30
818.174293
 70
    64
  0
VERTEX
  5
4F5
  8
TEAM-NET
 10
70.364578
 20
-285.607687
 30
817.013395
 70
    64
  0
VERTEX
  5
4F6
  8
TEAM-NET
 10
56.57452
 20
-289.124725
 30
816.071007
 70
    64
  0
VERTEX
  5
4F7
  8
TEAM-NET
 10
42.592062
 20
-291.842756
 30
815.342713
 70
    64
  0
VERTEX
  5
4F8
  8
TEAM-NET
 10
28.470123
 20
-293.774812
 30
814.82502
 70
    64
  0
VERTEX
  5
4F9
  8
TEAM-NET
 10
14.257424
 20
-294.930276
 30
814.515415
 70
    64
  0
VERTEX
  5
4FA
  8
TEAM-NET
 10
0.0
 20
-295.314801
 30
814.412381
 70
    64
  0
VERTEX
  5
4FB
  8
TEAM-NET
 10
-14.257424
 20
-294.930276
 30
814.515415
 70
    64
  0
VERTEX
  5
4FC
  8
TEAM-NET
 10
-28.470123
 20
-293.774812
 30
814.82502
 70
    64
  0
VERTEX
  5
4FD
  8
TEAM-NET
 10
-42.592062
 20
-291.842756
 30
815.342713
 70
    64
  0
VERTEX
  5
4FE
  8
TEAM-NET
 10
-56.57452
 20
-289.124725
 30
816.071007
 70
    64
  0
VERTEX
  5
4FF
  8
TEAM-NET
 10
-70.364578
 20
-285.607687
 30
817.013395
 70
    64
  0
VERTEX
  5
500
  8
TEAM-NET
 10
-83.903395
 20
-281.275155
 30
818.174293
 70
    64
  0
VERTEX
  5
501
  8
TEAM-NET
 10
-97.124202
 20
-276.107549
 30
819.558949
 70
    64
  0
VERTEX
  5
502
  8
TEAM-NET
 10
-109.949945
 20
-270.08289
 30
821.173252
 70
    64
  0
VERTEX
  5
503
  8
TEAM-NET
 10
-122.290533
 20
-263.178005
 30
823.02341
 70
    64
  0
VERTEX
  5
504
  8
TEAM-NET
 10
-134.039721
 20
-255.370574
 30
825.115405
 70
    64
  0
VERTEX
  5
505
  8
TEAM-NET
 10
-145.071823
 20
-246.642442
 30
827.454101
 70
    64
  0
VERTEX
  5
506
  8
TEAM-NET
 10
-155.238745
 20
-236.984762
 30
830.041868
 70
    64
  0
VERTEX
  5
507
  8
TEAM-NET
 10
-164.368353
 20
-226.405551
 30
832.876559
 70
    64
  0
VERTEX
  5
508
  8
TEAM-NET
 10
-172.265998
 20
-214.93995
 30
835.948758
 70
    64
  0
VERTEX
  5
509
  8
TEAM-NET
 10
-178.721756
 20
-202.662533
 30
839.238482
 70
    64
  0
VERTEX
  5
50A
  8
TEAM-NET
 10
-183.526118
 20
-189.699124
 30
842.712017
 70
    64
  0
VERTEX
  5
50B
  8
TEAM-NET
 10
-186.494964
 20
-176.23311
 30
846.320224
 70
    64
  0
VERTEX
  5
50C
  8
TEAM-NET
 10
-187.5
 20
-162.5
 30
850.0
 70
    64
  0
VERTEX
  5
50D
  8
TEAM-NET
 10
187.5
 20
-162.5
 30
850.0
 70
    64
  0
VERTEX
  5
50E
  8
TEAM-NET
 10
186.494964
 20
-176.501565
 30
847.531146
 70
    64
  0
VERTEX
  5
50F
  8
TEAM-NET
 10
183.526118
 20
-190.230813
 30
845.110309
 70
    64
  0
VERTEX
  5
510
  8
TEAM-NET
 10
178.721756
 20
-203.44763
 30
842.779828
 70
    64
  0
VERTEX
  5
511
  8
TEAM-NET
 10
172.265998
 20
-215.965047
 30
840.57267
 70
    64
  0
VERTEX
  5
512
  8
TEAM-NET
 10
164.368353
 20
-227.654778
 30
838.511455
 70
    64
  0
VERTEX
  5
513
  8
TEAM-NET
 10
155.238745
 20
-238.440791
 30
836.60959
 70
    64
  0
VERTEX
  5
514
  8
TEAM-NET
 10
145.071823
 20
-248.28726
 30
834.873392
 70
    64
  0
VERTEX
  5
515
  8
TEAM-NET
 10
134.039721
 20
-257.186009
 30
833.304302
 70
    64
  0
VERTEX
  5
516
  8
TEAM-NET
 10
122.290533
 20
-265.14606
 30
831.90073
 70
    64
  0
VERTEX
  5
517
  8
TEAM-NET
 10
109.949945
 20
-272.185921
 30
830.659413
 70
    64
  0
VERTEX
  5
518
  8
TEAM-NET
 10
97.124202
 20
-278.32835
 30
829.576337
 70
    64
  0
VERTEX
  5
519
  8
TEAM-NET
 10
83.903395
 20
-283.596972
 30
828.647336
 70
    64
  0
VERTEX
  5
51A
  8
TEAM-NET
 10
70.364578
 20
-288.014197
 30
827.868461
 70
    64
  0
VERTEX
  5
51B
  8
TEAM-NET
 10
56.57452
 20
-291.599986
 30
827.236189
 70
    64
  0
VERTEX
  5
51C
  8
TEAM-NET
 10
42.592062
 20
-294.371149
 30
826.747558
 70
    64
  0
VERTEX
  5
51D
  8
TEAM-NET
 10
28.470123
 20
-296.340973
 30
826.400225
 70
    64
  0
VERTEX
  5
51E
  8
TEAM-NET
 10
14.257424
 20
-297.519024
 30
826.192503
 70
    64
  0
VERTEX
  5
51F
  8
TEAM-NET
 10
0.0
 20
-297.911066
 30
826.123376
 70
    64
  0
VERTEX
  5
520
  8
TEAM-NET
 10
-14.257424
 20
-297.519024
 30
826.192503
 70
    64
  0
VERTEX
  5
521
  8
TEAM-NET
 10
-28.470123
 20
-296.340973
 30
826.400225
 70
    64
  0
VERTEX
  5
522
  8
TEAM-NET
 10
-42.592062
 20
-294.371149
 30
826.747558
 70
    64
  0
VERTEX
  5
523
  8
TEAM-NET
 10
-56.57452
 20
-291.599986
 30
827.236189
 70
    64
  0
VERTEX
  5
524
  8
TEAM-NET
 10
-70.364578
 20
-288.014197
 30
827.868461
 70
    64
  0
VERTEX
  5
525
  8
TEAM-NET
 10
-83.903395
 20
-283.596972
 30
828.647336
 70
    64
  0
VERTEX
  5
526
  8
TEAM-NET
 10
-97.124202
 20
-278.32835
 30
829.576337
 70
    64
  0
VERTEX
  5
527
  8
TEAM-NET
 10
-109.949945
 20
-272.185921
 30
830.659413
 70
    64
  0
VERTEX
  5
528
  8
TEAM-NET
 10
-122.290533
 20
-265.14606
 30
831.90073
 70
    64
  0
VERTEX
  5
529
  8
TEAM-NET
 10
-134.039721
 20
-257.186009
 30
833.304302
 70
    64
  0
VERTEX
  5
52A
  8
TEAM-NET
 10
-145.071823
 20
-248.28726
 30
834.873392
 70
    64
  0
VERTEX
  5
52B
  8
TEAM-NET
 10
-155.238745
 20
-238.440791
 30
836.60959
 70
    64
  0
VERTEX
  5
52C
  8
TEAM-NET
 10
-164.368353
 20
-227.654778
 30
838.511455
 70
    64
  0
VERTEX
  5
52D
  8
TEAM-NET
 10
-172.265998
 20
-215.965047
 30
840.57267
 70
    64
  0
VERTEX
  5
52E
  8
TEAM-NET
 10
-178.721756
 20
-203.44763
 30
842.779828
 70
    64
  0
VERTEX
  5
52F
  8
TEAM-NET
 10
-183.526118
 20
-190.230813
 30
845.110309
 70
    64
  0
VERTEX
  5
530
  8
TEAM-NET
 10
-186.494964
 20
-176.501565
 30
847.531146
 70
    64
  0
VERTEX
  5
531
  8
TEAM-NET
 10
-187.5
 20
-162.5
 30
850.0
 70
    64
  0
VERTEX
  5
532
  8
TEAM-NET
 10
187.5
 20
-162.5
 30
850.0
 70
    64
  0
VERTEX
  5
533
  8
TEAM-NET
 10
186.494964
 20
-176.66346
 30
848.760858
 70
    64
  0
VERTEX
  5
534
  8
TEAM-NET
 10
183.526118
 20
-190.551454
 30
847.545816
 70
    64
  0
VERTEX
  5
535
  8
TEAM-NET
 10
178.721756
 20
-203.921091
 30
846.376124
 70
    64
  0
VERTEX
  5
536
  8
TEAM-NET
 10
172.265998
 20
-216.583242
 30
845.268329
 70
    64
  0
VERTEX
  5
537
  8
TEAM-NET
 10
164.368353
 20
-228.408137
 30
844.233785
 70
    64
  0
VERTEX
  5
538
  8
TEAM-NET
 10
155.238745
 20
-239.318865
 30
843.27922
 70
    64
  0
VERTEX
  5
539
  8
TEAM-NET
 10
145.071823
 20
-249.279184
 30
842.407805
 70
    64
  0
VERTEX
  5
53A
  8
TEAM-NET
 10
134.039721
 20
-258.280826
 30
841.620264
 70
    64
  0
VERTEX
  5
53B
  8
TEAM-NET
 10
122.290533
 20
-266.332916
 30
840.915797
 70
    64
  0
VERTEX
  5
53C
  8
TEAM-NET
 10
109.949945
 20
-273.454176
 30
840.292767
 70
    64
  0
VERTEX
  5
53D
  8
TEAM-NET
 10
97.124202
 20
-279.667628
 30
839.749161
 70
    64
  0
VERTEX
  5
53E
  8
TEAM-NET
 10
83.903395
 20
-284.997169
 30
839.282886
 70
    64
  0
VERTEX
  5
53F
  8
TEAM-NET
 10
70.364578
 20
-289.465469
 30
838.891961
 70
    64
  0
VERTEX
  5
540
  8
TEAM-NET
 10
56.57452
 20
-293.092718
 30
838.574618
 70
    64
  0
VERTEX
  5
541
  8
TEAM-NET
 10
42.592062
 20
-295.895924
 30
838.329369
 70
    64
  0
VERTEX
  5
542
  8
TEAM-NET
 10
28.470123
 20
-297.888523
 30
838.155039
 70
    64
  0
VERTEX
  5
543
  8
TEAM-NET
 10
14.257424
 20
-299.080196
 30
838.050781
 70
    64
  0
VERTEX
  5
544
  8
TEAM-NET
 10
0.0
 20
-299.476771
 30
838.016085
 70
    64
  0
VERTEX
  5
545
  8
TEAM-NET
 10
-14.257424
 20
-299.080196
 30
838.050781
 70
    64
  0
VERTEX
  5
546
  8
TEAM-NET
 10
-28.470123
 20
-297.888523
 30
838.155039
 70
    64
  0
VERTEX
  5
547
  8
TEAM-NET
 10
-42.592062
 20
-295.895924
 30
838.329369
 70
    64
  0
VERTEX
  5
548
  8
TEAM-NET
 10
-56.57452
 20
-293.092718
 30
838.574618
 70
    64
  0
VERTEX
  5
549
  8
TEAM-NET
 10
-70.364578
 20
-289.465469
 30
838.891961
 70
    64
  0
VERTEX
  5
54A
  8
TEAM-NET
 10
-83.903395
 20
-284.997169
 30
839.282886
 70
    64
  0
VERTEX
  5
54B
  8
TEAM-NET
 10
-97.124202
 20
-279.667628
 30
839.749161
 70
    64
  0
VERTEX
  5
54C
  8
TEAM-NET
 10
-109.949945
 20
-273.454176
 30
840.292767
 70
    64
  0
VERTEX
  5
54D
  8
TEAM-NET
 10
-122.290533
 20
-266.332916
 30
840.915797
 70
    64
  0
VERTEX
  5
54E
  8
TEAM-NET
 10
-134.039721
 20
-258.280826
 30
841.620264
 70
    64
  0
VERTEX
  5
54F
  8
TEAM-NET
 10
-145.071823
 20
-249.279184
 30
842.407805
 70
    64
  0
VERTEX
  5
550
  8
TEAM-NET
 10
-155.238745
 20
-239.318865
 30
843.27922
 70
    64
  0
VERTEX
  5
551
  8
TEAM-NET
 10
-164.368353
 20
-228.408137
 30
844.233785
 70
    64
  0
VERTEX
  5
552
  8
TEAM-NET
 10
-172.265998
 20
-216.583242
 30
845.268329
 70
    64
  0
VERTEX
  5
553
  8
TEAM-NET
 10
-178.721756
 20
-203.921091
 30
846.376124
 70
    64
  0
VERTEX
  5
554
  8
TEAM-NET
 10
-183.526118
 20
-190.551454
 30
847.545816
 70
    64
  0
VERTEX
  5
555
  8
TEAM-NET
 10
-186.494964
 20
-176.66346
 30
848.760858
 70
    64
  0
VERTEX
  5
556
  8
TEAM-NET
 10
-187.5
 20
-162.5
 30
850.0
 70
    64
  0
VERTEX
  5
557
  8
TEAM-NET
 10
187.5
 20
-162.5
 30
850.0
 70
    64
  0
VERTEX
  5
558
  8
TEAM-NET
 10
186.494964
 20
-176.717562
 30
850.0
 70
    64
  0
VERTEX
  5
559
  8
TEAM-NET
 10
183.526118
 20
-190.658606
 30
850.0
 70
    64
  0
VERTEX
  5
55A
  8
TEAM-NET
 10
178.721756
 20
-204.079313
 30
850.0
 70
    64
  0
VERTEX
  5
55B
  8
TEAM-NET
 10
172.265998
 20
-216.789831
 30
850.0
 70
    64
  0
VERTEX
  5
55C
  8
TEAM-NET
 10
164.368353
 20
-228.659895
 30
850.0
 70
    64
  0
VERTEX
  5
55D
  8
TEAM-NET
 10
155.238745
 20
-239.6123
 30
850.0
 70
    64
  0
VERTEX
  5
55E
  8
TEAM-NET
 10
145.071823
 20
-249.610666
 30
850.0
 70
    64
  0
VERTEX
  5
55F
  8
TEAM-NET
 10
134.039721
 20
-258.646693
 30
850.0
 70
    64
  0
VERTEX
  5
560
  8
TEAM-NET
 10
122.290533
 20
-266.729541
 30
850.0
 70
    64
  0
VERTEX
  5
561
  8
TEAM-NET
 10
109.949945
 20
-273.878003
 30
850.0
 70
    64
  0
VERTEX
  5
562
  8
TEAM-NET
 10
97.124202
 20
-280.115189
 30
850.0
 70
    64
  0
VERTEX
  5
563
  8
TEAM-NET
 10
83.903395
 20
-285.465088
 30
850.0
 70
    64
  0
VERTEX
  5
564
  8
TEAM-NET
 10
70.364578
 20
-289.950456
 30
850.0
 70
    64
  0
VERTEX
  5
565
  8
TEAM-NET
 10
56.57452
 20
-293.591561
 30
850.0
 70
    64
  0
VERTEX
  5
566
  8
TEAM-NET
 10
42.592062
 20
-296.405474
 30
850.0
 70
    64
  0
VERTEX
  5
567
  8
TEAM-NET
 10
28.470123
 20
-298.405686
 30
850.0
 70
    64
  0
VERTEX
  5
568
  8
TEAM-NET
 10
14.257424
 20
-299.60191
 30
850.0
 70
    64
  0
VERTEX
  5
569
  8
TEAM-NET
 10
0.0
 20
-300.0
 30
850.0
 70
    64
  0
VERTEX
  5
56A
  8
TEAM-NET
 10
-14.257424
 20
-299.60191
 30
850.0
 70
    64
  0
VERTEX
  5
56B
  8
TEAM-NET
 10
-28.470123
 20
-298.405686
 30
850.0
 70
    64
  0
VERTEX
  5
56C
  8
TEAM-NET
 10
-42.592062
 20
-296.405474
 30
850.0
 70
    64
  0
VERTEX
  5
56D
  8
TEAM-NET
 10
-56.57452
 20
-293.591561
 30
850.0
 70
    64
  0
VERTEX
  5
56E
  8
TEAM-NET
 10
-70.364578
 20
-289.950456
 30
850.0
 70
    64
  0
VERTEX
  5
56F
  8
TEAM-NET
 10
-83.903395
 20
-285.465088
 30
850.0
 70
    64
  0
VERTEX
  5
570
  8
TEAM-NET
 10
-97.124202
 20
-280.115189
 30
850.0
 70
    64
  0
VERTEX
  5
571
  8
TEAM-NET
 10
-109.949945
 20
-273.878003
 30
850.0
 70
    64
  0
VERTEX
  5
572
  8
TEAM-NET
 10
-122.290533
 20
-266.729541
 30
850.0
 70
    64
  0
VERTEX
  5
573
  8
TEAM-NET
 10
-134.039721
 20
-258.646693
 30
850.0
 70
    64
  0
VERTEX
  5
574
  8
TEAM-NET
 10
-145.071823
 20
-249.610666
 30
850.0
 70
    64
  0
VERTEX
  5
575
  8
TEAM-NET
 10
-155.238745
 20
-239.6123
 30
850.0
 70
    64
  0
VERTEX
  5
576
  8
TEAM-NET
 10
-164.368353
 20
-228.659895
 30
850.0
 70
    64
  0
VERTEX
  5
577
  8
TEAM-NET
 10
-172.265998
 20
-216.789831
 30
850.0
 70
    64
  0
VERTEX
  5
578
  8
TEAM-NET
 10
-178.721756
 20
-204.079313
 30
850.0
 70
    64
  0
VERTEX
  5
579
  8
TEAM-NET
 10
-183.526118
 20
-190.658606
 30
850.0
 70
    64
  0
VERTEX
  5
57A
  8
TEAM-NET
 10
-186.494964
 20
-176.717562
 30
850.0
 70
    64
  0
VERTEX
  5
57B
  8
TEAM-NET
 10
-187.5
 20
-162.5
 30
850.0
 70
    64
  0
SEQEND
  5
57D
  8
TEAM-NET
  0
LINE
  5
57E
  8
TEAM-AXE
 10
0.0
 20
-197.5
 30
744.0
 11
0.0
 21
-127.5
 31
744.0
  0
CIRCLE
  5
581
  8
TEAM-DET1
 39
-15.0
 10
0.0
 20
-162.5
 30
744.0
 40
30.0
  0
CIRCLE
  5
583
  8
TEAM-KAN
 39
-15.0
 10
0.0
 20
-162.5
 30
744.0
 40
20.0
  0
LINE
  5
585
  8
TEAM-AXE
 10
35.0
 20
-162.5
 30
744.0
 11
-35.0
 21
-162.5
 31
744.0
  0
POLYLINE
  5
586
  8
TEAM-NET
 66
     1
 10
0.0
 20
0.0
 30
0.0
 70
    16
 71
     2
 72
    37
  0
VERTEX
  5
587
  8
TEAM-NET
 10
212.5
 20
-162.5
 30
850.0
 70
    64
  0
VERTEX
  5
588
  8
TEAM-NET
 10
211.416669
 20
-178.887597
 30
850.0
 70
    64
  0
VERTEX
  5
589
  8
TEAM-NET
 10
208.207971
 20
-194.994969
 30
850.0
 70
    64
  0
VERTEX
  5
58A
  8
TEAM-NET
 10
202.990059
 20
-210.568841
 30
850.0
 70
    64
  0
VERTEX
  5
58B
  8
TEAM-NET
 10
195.934018
 20
-225.40193
 30
850.0
 70
    64
  0
VERTEX
  5
58C
  8
TEAM-NET
 10
187.241248
 20
-239.340443
 30
850.0
 70
    64
  0
VERTEX
  5
58D
  8
TEAM-NET
 10
177.121318
 20
-252.28145
 30
850.0
 70
    64
  0
VERTEX
  5
58E
  8
TEAM-NET
 10
165.776121
 20
-264.164269
 30
850.0
 70
    64
  0
VERTEX
  5
58F
  8
TEAM-NET
 10
153.390791
 20
-274.959913
 30
850.0
 70
    64
  0
VERTEX
  5
590
  8
TEAM-NET
 10
140.129969
 20
-284.661236
 30
850.0
 70
    64
  0
VERTEX
  5
591
  8
TEAM-NET
 10
126.137546
 20
-293.274923
 30
850.0
 70
    64
  0
VERTEX
  5
592
  8
TEAM-NET
 10
111.538309
 20
-300.815521
 30
850.0
 70
    64
  0
VERTEX
  5
593
  8
TEAM-NET
 10
96.440443
 20
-307.301235
 30
850.0
 70
    64
  0
VERTEX
  5
594
  8
TEAM-NET
 10
80.938238
 20
-312.751088
 30
850.0
 70
    64
  0
VERTEX
  5
595
  8
TEAM-NET
 10
65.114711
 20
-317.183054
 30
850.0
 70
    64
  0
VERTEX
  5
596
  8
TEAM-NET
 10
49.043995
 20
-320.612879
 30
850.0
 70
    64
  0
VERTEX
  5
597
  8
TEAM-NET
 10
32.79347
 20
-323.053343
 30
850.0
 70
    64
  0
VERTEX
  5
598
  8
TEAM-NET
 10
16.42567
 20
-324.513815
 30
850.0
 70
    64
  0
VERTEX
  5
599
  8
TEAM-NET
 10
0.0
 20
-325.0
 30
850.0
 70
    64
  0
VERTEX
  5
59A
  8
TEAM-NET
 10
-16.42567
 20
-324.513815
 30
850.0
 70
    64
  0
VERTEX
  5
59B
  8
TEAM-NET
 10
-32.79347
 20
-323.053343
 30
850.0
 70
    64
  0
VERTEX
  5
59C
  8
TEAM-NET
 10
-49.043995
 20
-320.612879
 30
850.0
 70
    64
  0
VERTEX
  5
59D
  8
TEAM-NET
 10
-65.114711
 20
-317.183054
 30
850.0
 70
    64
  0
VERTEX
  5
59E
  8
TEAM-NET
 10
-80.938238
 20
-312.751088
 30
850.0
 70
    64
  0
VERTEX
  5
59F
  8
TEAM-NET
 10
-96.440443
 20
-307.301235
 30
850.0
 70
    64
  0
VERTEX
  5
5A0
  8
TEAM-NET
 10
-111.538309
 20
-300.815521
 30
850.0
 70
    64
  0
VERTEX
  5
5A1
  8
TEAM-NET
 10
-126.137546
 20
-293.274923
 30
850.0
 70
    64
  0
VERTEX
  5
5A2
  8
TEAM-NET
 10
-140.129969
 20
-284.661236
 30
850.0
 70
    64
  0
VERTEX
  5
5A3
  8
TEAM-NET
 10
-153.390791
 20
-274.959913
 30
850.0
 70
    64
  0
VERTEX
  5
5A4
  8
TEAM-NET
 10
-165.776121
 20
-264.164269
 30
850.0
 70
    64
  0
VERTEX
  5
5A5
  8
TEAM-NET
 10
-177.121321
 20
-252.281446
 30
850.0
 70
    64
  0
VERTEX
  5
5A6
  8
TEAM-NET
 10
-187.241248
 20
-239.340443
 30
850.0
 70
    64
  0
VERTEX
  5
5A7
  8
TEAM-NET
 10
-195.934018
 20
-225.40193
 30
850.0
 70
    64
  0
VERTEX
  5
5A8
  8
TEAM-NET
 10
-202.990059
 20
-210.568841
 30
850.0
 70
    64
  0
VERTEX
  5
5A9
  8
TEAM-NET
 10
-208.207971
 20
-194.994969
 30
850.0
 70
    64
  0
VERTEX
  5
5AA
  8
TEAM-NET
 10
-211.416669
 20
-178.887597
 30
850.0
 70
    64
  0
VERTEX
  5
5AB
  8
TEAM-NET
 10
-212.5
 20
-162.5
 30
850.0
 70
    64
  0
VERTEX
  5
5AC
  8
TEAM-NET
 10
212.5
 20
-162.5
 30
842.0
 70
    64
  0
VERTEX
  5
5AD
  8
TEAM-NET
 10
211.416669
 20
-178.887597
 30
842.0
 70
    64
  0
VERTEX
  5
5AE
  8
TEAM-NET
 10
208.207971
 20
-194.994969
 30
842.0
 70
    64
  0
VERTEX
  5
5AF
  8
TEAM-NET
 10
202.990059
 20
-210.568841
 30
842.0
 70
    64
  0
VERTEX
  5
5B0
  8
TEAM-NET
 10
195.934018
 20
-225.40193
 30
842.0
 70
    64
  0
VERTEX
  5
5B1
  8
TEAM-NET
 10
187.241248
 20
-239.340443
 30
842.0
 70
    64
  0
VERTEX
  5
5B2
  8
TEAM-NET
 10
177.121318
 20
-252.28145
 30
842.0
 70
    64
  0
VERTEX
  5
5B3
  8
TEAM-NET
 10
165.776121
 20
-264.164269
 30
842.0
 70
    64
  0
VERTEX
  5
5B4
  8
TEAM-NET
 10
153.390791
 20
-274.959913
 30
842.0
 70
    64
  0
VERTEX
  5
5B5
  8
TEAM-NET
 10
140.129969
 20
-284.661236
 30
842.0
 70
    64
  0
VERTEX
  5
5B6
  8
TEAM-NET
 10
126.137546
 20
-293.274923
 30
842.0
 70
    64
  0
VERTEX
  5
5B7
  8
TEAM-NET
 10
111.538309
 20
-300.815521
 30
842.0
 70
    64
  0
VERTEX
  5
5B8
  8
TEAM-NET
 10
96.440443
 20
-307.301235
 30
842.0
 70
    64
  0
VERTEX
  5
5B9
  8
TEAM-NET
 10
80.938238
 20
-312.751088
 30
842.0
 70
    64
  0
VERTEX
  5
5BA
  8
TEAM-NET
 10
65.114711
 20
-317.183054
 30
842.0
 70
    64
  0
VERTEX
  5
5BB
  8
TEAM-NET
 10
49.043995
 20
-320.612879
 30
842.0
 70
    64
  0
VERTEX
  5
5BC
  8
TEAM-NET
 10
32.79347
 20
-323.053343
 30
842.0
 70
    64
  0
VERTEX
  5
5BD
  8
TEAM-NET
 10
16.42567
 20
-324.513815
 30
842.0
 70
    64
  0
VERTEX
  5
5BE
  8
TEAM-NET
 10
0.0
 20
-325.0
 30
842.0
 70
    64
  0
VERTEX
  5
5BF
  8
TEAM-NET
 10
-16.42567
 20
-324.513815
 30
842.0
 70
    64
  0
VERTEX
  5
5C0
  8
TEAM-NET
 10
-32.79347
 20
-323.053343
 30
842.0
 70
    64
  0
VERTEX
  5
5C1
  8
TEAM-NET
 10
-49.043995
 20
-320.612879
 30
842.0
 70
    64
  0
VERTEX
  5
5C2
  8
TEAM-NET
 10
-65.114711
 20
-317.183054
 30
842.0
 70
    64
  0
VERTEX
  5
5C3
  8
TEAM-NET
 10
-80.938238
 20
-312.751088
 30
842.0
 70
    64
  0
VERTEX
  5
5C4
  8
TEAM-NET
 10
-96.440443
 20
-307.301235
 30
842.0
 70
    64
  0
VERTEX
  5
5C5
  8
TEAM-NET
 10
-111.538309
 20
-300.815521
 30
842.0
 70
    64
  0
VERTEX
  5
5C6
  8
TEAM-NET
 10
-126.137546
 20
-293.274923
 30
842.0
 70
    64
  0
VERTEX
  5
5C7
  8
TEAM-NET
 10
-140.129969
 20
-284.661236
 30
842.0
 70
    64
  0
VERTEX
  5
5C8
  8
TEAM-NET
 10
-153.390791
 20
-274.959913
 30
842.0
 70
    64
  0
VERTEX
  5
5C9
  8
TEAM-NET
 10
-165.776121
 20
-264.164269
 30
842.0
 70
    64
  0
VERTEX
  5
5CA
  8
TEAM-NET
 10
-177.121321
 20
-252.281446
 30
842.0
 70
    64
  0
VERTEX
  5
5CB
  8
TEAM-NET
 10
-187.241248
 20
-239.340443
 30
842.0
 70
    64
  0
VERTEX
  5
5CC
  8
TEAM-NET
 10
-195.934018
 20
-225.40193
 30
842.0
 70
    64
  0
VERTEX
  5
5CD
  8
TEAM-NET
 10
-202.990059
 20
-210.568841
 30
842.0
 70
    64
  0
VERTEX
  5
5CE
  8
TEAM-NET
 10
-208.207971
 20
-194.994969
 30
842.0
 70
    64
  0
VERTEX
  5
5CF
  8
TEAM-NET
 10
-211.416669
 20
-178.887597
 30
842.0
 70
    64
  0
VERTEX
  5
5D0
  8
TEAM-NET
 10
-212.5
 20
-162.5
 30
842.0
 70
    64
  0
SEQEND
  5
5D1
  8
TEAM-NET
  0
POLYLINE
  5
5D2
  8
TEAM-NET
 66
     1
 10
0.0
 20
0.0
 30
0.0
 70
    16
 71
     2
 72
    37
  0
VERTEX
  5
5D3
  8
TEAM-NET
 10
212.5
 20
-162.5
 30
850.0
 70
    64
  0
VERTEX
  5
5D4
  8
TEAM-NET
 10
211.416669
 20
-146.112403
 30
850.0
 70
    64
  0
VERTEX
  5
5D5
  8
TEAM-NET
 10
208.207971
 20
-130.005031
 30
850.0
 70
    64
  0
VERTEX
  5
5D6
  8
TEAM-NET
 10
202.990059
 20
-114.431159
 30
850.0
 70
    64
  0
VERTEX
  5
5D7
  8
TEAM-NET
 10
195.934018
 20
-99.59807
 30
850.0
 70
    64
  0
VERTEX
  5
5D8
  8
TEAM-NET
 10
187.241248
 20
-85.659557
 30
850.0
 70
    64
  0
VERTEX
  5
5D9
  8
TEAM-NET
 10
177.121318
 20
-72.71855
 30
850.0
 70
    64
  0
VERTEX
  5
5DA
  8
TEAM-NET
 10
165.776121
 20
-60.835731
 30
850.0
 70
    64
  0
VERTEX
  5
5DB
  8
TEAM-NET
 10
153.390791
 20
-50.040087
 30
850.0
 70
    64
  0
VERTEX
  5
5DC
  8
TEAM-NET
 10
140.129969
 20
-40.338764
 30
850.0
 70
    64
  0
VERTEX
  5
5DD
  8
TEAM-NET
 10
126.137546
 20
-31.725077
 30
850.0
 70
    64
  0
VERTEX
  5
5DE
  8
TEAM-NET
 10
111.538309
 20
-24.184479
 30
850.0
 70
    64
  0
VERTEX
  5
5DF
  8
TEAM-NET
 10
96.440443
 20
-17.698765
 30
850.0
 70
    64
  0
VERTEX
  5
5E0
  8
TEAM-NET
 10
80.938238
 20
-12.248912
 30
850.0
 70
    64
  0
VERTEX
  5
5E1
  8
TEAM-NET
 10
65.114711
 20
-7.816946
 30
850.0
 70
    64
  0
VERTEX
  5
5E2
  8
TEAM-NET
 10
49.043995
 20
-4.387121
 30
850.0
 70
    64
  0
VERTEX
  5
5E3
  8
TEAM-NET
 10
32.79347
 20
-1.946657
 30
850.0
 70
    64
  0
VERTEX
  5
5E4
  8
TEAM-NET
 10
16.42567
 20
-0.486185
 30
850.0
 70
    64
  0
VERTEX
  5
5E5
  8
TEAM-NET
 10
0.0
 20
0.0
 30
850.0
 70
    64
  0
VERTEX
  5
5E6
  8
TEAM-NET
 10
-16.42567
 20
-0.486185
 30
850.0
 70
    64
  0
VERTEX
  5
5E7
  8
TEAM-NET
 10
-32.79347
 20
-1.946657
 30
850.0
 70
    64
  0
VERTEX
  5
5E8
  8
TEAM-NET
 10
-49.043995
 20
-4.387121
 30
850.0
 70
    64
  0
VERTEX
  5
5E9
  8
TEAM-NET
 10
-65.114711
 20
-7.816946
 30
850.0
 70
    64
  0
VERTEX
  5
5EA
  8
TEAM-NET
 10
-80.938238
 20
-12.248912
 30
850.0
 70
    64
  0
VERTEX
  5
5EB
  8
TEAM-NET
 10
-96.440443
 20
-17.698765
 30
850.0
 70
    64
  0
VERTEX
  5
5EC
  8
TEAM-NET
 10
-111.538309
 20
-24.184479
 30
850.0
 70
    64
  0
VERTEX
  5
5ED
  8
TEAM-NET
 10
-126.137546
 20
-31.725077
 30
850.0
 70
    64
  0
VERTEX
  5
5EE
  8
TEAM-NET
 10
-140.129969
 20
-40.338764
 30
850.0
 70
    64
  0
VERTEX
  5
5EF
  8
TEAM-NET
 10
-153.390791
 20
-50.040087
 30
850.0
 70
    64
  0
VERTEX
  5
5F0
  8
TEAM-NET
 10
-165.776121
 20
-60.835731
 30
850.0
 70
    64
  0
VERTEX
  5
5F1
  8
TEAM-NET
 10
-177.121321
 20
-72.718554
 30
850.0
 70
    64
  0
VERTEX
  5
5F2
  8
TEAM-NET
 10
-187.241248
 20
-85.659557
 30
850.0
 70
    64
  0
VERTEX
  5
5F3
  8
TEAM-NET
 10
-195.934018
 20
-99.59807
 30
850.0
 70
    64
  0
VERTEX
  5
5F4
  8
TEAM-NET
 10
-202.990059
 20
-114.431159
 30
850.0
 70
    64
  0
VERTEX
  5
5F5
  8
TEAM-NET
 10
-208.207971
 20
-130.005031
 30
850.0
 70
    64
  0
VERTEX
  5
5F6
  8
TEAM-NET
 10
-211.416669
 20
-146.112403
 30
850.0
 70
    64
  0
VERTEX
  5
5F7
  8
TEAM-NET
 10
-212.5
 20
-162.5
 30
850.0
 70
    64
  0
VERTEX
  5
5F8
  8
TEAM-NET
 10
212.5
 20
-162.5
 30
842.0
 70
    64
  0
VERTEX
  5
5F9
  8
TEAM-NET
 10
211.416669
 20
-146.112403
 30
842.0
 70
    64
  0
VERTEX
  5
5FA
  8
TEAM-NET
 10
208.207971
 20
-130.005031
 30
842.0
 70
    64
  0
VERTEX
  5
5FB
  8
TEAM-NET
 10
202.990059
 20
-114.431159
 30
842.0
 70
    64
  0
VERTEX
  5
5FC
  8
TEAM-NET
 10
195.934018
 20
-99.59807
 30
842.0
 70
    64
  0
VERTEX
  5
5FD
  8
TEAM-NET
 10
187.241248
 20
-85.659557
 30
842.0
 70
    64
  0
VERTEX
  5
5FE
  8
TEAM-NET
 10
177.121318
 20
-72.71855
 30
842.0
 70
    64
  0
VERTEX
  5
5FF
  8
TEAM-NET
 10
165.776121
 20
-60.835731
 30
842.0
 70
    64
  0
VERTEX
  5
600
  8
TEAM-NET
 10
153.390791
 20
-50.040087
 30
842.0
 70
    64
  0
VERTEX
  5
601
  8
TEAM-NET
 10
140.129969
 20
-40.338764
 30
842.0
 70
    64
  0
VERTEX
  5
602
  8
TEAM-NET
 10
126.137546
 20
-31.725077
 30
842.0
 70
    64
  0
VERTEX
  5
603
  8
TEAM-NET
 10
111.538309
 20
-24.184479
 30
842.0
 70
    64
  0
VERTEX
  5
604
  8
TEAM-NET
 10
96.440443
 20
-17.698765
 30
842.0
 70
    64
  0
VERTEX
  5
605
  8
TEAM-NET
 10
80.938238
 20
-12.248912
 30
842.0
 70
    64
  0
VERTEX
  5
606
  8
TEAM-NET
 10
65.114711
 20
-7.816946
 30
842.0
 70
    64
  0
VERTEX
  5
607
  8
TEAM-NET
 10
49.043995
 20
-4.387121
 30
842.0
 70
    64
  0
VERTEX
  5
608
  8
TEAM-NET
 10
32.79347
 20
-1.946657
 30
842.0
 70
    64
  0
VERTEX
  5
609
  8
TEAM-NET
 10
16.42567
 20
-0.486185
 30
842.0
 70
    64
  0
VERTEX
  5
60A
  8
TEAM-NET
 10
0.0
 20
0.0
 30
842.0
 70
    64
  0
VERTEX
  5
60B
  8
TEAM-NET
 10
-16.42567
 20
-0.486185
 30
842.0
 70
    64
  0
VERTEX
  5
60C
  8
TEAM-NET
 10
-32.79347
 20
-1.946657
 30
842.0
 70
    64
  0
VERTEX
  5
60D
  8
TEAM-NET
 10
-49.043995
 20
-4.387121
 30
842.0
 70
    64
  0
VERTEX
  5
60E
  8
TEAM-NET
 10
-65.114711
 20
-7.816946
 30
842.0
 70
    64
  0
VERTEX
  5
60F
  8
TEAM-NET
 10
-80.938238
 20
-12.248912
 30
842.0
 70
    64
  0
VERTEX
  5
610
  8
TEAM-NET
 10
-96.440443
 20
-17.698765
 30
842.0
 70
    64
  0
VERTEX
  5
611
  8
TEAM-NET
 10
-111.538309
 20
-24.184479
 30
842.0
 70
    64
  0
VERTEX
  5
612
  8
TEAM-NET
 10
-126.137546
 20
-31.725077
 30
842.0
 70
    64
  0
VERTEX
  5
613
  8
TEAM-NET
 10
-140.129969
 20
-40.338764
 30
842.0
 70
    64
  0
VERTEX
  5
614
  8
TEAM-NET
 10
-153.390791
 20
-50.040087
 30
842.0
 70
    64
  0
VERTEX
  5
615
  8
TEAM-NET
 10
-165.776121
 20
-60.835731
 30
842.0
 70
    64
  0
VERTEX
  5
616
  8
TEAM-NET
 10
-177.121321
 20
-72.718554
 30
842.0
 70
    64
  0
VERTEX
  5
617
  8
TEAM-NET
 10
-187.241248
 20
-85.659557
 30
842.0
 70
    64
  0
VERTEX
  5
618
  8
TEAM-NET
 10
-195.934018
 20
-99.59807
 30
842.0
 70
    64
  0
VERTEX
  5
619
  8
TEAM-NET
 10
-202.990059
 20
-114.431159
 30
842.0
 70
    64
  0
VERTEX
  5
61A
  8
TEAM-NET
 10
-208.207971
 20
-130.005031
 30
842.0
 70
    64
  0
VERTEX
  5
61B
  8
TEAM-NET
 10
-211.416669
 20
-146.112403
 30
842.0
 70
    64
  0
VERTEX
  5
61C
  8
TEAM-NET
 10
-212.5
 20
-162.5
 30
842.0
 70
    64
  0
SEQEND
  5
61D
  8
TEAM-NET
  0
POLYLINE
  5
61E
  8
TEAM-BODY
 66
     1
 10
0.0
 20
0.0
 30
-842.0
 70
   128
210
0.0
220
0.0
230
-1.0
  0
VERTEX
  5
7E7
  8
TEAM-BODY
 10
-212.5
 20
-162.5
 30
-842.0
  0
VERTEX
  5
7E8
  8
TEAM-BODY
 10
-211.810928
 20
-175.575817
 30
-842.0
  0
VERTEX
  5
7E9
  8
TEAM-BODY
 10
-209.748181
 20
-188.566833
 30
-842.0
  0
VERTEX
  5
7EA
  8
TEAM-BODY
 10
-206.325136
 20
-201.388795
 30
-842.0
  0
VERTEX
  5
7EB
  8
TEAM-BODY
 10
-201.563994
 20
-213.958549
 30
-842.0
  0
VERTEX
  5
7EC
  8
TEAM-BODY
 10
-195.495632
 20
-226.194574
 30
-842.0
  0
VERTEX
  5
7ED
  8
TEAM-BODY
 10
-188.159405
 20
-238.017515
 30
-842.0
  0
VERTEX
  5
7EE
  8
TEAM-BODY
 10
-179.602893
 20
-249.350697
 30
-842.0
  0
VERTEX
  5
7EF
  8
TEAM-BODY
 10
-169.881587
 20
-260.120618
 30
-842.0
  0
VERTEX
  5
7F0
  8
TEAM-BODY
 10
-159.058534
 20
-270.257432
 30
-842.0
  0
VERTEX
  5
7F1
  8
TEAM-BODY
 10
-147.203925
 20
-279.695398
 30
-842.0
  0
VERTEX
  5
7F2
  8
TEAM-BODY
 10
-134.394642
 20
-288.373306
 30
-842.0
  0
VERTEX
  5
7F3
  8
TEAM-BODY
 10
-120.713759
 20
-296.234878
 30
-842.0
  0
VERTEX
  5
7F4
  8
TEAM-BODY
 10
-106.25
 20
-303.229128
 30
-842.0
  0
VERTEX
  5
7F5
  8
TEAM-BODY
 10
-91.097169
 20
-309.310696
 30
-842.0
  0
VERTEX
  5
7F6
  8
TEAM-BODY
 10
-75.353538
 20
-314.440139
 30
-842.0
  0
VERTEX
  5
7F7
  8
TEAM-BODY
 10
-59.121211
 20
-318.584193
 30
-842.0
  0
VERTEX
  5
7F8
  8
TEAM-BODY
 10
-42.50546
 20
-321.715981
 30
-842.0
  0
VERTEX
  5
7F9
  8
TEAM-BODY
 10
-25.614045
 20
-323.815192
 30
-842.0
  0
VERTEX
  5
7FA
  8
TEAM-BODY
 10
-8.556512
 20
-324.868212
 30
-842.0
  0
VERTEX
  5
7FB
  8
TEAM-BODY
 10
8.556512
 20
-324.868212
 30
-842.0
  0
VERTEX
  5
7FC
  8
TEAM-BODY
 10
25.614045
 20
-323.815192
 30
-842.0
  0
VERTEX
  5
7FD
  8
TEAM-BODY
 10
42.50546
 20
-321.715981
 30
-842.0
  0
VERTEX
  5
7FE
  8
TEAM-BODY
 10
59.121211
 20
-318.584193
 30
-842.0
  0
VERTEX
  5
7FF
  8
TEAM-BODY
 10
75.353538
 20
-314.440139
 30
-842.0
  0
VERTEX
  5
800
  8
TEAM-BODY
 10
91.097169
 20
-309.310696
 30
-842.0
  0
VERTEX
  5
801
  8
TEAM-BODY
 10
106.25
 20
-303.229128
 30
-842.0
  0
VERTEX
  5
802
  8
TEAM-BODY
 10
120.713759
 20
-296.234878
 30
-842.0
  0
VERTEX
  5
803
  8
TEAM-BODY
 10
134.394642
 20
-288.373306
 30
-842.0
  0
VERTEX
  5
804
  8
TEAM-BODY
 10
147.203925
 20
-279.695398
 30
-842.0
  0
VERTEX
  5
805
  8
TEAM-BODY
 10
159.058534
 20
-270.257432
 30
-842.0
  0
VERTEX
  5
806
  8
TEAM-BODY
 10
169.881587
 20
-260.120618
 30
-842.0
  0
VERTEX
  5
807
  8
TEAM-BODY
 10
179.602893
 20
-249.350697
 30
-842.0
  0
VERTEX
  5
808
  8
TEAM-BODY
 10
188.159405
 20
-238.017515
 30
-842.0
  0
VERTEX
  5
809
  8
TEAM-BODY
 10
195.495632
 20
-226.194574
 30
-842.0
  0
VERTEX
  5
80A
  8
TEAM-BODY
 10
201.563994
 20
-213.958549
 30
-842.0
  0
VERTEX
  5
80B
  8
TEAM-BODY
 10
206.325136
 20
-201.388795
 30
-842.0
  0
VERTEX
  5
80C
  8
TEAM-BODY
 10
209.748181
 20
-188.566833
 30
-842.0
  0
VERTEX
  5
80D
  8
TEAM-BODY
 10
211.810928
 20
-175.575817
 30
-842.0
  0
VERTEX
  5
80E
  8
TEAM-BODY
 10
212.5
 20
-162.5
 30
-842.0
  0
SEQEND
  5
80F
  8
TEAM-BODY
  0
POLYLINE
  5
620
  8
TEAM-BODY
 66
     1
 10
0.0
 20
0.0
 30
842.0
 70
   128
  0
VERTEX
  5
810
  8
TEAM-BODY
 10
212.5
 20
-162.5
 30
842.0
  0
VERTEX
  5
811
  8
TEAM-BODY
 10
211.810928
 20
-149.424183
 30
842.0
  0
VERTEX
  5
812
  8
TEAM-BODY
 10
209.748181
 20
-136.433167
 30
842.0
  0
VERTEX
  5
813
  8
TEAM-BODY
 10
206.325136
 20
-123.611205
 30
842.0
  0
VERTEX
  5
814
  8
TEAM-BODY
 10
201.563994
 20
-111.041451
 30
842.0
  0
VERTEX
  5
815
  8
TEAM-BODY
 10
195.495632
 20
-98.805426
 30
842.0
  0
VERTEX
  5
816
  8
TEAM-BODY
 10
188.159405
 20
-86.982485
 30
842.0
  0
VERTEX
  5
817
  8
TEAM-BODY
 10
179.602893
 20
-75.649303
 30
842.0
  0
VERTEX
  5
818
  8
TEAM-BODY
 10
169.881587
 20
-64.879382
 30
842.0
  0
VERTEX
  5
819
  8
TEAM-BODY
 10
159.058534
 20
-54.742568
 30
842.0
  0
VERTEX
  5
81A
  8
TEAM-BODY
 10
147.203925
 20
-45.304602
 30
842.0
  0
VERTEX
  5
81B
  8
TEAM-BODY
 10
134.394642
 20
-36.626694
 30
842.0
  0
VERTEX
  5
81C
  8
TEAM-BODY
 10
120.713759
 20
-28.765122
 30
842.0
  0
VERTEX
  5
81D
  8
TEAM-BODY
 10
106.25
 20
-21.770872
 30
842.0
  0
VERTEX
  5
81E
  8
TEAM-BODY
 10
91.097169
 20
-15.689304
 30
842.0
  0
VERTEX
  5
81F
  8
TEAM-BODY
 10
75.353538
 20
-10.559861
 30
842.0
  0
VERTEX
  5
820
  8
TEAM-BODY
 10
59.121211
 20
-6.415807
 30
842.0
  0
VERTEX
  5
821
  8
TEAM-BODY
 10
42.50546
 20
-3.284019
 30
842.0
  0
VERTEX
  5
822
  8
TEAM-BODY
 10
25.614045
 20
-1.184808
 30
842.0
  0
VERTEX
  5
823
  8
TEAM-BODY
 10
8.556512
 20
-0.131788
 30
842.0
  0
VERTEX
  5
824
  8
TEAM-BODY
 10
-8.556512
 20
-0.131788
 30
842.0
  0
VERTEX
  5
825
  8
TEAM-BODY
 10
-25.614045
 20
-1.184808
 30
842.0
  0
VERTEX
  5
826
  8
TEAM-BODY
 10
-42.50546
 20
-3.284019
 30
842.0
  0
VERTEX
  5
827
  8
TEAM-BODY
 10
-59.121211
 20
-6.415807
 30
842.0
  0
VERTEX
  5
828
  8
TEAM-BODY
 10
-75.353538
 20
-10.559861
 30
842.0
  0
VERTEX
  5
829
  8
TEAM-BODY
 10
-91.097169
 20
-15.689304
 30
842.0
  0
VERTEX
  5
82A
  8
TEAM-BODY
 10
-106.25
 20
-21.770872
 30
842.0
  0
VERTEX
  5
82B
  8
TEAM-BODY
 10
-120.713759
 20
-28.765122
 30
842.0
  0
VERTEX
  5
82C
  8
TEAM-BODY
 10
-134.394642
 20
-36.626694
 30
842.0
  0
VERTEX
  5
82D
  8
TEAM-BODY
 10
-147.203925
 20
-45.304602
 30
842.0
  0
VERTEX
  5
82E
  8
TEAM-BODY
 10
-159.058534
 20
-54.742568
 30
842.0
  0
VERTEX
  5
82F
  8
TEAM-BODY
 10
-169.881587
 20
-64.879382
 30
842.0
  0
VERTEX
  5
830
  8
TEAM-BODY
 10
-179.602893
 20
-75.649303
 30
842.0
  0
VERTEX
  5
831
  8
TEAM-BODY
 10
-188.159405
 20
-86.982485
 30
842.0
  0
VERTEX
  5
832
  8
TEAM-BODY
 10
-195.495632
 20
-98.805426
 30
842.0
  0
VERTEX
  5
833
  8
TEAM-BODY
 10
-201.563994
 20
-111.041451
 30
842.0
  0
VERTEX
  5
834
  8
TEAM-BODY
 10
-206.325136
 20
-123.611205
 30
842.0
  0
VERTEX
  5
835
  8
TEAM-BODY
 10
-209.748181
 20
-136.433167
 30
842.0
  0
VERTEX
  5
836
  8
TEAM-BODY
 10
-211.810928
 20
-149.424183
 30
842.0
  0
VERTEX
  5
837
  8
TEAM-BODY
 10
-212.5
 20
-162.5
 30
842.0
  0
SEQEND
  5
838
  8
TEAM-BODY
  0
POLYLINE
  5
621
  8
TEAM-BODY
 66
     1
 10
0.0
 20
0.0
 30
-850.0
 70
   128
210
0.0
220
0.0
230
-1.0
  0
VERTEX
  5
839
  8
TEAM-BODY
 10
-187.5
 20
-162.5
 30
-850.0
  0
VERTEX
  5
83A
  8
TEAM-BODY
 10
-186.824529
 20
-174.160815
 30
-850.0
  0
VERTEX
  5
83B
  8
TEAM-BODY
 10
-184.802983
 20
-185.737613
 30
-850.0
  0
VERTEX
  5
83C
  8
TEAM-BODY
 10
-181.449928
 20
-197.146983
 30
-850.0
  0
VERTEX
  5
83D
  8
TEAM-BODY
 10
-176.789521
 20
-208.306722
 30
-850.0
  0
VERTEX
  5
83E
  8
TEAM-BODY
 10
-170.855342
 20
-219.136422
 30
-850.0
  0
VERTEX
  5
83F
  8
TEAM-BODY
 10
-163.690146
 20
-229.558055
 30
-850.0
  0
VERTEX
  5
840
  8
TEAM-BODY
 10
-155.345559
 20
-239.496533
 30
-850.0
  0
VERTEX
  5
841
  8
TEAM-BODY
 10
-145.881704
 20
-248.88025
 30
-850.0
  0
VERTEX
  5
842
  8
TEAM-BODY
 10
-135.366768
 20
-257.641594
 30
-850.0
  0
VERTEX
  5
843
  8
TEAM-BODY
 10
-123.876511
 20
-265.717442
 30
-850.0
  0
VERTEX
  5
844
  8
TEAM-BODY
 10
-111.493721
 20
-273.049605
 30
-850.0
  0
VERTEX
  5
845
  8
TEAM-BODY
 10
-98.307616
 20
-279.585256
 30
-850.0
  0
VERTEX
  5
846
  8
TEAM-BODY
 10
-84.413202
 20
-285.277305
 30
-850.0
  0
VERTEX
  5
847
  8
TEAM-BODY
 10
-69.91059
 20
-290.084741
 30
-850.0
  0
VERTEX
  5
848
  8
TEAM-BODY
 10
-54.90427
 20
-293.972926
 30
-850.0
  0
VERTEX
  5
849
  8
TEAM-BODY
 10
-39.502363
 20
-296.913845
 30
-850.0
  0
VERTEX
  5
84A
  8
TEAM-BODY
 10
-23.815841
 20
-298.88631
 30
-850.0
  0
VERTEX
  5
84B
  8
TEAM-BODY
 10
-7.957726
 20
-299.876108
 30
-850.0
  0
VERTEX
  5
84C
  8
TEAM-BODY
 10
7.957726
 20
-299.876108
 30
-850.0
  0
VERTEX
  5
84D
  8
TEAM-BODY
 10
23.815841
 20
-298.88631
 30
-850.0
  0
VERTEX
  5
84E
  8
TEAM-BODY
 10
39.502363
 20
-296.913845
 30
-850.0
  0
VERTEX
  5
84F
  8
TEAM-BODY
 10
54.90427
 20
-293.972926
 30
-850.0
  0
VERTEX
  5
850
  8
TEAM-BODY
 10
69.91059
 20
-290.084741
 30
-850.0
  0
VERTEX
  5
851
  8
TEAM-BODY
 10
84.413202
 20
-285.277305
 30
-850.0
  0
VERTEX
  5
852
  8
TEAM-BODY
 10
98.307616
 20
-279.585256
 30
-850.0
  0
VERTEX
  5
853
  8
TEAM-BODY
 10
111.493721
 20
-273.049605
 30
-850.0
  0
VERTEX
  5
854
  8
TEAM-BODY
 10
123.876511
 20
-265.717442
 30
-850.0
  0
VERTEX
  5
855
  8
TEAM-BODY
 10
135.366768
 20
-257.641594
 30
-850.0
  0
VERTEX
  5
856
  8
TEAM-BODY
 10
145.881704
 20
-248.88025
 30
-850.0
  0
VERTEX
  5
857
  8
TEAM-BODY
 10
155.345559
 20
-239.496533
 30
-850.0
  0
VERTEX
  5
858
  8
TEAM-BODY
 10
163.690146
 20
-229.558055
 30
-850.0
  0
VERTEX
  5
859
  8
TEAM-BODY
 10
170.855342
 20
-219.136422
 30
-850.0
  0
VERTEX
  5
85A
  8
TEAM-BODY
 10
176.789521
 20
-208.306722
 30
-850.0
  0
VERTEX
  5
85B
  8
TEAM-BODY
 10
181.449928
 20
-197.146983
 30
-850.0
  0
VERTEX
  5
85C
  8
TEAM-BODY
 10
184.802983
 20
-185.737613
 30
-850.0
  0
VERTEX
  5
85D
  8
TEAM-BODY
 10
186.824529
 20
-174.160815
 30
-850.0
  0
VERTEX
  5
85E
  8
TEAM-BODY
 10
187.5
 20
-162.5
 30
-850.0
  0
SEQEND
  5
85F
  8
TEAM-BODY
  0
POLYLINE
  5
622
  8
TEAM-BODY
 66
     1
 10
0.0
 20
0.0
 30
-850.0
 70
   128
210
0.0
220
0.0
230
-1.0
  0
VERTEX
  5
860
  8
TEAM-BODY
 10
-212.5
 20
-162.5
 30
-850.0
  0
VERTEX
  5
861
  8
TEAM-BODY
 10
-211.810928
 20
-175.575817
 30
-850.0
  0
VERTEX
  5
862
  8
TEAM-BODY
 10
-209.748181
 20
-188.566833
 30
-850.0
  0
VERTEX
  5
863
  8
TEAM-BODY
 10
-206.325136
 20
-201.388795
 30
-850.0
  0
VERTEX
  5
864
  8
TEAM-BODY
 10
-201.563994
 20
-213.958549
 30
-850.0
  0
VERTEX
  5
865
  8
TEAM-BODY
 10
-195.495632
 20
-226.194574
 30
-850.0
  0
VERTEX
  5
866
  8
TEAM-BODY
 10
-188.159405
 20
-238.017515
 30
-850.0
  0
VERTEX
  5
867
  8
TEAM-BODY
 10
-179.602893
 20
-249.350697
 30
-850.0
  0
VERTEX
  5
868
  8
TEAM-BODY
 10
-169.881587
 20
-260.120618
 30
-850.0
  0
VERTEX
  5
869
  8
TEAM-BODY
 10
-159.058534
 20
-270.257432
 30
-850.0
  0
VERTEX
  5
86A
  8
TEAM-BODY
 10
-147.203925
 20
-279.695398
 30
-850.0
  0
VERTEX
  5
86B
  8
TEAM-BODY
 10
-134.394642
 20
-288.373306
 30
-850.0
  0
VERTEX
  5
86C
  8
TEAM-BODY
 10
-120.713759
 20
-296.234878
 30
-850.0
  0
VERTEX
  5
86D
  8
TEAM-BODY
 10
-106.25
 20
-303.229128
 30
-850.0
  0
VERTEX
  5
86E
  8
TEAM-BODY
 10
-91.097169
 20
-309.310696
 30
-850.0
  0
VERTEX
  5
86F
  8
TEAM-BODY
 10
-75.353538
 20
-314.440139
 30
-850.0
  0
VERTEX
  5
870
  8
TEAM-BODY
 10
-59.121211
 20
-318.584193
 30
-850.0
  0
VERTEX
  5
871
  8
TEAM-BODY
 10
-42.50546
 20
-321.715981
 30
-850.0
  0
VERTEX
  5
872
  8
TEAM-BODY
 10
-25.614045
 20
-323.815192
 30
-850.0
  0
VERTEX
  5
873
  8
TEAM-BODY
 10
-8.556512
 20
-324.868212
 30
-850.0
  0
VERTEX
  5
874
  8
TEAM-BODY
 10
8.556512
 20
-324.868212
 30
-850.0
  0
VERTEX
  5
875
  8
TEAM-BODY
 10
25.614045
 20
-323.815192
 30
-850.0
  0
VERTEX
  5
876
  8
TEAM-BODY
 10
42.50546
 20
-321.715981
 30
-850.0
  0
VERTEX
  5
877
  8
TEAM-BODY
 10
59.121211
 20
-318.584193
 30
-850.0
  0
VERTEX
  5
878
  8
TEAM-BODY
 10
75.353538
 20
-314.440139
 30
-850.0
  0
VERTEX
  5
879
  8
TEAM-BODY
 10
91.097169
 20
-309.310696
 30
-850.0
  0
VERTEX
  5
87A
  8
TEAM-BODY
 10
106.25
 20
-303.229128
 30
-850.0
  0
VERTEX
  5
87B
  8
TEAM-BODY
 10
120.713759
 20
-296.234878
 30
-850.0
  0
VERTEX
  5
87C
  8
TEAM-BODY
 10
134.394642
 20
-288.373306
 30
-850.0
  0
VERTEX
  5
87D
  8
TEAM-BODY
 10
147.203925
 20
-279.695398
 30
-850.0
  0
VERTEX
  5
87E
  8
TEAM-BODY
 10
159.058534
 20
-270.257432
 30
-850.0
  0
VERTEX
  5
87F
  8
TEAM-BODY
 10
169.881587
 20
-260.120618
 30
-850.0
  0
VERTEX
  5
880
  8
TEAM-BODY
 10
179.602893
 20
-249.350697
 30
-850.0
  0
VERTEX
  5
881
  8
TEAM-BODY
 10
188.159405
 20
-238.017515
 30
-850.0
  0
VERTEX
  5
882
  8
TEAM-BODY
 10
195.495632
 20
-226.194574
 30
-850.0
  0
VERTEX
  5
883
  8
TEAM-BODY
 10
201.563994
 20
-213.958549
 30
-850.0
  0
VERTEX
  5
884
  8
TEAM-BODY
 10
206.325136
 20
-201.388795
 30
-850.0
  0
VERTEX
  5
885
  8
TEAM-BODY
 10
209.748181
 20
-188.566833
 30
-850.0
  0
VERTEX
  5
886
  8
TEAM-BODY
 10
211.810928
 20
-175.575817
 30
-850.0
  0
VERTEX
  5
887
  8
TEAM-BODY
 10
212.5
 20
-162.5
 30
-850.0
  0
SEQEND
  5
888
  8
TEAM-BODY
  0
POLYLINE
  5
623
  8
TEAM-BODY
 66
     1
 10
0.0
 20
0.0
 30
850.0
 70
   128
  0
VERTEX
  5
889
  8
TEAM-BODY
 10
212.5
 20
-162.5
 30
850.0
  0
VERTEX
  5
88A
  8
TEAM-BODY
 10
211.810928
 20
-149.424183
 30
850.0
  0
VERTEX
  5
88B
  8
TEAM-BODY
 10
209.748181
 20
-136.433167
 30
850.0
  0
VERTEX
  5
88C
  8
TEAM-BODY
 10
206.325136
 20
-123.611205
 30
850.0
  0
VERTEX
  5
88D
  8
TEAM-BODY
 10
201.563994
 20
-111.041451
 30
850.0
  0
VERTEX
  5
88E
  8
TEAM-BODY
 10
195.495632
 20
-98.805426
 30
850.0
  0
VERTEX
  5
88F
  8
TEAM-BODY
 10
188.159405
 20
-86.982485
 30
850.0
  0
VERTEX
  5
890
  8
TEAM-BODY
 10
179.602893
 20
-75.649303
 30
850.0
  0
VERTEX
  5
891
  8
TEAM-BODY
 10
169.881587
 20
-64.879382
 30
850.0
  0
VERTEX
  5
892
  8
TEAM-BODY
 10
159.058534
 20
-54.742568
 30
850.0
  0
VERTEX
  5
893
  8
TEAM-BODY
 10
147.203925
 20
-45.304602
 30
850.0
  0
VERTEX
  5
894
  8
TEAM-BODY
 10
134.394642
 20
-36.626694
 30
850.0
  0
VERTEX
  5
895
  8
TEAM-BODY
 10
120.713759
 20
-28.765122
 30
850.0
  0
VERTEX
  5
896
  8
TEAM-BODY
 10
106.25
 20
-21.770872
 30
850.0
  0
VERTEX
  5
897
  8
TEAM-BODY
 10
91.097169
 20
-15.689304
 30
850.0
  0
VERTEX
  5
898
  8
TEAM-BODY
 10
75.353538
 20
-10.559861
 30
850.0
  0
VERTEX
  5
899
  8
TEAM-BODY
 10
59.121211
 20
-6.415807
 30
850.0
  0
VERTEX
  5
89A
  8
TEAM-BODY
 10
42.50546
 20
-3.284019
 30
850.0
  0
VERTEX
  5
89B
  8
TEAM-BODY
 10
25.614045
 20
-1.184808
 30
850.0
  0
VERTEX
  5
89C
  8
TEAM-BODY
 10
8.556512
 20
-0.131788
 30
850.0
  0
VERTEX
  5
89D
  8
TEAM-BODY
 10
-8.556512
 20
-0.131788
 30
850.0
  0
VERTEX
  5
89E
  8
TEAM-BODY
 10
-25.614045
 20
-1.184808
 30
850.0
  0
VERTEX
  5
89F
  8
TEAM-BODY
 10
-42.50546
 20
-3.284019
 30
850.0
  0
VERTEX
  5
8A0
  8
TEAM-BODY
 10
-59.121211
 20
-6.415807
 30
850.0
  0
VERTEX
  5
8A1
  8
TEAM-BODY
 10
-75.353538
 20
-10.559861
 30
850.0
  0
VERTEX
  5
8A2
  8
TEAM-BODY
 10
-91.097169
 20
-15.689304
 30
850.0
  0
VERTEX
  5
8A3
  8
TEAM-BODY
 10
-106.25
 20
-21.770872
 30
850.0
  0
VERTEX
  5
8A4
  8
TEAM-BODY
 10
-120.713759
 20
-28.765122
 30
850.0
  0
VERTEX
  5
8A5
  8
TEAM-BODY
 10
-134.394642
 20
-36.626694
 30
850.0
  0
VERTEX
  5
8A6
  8
TEAM-BODY
 10
-147.203925
 20
-45.304602
 30
850.0
  0
VERTEX
  5
8A7
  8
TEAM-BODY
 10
-159.058534
 20
-54.742568
 30
850.0
  0
VERTEX
  5
8A8
  8
TEAM-BODY
 10
-169.881587
 20
-64.879382
 30
850.0
  0
VERTEX
  5
8A9
  8
TEAM-BODY
 10
-179.602893
 20
-75.649303
 30
850.0
  0
VERTEX
  5
8AA
  8
TEAM-BODY
 10
-188.159405
 20
-86.982485
 30
850.0
  0
VERTEX
  5
8AB
  8
TEAM-BODY
 10
-195.495632
 20
-98.805426
 30
850.0
  0
VERTEX
  5
8AC
  8
TEAM-BODY
 10
-201.563994
 20
-111.041451
 30
850.0
  0
VERTEX
  5
8AD
  8
TEAM-BODY
 10
-206.325136
 20
-123.611205
 30
850.0
  0
VERTEX
  5
8AE
  8
TEAM-BODY
 10
-209.748181
 20
-136.433167
 30
850.0
  0
VERTEX
  5
8AF
  8
TEAM-BODY
 10
-211.810928
 20
-149.424183
 30
850.0
  0
VERTEX
  5
8B0
  8
TEAM-BODY
 10
-212.5
 20
-162.5
 30
850.0
  0
SEQEND
  5
8B1
  8
TEAM-BODY
  0
POLYLINE
  5
624
  8
TEAM-BODY
 66
     1
 10
0.0
 20
0.0
 30
850.0
 70
   128
  0
VERTEX
  5
8B2
  8
TEAM-BODY
 10
187.5
 20
-162.5
 30
850.0
  0
VERTEX
  5
8B3
  8
TEAM-BODY
 10
186.824529
 20
-150.839185
 30
850.0
  0
VERTEX
  5
8B4
  8
TEAM-BODY
 10
184.802983
 20
-139.262387
 30
850.0
  0
VERTEX
  5
8B5
  8
TEAM-BODY
 10
181.449928
 20
-127.853017
 30
850.0
  0
VERTEX
  5
8B6
  8
TEAM-BODY
 10
176.789521
 20
-116.693278
 30
850.0
  0
VERTEX
  5
8B7
  8
TEAM-BODY
 10
170.855342
 20
-105.863578
 30
850.0
  0
VERTEX
  5
8B8
  8
TEAM-BODY
 10
163.690146
 20
-95.441945
 30
850.0
  0
VERTEX
  5
8B9
  8
TEAM-BODY
 10
155.345559
 20
-85.503467
 30
850.0
  0
VERTEX
  5
8BA
  8
TEAM-BODY
 10
145.881704
 20
-76.11975
 30
850.0
  0
VERTEX
  5
8BB
  8
TEAM-BODY
 10
135.366768
 20
-67.358406
 30
850.0
  0
VERTEX
  5
8BC
  8
TEAM-BODY
 10
123.876511
 20
-59.282558
 30
850.0
  0
VERTEX
  5
8BD
  8
TEAM-BODY
 10
111.493721
 20
-51.950395
 30
850.0
  0
VERTEX
  5
8BE
  8
TEAM-BODY
 10
98.307616
 20
-45.414744
 30
850.0
  0
VERTEX
  5
8BF
  8
TEAM-BODY
 10
84.413202
 20
-39.722695
 30
850.0
  0
VERTEX
  5
8C0
  8
TEAM-BODY
 10
69.91059
 20
-34.915259
 30
850.0
  0
VERTEX
  5
8C1
  8
TEAM-BODY
 10
54.90427
 20
-31.027074
 30
850.0
  0
VERTEX
  5
8C2
  8
TEAM-BODY
 10
39.502363
 20
-28.086155
 30
850.0
  0
VERTEX
  5
8C3
  8
TEAM-BODY
 10
23.815841
 20
-26.11369
 30
850.0
  0
VERTEX
  5
8C4
  8
TEAM-BODY
 10
7.957726
 20
-25.123892
 30
850.0
  0
VERTEX
  5
8C5
  8
TEAM-BODY
 10
-7.957726
 20
-25.123892
 30
850.0
  0
VERTEX
  5
8C6
  8
TEAM-BODY
 10
-23.815841
 20
-26.11369
 30
850.0
  0
VERTEX
  5
8C7
  8
TEAM-BODY
 10
-39.502363
 20
-28.086155
 30
850.0
  0
VERTEX
  5
8C8
  8
TEAM-BODY
 10
-54.90427
 20
-31.027074
 30
850.0
  0
VERTEX
  5
8C9
  8
TEAM-BODY
 10
-69.91059
 20
-34.915259
 30
850.0
  0
VERTEX
  5
8CA
  8
TEAM-BODY
 10
-84.413202
 20
-39.722695
 30
850.0
  0
VERTEX
  5
8CB
  8
TEAM-BODY
 10
-98.307616
 20
-45.414744
 30
850.0
  0
VERTEX
  5
8CC
  8
TEAM-BODY
 10
-111.493721
 20
-51.950395
 30
850.0
  0
VERTEX
  5
8CD
  8
TEAM-BODY
 10
-123.876511
 20
-59.282558
 30
850.0
  0
VERTEX
  5
8CE
  8
TEAM-BODY
 10
-135.366768
 20
-67.358406
 30
850.0
  0
VERTEX
  5
8CF
  8
TEAM-BODY
 10
-145.881704
 20
-76.11975
 30
850.0
  0
VERTEX
  5
8D0
  8
TEAM-BODY
 10
-155.345559
 20
-85.503467
 30
850.0
  0
VERTEX
  5
8D1
  8
TEAM-BODY
 10
-163.690146
 20
-95.441945
 30
850.0
  0
VERTEX
  5
8D2
  8
TEAM-BODY
 10
-170.855342
 20
-105.863578
 30
850.0
  0
VERTEX
  5
8D3
  8
TEAM-BODY
 10
-176.789521
 20
-116.693278
 30
850.0
  0
VERTEX
  5
8D4
  8
TEAM-BODY
 10
-181.449928
 20
-127.853017
 30
850.0
  0
VERTEX
  5
8D5
  8
TEAM-BODY
 10
-184.802983
 20
-139.262387
 30
850.0
  0
VERTEX
  5
8D6
  8
TEAM-BODY
 10
-186.824529
 20
-150.839185
 30
850.0
  0
VERTEX
  5
8D7
  8
TEAM-BODY
 10
-187.5
 20
-162.5
 30
850.0
  0
SEQEND
  5
8D8
  8
TEAM-BODY
  0
TEXT
  5
625
  8
TEAM-TXT
 10
-124.91523
 20
-255.175473
 30
850.0
 40
30.0
  1
team 233105
 41
0.8
 51
15.0
  7
TEAM
  0
POLYLINE
  5
628
  8
TEAM-NET
 66
     1
 10
0.0
 20
0.0
 30
0.0
 70
    16
 71
     2
 72
    37
  0
VERTEX
  5
629
  8
TEAM-NET
 10
187.5
 20
-162.5
 30
850.0
 70
    64
  0
VERTEX
  5
62A
  8
TEAM-NET
 10
186.494964
 20
-148.282438
 30
850.0
 70
    64
  0
VERTEX
  5
62B
  8
TEAM-NET
 10
183.526118
 20
-134.341394
 30
850.0
 70
    64
  0
VERTEX
  5
62C
  8
TEAM-NET
 10
178.721756
 20
-120.920687
 30
850.0
 70
    64
  0
VERTEX
  5
62D
  8
TEAM-NET
 10
172.265998
 20
-108.210169
 30
850.0
 70
    64
  0
VERTEX
  5
62E
  8
TEAM-NET
 10
164.368353
 20
-96.340105
 30
850.0
 70
    64
  0
VERTEX
  5
62F
  8
TEAM-NET
 10
155.238745
 20
-85.3877
 30
850.0
 70
    64
  0
VERTEX
  5
630
  8
TEAM-NET
 10
145.071823
 20
-75.389334
 30
850.0
 70
    64
  0
VERTEX
  5
631
  8
TEAM-NET
 10
134.039721
 20
-66.353307
 30
850.0
 70
    64
  0
VERTEX
  5
632
  8
TEAM-NET
 10
122.290533
 20
-58.270459
 30
850.0
 70
    64
  0
VERTEX
  5
633
  8
TEAM-NET
 10
109.949945
 20
-51.121997
 30
850.0
 70
    64
  0
VERTEX
  5
634
  8
TEAM-NET
 10
97.124202
 20
-44.884811
 30
850.0
 70
    64
  0
VERTEX
  5
635
  8
TEAM-NET
 10
83.903395
 20
-39.534912
 30
850.0
 70
    64
  0
VERTEX
  5
636
  8
TEAM-NET
 10
70.364578
 20
-35.049544
 30
850.0
 70
    64
  0
VERTEX
  5
637
  8
TEAM-NET
 10
56.57452
 20
-31.408439
 30
850.0
 70
    64
  0
VERTEX
  5
638
  8
TEAM-NET
 10
42.592062
 20
-28.594526
 30
850.0
 70
    64
  0
VERTEX
  5
639
  8
TEAM-NET
 10
28.470123
 20
-26.594314
 30
850.0
 70
    64
  0
VERTEX
  5
63A
  8
TEAM-NET
 10
14.257424
 20
-25.39809
 30
850.0
 70
    64
  0
VERTEX
  5
63B
  8
TEAM-NET
 10
0.0
 20
-25.0
 30
850.0
 70
    64
  0
VERTEX
  5
63C
  8
TEAM-NET
 10
-14.257424
 20
-25.39809
 30
850.0
 70
    64
  0
VERTEX
  5
63D
  8
TEAM-NET
 10
-28.470123
 20
-26.594314
 30
850.0
 70
    64
  0
VERTEX
  5
63E
  8
TEAM-NET
 10
-42.592062
 20
-28.594526
 30
850.0
 70
    64
  0
VERTEX
  5
63F
  8
TEAM-NET
 10
-56.57452
 20
-31.408439
 30
850.0
 70
    64
  0
VERTEX
  5
640
  8
TEAM-NET
 10
-70.364578
 20
-35.049544
 30
850.0
 70
    64
  0
VERTEX
  5
641
  8
TEAM-NET
 10
-83.903395
 20
-39.534912
 30
850.0
 70
    64
  0
VERTEX
  5
642
  8
TEAM-NET
 10
-97.124202
 20
-44.884811
 30
850.0
 70
    64
  0
VERTEX
  5
643
  8
TEAM-NET
 10
-109.949945
 20
-51.121997
 30
850.0
 70
    64
  0
VERTEX
  5
644
  8
TEAM-NET
 10
-122.290533
 20
-58.270459
 30
850.0
 70
    64
  0
VERTEX
  5
645
  8
TEAM-NET
 10
-134.039721
 20
-66.353307
 30
850.0
 70
    64
  0
VERTEX
  5
646
  8
TEAM-NET
 10
-145.071823
 20
-75.389334
 30
850.0
 70
    64
  0
VERTEX
  5
647
  8
TEAM-NET
 10
-155.238745
 20
-85.3877
 30
850.0
 70
    64
  0
VERTEX
  5
648
  8
TEAM-NET
 10
-164.368353
 20
-96.340105
 30
850.0
 70
    64
  0
VERTEX
  5
649
  8
TEAM-NET
 10
-172.265998
 20
-108.210169
 30
850.0
 70
    64
  0
VERTEX
  5
64A
  8
TEAM-NET
 10
-178.721756
 20
-120.920687
 30
850.0
 70
    64
  0
VERTEX
  5
64B
  8
TEAM-NET
 10
-183.526118
 20
-134.341394
 30
850.0
 70
    64
  0
VERTEX
  5
64C
  8
TEAM-NET
 10
-186.494964
 20
-148.282438
 30
850.0
 70
    64
  0
VERTEX
  5
64D
  8
TEAM-NET
 10
-187.5
 20
-162.5
 30
850.0
 70
    64
  0
VERTEX
  5
64E
  8
TEAM-NET
 10
212.5
 20
-162.5
 30
850.0
 70
    64
  0
VERTEX
  5
64F
  8
TEAM-NET
 10
211.416669
 20
-146.112403
 30
850.0
 70
    64
  0
VERTEX
  5
650
  8
TEAM-NET
 10
208.207971
 20
-130.005031
 30
850.0
 70
    64
  0
VERTEX
  5
651
  8
TEAM-NET
 10
202.990059
 20
-114.431159
 30
850.0
 70
    64
  0
VERTEX
  5
652
  8
TEAM-NET
 10
195.934018
 20
-99.59807
 30
850.0
 70
    64
  0
VERTEX
  5
653
  8
TEAM-NET
 10
187.241248
 20
-85.659557
 30
850.0
 70
    64
  0
VERTEX
  5
654
  8
TEAM-NET
 10
177.121318
 20
-72.71855
 30
850.0
 70
    64
  0
VERTEX
  5
655
  8
TEAM-NET
 10
165.776121
 20
-60.835731
 30
850.0
 70
    64
  0
VERTEX
  5
656
  8
TEAM-NET
 10
153.390791
 20
-50.040087
 30
850.0
 70
    64
  0
VERTEX
  5
657
  8
TEAM-NET
 10
140.129969
 20
-40.338764
 30
850.0
 70
    64
  0
VERTEX
  5
658
  8
TEAM-NET
 10
126.137546
 20
-31.725077
 30
850.0
 70
    64
  0
VERTEX
  5
659
  8
TEAM-NET
 10
111.538309
 20
-24.184479
 30
850.0
 70
    64
  0
VERTEX
  5
65A
  8
TEAM-NET
 10
96.440443
 20
-17.698765
 30
850.0
 70
    64
  0
VERTEX
  5
65B
  8
TEAM-NET
 10
80.938238
 20
-12.248912
 30
850.0
 70
    64
  0
VERTEX
  5
65C
  8
TEAM-NET
 10
65.114711
 20
-7.816946
 30
850.0
 70
    64
  0
VERTEX
  5
65D
  8
TEAM-NET
 10
49.043995
 20
-4.387121
 30
850.0
 70
    64
  0
VERTEX
  5
65E
  8
TEAM-NET
 10
32.79347
 20
-1.946657
 30
850.0
 70
    64
  0
VERTEX
  5
65F
  8
TEAM-NET
 10
16.42567
 20
-0.486185
 30
850.0
 70
    64
  0
VERTEX
  5
660
  8
TEAM-NET
 10
0.0
 20
0.0
 30
850.0
 70
    64
  0
VERTEX
  5
661
  8
TEAM-NET
 10
-16.42567
 20
-0.486185
 30
850.0
 70
    64
  0
VERTEX
  5
662
  8
TEAM-NET
 10
-32.79347
 20
-1.946657
 30
850.0
 70
    64
  0
VERTEX
  5
663
  8
TEAM-NET
 10
-49.043995
 20
-4.387121
 30
850.0
 70
    64
  0
VERTEX
  5
664
  8
TEAM-NET
 10
-65.114711
 20
-7.816946
 30
850.0
 70
    64
  0
VERTEX
  5
665
  8
TEAM-NET
 10
-80.938238
 20
-12.248912
 30
850.0
 70
    64
  0
VERTEX
  5
666
  8
TEAM-NET
 10
-96.440443
 20
-17.698765
 30
850.0
 70
    64
  0
VERTEX
  5
667
  8
TEAM-NET
 10
-111.538309
 20
-24.184479
 30
850.0
 70
    64
  0
VERTEX
  5
668
  8
TEAM-NET
 10
-126.137546
 20
-31.725077
 30
850.0
 70
    64
  0
VERTEX
  5
669
  8
TEAM-NET
 10
-140.129969
 20
-40.338764
 30
850.0
 70
    64
  0
VERTEX
  5
66A
  8
TEAM-NET
 10
-153.390791
 20
-50.040087
 30
850.0
 70
    64
  0
VERTEX
  5
66B
  8
TEAM-NET
 10
-165.776121
 20
-60.835731
 30
850.0
 70
    64
  0
VERTEX
  5
66C
  8
TEAM-NET
 10
-177.121321
 20
-72.718554
 30
850.0
 70
    64
  0
VERTEX
  5
66D
  8
TEAM-NET
 10
-187.241248
 20
-85.659557
 30
850.0
 70
    64
  0
VERTEX
  5
66E
  8
TEAM-NET
 10
-195.934018
 20
-99.59807
 30
850.0
 70
    64
  0
VERTEX
  5
66F
  8
TEAM-NET
 10
-202.990059
 20
-114.431159
 30
850.0
 70
    64
  0
VERTEX
  5
670
  8
TEAM-NET
 10
-208.207971
 20
-130.005031
 30
850.0
 70
    64
  0
VERTEX
  5
671
  8
TEAM-NET
 10
-211.416669
 20
-146.112403
 30
850.0
 70
    64
  0
VERTEX
  5
672
  8
TEAM-NET
 10
-212.5
 20
-162.5
 30
850.0
 70
    64
  0
SEQEND
  5
673
  8
TEAM-NET
  0
POLYLINE
  5
674
  8
TEAM-NET
 66
     1
 10
0.0
 20
0.0
 30
0.0
 70
    16
 71
     2
 72
    37
  0
VERTEX
  5
675
  8
TEAM-NET
 10
187.5
 20
-162.5
 30
850.0
 70
    64
  0
VERTEX
  5
676
  8
TEAM-NET
 10
186.494964
 20
-176.717562
 30
850.0
 70
    64
  0
VERTEX
  5
677
  8
TEAM-NET
 10
183.526118
 20
-190.658606
 30
850.0
 70
    64
  0
VERTEX
  5
678
  8
TEAM-NET
 10
178.721756
 20
-204.079313
 30
850.0
 70
    64
  0
VERTEX
  5
679
  8
TEAM-NET
 10
172.265998
 20
-216.789831
 30
850.0
 70
    64
  0
VERTEX
  5
67A
  8
TEAM-NET
 10
164.368353
 20
-228.659895
 30
850.0
 70
    64
  0
VERTEX
  5
67B
  8
TEAM-NET
 10
155.238745
 20
-239.6123
 30
850.0
 70
    64
  0
VERTEX
  5
67C
  8
TEAM-NET
 10
145.071823
 20
-249.610666
 30
850.0
 70
    64
  0
VERTEX
  5
67D
  8
TEAM-NET
 10
134.039721
 20
-258.646693
 30
850.0
 70
    64
  0
VERTEX
  5
67E
  8
TEAM-NET
 10
122.290533
 20
-266.729541
 30
850.0
 70
    64
  0
VERTEX
  5
67F
  8
TEAM-NET
 10
109.949945
 20
-273.878003
 30
850.0
 70
    64
  0
VERTEX
  5
680
  8
TEAM-NET
 10
97.124202
 20
-280.115189
 30
850.0
 70
    64
  0
VERTEX
  5
681
  8
TEAM-NET
 10
83.903395
 20
-285.465088
 30
850.0
 70
    64
  0
VERTEX
  5
682
  8
TEAM-NET
 10
70.364578
 20
-289.950456
 30
850.0
 70
    64
  0
VERTEX
  5
683
  8
TEAM-NET
 10
56.57452
 20
-293.591561
 30
850.0
 70
    64
  0
VERTEX
  5
684
  8
TEAM-NET
 10
42.592062
 20
-296.405474
 30
850.0
 70
    64
  0
VERTEX
  5
685
  8
TEAM-NET
 10
28.470123
 20
-298.405686
 30
850.0
 70
    64
  0
VERTEX
  5
686
  8
TEAM-NET
 10
14.257424
 20
-299.60191
 30
850.0
 70
    64
  0
VERTEX
  5
687
  8
TEAM-NET
 10
0.0
 20
-300.0
 30
850.0
 70
    64
  0
VERTEX
  5
688
  8
TEAM-NET
 10
-14.257424
 20
-299.60191
 30
850.0
 70
    64
  0
VERTEX
  5
689
  8
TEAM-NET
 10
-28.470123
 20
-298.405686
 30
850.0
 70
    64
  0
VERTEX
  5
68A
  8
TEAM-NET
 10
-42.592062
 20
-296.405474
 30
850.0
 70
    64
  0
VERTEX
  5
68B
  8
TEAM-NET
 10
-56.57452
 20
-293.591561
 30
850.0
 70
    64
  0
VERTEX
  5
68C
  8
TEAM-NET
 10
-70.364578
 20
-289.950456
 30
850.0
 70
    64
  0
VERTEX
  5
68D
  8
TEAM-NET
 10
-83.903395
 20
-285.465088
 30
850.0
 70
    64
  0
VERTEX
  5
68E
  8
TEAM-NET
 10
-97.124202
 20
-280.115189
 30
850.0
 70
    64
  0
VERTEX
  5
68F
  8
TEAM-NET
 10
-109.949945
 20
-273.878003
 30
850.0
 70
    64
  0
VERTEX
  5
690
  8
TEAM-NET
 10
-122.290533
 20
-266.729541
 30
850.0
 70
    64
  0
VERTEX
  5
691
  8
TEAM-NET
 10
-134.039721
 20
-258.646693
 30
850.0
 70
    64
  0
VERTEX
  5
692
  8
TEAM-NET
 10
-145.071823
 20
-249.610666
 30
850.0
 70
    64
  0
VERTEX
  5
693
  8
TEAM-NET
 10
-155.238745
 20
-239.6123
 30
850.0
 70
    64
  0
VERTEX
  5
694
  8
TEAM-NET
 10
-164.368353
 20
-228.659895
 30
850.0
 70
    64
  0
VERTEX
  5
695
  8
TEAM-NET
 10
-172.265998
 20
-216.789831
 30
850.0
 70
    64
  0
VERTEX
  5
696
  8
TEAM-NET
 10
-178.721756
 20
-204.079313
 30
850.0
 70
    64
  0
VERTEX
  5
697
  8
TEAM-NET
 10
-183.526118
 20
-190.658606
 30
850.0
 70
    64
  0
VERTEX
  5
698
  8
TEAM-NET
 10
-186.494964
 20
-176.717562
 30
850.0
 70
    64
  0
VERTEX
  5
699
  8
TEAM-NET
 10
-187.5
 20
-162.5
 30
850.0
 70
    64
  0
VERTEX
  5
69A
  8
TEAM-NET
 10
212.5
 20
-162.5
 30
850.0
 70
    64
  0
VERTEX
  5
69B
  8
TEAM-NET
 10
211.416669
 20
-178.887597
 30
850.0
 70
    64
  0
VERTEX
  5
69C
  8
TEAM-NET
 10
208.207971
 20
-194.994969
 30
850.0
 70
    64
  0
VERTEX
  5
69D
  8
TEAM-NET
 10
202.990059
 20
-210.568841
 30
850.0
 70
    64
  0
VERTEX
  5
69E
  8
TEAM-NET
 10
195.934018
 20
-225.40193
 30
850.0
 70
    64
  0
VERTEX
  5
69F
  8
TEAM-NET
 10
187.241248
 20
-239.340443
 30
850.0
 70
    64
  0
VERTEX
  5
6A0
  8
TEAM-NET
 10
177.121318
 20
-252.28145
 30
850.0
 70
    64
  0
VERTEX
  5
6A1
  8
TEAM-NET
 10
165.776121
 20
-264.164269
 30
850.0
 70
    64
  0
VERTEX
  5
6A2
  8
TEAM-NET
 10
153.390791
 20
-274.959913
 30
850.0
 70
    64
  0
VERTEX
  5
6A3
  8
TEAM-NET
 10
140.129969
 20
-284.661236
 30
850.0
 70
    64
  0
VERTEX
  5
6A4
  8
TEAM-NET
 10
126.137546
 20
-293.274923
 30
850.0
 70
    64
  0
VERTEX
  5
6A5
  8
TEAM-NET
 10
111.538309
 20
-300.815521
 30
850.0
 70
    64
  0
VERTEX
  5
6A6
  8
TEAM-NET
 10
96.440443
 20
-307.301235
 30
850.0
 70
    64
  0
VERTEX
  5
6A7
  8
TEAM-NET
 10
80.938238
 20
-312.751088
 30
850.0
 70
    64
  0
VERTEX
  5
6A8
  8
TEAM-NET
 10
65.114711
 20
-317.183054
 30
850.0
 70
    64
  0
VERTEX
  5
6A9
  8
TEAM-NET
 10
49.043995
 20
-320.612879
 30
850.0
 70
    64
  0
VERTEX
  5
6AA
  8
TEAM-NET
 10
32.79347
 20
-323.053343
 30
850.0
 70
    64
  0
VERTEX
  5
6AB
  8
TEAM-NET
 10
16.42567
 20
-324.513815
 30
850.0
 70
    64
  0
VERTEX
  5
6AC
  8
TEAM-NET
 10
0.0
 20
-325.0
 30
850.0
 70
    64
  0
VERTEX
  5
6AD
  8
TEAM-NET
 10
-16.42567
 20
-324.513815
 30
850.0
 70
    64
  0
VERTEX
  5
6AE
  8
TEAM-NET
 10
-32.79347
 20
-323.053343
 30
850.0
 70
    64
  0
VERTEX
  5
6AF
  8
TEAM-NET
 10
-49.043995
 20
-320.612879
 30
850.0
 70
    64
  0
VERTEX
  5
6B0
  8
TEAM-NET
 10
-65.114711
 20
-317.183054
 30
850.0
 70
    64
  0
VERTEX
  5
6B1
  8
TEAM-NET
 10
-80.938238
 20
-312.751088
 30
850.0
 70
    64
  0
VERTEX
  5
6B2
  8
TEAM-NET
 10
-96.440443
 20
-307.301235
 30
850.0
 70
    64
  0
VERTEX
  5
6B3
  8
TEAM-NET
 10
-111.538309
 20
-300.815521
 30
850.0
 70
    64
  0
VERTEX
  5
6B4
  8
TEAM-NET
 10
-126.137546
 20
-293.274923
 30
850.0
 70
    64
  0
VERTEX
  5
6B5
  8
TEAM-NET
 10
-140.129969
 20
-284.661236
 30
850.0
 70
    64
  0
VERTEX
  5
6B6
  8
TEAM-NET
 10
-153.390791
 20
-274.959913
 30
850.0
 70
    64
  0
VERTEX
  5
6B7
  8
TEAM-NET
 10
-165.776121
 20
-264.164269
 30
850.0
 70
    64
  0
VERTEX
  5
6B8
  8
TEAM-NET
 10
-177.121321
 20
-252.281446
 30
850.0
 70
    64
  0
VERTEX
  5
6B9
  8
TEAM-NET
 10
-187.241248
 20
-239.340443
 30
850.0
 70
    64
  0
VERTEX
  5
6BA
  8
TEAM-NET
 10
-195.934018
 20
-225.40193
 30
850.0
 70
    64
  0
VERTEX
  5
6BB
  8
TEAM-NET
 10
-202.990059
 20
-210.568841
 30
850.0
 70
    64
  0
VERTEX
  5
6BC
  8
TEAM-NET
 10
-208.207971
 20
-194.994969
 30
850.0
 70
    64
  0
VERTEX
  5
6BD
  8
TEAM-NET
 10
-211.416669
 20
-178.887597
 30
850.0
 70
    64
  0
VERTEX
  5
6BE
  8
TEAM-NET
 10
-212.5
 20
-162.5
 30
850.0
 70
    64
  0
SEQEND
  5
6BF
  8
TEAM-NET
  0
ENDSEC
  0
EOF
