  0
SECTION
  2
HEADER
  9
$ACADVER
  1
AC1009
  9
$INSBASE
 10
0.0
 20
0.0
 30
0.0
  9
$EXTMIN
 10
-188.208154
 20
-566.911091
 30
-0.012996
  9
$EXTMAX
 10
187.975632
 20
10.017563
 30
427.37521
  9
$LIMMIN
 10
-188.208154
 20
-566.911091
  9
$LIMMAX
 10
187.975632
 20
10.017563
  9
$ORTHOMODE
 70
     1
  9
$REGENMODE
 70
     1
  9
$FILLMODE
 70
     1
  9
$QTEXTMODE
 70
     0
  9
$MIRRTEXT
 70
     0
  9
$DRAGMODE
 70
     2
  9
$LTSCALE
 40
25.0
  9
$OSMODE
 70
     0
  9
$ATTMODE
 70
     1
  9
$TEXTSIZE
 40
200.0
  9
$TRACEWID
 40
1.0
  9
$TEXTSTYLE
  7
STANDARD
  9
$CLAYER
  8
TEAM-MAS
  9
$CELTYPE
  6
BYLAYER
  9
$CECOLOR
 62
   256
  9
$DIMSCALE
 40
0.0
  9
$DIMASZ
 40
20.0
  9
$DIMEXO
 40
10.0
  9
$DIMDLI
 40
1.0
  9
$DIMRND
 40
0.0
  9
$DIMDLE
 40
0.0
  9
$DIMEXE
 40
1.0
  9
$DIMTP
 40
0.0
  9
$DIMTM
 40
0.0
  9
$DIMTXT
 40
35.0
  9
$DIMCEN
 40
1.0
  9
$DIMTSZ
 40
0.0
  9
$DIMTOL
 70
     0
  9
$DIMLIM
 70
     0
  9
$DIMTIH
 70
     0
  9
$DIMTOH
 70
     0
  9
$DIMSE1
 70
     0
  9
$DIMSE2
 70
     0
  9
$DIMTAD
 70
     0
  9
$DIMZIN
 70
     0
  9
$DIMBLK
  1

  9
$DIMASO
 70
     1
  9
$DIMSHO
 70
     0
  9
$DIMPOST
  1

  9
$DIMAPOST
  1

  9
$DIMALT
 70
     0
  9
$DIMALTD
 70
     2
  9
$DIMALTF
 40
25.4
  9
$DIMLFAC
 40
1.0
  9
$DIMTOFL
 70
     0
  9
$DIMTVP
 40
0.0
  9
$DIMTIX
 70
     0
  9
$DIMSOXD
 70
     0
  9
$DIMSAH
 70
     0
  9
$DIMBLK1
  1

  9
$DIMBLK2
  1

  9
$DIMSTYLE
  2
TEAM
  9
$DIMCLRD
 70
     9
  9
$DIMCLRE
 70
     9
  9
$DIMCLRT
 70
    11
  9
$DIMTFAC
 40
1.0
  9
$DIMGAP
 40
15.0
  9
$LUNITS
 70
     2
  9
$LUPREC
 70
     1
  9
$SKETCHINC
 40
1.0
  9
$FILLETRAD
 40
20.0
  9
$AUNITS
 70
     0
  9
$AUPREC
 70
     0
  9
$MENU
  1
ROPLANS
  9
$ELEVATION
 40
0.0
  9
$PELEVATION
 40
0.0
  9
$THICKNESS
 40
0.0
  9
$LIMCHECK
 70
     0
  9
$BLIPMODE
 70
     1
  9
$CHAMFERA
 40
0.0
  9
$CHAMFERB
 40
0.0
  9
$SKPOLY
 70
     0
  9
$TDCREATE
 40
2450392.957851
  9
$TDUPDATE
 40
2455536.798295
  9
$TDINDWG
 40
2.489744
  9
$TDUSRTIMER
 40
2.489744
  9
$USRTIMER
 70
     1
  9
$ANGBASE
 50
0.0
  9
$ANGDIR
 70
     0
  9
$PDMODE
 70
     0
  9
$PDSIZE
 40
0.0
  9
$PLINEWID
 40
0.0
  9
$COORDS
 70
     2
  9
$SPLFRAME
 70
     0
  9
$SPLINETYPE
 70
     6
  9
$SPLINESEGS
 70
     8
  9
$ATTDIA
 70
     0
  9
$ATTREQ
 70
     0
  9
$HANDLING
 70
     1
  9
$HANDSEED
  5
1083
  9
$SURFTAB1
 70
    48
  9
$SURFTAB2
 70
    48
  9
$SURFTYPE
 70
     6
  9
$SURFU
 70
     6
  9
$SURFV
 70
     6
  9
$UCSNAME
  2

  9
$UCSORG
 10
0.0
 20
0.0
 30
0.0
  9
$UCSXDIR
 10
1.0
 20
0.0
 30
0.0
  9
$UCSYDIR
 10
0.0
 20
1.0
 30
0.0
  9
$PUCSNAME
  2

  9
$PUCSORG
 10
0.0
 20
0.0
 30
0.0
  9
$PUCSXDIR
 10
1.0
 20
0.0
 30
0.0
  9
$PUCSYDIR
 10
0.0
 20
1.0
 30
0.0
  9
$USERI1
 70
     0
  9
$USERI2
 70
     0
  9
$USERI3
 70
     0
  9
$USERI4
 70
     0
  9
$USERI5
 70
     0
  9
$USERR1
 40
0.0
  9
$USERR2
 40
0.0
  9
$USERR3
 40
0.0
  9
$USERR4
 40
0.0
  9
$USERR5
 40
0.0
  9
$WORLDVIEW
 70
     1
  9
$SHADEDGE
 70
     0
  9
$SHADEDIF
 70
    70
  9
$TILEMODE
 70
     1
  9
$MAXACTVP
 70
    16
  9
$PLIMCHECK
 70
     0
  9
$PEXTMIN
 10
-0.805942
 20
0.005011
 30
0.0
  9
$PEXTMAX
 10
20.421406
 20
13.753816
 30
0.0
  9
$PLIMMIN
 10
0.0
 20
0.0
  9
$PLIMMAX
 10
12.0
 20
9.0
  9
$UNITMODE
 70
     0
  9
$VISRETAIN
 70
     0
  9
$PLINEGEN
 70
     0
  9
$PSLTSCALE
 70
     0
  0
ENDSEC
  0
SECTION
  2
TABLES
  0
TABLE
  2
VPORT
 70
     2
  0
VPORT
  2
*ACTIVE
 70
     0
 10
0.0
 20
0.0
 11
1.0
 21
1.0
 12
-0.116261
 22
-278.446764
 13
0.0
 23
0.0
 14
1.0
 24
1.0
 15
50.0
 25
50.0
 16
0.0
 26
0.0
 36
1.0
 17
0.0
 27
0.0
 37
0.0
 40
580.471715
 41
1.865779
 42
50.0
 43
0.0
 44
0.0
 50
0.0
 51
0.0
 71
     0
 72
   100
 73
     1
 74
     1
 75
     0
 76
     0
 77
     0
 78
     0
  0
ENDTAB
  0
TABLE
  2
LTYPE
 70
     1
  0
LTYPE
  2
CONTINUOUS
 70
     0
  3
Solid Line
 72
    65
 73
     0
 40
0.0
  0
ENDTAB
  0
TABLE
  2
LAYER
 70
     5
  0
LAYER
  2
0
 70
     0
 62
     7
  6
CONTINUOUS
  0
LAYER
  2
TEAM-MAS
 70
     0
 62
     9
  6
CONTINUOUS
  0
LAYER
  2
TEAM-TXT
 70
     0
 62
    11
  6
CONTINUOUS
  0
LAYER
  2
TEAM-NET
 70
     0
 62
    15
  6
CONTINUOUS
  0
LAYER
  2
TEAM-INSP
 70
     0
 62
     5
  6
CONTINUOUS
  0
ENDTAB
  0
TABLE
  2
STYLE
 70
     2
  0
STYLE
  2
STANDARD
 70
     0
 40
0.0
 41
1.0
 50
0.0
 71
     0
 42
200.0
  3
txt
  4

  0
STYLE
  2
TEAM
 70
     0
 40
0.0
 41
0.8
 50
15.0
 71
     0
 42
7.0
  3
ROMANS.shx
  4

  0
ENDTAB
  0
TABLE
  2
VIEW
 70
     0
  0
ENDTAB
  0
TABLE
  2
UCS
 70
     0
  0
ENDTAB
  0
TABLE
  2
APPID
 70
     1
  0
APPID
  2
ACAD
 70
     0
  0
ENDTAB
  0
TABLE
  2
DIMSTYLE
 70
     1
  0
DIMSTYLE
  2
TEAM
 70
     0
  3

  4

  5

  6

  7

 40
0.0
 41
20.0
 42
10.0
 43
1.0
 44
1.0
 45
0.0
 46
0.0
 47
0.0
 48
0.0
140
35.0
141
1.0
142
0.0
143
25.4
144
1.0
145
0.0
146
1.0
147
15.0
 71
     0
 72
     0
 73
     0
 74
     0
 75
     0
 76
     0
 77
     0
 78
     0
170
     0
171
     2
172
     0
173
     0
174
     0
175
     0
176
     9
177
     9
178
    11
  0
ENDTAB
  0
ENDSEC
  0
SECTION
  2
BLOCKS
  0
BLOCK
  8
0
  2
$MODEL_SPACE
 70
     0
 10
0.0
 20
0.0
 30
0.0
  3
$MODEL_SPACE
  1

  0
ENDBLK
  5
C44
  8
0
  0
BLOCK
 67
     1
  8
0
  2
$PAPER_SPACE
 70
     0
 10
0.0
 20
0.0
 30
0.0
  3
$PAPER_SPACE
  1

  0
ENDBLK
  5
C42
 67
     1
  8
0
  0
ENDSEC
  0
SECTION
  2
ENTITIES
  0
ARC
  5
20
  8
TEAM-NET
 10
0.0
 20
190.0
 30
-34.555974
 40
51.0
210
0.0
220
1.0
230
0.0
 50
270.0
 51
90.0
  0
ARC
  5
D7
  8
TEAM-NET
 10
0.0
 20
190.0
 30
-34.555974
 40
51.0
210
0.0
220
1.0
230
0.0
 50
90.0
 51
270.0
1001
ACAD
1000
R13OBJECT
1002
{
1005
20
1002
}
  0
LINE
  5
22
  8
TEAM-NET
 10
0.0
 20
0.444026
 30
241.0
 11
0.0
 21
-34.555974
 31
241.0
  0
ARC
  5
D8
  8
TEAM-NET
 10
0.0
 20
190.0
 30
-34.555974
 40
51.0
210
0.0
220
1.0
230
0.0
 50
270.0
 51
90.0
1001
ACAD
1000
R13OBJECT
1002
{
1005
22
1002
}
  0
LINE
  5
D9
  8
TEAM-NET
 10
0.0
 20
0.444026
 30
139.0
 11
0.0
 21
-34.555974
 31
139.0
1001
ACAD
1000
R13OBJECT
1002
{
1005
22
1002
}
  0
ARC
  5
DA
  8
TEAM-NET
 10
0.0
 20
190.0
 30
-0.444026
 40
51.0
210
-0.0
220
-1.0
230
0.0
 50
90.0
 51
270.0
1001
ACAD
1000
R13OBJECT
1002
{
1005
22
1002
}
  0
ARC
  5
23
  8
TEAM-NET
 10
0.0
 20
190.0
 30
-0.444026
 40
51.0
210
-0.0
220
-1.0
230
0.0
 50
270.0
 51
90.0
  0
ARC
  5
DB
  8
TEAM-NET
 10
0.0
 20
190.0
 30
-0.444026
 40
51.0
210
-0.0
220
-1.0
230
0.0
 50
90.0
 51
270.0
1001
ACAD
1000
R13OBJECT
1002
{
1005
23
1002
}
  0
ARC
  5
DC
  8
TEAM-NET
 10
0.0
 20
345.0
 30
-0.444026
 40
26.0
210
-0.0
220
-1.0
230
0.0
 50
270.0
 51
90.0
1001
ACAD
1000
R13OBJECT
1002
{
1005
23
1002
}
  0
ARC
  5
DD
  8
TEAM-NET
 10
0.0
 20
345.0
 30
-0.444026
 40
26.0
210
-0.0
220
-1.0
230
0.0
 50
90.0
 51
270.0
1001
ACAD
1000
R13OBJECT
1002
{
1005
23
1002
}
  0
POLYLINE
  5
DE
  8
TEAM-NET
 66
     1
 10
0.0
 20
0.0
 30
-0.444026
 70
   128
210
0.0
220
-1.0
230
0.0
1001
ACAD
1000
R13OBJECT
1002
{
1005
23
1002
}
  0
VERTEX
  5
CE2
  8
TEAM-NET
 10
177.999394
 20
350.9
 30
-0.444026
  0
VERTEX
  5
CE3
  8
TEAM-NET
 10
182.94957
 20
352.950253
 30
-0.444026
  0
VERTEX
  5
CE4
  8
TEAM-NET
 10
185.0
 20
357.9
 30
-0.444026
  0
SEQEND
  5
CE5
  8
TEAM-NET
  0
LINE
  5
E3
  8
TEAM-NET
 10
177.999394
 20
0.444026
 30
350.9
 11
165.091796
 21
0.444026
 31
350.9
1001
ACAD
1000
R13OBJECT
1002
{
1005
23
1002
}
  0
POLYLINE
  5
E4
  8
TEAM-NET
 66
     1
 10
0.0
 20
0.0
 30
0.444026
 70
   128
210
0.0
220
1.0
230
0.0
1001
ACAD
1000
R13OBJECT
1002
{
1005
23
1002
}
  0
VERTEX
  5
CE6
  8
TEAM-NET
 10
-160.096135
 20
346.108256
 30
0.444026
  0
VERTEX
  5
CE7
  8
TEAM-NET
 10
-160.549224
 20
347.989269
 30
0.444026
  0
VERTEX
  5
CE8
  8
TEAM-NET
 10
-161.682518
 20
349.557434
 30
0.444026
  0
VERTEX
  5
CE9
  8
TEAM-NET
 10
-163.326317
 20
350.577936
 30
0.444026
  0
VERTEX
  5
CEA
  8
TEAM-NET
 10
-165.091796
 20
350.9
 30
0.444026
  0
SEQEND
  5
CEB
  8
TEAM-NET
  0
POLYLINE
  5
EB
  8
TEAM-NET
 66
     1
 10
0.0
 20
0.0
 30
0.444026
 70
   128
210
0.0
220
1.0
230
0.0
1001
ACAD
1000
R13OBJECT
1002
{
1005
23
1002
}
  0
VERTEX
  5
CEC
  8
TEAM-NET
 10
-160.096135
 20
346.108256
 30
0.444026
  0
VERTEX
  5
CED
  8
TEAM-NET
 10
-157.790196
 20
313.190411
 30
0.444026
  0
VERTEX
  5
CEE
  8
TEAM-NET
 10
-153.661805
 20
281.349753
 30
0.444026
  0
VERTEX
  5
CEF
  8
TEAM-NET
 10
-147.710961
 20
250.586282
 30
0.444026
  0
VERTEX
  5
CF0
  8
TEAM-NET
 10
-139.937664
 20
220.9
 30
0.444026
  0
SEQEND
  5
CF1
  8
TEAM-NET
  0
POLYLINE
  5
F2
  8
TEAM-NET
 66
     1
 10
0.0
 20
0.0
 30
-0.444026
 70
   128
210
0.0
220
-1.0
230
0.0
1001
ACAD
1000
R13OBJECT
1002
{
1005
23
1002
}
  0
VERTEX
  5
CF2
  8
TEAM-NET
 10
103.255627
 20
133.922506
 30
-0.444026
  0
VERTEX
  5
CF3
  8
TEAM-NET
 10
114.258014
 20
154.888033
 30
-0.444026
  0
VERTEX
  5
CF4
  8
TEAM-NET
 10
124.022305
 20
176.383512
 30
-0.444026
  0
VERTEX
  5
CF5
  8
TEAM-NET
 10
132.573766
 20
198.392861
 30
-0.444026
  0
VERTEX
  5
CF6
  8
TEAM-NET
 10
139.937664
 20
220.9
 30
-0.444026
  0
SEQEND
  5
CF7
  8
TEAM-NET
  0
LINE
  5
F9
  8
TEAM-NET
 10
103.255627
 20
0.444026
 30
133.922506
 11
103.255627
 21
0.444026
 31
127.550706
1001
ACAD
1000
R13OBJECT
1002
{
1005
23
1002
}
  0
LINE
  5
FA
  8
TEAM-NET
 10
103.567358
 20
0.444026
 30
133.922506
 11
103.255627
 21
0.444026
 31
127.550706
1001
ACAD
1000
R13OBJECT
1002
{
1005
23
1002
}
  0
LINE
  5
FB
  8
TEAM-NET
 10
103.567358
 20
0.444026
 30
133.922506
 11
113.693296
 21
0.444026
 31
0.0
1001
ACAD
1000
R13OBJECT
1002
{
1005
23
1002
}
  0
LINE
  5
FC
  8
TEAM-NET
 10
113.693296
 20
0.444026
 30
0.0
 11
-113.693043
 21
0.444026
 31
0.0
1001
ACAD
1000
R13OBJECT
1002
{
1005
23
1002
}
  0
LINE
  5
FD
  8
TEAM-NET
 10
-103.567105
 20
0.444026
 30
133.922506
 11
-113.693043
 21
0.444026
 31
0.0
1001
ACAD
1000
R13OBJECT
1002
{
1005
23
1002
}
  0
LINE
  5
FE
  8
TEAM-NET
 10
-103.255627
 20
0.444026
 30
127.55588
 11
-103.567105
 21
0.444026
 31
133.922506
1001
ACAD
1000
R13OBJECT
1002
{
1005
23
1002
}
  0
LINE
  5
FF
  8
TEAM-NET
 10
-103.255627
 20
0.444026
 30
127.55588
 11
-103.255627
 21
0.444026
 31
133.922506
1001
ACAD
1000
R13OBJECT
1002
{
1005
23
1002
}
  0
POLYLINE
  5
100
  8
TEAM-NET
 66
     1
 10
0.0
 20
0.0
 30
-0.444026
 70
   128
210
0.0
220
-1.0
230
0.0
1001
ACAD
1000
R13OBJECT
1002
{
1005
23
1002
}
  0
VERTEX
  5
CF8
  8
TEAM-NET
 10
-139.937664
 20
220.9
 30
-0.444026
  0
VERTEX
  5
CF9
  8
TEAM-NET
 10
-132.573766
 20
198.392861
 30
-0.444026
  0
VERTEX
  5
CFA
  8
TEAM-NET
 10
-124.022305
 20
176.383512
 30
-0.444026
  0
VERTEX
  5
CFB
  8
TEAM-NET
 10
-114.258014
 20
154.888033
 30
-0.444026
  0
VERTEX
  5
CFC
  8
TEAM-NET
 10
-103.255627
 20
133.922506
 30
-0.444026
  0
SEQEND
  5
CFD
  8
TEAM-NET
  0
POLYLINE
  5
107
  8
TEAM-NET
 66
     1
 10
0.0
 20
0.0
 30
0.444026
 70
   128
210
0.0
220
1.0
230
0.0
1001
ACAD
1000
R13OBJECT
1002
{
1005
23
1002
}
  0
VERTEX
  5
CFE
  8
TEAM-NET
 10
139.937664
 20
220.9
 30
0.444026
  0
VERTEX
  5
CFF
  8
TEAM-NET
 10
147.710961
 20
250.586282
 30
0.444026
  0
VERTEX
  5
D00
  8
TEAM-NET
 10
153.661805
 20
281.349753
 30
0.444026
  0
VERTEX
  5
D01
  8
TEAM-NET
 10
157.790196
 20
313.190411
 30
0.444026
  0
VERTEX
  5
D02
  8
TEAM-NET
 10
160.096135
 20
346.108256
 30
0.444026
  0
SEQEND
  5
D03
  8
TEAM-NET
  0
POLYLINE
  5
10E
  8
TEAM-NET
 66
     1
 10
0.0
 20
0.0
 30
0.444026
 70
   128
210
0.0
220
1.0
230
0.0
1001
ACAD
1000
R13OBJECT
1002
{
1005
23
1002
}
  0
VERTEX
  5
D04
  8
TEAM-NET
 10
165.091796
 20
350.9
 30
0.444026
  0
VERTEX
  5
D05
  8
TEAM-NET
 10
163.193544
 20
350.52565
 30
0.444026
  0
VERTEX
  5
D06
  8
TEAM-NET
 10
161.579536
 20
349.458656
 30
0.444026
  0
VERTEX
  5
D07
  8
TEAM-NET
 10
160.491454
 20
347.858789
 30
0.444026
  0
VERTEX
  5
D08
  8
TEAM-NET
 10
160.096135
 20
346.108256
 30
0.444026
  0
SEQEND
  5
D09
  8
TEAM-NET
  0
LINE
  5
115
  8
TEAM-NET
 10
-165.091796
 20
0.444026
 30
350.9
 11
-177.999394
 21
0.444026
 31
350.9
1001
ACAD
1000
R13OBJECT
1002
{
1005
23
1002
}
  0
POLYLINE
  5
116
  8
TEAM-NET
 66
     1
 10
0.0
 20
0.0
 30
-0.444026
 70
   128
210
-0.0
220
-1.0
230
0.0
1001
ACAD
1000
R13OBJECT
1002
{
1005
23
1002
}
  0
VERTEX
  5
D0A
  8
TEAM-NET
 10
-185.0
 20
357.9
 30
-0.444026
  0
VERTEX
  5
D0B
  8
TEAM-NET
 10
-182.94957
 20
352.950253
 30
-0.444026
  0
VERTEX
  5
D0C
  8
TEAM-NET
 10
-177.999394
 20
350.9
 30
-0.444026
  0
SEQEND
  5
D0D
  8
TEAM-NET
  0
LINE
  5
11B
  8
TEAM-NET
 10
-185.0
 20
0.444026
 30
418.0
 11
-185.0
 21
0.444026
 31
357.9
1001
ACAD
1000
R13OBJECT
1002
{
1005
23
1002
}
  0
POLYLINE
  5
11C
  8
TEAM-NET
 66
     1
 10
0.0
 20
0.0
 30
-0.444026
 70
   128
210
-0.0
220
-1.0
230
0.0
1001
ACAD
1000
R13OBJECT
1002
{
1005
23
1002
}
  0
VERTEX
  5
D0E
  8
TEAM-NET
 10
-177.999394
 20
425.0
 30
-0.444026
  0
VERTEX
  5
D0F
  8
TEAM-NET
 10
-182.94957
 20
422.949747
 30
-0.444026
  0
VERTEX
  5
D10
  8
TEAM-NET
 10
-185.0
 20
418.0
 30
-0.444026
  0
SEQEND
  5
D11
  8
TEAM-NET
  0
LINE
  5
121
  8
TEAM-NET
 10
177.999394
 20
0.444026
 30
425.0
 11
-177.999394
 21
0.444026
 31
425.0
1001
ACAD
1000
R13OBJECT
1002
{
1005
23
1002
}
  0
POLYLINE
  5
122
  8
TEAM-NET
 66
     1
 10
0.0
 20
0.0
 30
-0.444026
 70
   128
210
-0.0
220
-1.0
230
0.0
1001
ACAD
1000
R13OBJECT
1002
{
1005
23
1002
}
  0
VERTEX
  5
D12
  8
TEAM-NET
 10
185.0
 20
418.0
 30
-0.444026
  0
VERTEX
  5
D13
  8
TEAM-NET
 10
182.94957
 20
422.949747
 30
-0.444026
  0
VERTEX
  5
D14
  8
TEAM-NET
 10
177.999394
 20
425.0
 30
-0.444026
  0
SEQEND
  5
D15
  8
TEAM-NET
  0
LINE
  5
127
  8
TEAM-NET
 10
185.0
 20
0.444026
 30
418.0
 11
185.0
 21
0.444026
 31
357.9
1001
ACAD
1000
R13OBJECT
1002
{
1005
23
1002
}
  0
LINE
  5
24
  8
TEAM-NET
 10
-160.096135
 20
-34.628191
 30
346.108256
 11
-160.096135
 21
-377.459208
 31
346.108256
  0
POLYLINE
  5
128
  8
TEAM-NET
 66
     1
 10
0.0
 20
0.0
 30
32.425032
 70
   128
210
-0.699394
220
-0.651033
230
-0.294964
1001
ACAD
1000
R13OBJECT
1002
{
1005
24
1002
}
  0
VERTEX
  5
D16
  8
TEAM-NET
 10
-83.734614
 20
372.233718
 30
32.425032
  0
VERTEX
  5
D17
  8
TEAM-NET
 10
-87.879687
 20
354.867497
 30
32.425032
  0
VERTEX
  5
D18
  8
TEAM-NET
 10
-91.266758
 20
337.783112
 30
32.425032
  0
VERTEX
  5
D19
  8
TEAM-NET
 10
-93.895829
 20
320.980563
 30
32.425032
  0
VERTEX
  5
D1A
  8
TEAM-NET
 10
-95.766898
 20
304.45985
 30
32.425032
  0
VERTEX
  5
D1B
  8
TEAM-NET
 10
-96.879966
 20
288.220974
 30
32.425032
  0
VERTEX
  5
D1C
  8
TEAM-NET
 10
-97.235033
 20
272.263934
 30
32.425032
  0
VERTEX
  5
D1D
  8
TEAM-NET
 10
-96.832098
 20
256.58873
 30
32.425032
  0
VERTEX
  5
D1E
  8
TEAM-NET
 10
-95.671163
 20
241.195363
 30
32.425032
  0
SEQEND
  5
D1F
  8
TEAM-NET
  0
POLYLINE
  5
133
  8
TEAM-NET
 66
     1
 10
0.0
 20
0.0
 30
-0.444026
 70
   128
210
0.0
220
-1.0
230
0.0
1001
ACAD
1000
R13OBJECT
1002
{
1005
24
1002
}
  0
VERTEX
  5
D20
  8
TEAM-NET
 10
-139.937664
 20
220.9
 30
-0.444026
  0
VERTEX
  5
D21
  8
TEAM-NET
 10
-132.573766
 20
198.392861
 30
-0.444026
  0
VERTEX
  5
D22
  8
TEAM-NET
 10
-124.022305
 20
176.383512
 30
-0.444026
  0
VERTEX
  5
D23
  8
TEAM-NET
 10
-114.258014
 20
154.888033
 30
-0.444026
  0
VERTEX
  5
D24
  8
TEAM-NET
 10
-103.255627
 20
133.922506
 30
-0.444026
  0
SEQEND
  5
D25
  8
TEAM-NET
  0
LINE
  5
13A
  8
TEAM-NET
 10
-103.255627
 20
-59.555974
 30
133.922506
 11
-103.255627
 21
0.444026
 31
133.922506
1001
ACAD
1000
R13OBJECT
1002
{
1005
24
1002
}
  0
LINE
  5
13B
  8
TEAM-NET
 10
-103.255627
 20
-59.555974
 30
133.922506
 11
-103.255627
 21
-308.640077
 31
133.922506
1001
ACAD
1000
R13OBJECT
1002
{
1005
24
1002
}
  0
POLYLINE
  5
13C
  8
TEAM-NET
 66
     1
 10
0.0
 20
0.0
 30
132.820768
 70
   128
210
0.727421
220
-0.68564
230
-0.027514
1001
ACAD
1000
R13OBJECT
1002
{
1005
24
1002
}
  0
VERTEX
  5
D26
  8
TEAM-NET
 10
-351.439388
 20
224.639517
 30
132.820768
  0
VERTEX
  5
D27
  8
TEAM-NET
 10
-339.907355
 20
201.871932
 30
132.820768
  0
VERTEX
  5
D28
  8
TEAM-NET
 10
-326.726656
 20
179.780997
 30
132.820768
  0
VERTEX
  5
D29
  8
TEAM-NET
 10
-311.897291
 20
158.366714
 30
132.820768
  0
VERTEX
  5
D2A
  8
TEAM-NET
 10
-295.419259
 20
137.629082
 30
132.820768
  0
SEQEND
  5
D2B
  8
TEAM-NET
  0
POLYLINE
  5
143
  8
TEAM-NET
 66
     1
 10
0.0
 20
0.0
 30
132.820768
 70
   128
210
0.727421
220
-0.68564
230
-0.027514
1001
ACAD
1000
R13OBJECT
1002
{
1005
24
1002
}
  0
VERTEX
  5
D2C
  8
TEAM-NET
 10
-384.485562
 20
349.895194
 30
132.820768
  0
VERTEX
  5
D2D
  8
TEAM-NET
 10
-382.652165
 20
333.295338
 30
132.820768
  0
VERTEX
  5
D2E
  8
TEAM-NET
 10
-380.162375
 20
316.964881
 30
132.820768
  0
VERTEX
  5
D2F
  8
TEAM-NET
 10
-377.016192
 20
300.903823
 30
132.820768
  0
VERTEX
  5
D30
  8
TEAM-NET
 10
-373.213616
 20
285.112164
 30
132.820768
  0
VERTEX
  5
D31
  8
TEAM-NET
 10
-368.754648
 20
269.589904
 30
132.820768
  0
VERTEX
  5
D32
  8
TEAM-NET
 10
-363.639287
 20
254.337043
 30
132.820768
  0
VERTEX
  5
D33
  8
TEAM-NET
 10
-357.867534
 20
239.353581
 30
132.820768
  0
VERTEX
  5
D34
  8
TEAM-NET
 10
-351.439388
 20
224.639517
 30
132.820768
  0
SEQEND
  5
D35
  8
TEAM-NET
  0
LINE
  5
25
  8
TEAM-NET
 10
-156.834383
 20
-409.654756
 30
346.178251
 11
-156.835037
 21
-409.655438
 31
346.191551
  0
POLYLINE
  5
14E
  8
TEAM-NET
 66
     1
 10
0.0
 20
0.0
 30
345.111603
 70
   128
210
0.000096
220
0.002597
230
0.999997
1001
ACAD
1000
R13OBJECT
1002
{
1005
25
1002
}
  0
VERTEX
  5
D36
  8
TEAM-NET
 10
-160.129233
 20
-378.356659
 30
345.111603
  0
VERTEX
  5
D37
  8
TEAM-NET
 10
-159.062858
 20
-396.843959
 30
345.111603
  0
VERTEX
  5
D38
  8
TEAM-NET
 10
-156.868143
 20
-410.552998
 30
345.111603
  0
SEQEND
  5
D39
  8
TEAM-NET
  0
POLYLINE
  5
153
  8
TEAM-NET
 66
     1
 10
0.0
 20
0.0
 30
132.820768
 70
   128
210
0.727421
220
-0.68564
230
-0.027514
1001
ACAD
1000
R13OBJECT
1002
{
1005
25
1002
}
  0
VERTEX
  5
D3A
  8
TEAM-NET
 10
-384.485562
 20
349.895194
 30
132.820768
  0
VERTEX
  5
D3B
  8
TEAM-NET
 10
-382.652165
 20
333.295338
 30
132.820768
  0
VERTEX
  5
D3C
  8
TEAM-NET
 10
-380.162375
 20
316.964881
 30
132.820768
  0
VERTEX
  5
D3D
  8
TEAM-NET
 10
-377.016192
 20
300.903823
 30
132.820768
  0
VERTEX
  5
D3E
  8
TEAM-NET
 10
-373.213616
 20
285.112164
 30
132.820768
  0
VERTEX
  5
D3F
  8
TEAM-NET
 10
-368.754648
 20
269.589904
 30
132.820768
  0
VERTEX
  5
D40
  8
TEAM-NET
 10
-363.639287
 20
254.337043
 30
132.820768
  0
VERTEX
  5
D41
  8
TEAM-NET
 10
-357.867534
 20
239.353581
 30
132.820768
  0
VERTEX
  5
D42
  8
TEAM-NET
 10
-351.439388
 20
224.639517
 30
132.820768
  0
SEQEND
  5
D43
  8
TEAM-NET
  0
POLYLINE
  5
15E
  8
TEAM-NET
 66
     1
 10
0.0
 20
0.0
 30
132.820768
 70
   128
210
0.727421
220
-0.68564
230
-0.027514
1001
ACAD
1000
R13OBJECT
1002
{
1005
25
1002
}
  0
VERTEX
  5
D44
  8
TEAM-NET
 10
-351.439388
 20
224.639517
 30
132.820768
  0
VERTEX
  5
D45
  8
TEAM-NET
 10
-339.907355
 20
201.871932
 30
132.820768
  0
VERTEX
  5
D46
  8
TEAM-NET
 10
-326.726656
 20
179.780997
 30
132.820768
  0
VERTEX
  5
D47
  8
TEAM-NET
 10
-311.897291
 20
158.366714
 30
132.820768
  0
VERTEX
  5
D48
  8
TEAM-NET
 10
-295.419259
 20
137.629082
 30
132.820768
  0
SEQEND
  5
D49
  8
TEAM-NET
  0
POLYLINE
  5
165
  8
TEAM-NET
 66
     1
 10
0.0
 20
0.0
 30
0.0
 70
     8
1001
ACAD
1000
R13OBJECT
1002
{
1005
25
1002
}
  0
VERTEX
  5
166
  8
TEAM-NET
 10
-103.255627
 20
-308.640077
 30
133.922506
 70
    32
  0
VERTEX
  5
167
  8
TEAM-NET
 10
-103.138162
 20
-313.526016
 30
133.922506
 70
    32
  0
VERTEX
  5
168
  8
TEAM-NET
 10
-102.833052
 20
-317.909189
 30
133.922506
 70
    32
  0
VERTEX
  5
169
  8
TEAM-NET
 10
-102.61533
 20
-320.048578
 30
133.922506
 70
    32
  0
VERTEX
  5
16A
  8
TEAM-NET
 10
-101.193707
 20
-329.072022
 30
133.922506
 70
    32
  0
SEQEND
  5
16B
  8
TEAM-NET
  0
POLYLINE
  5
16C
  8
TEAM-NET
 66
     1
 10
0.0
 20
0.0
 30
117.177748
 70
   128
210
0.792511
220
-0.609401
230
-0.02361
1001
ACAD
1000
R13OBJECT
1002
{
1005
25
1002
}
  0
VERTEX
  5
D4A
  8
TEAM-NET
 10
-384.112551
 20
223.728927
 30
117.177748
  0
VERTEX
  5
D4B
  8
TEAM-NET
 10
-371.445392
 20
200.963615
 30
117.177748
  0
VERTEX
  5
D4C
  8
TEAM-NET
 10
-356.962672
 20
178.874887
 30
117.177748
  0
VERTEX
  5
D4D
  8
TEAM-NET
 10
-340.664389
 20
157.462742
 30
117.177748
  0
VERTEX
  5
D4E
  8
TEAM-NET
 10
-322.550544
 20
136.727181
 30
117.177748
  0
SEQEND
  5
D4F
  8
TEAM-NET
  0
POLYLINE
  5
173
  8
TEAM-NET
 66
     1
 10
0.0
 20
0.0
 30
117.177748
 70
   128
210
0.792511
220
-0.609401
230
-0.02361
1001
ACAD
1000
R13OBJECT
1002
{
1005
25
1002
}
  0
VERTEX
  5
D50
  8
TEAM-NET
 10
-420.347957
 20
349.04211
 30
117.177748
  0
VERTEX
  5
D51
  8
TEAM-NET
 10
-418.351118
 20
332.434173
 30
117.177748
  0
VERTEX
  5
D52
  8
TEAM-NET
 10
-415.630683
 20
316.095891
 30
117.177748
  0
VERTEX
  5
D53
  8
TEAM-NET
 10
-412.186651
 20
300.027262
 30
117.177748
  0
VERTEX
  5
D54
  8
TEAM-NET
 10
-408.019024
 20
284.228287
 30
117.177748
  0
VERTEX
  5
D55
  8
TEAM-NET
 10
-403.1278
 20
268.698966
 30
117.177748
  0
VERTEX
  5
D56
  8
TEAM-NET
 10
-397.512979
 20
253.439299
 30
117.177748
  0
VERTEX
  5
D57
  8
TEAM-NET
 10
-391.174563
 20
238.449286
 30
117.177748
  0
VERTEX
  5
D58
  8
TEAM-NET
 10
-384.112551
 20
223.728927
 30
117.177748
  0
SEQEND
  5
D59
  8
TEAM-NET
  0
POLYLINE
  5
26
  8
TEAM-NET
 66
     1
 10
0.0
 20
0.0
 30
0.0
 70
     8
  0
VERTEX
  5
17E
  8
TEAM-NET
 10
-156.834383
 20
-409.654756
 30
346.178251
 70
    32
  0
VERTEX
  5
17F
  8
TEAM-NET
 10
-156.81378
 20
-409.774012
 30
346.179447
 70
    32
  0
VERTEX
  5
180
  8
TEAM-NET
 10
-156.806581
 20
-409.815094
 30
346.179745
 70
    32
  0
VERTEX
  5
181
  8
TEAM-NET
 10
-156.776786
 20
-409.982846
 30
346.180682
 70
    32
  0
VERTEX
  5
182
  8
TEAM-NET
 10
-156.714299
 20
-410.326275
 30
346.181986
 70
    32
  0
VERTEX
  5
183
  8
TEAM-NET
 10
-156.649487
 20
-410.673862
 30
346.18301
 70
    32
  0
VERTEX
  5
184
  8
TEAM-NET
 10
-156.582987
 20
-411.023215
 30
346.183924
 70
    32
  0
VERTEX
  5
185
  8
TEAM-NET
 10
-156.44585
 20
-411.724491
 30
346.185592
 70
    32
  0
VERTEX
  5
186
  8
TEAM-NET
 10
-156.303908
 20
-412.427313
 30
346.187165
 70
    32
  0
VERTEX
  5
187
  8
TEAM-NET
 10
-156.007247
 20
-413.834061
 30
346.190216
 70
    32
  0
VERTEX
  5
188
  8
TEAM-NET
 10
-155.694753
 20
-415.240299
 30
346.193235
 70
    32
  0
VERTEX
  5
189
  8
TEAM-NET
 10
-155.025185
 20
-418.047372
 30
346.199294
 70
    32
  0
VERTEX
  5
18A
  8
TEAM-NET
 10
-154.298839
 20
-420.843845
 30
346.205426
 70
    32
  0
VERTEX
  5
18B
  8
TEAM-NET
 10
-153.517697
 20
-423.627162
 30
346.211632
 70
    32
  0
VERTEX
  5
18C
  8
TEAM-NET
 10
-152.683067
 20
-426.395759
 30
346.217895
 70
    32
  0
VERTEX
  5
18D
  8
TEAM-NET
 10
-152.24578
 20
-427.774868
 30
346.221044
 70
    32
  0
VERTEX
  5
18E
  8
TEAM-NET
 10
-150.855065
 20
-431.889918
 30
346.230542
 70
    32
  0
VERTEX
  5
18F
  8
TEAM-NET
 10
-149.975943
 20
-434.311136
 30
346.236196
 70
    32
  0
VERTEX
  5
190
  8
TEAM-NET
 10
-149.521239
 20
-435.516487
 30
346.23903
 70
    32
  0
VERTEX
  5
191
  8
TEAM-NET
 10
-148.097297
 20
-439.110099
 30
346.247536
 70
    32
  0
VERTEX
  5
192
  8
TEAM-NET
 10
-146.584982
 20
-442.667522
 30
346.256031
 70
    32
  0
VERTEX
  5
193
  8
TEAM-NET
 10
-144.986151
 20
-446.185513
 30
346.264493
 70
    32
  0
VERTEX
  5
194
  8
TEAM-NET
 10
-144.15488
 20
-447.928762
 30
346.268705
 70
    32
  0
VERTEX
  5
195
  8
TEAM-NET
 10
-143.302721
 20
-449.66097
 30
346.272902
 70
    32
  0
VERTEX
  5
196
  8
TEAM-NET
 10
-142.429117
 20
-451.383339
 30
346.277085
 70
    32
  0
VERTEX
  5
197
  8
TEAM-NET
 10
-141.533546
 20
-453.096845
 30
346.281255
 70
    32
  0
VERTEX
  5
198
  8
TEAM-NET
 10
-140.616207
 20
-454.801
 30
346.28541
 70
    32
  0
VERTEX
  5
199
  8
TEAM-NET
 10
-139.677223
 20
-456.495484
 30
346.289549
 70
    32
  0
VERTEX
  5
19A
  8
TEAM-NET
 10
-137.735006
 20
-459.853852
 30
346.297769
 70
    32
  0
VERTEX
  5
19B
  8
TEAM-NET
 10
-135.708313
 20
-463.168887
 30
346.305901
 70
    32
  0
VERTEX
  5
19C
  8
TEAM-NET
 10
-134.663772
 20
-464.809194
 30
346.30993
 70
    32
  0
VERTEX
  5
19D
  8
TEAM-NET
 10
-134.133797
 20
-465.624884
 30
346.311934
 70
    32
  0
VERTEX
  5
19E
  8
TEAM-NET
 10
-129.137859
 20
-472.823638
 30
346.329644
 70
    32
  0
VERTEX
  5
19F
  8
TEAM-NET
 10
-127.384456
 20
-475.162674
 30
346.335401
 70
    32
  0
VERTEX
  5
1A0
  8
TEAM-NET
 10
-125.588487
 20
-477.469436
 30
346.341078
 70
    32
  0
VERTEX
  5
1A1
  8
TEAM-NET
 10
-124.67483
 20
-478.610348
 30
346.343885
 70
    32
  0
VERTEX
  5
1A2
  8
TEAM-NET
 10
-121.872648
 20
-481.981522
 30
346.352175
 70
    32
  0
VERTEX
  5
1A3
  8
TEAM-NET
 10
-119.954786
 20
-484.184636
 30
346.357588
 70
    32
  0
VERTEX
  5
1A4
  8
TEAM-NET
 10
-118.981327
 20
-485.272499
 30
346.360259
 70
    32
  0
VERTEX
  5
1A5
  8
TEAM-NET
 10
-113.974167
 20
-490.569868
 30
346.373247
 70
    32
  0
VERTEX
  5
1A6
  8
TEAM-NET
 10
-112.94574
 20
-491.600132
 30
346.375769
 70
    32
  0
VERTEX
  5
1A7
  8
TEAM-NET
 10
-109.809027
 20
-494.630526
 30
346.383176
 70
    32
  0
VERTEX
  5
1A8
  8
TEAM-NET
 10
-107.676482
 20
-496.599449
 30
346.387981
 70
    32
  0
VERTEX
  5
1A9
  8
TEAM-NET
 10
-106.598231
 20
-497.568219
 30
346.390342
 70
    32
  0
VERTEX
  5
1AA
  8
TEAM-NET
 10
-105.51195
 20
-498.526623
 30
346.392677
 70
    32
  0
VERTEX
  5
1AB
  8
TEAM-NET
 10
-103.311554
 20
-500.415593
 30
346.397273
 70
    32
  0
VERTEX
  5
1AC
  8
TEAM-NET
 10
-101.074095
 20
-502.267173
 30
346.401773
 70
    32
  0
VERTEX
  5
1AD
  8
TEAM-NET
 10
-98.800485
 20
-504.080323
 30
346.406172
 70
    32
  0
VERTEX
  5
1AE
  8
TEAM-NET
 10
-96.491721
 20
-505.853993
 30
346.41047
 70
    32
  0
VERTEX
  5
1AF
  8
TEAM-NET
 10
-94.148729
 20
-507.587271
 30
346.414657
 70
    32
  0
VERTEX
  5
1B0
  8
TEAM-NET
 10
-91.772712
 20
-509.279156
 30
346.418735
 70
    32
  0
VERTEX
  5
1B1
  8
TEAM-NET
 10
-89.364798
 20
-510.928608
 30
346.422708
 70
    32
  0
VERTEX
  5
1B2
  8
TEAM-NET
 10
-88.149241
 20
-511.737154
 30
346.424655
 70
    32
  0
VERTEX
  5
1B3
  8
TEAM-NET
 10
-76.887614
 20
-518.50858
 30
346.440985
 70
    32
  0
VERTEX
  5
1B4
  8
TEAM-NET
 10
-74.313284
 20
-519.885464
 30
346.444321
 70
    32
  0
VERTEX
  5
1B5
  8
TEAM-NET
 10
-71.715714
 20
-521.214399
 30
346.447551
 70
    32
  0
VERTEX
  5
1B6
  8
TEAM-NET
 10
-69.096192
 20
-522.494716
 30
346.450675
 70
    32
  0
VERTEX
  5
1B7
  8
TEAM-NET
 10
-67.778628
 20
-523.116488
 30
346.452196
 70
    32
  0
VERTEX
  5
1B8
  8
TEAM-NET
 10
-61.119505
 20
-526.03897
 30
346.459408
 70
    32
  0
VERTEX
  5
1B9
  8
TEAM-NET
 10
-58.425739
 20
-527.120014
 30
346.46211
 70
    32
  0
VERTEX
  5
1BA
  8
TEAM-NET
 10
-55.716779
 20
-528.150269
 30
346.46471
 70
    32
  0
SEQEND
  5
1BB
  8
TEAM-NET
  0
POLYLINE
  5
1BC
  8
TEAM-NET
 66
     1
 10
0.0
 20
0.0
 30
117.177748
 70
   128
210
0.792511
220
-0.609401
230
-0.02361
1001
ACAD
1000
R13OBJECT
1002
{
1005
26
1002
}
  0
VERTEX
  5
D5A
  8
TEAM-NET
 10
-420.347957
 20
349.04211
 30
117.177748
  0
VERTEX
  5
D5B
  8
TEAM-NET
 10
-418.351118
 20
332.434173
 30
117.177748
  0
VERTEX
  5
D5C
  8
TEAM-NET
 10
-415.630683
 20
316.095891
 30
117.177748
  0
VERTEX
  5
D5D
  8
TEAM-NET
 10
-412.186651
 20
300.027262
 30
117.177748
  0
VERTEX
  5
D5E
  8
TEAM-NET
 10
-408.019024
 20
284.228287
 30
117.177748
  0
VERTEX
  5
D5F
  8
TEAM-NET
 10
-403.1278
 20
268.698966
 30
117.177748
  0
VERTEX
  5
D60
  8
TEAM-NET
 10
-397.512979
 20
253.439299
 30
117.177748
  0
VERTEX
  5
D61
  8
TEAM-NET
 10
-391.174563
 20
238.449286
 30
117.177748
  0
VERTEX
  5
D62
  8
TEAM-NET
 10
-384.112551
 20
223.728927
 30
117.177748
  0
SEQEND
  5
D63
  8
TEAM-NET
  0
POLYLINE
  5
1C7
  8
TEAM-NET
 66
     1
 10
0.0
 20
0.0
 30
117.177748
 70
   128
210
0.792511
220
-0.609401
230
-0.02361
1001
ACAD
1000
R13OBJECT
1002
{
1005
26
1002
}
  0
VERTEX
  5
D64
  8
TEAM-NET
 10
-384.112551
 20
223.728927
 30
117.177748
  0
VERTEX
  5
D65
  8
TEAM-NET
 10
-371.445392
 20
200.963615
 30
117.177748
  0
VERTEX
  5
D66
  8
TEAM-NET
 10
-356.962672
 20
178.874887
 30
117.177748
  0
VERTEX
  5
D67
  8
TEAM-NET
 10
-340.664389
 20
157.462742
 30
117.177748
  0
VERTEX
  5
D68
  8
TEAM-NET
 10
-322.550544
 20
136.727181
 30
117.177748
  0
SEQEND
  5
D69
  8
TEAM-NET
  0
POLYLINE
  5
1CE
  8
TEAM-NET
 66
     1
 10
0.0
 20
0.0
 30
0.0
 70
     8
1001
ACAD
1000
R13OBJECT
1002
{
1005
26
1002
}
  0
VERTEX
  5
1CF
  8
TEAM-NET
 10
-101.193707
 20
-329.072022
 30
133.922506
 70
    32
  0
VERTEX
  5
1D0
  8
TEAM-NET
 10
-98.37003
 20
-338.86045
 30
133.922506
 70
    32
  0
VERTEX
  5
1D1
  8
TEAM-NET
 10
-93.77971
 20
-350.04177
 30
133.922506
 70
    32
  0
VERTEX
  5
1D2
  8
TEAM-NET
 10
-86.691189
 20
-362.518952
 30
133.922506
 70
    32
  0
VERTEX
  5
1D3
  8
TEAM-NET
 10
-79.992452
 20
-371.53983
 30
133.922506
 70
    32
  0
VERTEX
  5
1D4
  8
TEAM-NET
 10
-72.052351
 20
-380.103321
 30
133.922506
 70
    32
  0
VERTEX
  5
1D5
  8
TEAM-NET
 10
-64.460509
 20
-386.762834
 30
133.922506
 70
    32
  0
VERTEX
  5
1D6
  8
TEAM-NET
 10
-60.177599
 20
-389.998863
 30
133.922506
 70
    32
  0
VERTEX
  5
1D7
  8
TEAM-NET
 10
-56.817679
 20
-392.310185
 30
133.922506
 70
    32
  0
VERTEX
  5
1D8
  8
TEAM-NET
 10
-46.423776
 20
-398.356973
 30
133.922506
 70
    32
  0
VERTEX
  5
1D9
  8
TEAM-NET
 10
-35.345652
 20
-403.22474
 30
133.922506
 70
    32
  0
SEQEND
  5
1DA
  8
TEAM-NET
  0
POLYLINE
  5
1DB
  8
TEAM-NET
 66
     1
 10
0.0
 20
0.0
 30
34.044106
 70
   128
210
0.984854
220
-0.173225
230
-0.007422
1001
ACAD
1000
R13OBJECT
1002
{
1005
26
1002
}
  0
VERTEX
  5
D6A
  8
TEAM-NET
 10
-529.817215
 20
346.726952
 30
34.044106
  0
VERTEX
  5
D6B
  8
TEAM-NET
 10
-527.67693
 20
331.815603
 30
34.044106
  0
VERTEX
  5
D6C
  8
TEAM-NET
 10
-524.767303
 20
317.1212
 30
34.044106
  0
VERTEX
  5
D6D
  8
TEAM-NET
 10
-521.088332
 20
302.643743
 30
34.044106
  0
VERTEX
  5
D6E
  8
TEAM-NET
 10
-516.640018
 20
288.383233
 30
34.044106
  0
VERTEX
  5
D6F
  8
TEAM-NET
 10
-511.422362
 20
274.339668
 30
34.044106
  0
VERTEX
  5
D70
  8
TEAM-NET
 10
-505.435362
 20
260.513049
 30
34.044106
  0
VERTEX
  5
D71
  8
TEAM-NET
 10
-498.679019
 20
246.903377
 30
34.044106
  0
VERTEX
  5
D72
  8
TEAM-NET
 10
-491.153333
 20
233.51065
 30
34.044106
  0
VERTEX
  5
D73
  8
TEAM-NET
 10
-482.858304
 20
220.334869
 30
34.044106
  0
VERTEX
  5
D74
  8
TEAM-NET
 10
-473.793932
 20
207.376035
 30
34.044106
  0
VERTEX
  5
D75
  8
TEAM-NET
 10
-463.960216
 20
194.634146
 30
34.044106
  0
VERTEX
  5
D76
  8
TEAM-NET
 10
-453.357158
 20
182.109203
 30
34.044106
  0
VERTEX
  5
D77
  8
TEAM-NET
 10
-441.984757
 20
169.801207
 30
34.044106
  0
VERTEX
  5
D78
  8
TEAM-NET
 10
-429.843012
 20
157.710156
 30
34.044106
  0
VERTEX
  5
D79
  8
TEAM-NET
 10
-416.931924
 20
145.836052
 30
34.044106
  0
VERTEX
  5
D7A
  8
TEAM-NET
 10
-403.251494
 20
134.178893
 30
34.044106
  0
SEQEND
  5
D7B
  8
TEAM-NET
  0
POLYLINE
  5
27
  8
TEAM-NET
 66
     1
 10
0.0
 20
0.0
 30
0.0
 70
     8
  0
VERTEX
  5
1EE
  8
TEAM-NET
 10
-55.716779
 20
-528.150269
 30
346.46471
 70
    32
  0
VERTEX
  5
1EF
  8
TEAM-NET
 10
-40.236158
 20
-533.003241
 30
346.4769
 70
    32
  0
VERTEX
  5
1F0
  8
TEAM-NET
 10
-24.281789
 20
-536.279256
 30
346.485121
 70
    32
  0
VERTEX
  5
1F1
  8
TEAM-NET
 10
-16.203186
 20
-537.306005
 30
346.487695
 70
    32
  0
VERTEX
  5
1F2
  8
TEAM-NET
 10
-8.099075
 20
-537.921199
 30
346.489238
 70
    32
  0
VERTEX
  5
1F3
  8
TEAM-NET
 10
-4.046941
 20
-538.074542
 30
346.489622
 70
    32
  0
VERTEX
  5
1F4
  8
TEAM-NET
 10
-0.000077
 20
-538.125553
 30
346.48975
 70
    32
  0
VERTEX
  5
1F5
  8
TEAM-NET
 10
4.046428
 20
-538.074554
 30
346.489622
 70
    32
  0
VERTEX
  5
1F6
  8
TEAM-NET
 10
8.098428
 20
-537.921248
 30
346.489238
 70
    32
  0
VERTEX
  5
1F7
  8
TEAM-NET
 10
24.281241
 20
-536.279258
 30
346.485121
 70
    32
  0
VERTEX
  5
1F8
  8
TEAM-NET
 10
40.235816
 20
-533.003392
 30
346.476902
 70
    32
  0
VERTEX
  5
1F9
  8
TEAM-NET
 10
55.716321
 20
-528.150417
 30
346.464711
 70
    32
  0
SEQEND
  5
1FA
  8
TEAM-NET
  0
POLYLINE
  5
1FB
  8
TEAM-NET
 66
     1
 10
0.0
 20
0.0
 30
34.044106
 70
   128
210
0.984854
220
-0.173225
230
-0.007422
1001
ACAD
1000
R13OBJECT
1002
{
1005
27
1002
}
  0
VERTEX
  5
D7C
  8
TEAM-NET
 10
-529.817215
 20
346.726952
 30
34.044106
  0
VERTEX
  5
D7D
  8
TEAM-NET
 10
-527.67693
 20
331.815603
 30
34.044106
  0
VERTEX
  5
D7E
  8
TEAM-NET
 10
-524.767303
 20
317.1212
 30
34.044106
  0
VERTEX
  5
D7F
  8
TEAM-NET
 10
-521.088332
 20
302.643743
 30
34.044106
  0
VERTEX
  5
D80
  8
TEAM-NET
 10
-516.640018
 20
288.383233
 30
34.044106
  0
VERTEX
  5
D81
  8
TEAM-NET
 10
-511.422362
 20
274.339668
 30
34.044106
  0
VERTEX
  5
D82
  8
TEAM-NET
 10
-505.435362
 20
260.513049
 30
34.044106
  0
VERTEX
  5
D83
  8
TEAM-NET
 10
-498.679019
 20
246.903377
 30
34.044106
  0
VERTEX
  5
D84
  8
TEAM-NET
 10
-491.153333
 20
233.51065
 30
34.044106
  0
VERTEX
  5
D85
  8
TEAM-NET
 10
-482.858304
 20
220.334869
 30
34.044106
  0
VERTEX
  5
D86
  8
TEAM-NET
 10
-473.793932
 20
207.376035
 30
34.044106
  0
VERTEX
  5
D87
  8
TEAM-NET
 10
-463.960216
 20
194.634146
 30
34.044106
  0
VERTEX
  5
D88
  8
TEAM-NET
 10
-453.357158
 20
182.109203
 30
34.044106
  0
VERTEX
  5
D89
  8
TEAM-NET
 10
-441.984757
 20
169.801207
 30
34.044106
  0
VERTEX
  5
D8A
  8
TEAM-NET
 10
-429.843012
 20
157.710156
 30
34.044106
  0
VERTEX
  5
D8B
  8
TEAM-NET
 10
-416.931924
 20
145.836052
 30
34.044106
  0
VERTEX
  5
D8C
  8
TEAM-NET
 10
-403.251494
 20
134.178893
 30
34.044106
  0
SEQEND
  5
D8D
  8
TEAM-NET
  0
ARC
  5
20E
  8
TEAM-NET
 10
0.000127
 20
-308.640077
 30
133.922506
 40
100.973177
 50
249.509555
 51
290.490291
1001
ACAD
1000
R13OBJECT
1002
{
1005
27
1002
}
  0
POLYLINE
  5
20F
  8
TEAM-NET
 66
     1
 10
0.0
 20
0.0
 30
-34.041995
 70
   128
210
0.984855
220
0.173219
230
0.007421
1001
ACAD
1000
R13OBJECT
1002
{
1005
27
1002
}
  0
VERTEX
  5
D8E
  8
TEAM-NET
 10
-529.817489
 20
346.726893
 30
-34.041995
  0
VERTEX
  5
D8F
  8
TEAM-NET
 10
-527.677202
 20
331.815544
 30
-34.041995
  0
VERTEX
  5
D90
  8
TEAM-NET
 10
-524.767573
 20
317.121142
 30
-34.041995
  0
VERTEX
  5
D91
  8
TEAM-NET
 10
-521.088601
 20
302.643685
 30
-34.041995
  0
VERTEX
  5
D92
  8
TEAM-NET
 10
-516.640286
 20
288.383174
 30
-34.041995
  0
VERTEX
  5
D93
  8
TEAM-NET
 10
-511.422629
 20
274.339609
 30
-34.041995
  0
VERTEX
  5
D94
  8
TEAM-NET
 10
-505.435629
 20
260.512991
 30
-34.041995
  0
VERTEX
  5
D95
  8
TEAM-NET
 10
-498.679287
 20
246.903318
 30
-34.041995
  0
VERTEX
  5
D96
  8
TEAM-NET
 10
-491.153601
 20
233.510591
 30
-34.041995
  0
VERTEX
  5
D97
  8
TEAM-NET
 10
-482.858574
 20
220.334811
 30
-34.041995
  0
VERTEX
  5
D98
  8
TEAM-NET
 10
-473.794203
 20
207.375976
 30
-34.041995
  0
VERTEX
  5
D99
  8
TEAM-NET
 10
-463.96049
 20
194.634087
 30
-34.041995
  0
VERTEX
  5
D9A
  8
TEAM-NET
 10
-453.357435
 20
182.109145
 30
-34.041995
  0
VERTEX
  5
D9B
  8
TEAM-NET
 10
-441.985036
 20
169.801148
 30
-34.041995
  0
VERTEX
  5
D9C
  8
TEAM-NET
 10
-429.843296
 20
157.710098
 30
-34.041995
  0
VERTEX
  5
D9D
  8
TEAM-NET
 10
-416.932212
 20
145.835993
 30
-34.041995
  0
VERTEX
  5
D9E
  8
TEAM-NET
 10
-403.251786
 20
134.178835
 30
-34.041995
  0
SEQEND
  5
D9F
  8
TEAM-NET
  0
POLYLINE
  5
28
  8
TEAM-NET
 66
     1
 10
0.0
 20
0.0
 30
0.0
 70
     8
  0
VERTEX
  5
222
  8
TEAM-NET
 10
55.716321
 20
-528.150417
 30
346.464711
 70
    32
  0
VERTEX
  5
223
  8
TEAM-NET
 10
61.118555
 20
-526.039332
 30
346.45941
 70
    32
  0
VERTEX
  5
224
  8
TEAM-NET
 10
63.795547
 20
-524.907967
 30
346.456605
 70
    32
  0
VERTEX
  5
225
  8
TEAM-NET
 10
71.71382
 20
-521.215314
 30
346.447555
 70
    32
  0
VERTEX
  5
226
  8
TEAM-NET
 10
76.885273
 20
-518.509803
 30
346.440989
 70
    32
  0
VERTEX
  5
227
  8
TEAM-NET
 10
81.958412
 20
-515.615003
 30
346.433998
 70
    32
  0
VERTEX
  5
228
  8
TEAM-NET
 10
84.454899
 20
-514.098404
 30
346.430343
 70
    32
  0
VERTEX
  5
229
  8
TEAM-NET
 10
91.769212
 20
-509.28156
 30
346.418743
 70
    32
  0
VERTEX
  5
22A
  8
TEAM-NET
 10
94.145054
 20
-507.58989
 30
346.414665
 70
    32
  0
VERTEX
  5
22B
  8
TEAM-NET
 10
96.48788
 20
-505.85684
 30
346.410479
 70
    32
  0
VERTEX
  5
22C
  8
TEAM-NET
 10
101.069945
 20
-502.27049
 30
346.401782
 70
    32
  0
VERTEX
  5
22D
  8
TEAM-NET
 10
104.412104
 20
-499.479378
 30
346.394999
 70
    32
  0
VERTEX
  5
22E
  8
TEAM-NET
 10
105.507542
 20
-498.530415
 30
346.392689
 70
    32
  0
VERTEX
  5
22F
  8
TEAM-NET
 10
106.593757
 20
-497.572142
 30
346.390354
 70
    32
  0
VERTEX
  5
230
  8
TEAM-NET
 10
107.671937
 20
-496.603504
 30
346.387993
 70
    32
  0
VERTEX
  5
231
  8
TEAM-NET
 10
109.804354
 20
-494.634854
 30
346.383189
 70
    32
  0
VERTEX
  5
232
  8
TEAM-NET
 10
113.969254
 20
-490.574759
 30
346.373262
 70
    32
  0
VERTEX
  5
233
  8
TEAM-NET
 10
117.993248
 20
-486.356535
 30
346.362923
 70
    32
  0
VERTEX
  5
234
  8
TEAM-NET
 10
121.867371
 20
-481.987596
 30
346.352193
 70
    32
  0
VERTEX
  5
235
  8
TEAM-NET
 10
123.745554
 20
-479.749145
 30
346.34669
 70
    32
  0
VERTEX
  5
236
  8
TEAM-NET
 10
129.132385
 20
-472.830959
 30
346.329666
 70
    32
  0
VERTEX
  5
237
  8
TEAM-NET
 10
130.277205
 20
-471.254465
 30
346.325786
 70
    32
  0
VERTEX
  5
238
  8
TEAM-NET
 10
135.702821
 20
-463.177484
 30
346.305927
 70
    32
  0
VERTEX
  5
239
  8
TEAM-NET
 10
136.726639
 20
-461.525787
 30
346.301873
 70
    32
  0
VERTEX
  5
23A
  8
TEAM-NET
 10
141.528207
 20
-453.106711
 30
346.281284
 70
    32
  0
VERTEX
  5
23B
  8
TEAM-NET
 10
142.423789
 20
-451.393448
 30
346.277115
 70
    32
  0
VERTEX
  5
23C
  8
TEAM-NET
 10
143.297465
 20
-449.671257
 30
346.272933
 70
    32
  0
VERTEX
  5
23D
  8
TEAM-NET
 10
143.512458
 20
-449.239315
 30
346.271885
 70
    32
  0
VERTEX
  5
23E
  8
TEAM-NET
 10
143.726161
 20
-448.806665
 30
346.270837
 70
    32
  0
VERTEX
  5
23F
  8
TEAM-NET
 10
144.149667
 20
-447.939274
 30
346.268737
 70
    32
  0
VERTEX
  5
240
  8
TEAM-NET
 10
144.980977
 20
-446.196269
 30
346.264525
 70
    32
  0
VERTEX
  5
241
  8
TEAM-NET
 10
145.791144
 20
-444.442624
 30
346.2603
 70
    32
  0
VERTEX
  5
242
  8
TEAM-NET
 10
146.579922
 20
-442.678723
 30
346.256064
 70
    32
  0
VERTEX
  5
243
  8
TEAM-NET
 10
148.092371
 20
-439.121762
 30
346.24757
 70
    32
  0
VERTEX
  5
244
  8
TEAM-NET
 10
150.850471
 20
-431.902468
 30
346.230578
 70
    32
  0
VERTEX
  5
245
  8
TEAM-NET
 10
152.678772
 20
-426.408952
 30
346.217934
 70
    32
  0
VERTEX
  5
246
  8
TEAM-NET
 10
152.892473
 20
-425.718193
 30
346.216363
 70
    32
  0
VERTEX
  5
247
  8
TEAM-NET
 10
153.102828
 20
-425.026612
 30
346.214796
 70
    32
  0
VERTEX
  5
248
  8
TEAM-NET
 10
153.513567
 20
-423.640692
 30
346.211671
 70
    32
  0
VERTEX
  5
249
  8
TEAM-NET
 10
154.294886
 20
-420.857704
 30
346.205467
 70
    32
  0
VERTEX
  5
24A
  8
TEAM-NET
 10
155.021422
 20
-418.061554
 30
346.199335
 70
    32
  0
VERTEX
  5
24B
  8
TEAM-NET
 10
155.691194
 20
-415.2548
 30
346.193276
 70
    32
  0
VERTEX
  5
24C
  8
TEAM-NET
 10
156.003797
 20
-413.848715
 30
346.190259
 70
    32
  0
VERTEX
  5
24D
  8
TEAM-NET
 10
156.300569
 20
-412.442125
 30
346.187208
 70
    32
  0
VERTEX
  5
24E
  8
TEAM-NET
 10
156.44257
 20
-411.739375
 30
346.185635
 70
    32
  0
VERTEX
  5
24F
  8
TEAM-NET
 10
156.579767
 20
-411.038171
 30
346.183967
 70
    32
  0
VERTEX
  5
250
  8
TEAM-NET
 10
156.646299
 20
-410.688848
 30
346.183054
 70
    32
  0
VERTEX
  5
251
  8
TEAM-NET
 10
156.678952
 20
-410.514786
 30
346.18256
 70
    32
  0
VERTEX
  5
252
  8
TEAM-NET
 10
156.711146
 20
-410.341281
 30
346.182032
 70
    32
  0
VERTEX
  5
253
  8
TEAM-NET
 10
156.773664
 20
-409.997889
 30
346.180728
 70
    32
  0
VERTEX
  5
254
  8
TEAM-NET
 10
156.803484
 20
-409.830116
 30
346.179794
 70
    32
  0
VERTEX
  5
255
  8
TEAM-NET
 10
156.817753
 20
-409.748488
 30
346.179159
 70
    32
  0
VERTEX
  5
256
  8
TEAM-NET
 10
156.831314
 20
-409.669739
 30
346.178305
 70
    32
  0
SEQEND
  5
257
  8
TEAM-NET
  0
POLYLINE
  5
258
  8
TEAM-NET
 66
     1
 10
0.0
 20
0.0
 30
-34.041995
 70
   128
210
0.984855
220
0.173219
230
0.007421
1001
ACAD
1000
R13OBJECT
1002
{
1005
28
1002
}
  0
VERTEX
  5
DA0
  8
TEAM-NET
 10
-529.817489
 20
346.726893
 30
-34.041995
  0
VERTEX
  5
DA1
  8
TEAM-NET
 10
-527.677202
 20
331.815544
 30
-34.041995
  0
VERTEX
  5
DA2
  8
TEAM-NET
 10
-524.767573
 20
317.121142
 30
-34.041995
  0
VERTEX
  5
DA3
  8
TEAM-NET
 10
-521.088601
 20
302.643685
 30
-34.041995
  0
VERTEX
  5
DA4
  8
TEAM-NET
 10
-516.640286
 20
288.383174
 30
-34.041995
  0
VERTEX
  5
DA5
  8
TEAM-NET
 10
-511.422629
 20
274.339609
 30
-34.041995
  0
VERTEX
  5
DA6
  8
TEAM-NET
 10
-505.435629
 20
260.512991
 30
-34.041995
  0
VERTEX
  5
DA7
  8
TEAM-NET
 10
-498.679287
 20
246.903318
 30
-34.041995
  0
VERTEX
  5
DA8
  8
TEAM-NET
 10
-491.153601
 20
233.510591
 30
-34.041995
  0
VERTEX
  5
DA9
  8
TEAM-NET
 10
-482.858574
 20
220.334811
 30
-34.041995
  0
VERTEX
  5
DAA
  8
TEAM-NET
 10
-473.794203
 20
207.375976
 30
-34.041995
  0
VERTEX
  5
DAB
  8
TEAM-NET
 10
-463.96049
 20
194.634087
 30
-34.041995
  0
VERTEX
  5
DAC
  8
TEAM-NET
 10
-453.357435
 20
182.109145
 30
-34.041995
  0
VERTEX
  5
DAD
  8
TEAM-NET
 10
-441.985036
 20
169.801148
 30
-34.041995
  0
VERTEX
  5
DAE
  8
TEAM-NET
 10
-429.843296
 20
157.710098
 30
-34.041995
  0
VERTEX
  5
DAF
  8
TEAM-NET
 10
-416.932212
 20
145.835993
 30
-34.041995
  0
VERTEX
  5
DB0
  8
TEAM-NET
 10
-403.251786
 20
134.178835
 30
-34.041995
  0
SEQEND
  5
DB1
  8
TEAM-NET
  0
POLYLINE
  5
26B
  8
TEAM-NET
 66
     1
 10
0.0
 20
0.0
 30
133.922506
 70
   128
1001
ACAD
1000
R13OBJECT
1002
{
1005
28
1002
}
  0
VERTEX
  5
DB2
  8
TEAM-NET
 10
35.345652
 20
-403.224835
 30
133.922506
  0
VERTEX
  5
DB3
  8
TEAM-NET
 10
46.085649
 20
-398.528327
 30
133.922506
  0
VERTEX
  5
DB4
  8
TEAM-NET
 10
56.597726
 20
-392.455137
 30
133.922506
  0
VERTEX
  5
DB5
  8
TEAM-NET
 10
60.719146
 20
-389.608413
 30
133.922506
  0
VERTEX
  5
DB6
  8
TEAM-NET
 10
68.214544
 20
-383.631037
 30
133.922506
  0
VERTEX
  5
DB7
  8
TEAM-NET
 10
74.91082
 20
-377.235989
 30
133.922506
  0
VERTEX
  5
DB8
  8
TEAM-NET
 10
84.45035
 20
-365.76635
 30
133.922506
  0
VERTEX
  5
DB9
  8
TEAM-NET
 10
91.932233
 20
-353.701537
 30
133.922506
  0
VERTEX
  5
DBA
  8
TEAM-NET
 10
96.362834
 20
-344.214161
 30
133.922506
  0
VERTEX
  5
DBB
  8
TEAM-NET
 10
100.196753
 20
-332.971879
 30
133.922506
  0
VERTEX
  5
DBC
  8
TEAM-NET
 10
101.191783
 20
-329.081485
 30
133.922506
  0
SEQEND
  5
DBD
  8
TEAM-NET
  0
POLYLINE
  5
278
  8
TEAM-NET
 66
     1
 10
0.0
 20
0.0
 30
-117.16978
 70
   128
210
0.79254
220
0.609363
230
0.023608
1001
ACAD
1000
R13OBJECT
1002
{
1005
28
1002
}
  0
VERTEX
  5
DBE
  8
TEAM-NET
 10
-384.127173
 20
223.728483
 30
-117.16978
  0
VERTEX
  5
DBF
  8
TEAM-NET
 10
-371.459505
 20
200.963172
 30
-117.16978
  0
VERTEX
  5
DC0
  8
TEAM-NET
 10
-356.976199
 20
178.874445
 30
-117.16978
  0
VERTEX
  5
DC1
  8
TEAM-NET
 10
-340.677256
 20
157.462302
 30
-117.16978
  0
VERTEX
  5
DC2
  8
TEAM-NET
 10
-322.562675
 20
136.726742
 30
-117.16978
  0
SEQEND
  5
DC3
  8
TEAM-NET
  0
POLYLINE
  5
27F
  8
TEAM-NET
 66
     1
 10
0.0
 20
0.0
 30
-117.16978
 70
   128
210
0.79254
220
0.609363
230
0.023608
1001
ACAD
1000
R13OBJECT
1002
{
1005
28
1002
}
  0
VERTEX
  5
DC4
  8
TEAM-NET
 10
-420.364009
 20
349.041714
 30
-117.16978
  0
VERTEX
  5
DC5
  8
TEAM-NET
 10
-418.367098
 20
332.433771
 30
-117.16978
  0
VERTEX
  5
DC6
  8
TEAM-NET
 10
-415.64656
 20
316.095482
 30
-117.16978
  0
VERTEX
  5
DC7
  8
TEAM-NET
 10
-412.202396
 20
300.026847
 30
-117.16978
  0
VERTEX
  5
DC8
  8
TEAM-NET
 10
-408.034605
 20
284.227866
 30
-117.16978
  0
VERTEX
  5
DC9
  8
TEAM-NET
 10
-403.143187
 20
268.698539
 30
-117.16978
  0
VERTEX
  5
DCA
  8
TEAM-NET
 10
-397.528143
 20
253.438866
 30
-117.16978
  0
VERTEX
  5
DCB
  8
TEAM-NET
 10
-391.189471
 20
238.448848
 30
-117.16978
  0
VERTEX
  5
DCC
  8
TEAM-NET
 10
-384.127173
 20
223.728483
 30
-117.16978
  0
SEQEND
  5
DCD
  8
TEAM-NET
  0
POLYLINE
  5
29
  8
TEAM-NET
 66
     1
 10
0.0
 20
0.0
 30
345.110637
 70
   128
210
-0.0001
220
0.002597
230
0.999997
  0
VERTEX
  5
C4A
  8
TEAM-NET
 10
156.866695
 20
-410.568175
 30
345.110637
  0
VERTEX
  5
C4B
  8
TEAM-NET
 10
159.530336
 20
-392.244465
 30
345.110637
  0
VERTEX
  5
C4C
  8
TEAM-NET
 10
160.130856
 20
-378.356853
 30
345.110637
  0
SEQEND
  5
C4D
  8
TEAM-NET
  0
LINE
  5
28E
  8
TEAM-NET
 10
156.831966
 20
-409.670421
 30
346.191592
 11
156.831314
 21
-409.669739
 31
346.178305
1001
ACAD
1000
R13OBJECT
1002
{
1005
29
1002
}
  0
POLYLINE
  5
28F
  8
TEAM-NET
 66
     1
 10
0.0
 20
0.0
 30
-117.16978
 70
   128
210
0.79254
220
0.609363
230
0.023608
1001
ACAD
1000
R13OBJECT
1002
{
1005
29
1002
}
  0
VERTEX
  5
DCE
  8
TEAM-NET
 10
-420.364009
 20
349.041714
 30
-117.16978
  0
VERTEX
  5
DCF
  8
TEAM-NET
 10
-418.367098
 20
332.433771
 30
-117.16978
  0
VERTEX
  5
DD0
  8
TEAM-NET
 10
-415.64656
 20
316.095482
 30
-117.16978
  0
VERTEX
  5
DD1
  8
TEAM-NET
 10
-412.202396
 20
300.026847
 30
-117.16978
  0
VERTEX
  5
DD2
  8
TEAM-NET
 10
-408.034605
 20
284.227866
 30
-117.16978
  0
VERTEX
  5
DD3
  8
TEAM-NET
 10
-403.143187
 20
268.698539
 30
-117.16978
  0
VERTEX
  5
DD4
  8
TEAM-NET
 10
-397.528143
 20
253.438866
 30
-117.16978
  0
VERTEX
  5
DD5
  8
TEAM-NET
 10
-391.189471
 20
238.448848
 30
-117.16978
  0
VERTEX
  5
DD6
  8
TEAM-NET
 10
-384.127173
 20
223.728483
 30
-117.16978
  0
SEQEND
  5
DD7
  8
TEAM-NET
  0
POLYLINE
  5
29A
  8
TEAM-NET
 66
     1
 10
0.0
 20
0.0
 30
-117.16978
 70
   128
210
0.79254
220
0.609363
230
0.023608
1001
ACAD
1000
R13OBJECT
1002
{
1005
29
1002
}
  0
VERTEX
  5
DD8
  8
TEAM-NET
 10
-384.127173
 20
223.728483
 30
-117.16978
  0
VERTEX
  5
DD9
  8
TEAM-NET
 10
-371.459505
 20
200.963172
 30
-117.16978
  0
VERTEX
  5
DDA
  8
TEAM-NET
 10
-356.976199
 20
178.874445
 30
-117.16978
  0
VERTEX
  5
DDB
  8
TEAM-NET
 10
-340.677256
 20
157.462302
 30
-117.16978
  0
VERTEX
  5
DDC
  8
TEAM-NET
 10
-322.562675
 20
136.726742
 30
-117.16978
  0
SEQEND
  5
DDD
  8
TEAM-NET
  0
POLYLINE
  5
2A1
  8
TEAM-NET
 66
     1
 10
0.0
 20
0.0
 30
0.0
 70
     8
1001
ACAD
1000
R13OBJECT
1002
{
1005
29
1002
}
  0
VERTEX
  5
2A2
  8
TEAM-NET
 10
101.191783
 20
-329.081485
 30
133.922506
 70
    32
  0
VERTEX
  5
2A3
  8
TEAM-NET
 10
101.643513
 20
-326.720089
 30
133.922506
 70
    32
  0
VERTEX
  5
2A4
  8
TEAM-NET
 10
101.974385
 20
-324.766331
 30
133.922506
 70
    32
  0
VERTEX
  5
2A5
  8
TEAM-NET
 10
102.536507
 20
-320.729625
 30
133.922506
 70
    32
  0
VERTEX
  5
2A6
  8
TEAM-NET
 10
102.86685
 20
-317.530837
 30
133.922506
 70
    32
  0
VERTEX
  5
2A7
  8
TEAM-NET
 10
103.00631
 20
-315.759571
 30
133.922506
 70
    32
  0
VERTEX
  5
2A8
  8
TEAM-NET
 10
103.255627
 20
-308.640077
 30
133.922506
 70
    32
  0
SEQEND
  5
2A9
  8
TEAM-NET
  0
POLYLINE
  5
2AA
  8
TEAM-NET
 66
     1
 10
0.0
 20
0.0
 30
-132.820768
 70
   128
210
0.727421
220
0.68564
230
0.027514
1001
ACAD
1000
R13OBJECT
1002
{
1005
29
1002
}
  0
VERTEX
  5
DDE
  8
TEAM-NET
 10
-351.439388
 20
224.639517
 30
-132.820768
  0
VERTEX
  5
DDF
  8
TEAM-NET
 10
-339.907355
 20
201.871932
 30
-132.820768
  0
VERTEX
  5
DE0
  8
TEAM-NET
 10
-326.726656
 20
179.780997
 30
-132.820768
  0
VERTEX
  5
DE1
  8
TEAM-NET
 10
-311.897291
 20
158.366714
 30
-132.820768
  0
VERTEX
  5
DE2
  8
TEAM-NET
 10
-295.419259
 20
137.629082
 30
-132.820768
  0
SEQEND
  5
DE3
  8
TEAM-NET
  0
POLYLINE
  5
2B1
  8
TEAM-NET
 66
     1
 10
0.0
 20
0.0
 30
-132.820768
 70
   128
210
0.727421
220
0.68564
230
0.027514
1001
ACAD
1000
R13OBJECT
1002
{
1005
29
1002
}
  0
VERTEX
  5
DE4
  8
TEAM-NET
 10
-384.485562
 20
349.895194
 30
-132.820768
  0
VERTEX
  5
DE5
  8
TEAM-NET
 10
-382.652165
 20
333.295338
 30
-132.820768
  0
VERTEX
  5
DE6
  8
TEAM-NET
 10
-380.162375
 20
316.964881
 30
-132.820768
  0
VERTEX
  5
DE7
  8
TEAM-NET
 10
-377.016192
 20
300.903823
 30
-132.820768
  0
VERTEX
  5
DE8
  8
TEAM-NET
 10
-373.213616
 20
285.112164
 30
-132.820768
  0
VERTEX
  5
DE9
  8
TEAM-NET
 10
-368.754648
 20
269.589904
 30
-132.820768
  0
VERTEX
  5
DEA
  8
TEAM-NET
 10
-363.639287
 20
254.337043
 30
-132.820768
  0
VERTEX
  5
DEB
  8
TEAM-NET
 10
-357.867534
 20
239.353581
 30
-132.820768
  0
VERTEX
  5
DEC
  8
TEAM-NET
 10
-351.439388
 20
224.639517
 30
-132.820768
  0
SEQEND
  5
DED
  8
TEAM-NET
  0
LINE
  5
2A
  8
TEAM-NET
 10
160.096135
 20
-377.459208
 30
346.108256
 11
160.096135
 21
-34.628191
 31
346.108256
  0
POLYLINE
  5
2BC
  8
TEAM-NET
 66
     1
 10
0.0
 20
0.0
 30
-132.820768
 70
   128
210
0.727421
220
0.68564
230
0.027514
1001
ACAD
1000
R13OBJECT
1002
{
1005
2A
1002
}
  0
VERTEX
  5
DEE
  8
TEAM-NET
 10
-384.485562
 20
349.895194
 30
-132.820768
  0
VERTEX
  5
DEF
  8
TEAM-NET
 10
-382.652165
 20
333.295338
 30
-132.820768
  0
VERTEX
  5
DF0
  8
TEAM-NET
 10
-380.162375
 20
316.964881
 30
-132.820768
  0
VERTEX
  5
DF1
  8
TEAM-NET
 10
-377.016192
 20
300.903823
 30
-132.820768
  0
VERTEX
  5
DF2
  8
TEAM-NET
 10
-373.213616
 20
285.112164
 30
-132.820768
  0
VERTEX
  5
DF3
  8
TEAM-NET
 10
-368.754648
 20
269.589904
 30
-132.820768
  0
VERTEX
  5
DF4
  8
TEAM-NET
 10
-363.639287
 20
254.337043
 30
-132.820768
  0
VERTEX
  5
DF5
  8
TEAM-NET
 10
-357.867534
 20
239.353581
 30
-132.820768
  0
VERTEX
  5
DF6
  8
TEAM-NET
 10
-351.439388
 20
224.639517
 30
-132.820768
  0
SEQEND
  5
DF7
  8
TEAM-NET
  0
POLYLINE
  5
2C7
  8
TEAM-NET
 66
     1
 10
0.0
 20
0.0
 30
-132.820768
 70
   128
210
0.727421
220
0.68564
230
0.027514
1001
ACAD
1000
R13OBJECT
1002
{
1005
2A
1002
}
  0
VERTEX
  5
DF8
  8
TEAM-NET
 10
-351.439388
 20
224.639517
 30
-132.820768
  0
VERTEX
  5
DF9
  8
TEAM-NET
 10
-339.907355
 20
201.871932
 30
-132.820768
  0
VERTEX
  5
DFA
  8
TEAM-NET
 10
-326.726656
 20
179.780997
 30
-132.820768
  0
VERTEX
  5
DFB
  8
TEAM-NET
 10
-311.897291
 20
158.366714
 30
-132.820768
  0
VERTEX
  5
DFC
  8
TEAM-NET
 10
-295.419259
 20
137.629082
 30
-132.820768
  0
SEQEND
  5
DFD
  8
TEAM-NET
  0
LINE
  5
2CE
  8
TEAM-NET
 10
103.255627
 20
-59.555974
 30
133.922506
 11
103.255627
 21
-308.640077
 31
133.922506
1001
ACAD
1000
R13OBJECT
1002
{
1005
2A
1002
}
  0
LINE
  5
2CF
  8
TEAM-NET
 10
103.255627
 20
-59.555974
 30
133.922506
 11
103.255627
 21
0.444026
 31
133.922506
1001
ACAD
1000
R13OBJECT
1002
{
1005
2A
1002
}
  0
POLYLINE
  5
2D0
  8
TEAM-NET
 66
     1
 10
0.0
 20
0.0
 30
-0.444026
 70
   128
210
0.0
220
-1.0
230
0.0
1001
ACAD
1000
R13OBJECT
1002
{
1005
2A
1002
}
  0
VERTEX
  5
DFE
  8
TEAM-NET
 10
103.255627
 20
133.922506
 30
-0.444026
  0
VERTEX
  5
DFF
  8
TEAM-NET
 10
114.258014
 20
154.888033
 30
-0.444026
  0
VERTEX
  5
E00
  8
TEAM-NET
 10
124.022305
 20
176.383512
 30
-0.444026
  0
VERTEX
  5
E01
  8
TEAM-NET
 10
132.573766
 20
198.392861
 30
-0.444026
  0
VERTEX
  5
E02
  8
TEAM-NET
 10
139.937664
 20
220.9
 30
-0.444026
  0
SEQEND
  5
E03
  8
TEAM-NET
  0
POLYLINE
  5
2D7
  8
TEAM-NET
 66
     1
 10
0.0
 20
0.0
 30
-32.425032
 70
   128
210
-0.699394
220
0.651033
230
0.294964
1001
ACAD
1000
R13OBJECT
1002
{
1005
2A
1002
}
  0
VERTEX
  5
E04
  8
TEAM-NET
 10
-83.734614
 20
372.233718
 30
-32.425032
  0
VERTEX
  5
E05
  8
TEAM-NET
 10
-87.879687
 20
354.867497
 30
-32.425032
  0
VERTEX
  5
E06
  8
TEAM-NET
 10
-91.266758
 20
337.783112
 30
-32.425032
  0
VERTEX
  5
E07
  8
TEAM-NET
 10
-93.895829
 20
320.980563
 30
-32.425032
  0
VERTEX
  5
E08
  8
TEAM-NET
 10
-95.766898
 20
304.45985
 30
-32.425032
  0
VERTEX
  5
E09
  8
TEAM-NET
 10
-96.879966
 20
288.220974
 30
-32.425032
  0
VERTEX
  5
E0A
  8
TEAM-NET
 10
-97.235033
 20
272.263934
 30
-32.425032
  0
VERTEX
  5
E0B
  8
TEAM-NET
 10
-96.832098
 20
256.58873
 30
-32.425032
  0
VERTEX
  5
E0C
  8
TEAM-NET
 10
-95.671163
 20
241.195363
 30
-32.425032
  0
SEQEND
  5
E0D
  8
TEAM-NET
  0
LINE
  5
2B
  8
TEAM-NET
 10
0.0
 20
0.444026
 30
241.0
 11
0.0
 21
-34.555974
 31
241.0
  0
ARC
  5
2E2
  8
TEAM-NET
 10
0.0
 20
190.0
 30
-0.444026
 40
51.0
210
-0.0
220
-1.0
230
0.0
 50
270.0
 51
90.0
1001
ACAD
1000
R13OBJECT
1002
{
1005
2B
1002
}
  0
LINE
  5
2E3
  8
TEAM-NET
 10
0.0
 20
0.444026
 30
139.0
 11
0.0
 21
-34.555974
 31
139.0
1001
ACAD
1000
R13OBJECT
1002
{
1005
2B
1002
}
  0
ARC
  5
2E4
  8
TEAM-NET
 10
0.0
 20
190.0
 30
-34.555974
 40
51.0
210
0.0
220
1.0
230
0.0
 50
90.0
 51
270.0
1001
ACAD
1000
R13OBJECT
1002
{
1005
2B
1002
}
  0
LINE
  5
2C
  8
TEAM-NET
 10
113.693296
 20
-308.640077
 30
0.0
 11
103.567358
 21
-308.640077
 31
133.922506
  0
ARC
  5
2E5
  8
TEAM-NET
 10
0.000127
 20
-308.640077
 30
133.922506
 40
103.567232
 50
180.0
 51
360.0
1001
ACAD
1000
R13OBJECT
1002
{
1005
2C
1002
}
  0
LINE
  5
2E6
  8
TEAM-NET
 10
-103.567105
 20
-308.640077
 30
133.922506
 11
-113.693043
 21
-308.640077
 31
0.0
1001
ACAD
1000
R13OBJECT
1002
{
1005
2C
1002
}
  0
ARC
  5
2E7
  8
TEAM-NET
 10
-0.000127
 20
-308.640077
 30
0.0
 40
113.693169
210
0.0
220
0.0
230
-1.0
 50
180.0
 51
360.0
1001
ACAD
1000
R13OBJECT
1002
{
1005
2C
1002
}
  0
LINE
  5
2E8
  8
TEAM-NET
 10
0.000127
 20
-412.207309
 30
133.922506
 11
0.000127
 21
-422.333247
 31
0.0
1001
ACAD
1000
R13OBJECT
1002
{
1005
2C
1002
}
  0
POLYLINE
  5
2D
  8
TEAM-NET
 66
     1
 10
0.0
 20
0.0
 30
113.369694
 70
   129
210
0.997154
220
0.0
230
0.075395
  0
VERTEX
  5
C4E
  8
TEAM-NET
 10
-159.555974
 20
31.192039
 30
113.369694
  0
VERTEX
  5
C4F
  8
TEAM-NET
 10
-164.305974
 20
29.915647
 30
113.369694
  0
VERTEX
  5
C50
  8
TEAM-NET
 10
-167.783215
 20
26.42848
 30
113.369694
  0
VERTEX
  5
C51
  8
TEAM-NET
 10
-169.055974
 20
21.664922
 30
113.369694
  0
VERTEX
  5
C52
  8
TEAM-NET
 10
-167.783215
 20
16.901364
 30
113.369694
  0
VERTEX
  5
C53
  8
TEAM-NET
 10
-164.305974
 20
13.414197
 30
113.369694
  0
VERTEX
  5
C54
  8
TEAM-NET
 10
-159.555974
 20
12.137805
 30
113.369694
  0
VERTEX
  5
C55
  8
TEAM-NET
 10
-154.805974
 20
13.414197
 30
113.369694
  0
VERTEX
  5
C56
  8
TEAM-NET
 10
-151.328733
 20
16.901364
 30
113.369694
  0
VERTEX
  5
C57
  8
TEAM-NET
 10
-150.055974
 20
21.664922
 30
113.369694
  0
VERTEX
  5
C58
  8
TEAM-NET
 10
-151.328733
 20
26.42848
 30
113.369694
  0
VERTEX
  5
C59
  8
TEAM-NET
 10
-154.805974
 20
29.915647
 30
113.369694
  0
SEQEND
  5
C5A
  8
TEAM-NET
  0
LINE
  5
2F6
  8
TEAM-NET
 10
103.567358
 20
0.444026
 30
133.922506
 11
113.693296
 21
0.444026
 31
0.0
1001
ACAD
1000
R13OBJECT
1002
{
1005
2D
1002
}
  0
LINE
  5
2F7
  8
TEAM-NET
 10
103.567358
 20
-308.640077
 30
133.922506
 11
103.567358
 21
0.444026
 31
133.922506
1001
ACAD
1000
R13OBJECT
1002
{
1005
2D
1002
}
  0
LINE
  5
2F8
  8
TEAM-NET
 10
113.693296
 20
-308.640077
 30
0.0
 11
103.567358
 21
-308.640077
 31
133.922506
1001
ACAD
1000
R13OBJECT
1002
{
1005
2D
1002
}
  0
LINE
  5
2F9
  8
TEAM-NET
 10
113.693296
 20
0.444026
 30
0.0
 11
113.693296
 21
-308.640077
 31
0.0
1001
ACAD
1000
R13OBJECT
1002
{
1005
2D
1002
}
  0
POLYLINE
  5
2E
  8
TEAM-NET
 66
     1
 10
0.0
 20
0.0
 30
113.369442
 70
   129
210
-0.997154
220
0.0
230
0.075395
  0
VERTEX
  5
C5B
  8
TEAM-NET
 10
159.555974
 20
31.192058
 30
113.369442
  0
VERTEX
  5
C5C
  8
TEAM-NET
 10
154.805974
 20
29.915666
 30
113.369442
  0
VERTEX
  5
C5D
  8
TEAM-NET
 10
151.328733
 20
26.4285
 30
113.369442
  0
VERTEX
  5
C5E
  8
TEAM-NET
 10
150.055974
 20
21.664941
 30
113.369442
  0
VERTEX
  5
C5F
  8
TEAM-NET
 10
151.328733
 20
16.901383
 30
113.369442
  0
VERTEX
  5
C60
  8
TEAM-NET
 10
154.805974
 20
13.414216
 30
113.369442
  0
VERTEX
  5
C61
  8
TEAM-NET
 10
159.555974
 20
12.137824
 30
113.369442
  0
VERTEX
  5
C62
  8
TEAM-NET
 10
164.305974
 20
13.414216
 30
113.369442
  0
VERTEX
  5
C63
  8
TEAM-NET
 10
167.783215
 20
16.901383
 30
113.369442
  0
VERTEX
  5
C64
  8
TEAM-NET
 10
169.055974
 20
21.664941
 30
113.369442
  0
VERTEX
  5
C65
  8
TEAM-NET
 10
167.783215
 20
26.4285
 30
113.369442
  0
VERTEX
  5
C66
  8
TEAM-NET
 10
164.305974
 20
29.915666
 30
113.369442
  0
SEQEND
  5
C67
  8
TEAM-NET
  0
LINE
  5
307
  8
TEAM-NET
 10
-103.567105
 20
0.444026
 30
133.922506
 11
-113.693043
 21
0.444026
 31
0.0
1001
ACAD
1000
R13OBJECT
1002
{
1005
2E
1002
}
  0
LINE
  5
308
  8
TEAM-NET
 10
-113.693043
 20
0.444026
 30
0.0
 11
-113.693043
 21
-308.640077
 31
0.0
1001
ACAD
1000
R13OBJECT
1002
{
1005
2E
1002
}
  0
LINE
  5
309
  8
TEAM-NET
 10
-103.567105
 20
-308.640077
 30
133.922506
 11
-113.693043
 21
-308.640077
 31
0.0
1001
ACAD
1000
R13OBJECT
1002
{
1005
2E
1002
}
  0
LINE
  5
30A
  8
TEAM-NET
 10
-103.567105
 20
-308.640077
 30
133.922506
 11
-103.567105
 21
0.444026
 31
133.922506
1001
ACAD
1000
R13OBJECT
1002
{
1005
2E
1002
}
  0
ARC
  5
2F
  8
TEAM-NET
 10
-0.000127
 20
-308.640077
 30
0.0
 40
113.693169
210
0.0
220
0.0
230
-1.0
 50
180.0
 51
360.0
  0
LINE
  5
30B
  8
TEAM-NET
 10
-113.693043
 20
0.444026
 30
0.0
 11
-113.693043
 21
-308.640077
 31
0.0
1001
ACAD
1000
R13OBJECT
1002
{
1005
2F
1002
}
  0
LINE
  5
30C
  8
TEAM-NET
 10
113.693296
 20
0.444026
 30
0.0
 11
-113.693043
 21
0.444026
 31
0.0
1001
ACAD
1000
R13OBJECT
1002
{
1005
2F
1002
}
  0
LINE
  5
30D
  8
TEAM-NET
 10
113.693296
 20
0.444026
 30
0.0
 11
113.693296
 21
-308.640077
 31
0.0
1001
ACAD
1000
R13OBJECT
1002
{
1005
2F
1002
}
  0
CIRCLE
  5
30
  8
TEAM-INSP
 10
0.0
 20
0.0
 30
0.0
 40
10.0
  0
POLYLINE
  5
32
  8
TEAM-NET
 66
     1
 10
0.0
 20
0.0
 30
115.019606
 70
   128
210
0.13032
220
-0.006514
230
0.991451
  0
VERTEX
  5
C68
  8
TEAM-NET
 10
-313.410097
 20
103.612382
 30
115.019606
  0
VERTEX
  5
C69
  8
TEAM-NET
 10
-323.124922
 20
102.650071
 30
115.019606
  0
VERTEX
  5
C6A
  8
TEAM-NET
 10
-333.713626
 20
100.506446
 30
115.019606
  0
SEQEND
  5
C6B
  8
TEAM-NET
  0
LINE
  5
312
  8
TEAM-NET
 10
-103.255627
 20
-308.640077
 30
127.55588
 11
-103.567105
 21
-308.640077
 31
133.922506
1001
ACAD
1000
R13OBJECT
1002
{
1005
32
1002
}
  0
ARC
  5
313
  8
TEAM-NET
 10
0.000127
 20
-308.640077
 30
133.922506
 40
103.567232
 50
180.0
 51
360.0
1001
ACAD
1000
R13OBJECT
1002
{
1005
32
1002
}
  0
LINE
  5
314
  8
TEAM-NET
 10
103.567358
 20
-308.640077
 30
133.922506
 11
103.255627
 21
-308.640077
 31
127.550706
1001
ACAD
1000
R13OBJECT
1002
{
1005
32
1002
}
  0
POLYLINE
  5
315
  8
TEAM-NET
 66
     1
 10
0.0
 20
0.0
 30
0.0
 70
     8
1001
ACAD
1000
R13OBJECT
1002
{
1005
32
1002
}
  0
VERTEX
  5
316
  8
TEAM-NET
 10
101.191783
 20
-329.081485
 30
127.145275
 70
    32
  0
VERTEX
  5
317
  8
TEAM-NET
 10
102.732448
 20
-318.949838
 30
127.412466
 70
    32
  0
VERTEX
  5
318
  8
TEAM-NET
 10
103.250717
 20
-309.638277
 30
127.548976
 70
    32
  0
VERTEX
  5
319
  8
TEAM-NET
 10
103.255627
 20
-308.640077
 30
127.550706
 70
    32
  0
SEQEND
  5
31A
  8
TEAM-NET
  0
POLYLINE
  5
31B
  8
TEAM-NET
 66
     1
 10
0.0
 20
0.0
 30
0.0
 70
     8
1001
ACAD
1000
R13OBJECT
1002
{
1005
32
1002
}
  0
VERTEX
  5
31C
  8
TEAM-NET
 10
35.345652
 20
-403.224835
 30
80.9
 70
    32
  0
VERTEX
  5
31D
  8
TEAM-NET
 10
45.307854
 20
-398.916504
 30
81.612523
 70
    32
  0
VERTEX
  5
31E
  8
TEAM-NET
 10
55.335072
 20
-393.271305
 30
83.814807
 70
    32
  0
VERTEX
  5
31F
  8
TEAM-NET
 10
58.186748
 20
-391.391444
 30
84.731395
 70
    32
  0
VERTEX
  5
320
  8
TEAM-NET
 10
60.840056
 20
-389.520487
 30
85.707705
 70
    32
  0
VERTEX
  5
321
  8
TEAM-NET
 10
67.650294
 20
-384.120701
 30
88.799008
 70
    32
  0
VERTEX
  5
322
  8
TEAM-NET
 10
73.803186
 20
-378.373366
 30
92.41053
 70
    32
  0
VERTEX
  5
323
  8
TEAM-NET
 10
79.072558
 20
-372.634281
 30
96.237413
 70
    32
  0
VERTEX
  5
324
  8
TEAM-NET
 10
83.785615
 20
-366.681663
 30
100.367084
 70
    32
  0
VERTEX
  5
325
  8
TEAM-NET
 10
91.594369
 20
-354.333997
 30
109.233685
 70
    32
  0
VERTEX
  5
326
  8
TEAM-NET
 10
95.289046
 20
-346.755532
 30
114.750457
 70
    32
  0
VERTEX
  5
327
  8
TEAM-NET
 10
98.885113
 20
-337.32268
 30
121.527617
 70
    32
  0
VERTEX
  5
328
  8
TEAM-NET
 10
100.442929
 20
-332.067439
 30
125.163946
 70
    32
  0
VERTEX
  5
329
  8
TEAM-NET
 10
101.191783
 20
-329.081485
 30
127.145275
 70
    32
  0
SEQEND
  5
32A
  8
TEAM-NET
  0
ARC
  5
32B
  8
TEAM-NET
 10
0.000127
 20
-308.640077
 30
80.9
 40
100.973177
 50
249.509555
 51
290.490291
1001
ACAD
1000
R13OBJECT
1002
{
1005
32
1002
}
  0
POLYLINE
  5
32C
  8
TEAM-NET
 66
     1
 10
0.0
 20
0.0
 30
0.0
 70
     8
1001
ACAD
1000
R13OBJECT
1002
{
1005
32
1002
}
  0
VERTEX
  5
32D
  8
TEAM-NET
 10
-101.193707
 20
-329.072022
 30
127.150609
 70
    32
  0
VERTEX
  5
32E
  8
TEAM-NET
 10
-99.201243
 20
-336.335038
 30
122.221377
 70
    32
  0
VERTEX
  5
32F
  8
TEAM-NET
 10
-94.958465
 20
-347.501164
 30
114.207868
 70
    32
  0
VERTEX
  5
330
  8
TEAM-NET
 10
-91.011369
 20
-355.400949
 30
108.457947
 70
    32
  0
VERTEX
  5
331
  8
TEAM-NET
 10
-84.111627
 20
-366.234926
 30
100.681816
 70
    32
  0
VERTEX
  5
332
  8
TEAM-NET
 10
-75.539579
 20
-376.574577
 30
93.589895
 70
    32
  0
VERTEX
  5
333
  8
TEAM-NET
 10
-67.440583
 20
-384.300217
 30
88.691356
 70
    32
  0
VERTEX
  5
334
  8
TEAM-NET
 10
-59.141403
 20
-390.732037
 30
85.068684
 70
    32
  0
VERTEX
  5
335
  8
TEAM-NET
 10
-56.558786
 20
-392.480516
 30
84.191658
 70
    32
  0
VERTEX
  5
336
  8
TEAM-NET
 10
-46.462831
 20
-398.337099
 30
81.788436
 70
    32
  0
VERTEX
  5
337
  8
TEAM-NET
 10
-36.16598
 20
-402.914372
 30
80.904807
 70
    32
  0
VERTEX
  5
338
  8
TEAM-NET
 10
-35.345652
 20
-403.22474
 30
80.9
 70
    32
  0
SEQEND
  5
339
  8
TEAM-NET
  0
POLYLINE
  5
33
  8
TEAM-NET
 66
     1
 10
0.0
 20
0.0
 30
0.0
 70
     8
  0
VERTEX
  5
33A
  8
TEAM-NET
 10
35.345652
 20
-403.224835
 30
80.9
 70
    32
  0
VERTEX
  5
33B
  8
TEAM-NET
 10
45.307854
 20
-398.916504
 30
81.612523
 70
    32
  0
VERTEX
  5
33C
  8
TEAM-NET
 10
55.335072
 20
-393.271305
 30
83.814807
 70
    32
  0
VERTEX
  5
33D
  8
TEAM-NET
 10
58.186748
 20
-391.391444
 30
84.731395
 70
    32
  0
VERTEX
  5
33E
  8
TEAM-NET
 10
60.840056
 20
-389.520487
 30
85.707705
 70
    32
  0
VERTEX
  5
33F
  8
TEAM-NET
 10
67.650294
 20
-384.120701
 30
88.799008
 70
    32
  0
VERTEX
  5
340
  8
TEAM-NET
 10
73.803186
 20
-378.373366
 30
92.41053
 70
    32
  0
VERTEX
  5
341
  8
TEAM-NET
 10
79.072558
 20
-372.634281
 30
96.237413
 70
    32
  0
VERTEX
  5
342
  8
TEAM-NET
 10
83.785615
 20
-366.681663
 30
100.367084
 70
    32
  0
VERTEX
  5
343
  8
TEAM-NET
 10
91.594369
 20
-354.333997
 30
109.233685
 70
    32
  0
VERTEX
  5
344
  8
TEAM-NET
 10
95.289046
 20
-346.755532
 30
114.750457
 70
    32
  0
VERTEX
  5
345
  8
TEAM-NET
 10
98.885113
 20
-337.32268
 30
121.527617
 70
    32
  0
VERTEX
  5
346
  8
TEAM-NET
 10
100.442929
 20
-332.067439
 30
125.163946
 70
    32
  0
VERTEX
  5
347
  8
TEAM-NET
 10
101.191783
 20
-329.081485
 30
127.145275
 70
    32
  0
SEQEND
  5
348
  8
TEAM-NET
  0
POLYLINE
  5
349
  8
TEAM-NET
 66
     1
 10
0.0
 20
0.0
 30
0.0
 70
     8
1001
ACAD
1000
R13OBJECT
1002
{
1005
33
1002
}
  0
VERTEX
  5
34A
  8
TEAM-NET
 10
101.191783
 20
-329.081485
 30
127.145275
 70
    32
  0
VERTEX
  5
34B
  8
TEAM-NET
 10
101.628489
 20
-326.803708
 30
128.392545
 70
    32
  0
VERTEX
  5
34C
  8
TEAM-NET
 10
101.965857
 20
-324.819714
 30
129.411673
 70
    32
  0
VERTEX
  5
34D
  8
TEAM-NET
 10
102.531504
 20
-320.771559
 30
131.251558
 70
    32
  0
VERTEX
  5
34E
  8
TEAM-NET
 10
102.785142
 20
-318.420401
 30
132.140598
 70
    32
  0
VERTEX
  5
34F
  8
TEAM-NET
 10
102.964376
 20
-316.335227
 30
132.797289
 70
    32
  0
VERTEX
  5
350
  8
TEAM-NET
 10
103.18599
 20
-312.419983
 30
133.643737
 70
    32
  0
VERTEX
  5
351
  8
TEAM-NET
 10
103.255627
 20
-308.640077
 30
133.922506
 70
    32
  0
SEQEND
  5
352
  8
TEAM-NET
  0
LINE
  5
353
  8
TEAM-NET
 10
103.255627
 20
-59.555974
 30
133.922506
 11
103.255627
 21
-308.640077
 31
133.922506
1001
ACAD
1000
R13OBJECT
1002
{
1005
33
1002
}
  0
ARC
  5
354
  8
TEAM-NET
 10
-35.345652
 20
150.9
 30
-59.555974
 40
70.0
210
0.0
220
1.0
230
0.0
 50
194.036243
 51
270.0
1001
ACAD
1000
R13OBJECT
1002
{
1005
33
1002
}
  0
LINE
  5
355
  8
TEAM-NET
 10
35.345652
 20
-59.555974
 30
80.9
 11
35.345652
 21
-403.224835
 31
80.9
1001
ACAD
1000
R13OBJECT
1002
{
1005
33
1002
}
  0
POLYLINE
  5
34
  8
TEAM-NET
 66
     1
 10
0.0
 20
0.0
 30
0.0
 70
     8
  0
VERTEX
  5
356
  8
TEAM-NET
 10
-101.193707
 20
-329.072022
 30
127.150609
 70
    32
  0
VERTEX
  5
357
  8
TEAM-NET
 10
-99.201243
 20
-336.335038
 30
122.221377
 70
    32
  0
VERTEX
  5
358
  8
TEAM-NET
 10
-94.958465
 20
-347.501164
 30
114.207868
 70
    32
  0
VERTEX
  5
359
  8
TEAM-NET
 10
-91.011369
 20
-355.400949
 30
108.457947
 70
    32
  0
VERTEX
  5
35A
  8
TEAM-NET
 10
-84.111627
 20
-366.234926
 30
100.681816
 70
    32
  0
VERTEX
  5
35B
  8
TEAM-NET
 10
-75.539579
 20
-376.574577
 30
93.589895
 70
    32
  0
VERTEX
  5
35C
  8
TEAM-NET
 10
-67.440583
 20
-384.300217
 30
88.691356
 70
    32
  0
VERTEX
  5
35D
  8
TEAM-NET
 10
-59.141403
 20
-390.732037
 30
85.068684
 70
    32
  0
VERTEX
  5
35E
  8
TEAM-NET
 10
-56.558786
 20
-392.480516
 30
84.191658
 70
    32
  0
VERTEX
  5
35F
  8
TEAM-NET
 10
-46.462831
 20
-398.337099
 30
81.788436
 70
    32
  0
VERTEX
  5
360
  8
TEAM-NET
 10
-36.16598
 20
-402.914372
 30
80.904807
 70
    32
  0
VERTEX
  5
361
  8
TEAM-NET
 10
-35.345652
 20
-403.22474
 30
80.9
 70
    32
  0
SEQEND
  5
362
  8
TEAM-NET
  0
LINE
  5
363
  8
TEAM-NET
 10
-35.345652
 20
-59.555974
 30
80.9
 11
-35.345652
 21
-403.22474
 31
80.9
1001
ACAD
1000
R13OBJECT
1002
{
1005
34
1002
}
  0
ARC
  5
364
  8
TEAM-NET
 10
35.345652
 20
150.9
 30
-59.555974
 40
70.0
210
0.0
220
1.0
230
0.0
 50
270.0
 51
345.963757
1001
ACAD
1000
R13OBJECT
1002
{
1005
34
1002
}
  0
LINE
  5
365
  8
TEAM-NET
 10
-103.255627
 20
-59.555974
 30
133.922506
 11
-103.255627
 21
-308.640077
 31
133.922506
1001
ACAD
1000
R13OBJECT
1002
{
1005
34
1002
}
  0
POLYLINE
  5
366
  8
TEAM-NET
 66
     1
 10
0.0
 20
0.0
 30
0.0
 70
     8
1001
ACAD
1000
R13OBJECT
1002
{
1005
34
1002
}
  0
VERTEX
  5
367
  8
TEAM-NET
 10
-103.255627
 20
-308.640077
 30
133.922506
 70
    32
  0
VERTEX
  5
368
  8
TEAM-NET
 10
-103.138164
 20
-313.525979
 30
133.459378
 70
    32
  0
VERTEX
  5
369
  8
TEAM-NET
 10
-102.857519
 20
-317.636885
 30
132.402765
 70
    32
  0
VERTEX
  5
36A
  8
TEAM-NET
 10
-102.685179
 20
-319.408863
 30
131.784873
 70
    32
  0
VERTEX
  5
36B
  8
TEAM-NET
 10
-101.382001
 20
-328.123079
 30
127.679307
 70
    32
  0
VERTEX
  5
36C
  8
TEAM-NET
 10
-101.193707
 20
-329.072022
 30
127.150609
 70
    32
  0
SEQEND
  5
36D
  8
TEAM-NET
  0
LINE
  5
35
  8
TEAM-NET
 10
103.255627
 20
-59.555974
 30
133.922506
 11
-103.255627
 21
-59.555974
 31
133.922506
  0
ARC
  5
36E
  8
TEAM-NET
 10
35.345652
 20
150.9
 30
-59.555974
 40
70.0
210
0.0
220
1.0
230
0.0
 50
270.0
 51
345.963757
1001
ACAD
1000
R13OBJECT
1002
{
1005
35
1002
}
  0
LINE
  5
36F
  8
TEAM-NET
 10
35.345652
 20
-59.555974
 30
80.9
 11
-35.345652
 21
-59.555974
 31
80.9
1001
ACAD
1000
R13OBJECT
1002
{
1005
35
1002
}
  0
ARC
  5
370
  8
TEAM-NET
 10
-35.345652
 20
150.9
 30
-59.555974
 40
70.0
210
0.0
220
1.0
230
0.0
 50
194.036243
 51
270.0
1001
ACAD
1000
R13OBJECT
1002
{
1005
35
1002
}
  0
ARC
  5
36
  8
TEAM-NET
 10
-108.700975
 20
39.5
 30
-159.555974
 40
2.0
210
0.0
220
1.0
230
0.0
 50
175.676069
 51
270.0
  0
POLYLINE
  5
371
  8
TEAM-NET
 66
     1
 10
0.0
 20
0.0
 30
-111.780985
 70
   128
210
-0.995445
220
0.0
230
-0.095337
1001
ACAD
1000
R13OBJECT
1002
{
1005
36
1002
}
  0
VERTEX
  5
E0E
  8
TEAM-NET
 10
159.555974
 20
26.965969
 30
-111.780985
  0
VERTEX
  5
E0F
  8
TEAM-NET
 10
158.577028
 20
26.901512
 30
-111.780985
  0
VERTEX
  5
E10
  8
TEAM-NET
 10
157.614831
 20
26.709243
 30
-111.780985
  0
VERTEX
  5
E11
  8
TEAM-NET
 10
156.685848
 20
26.392453
 30
-111.780985
  0
VERTEX
  5
E12
  8
TEAM-NET
 10
155.805974
 20
25.956562
 30
-111.780985
  0
VERTEX
  5
E13
  8
TEAM-NET
 10
154.990263
 20
25.409027
 30
-111.780985
  0
VERTEX
  5
E14
  8
TEAM-NET
 10
154.252673
 20
24.759218
 30
-111.780985
  0
VERTEX
  5
E15
  8
TEAM-NET
 10
153.605824
 20
24.018253
 30
-111.780985
  0
VERTEX
  5
E16
  8
TEAM-NET
 10
153.060784
 20
23.19881
 30
-111.780985
  0
VERTEX
  5
E17
  8
TEAM-NET
 10
152.626878
 20
22.314909
 30
-111.780985
  0
VERTEX
  5
E18
  8
TEAM-NET
 10
152.31153
 20
21.381676
 30
-111.780985
  0
VERTEX
  5
E19
  8
TEAM-NET
 10
152.120138
 20
20.415076
 30
-111.780985
  0
VERTEX
  5
E1A
  8
TEAM-NET
 10
152.055974
 20
19.431651
 30
-111.780985
  0
SEQEND
  5
E1B
  8
TEAM-NET
  0
POLYLINE
  5
380
  8
TEAM-NET
 66
     1
 10
0.0
 20
0.0
 30
-111.780985
 70
   128
210
-0.995445
220
-0.0
230
-0.095337
1001
ACAD
1000
R13OBJECT
1002
{
1005
36
1002
}
  0
VERTEX
  5
E1C
  8
TEAM-NET
 10
152.055974
 20
19.431651
 30
-111.780985
  0
VERTEX
  5
E1D
  8
TEAM-NET
 10
152.359777
 20
17.308988
 30
-111.780985
  0
VERTEX
  5
E1E
  8
TEAM-NET
 10
153.246573
 20
15.35829
 30
-111.780985
  0
VERTEX
  5
E1F
  8
TEAM-NET
 10
154.644519
 20
13.737593
 30
-111.780985
  0
VERTEX
  5
E20
  8
TEAM-NET
 10
156.440362
 20
12.578193
 30
-111.780985
  0
VERTEX
  5
E21
  8
TEAM-NET
 10
158.488613
 20
11.974021
 30
-111.780985
  0
VERTEX
  5
E22
  8
TEAM-NET
 10
160.623335
 20
11.974021
 30
-111.780985
  0
VERTEX
  5
E23
  8
TEAM-NET
 10
162.671587
 20
12.578193
 30
-111.780985
  0
VERTEX
  5
E24
  8
TEAM-NET
 10
164.46743
 20
13.737593
 30
-111.780985
  0
VERTEX
  5
E25
  8
TEAM-NET
 10
165.865376
 20
15.35829
 30
-111.780985
  0
VERTEX
  5
E26
  8
TEAM-NET
 10
166.752171
 20
17.308988
 30
-111.780985
  0
VERTEX
  5
E27
  8
TEAM-NET
 10
167.055974
 20
19.431651
 30
-111.780985
  0
SEQEND
  5
E28
  8
TEAM-NET
  0
POLYLINE
  5
38E
  8
TEAM-NET
 66
     1
 10
0.0
 20
0.0
 30
-111.780985
 70
   128
210
-0.995445
220
0.0
230
-0.095337
1001
ACAD
1000
R13OBJECT
1002
{
1005
36
1002
}
  0
VERTEX
  5
E29
  8
TEAM-NET
 10
167.055974
 20
19.431651
 30
-111.780985
  0
VERTEX
  5
E2A
  8
TEAM-NET
 10
166.979635
 20
20.503896
 30
-111.780985
  0
VERTEX
  5
E2B
  8
TEAM-NET
 10
166.752171
 20
21.554313
 30
-111.780985
  0
VERTEX
  5
E2C
  8
TEAM-NET
 10
166.378214
 20
22.56152
 30
-111.780985
  0
VERTEX
  5
E2D
  8
TEAM-NET
 10
165.865376
 20
23.505011
 30
-111.780985
  0
VERTEX
  5
E2E
  8
TEAM-NET
 10
165.224096
 20
24.36558
 30
-111.780985
  0
VERTEX
  5
E2F
  8
TEAM-NET
 10
164.46743
 20
25.125708
 30
-111.780985
  0
VERTEX
  5
E30
  8
TEAM-NET
 10
163.61078
 20
25.769922
 30
-111.780985
  0
VERTEX
  5
E31
  8
TEAM-NET
 10
162.671587
 20
26.285108
 30
-111.780985
  0
VERTEX
  5
E32
  8
TEAM-NET
 10
161.668968
 20
26.660776
 30
-111.780985
  0
VERTEX
  5
E33
  8
TEAM-NET
 10
160.623335
 20
26.88928
 30
-111.780985
  0
VERTEX
  5
E34
  8
TEAM-NET
 10
159.555974
 20
26.965969
 30
-111.780985
  0
SEQEND
  5
E35
  8
TEAM-NET
  0
POLYLINE
  5
39C
  8
TEAM-NET
 66
     1
 10
0.0
 20
0.0
 30
113.369694
 70
   129
210
0.997154
220
0.0
230
0.075395
1001
ACAD
1000
R13OBJECT
1002
{
1005
36
1002
}
  0
VERTEX
  5
E36
  8
TEAM-NET
 10
-159.555974
 20
31.192039
 30
113.369694
  0
VERTEX
  5
E37
  8
TEAM-NET
 10
-164.305974
 20
29.915647
 30
113.369694
  0
VERTEX
  5
E38
  8
TEAM-NET
 10
-167.783215
 20
26.42848
 30
113.369694
  0
VERTEX
  5
E39
  8
TEAM-NET
 10
-169.055974
 20
21.664922
 30
113.369694
  0
VERTEX
  5
E3A
  8
TEAM-NET
 10
-167.783215
 20
16.901364
 30
113.369694
  0
VERTEX
  5
E3B
  8
TEAM-NET
 10
-164.305974
 20
13.414197
 30
113.369694
  0
VERTEX
  5
E3C
  8
TEAM-NET
 10
-159.555974
 20
12.137805
 30
113.369694
  0
VERTEX
  5
E3D
  8
TEAM-NET
 10
-154.805974
 20
13.414197
 30
113.369694
  0
VERTEX
  5
E3E
  8
TEAM-NET
 10
-151.328733
 20
16.901364
 30
113.369694
  0
VERTEX
  5
E3F
  8
TEAM-NET
 10
-150.055974
 20
21.664922
 30
113.369694
  0
VERTEX
  5
E40
  8
TEAM-NET
 10
-151.328733
 20
26.42848
 30
113.369694
  0
VERTEX
  5
E41
  8
TEAM-NET
 10
-154.805974
 20
29.915647
 30
113.369694
  0
SEQEND
  5
E42
  8
TEAM-NET
  0
LINE
  5
37
  8
TEAM-NET
 10
-109.419021
 20
-167.055974
 30
30.0
 11
109.419274
 21
-167.055974
 31
30.0
  0
POLYLINE
  5
3AA
  8
TEAM-NET
 66
     1
 10
0.0
 20
0.0
 30
-111.780985
 70
   128
210
-0.995445
220
-0.0
230
-0.095337
1001
ACAD
1000
R13OBJECT
1002
{
1005
37
1002
}
  0
VERTEX
  5
E43
  8
TEAM-NET
 10
152.055974
 20
19.431651
 30
-111.780985
  0
VERTEX
  5
E44
  8
TEAM-NET
 10
152.359777
 20
17.308988
 30
-111.780985
  0
VERTEX
  5
E45
  8
TEAM-NET
 10
153.246573
 20
15.35829
 30
-111.780985
  0
VERTEX
  5
E46
  8
TEAM-NET
 10
154.644519
 20
13.737593
 30
-111.780985
  0
VERTEX
  5
E47
  8
TEAM-NET
 10
156.440362
 20
12.578193
 30
-111.780985
  0
VERTEX
  5
E48
  8
TEAM-NET
 10
158.488613
 20
11.974021
 30
-111.780985
  0
VERTEX
  5
E49
  8
TEAM-NET
 10
160.623335
 20
11.974021
 30
-111.780985
  0
VERTEX
  5
E4A
  8
TEAM-NET
 10
162.671587
 20
12.578193
 30
-111.780985
  0
VERTEX
  5
E4B
  8
TEAM-NET
 10
164.46743
 20
13.737593
 30
-111.780985
  0
VERTEX
  5
E4C
  8
TEAM-NET
 10
165.865376
 20
15.35829
 30
-111.780985
  0
VERTEX
  5
E4D
  8
TEAM-NET
 10
166.752171
 20
17.308988
 30
-111.780985
  0
VERTEX
  5
E4E
  8
TEAM-NET
 10
167.055974
 20
19.431651
 30
-111.780985
  0
SEQEND
  5
E4F
  8
TEAM-NET
  0
LINE
  5
3B8
  8
TEAM-NET
 10
-109.419021
 20
-152.055974
 30
30.0
 11
109.419274
 21
-152.055974
 31
30.0
1001
ACAD
1000
R13OBJECT
1002
{
1005
37
1002
}
  0
POLYLINE
  5
3B9
  8
TEAM-NET
 66
     1
 10
0.0
 20
0.0
 30
-111.780733
 70
   128
210
0.995445
220
0.0
230
-0.095337
1001
ACAD
1000
R13OBJECT
1002
{
1005
37
1002
}
  0
VERTEX
  5
E50
  8
TEAM-NET
 10
-167.055974
 20
19.431675
 30
-111.780733
  0
VERTEX
  5
E51
  8
TEAM-NET
 10
-166.752171
 20
17.309012
 30
-111.780733
  0
VERTEX
  5
E52
  8
TEAM-NET
 10
-165.865376
 20
15.358315
 30
-111.780733
  0
VERTEX
  5
E53
  8
TEAM-NET
 10
-164.46743
 20
13.737617
 30
-111.780733
  0
VERTEX
  5
E54
  8
TEAM-NET
 10
-162.671587
 20
12.578218
 30
-111.780733
  0
VERTEX
  5
E55
  8
TEAM-NET
 10
-160.623335
 20
11.974045
 30
-111.780733
  0
VERTEX
  5
E56
  8
TEAM-NET
 10
-158.488613
 20
11.974045
 30
-111.780733
  0
VERTEX
  5
E57
  8
TEAM-NET
 10
-156.440362
 20
12.578218
 30
-111.780733
  0
VERTEX
  5
E58
  8
TEAM-NET
 10
-154.644519
 20
13.737617
 30
-111.780733
  0
VERTEX
  5
E59
  8
TEAM-NET
 10
-153.246573
 20
15.358315
 30
-111.780733
  0
VERTEX
  5
E5A
  8
TEAM-NET
 10
-152.359777
 20
17.309012
 30
-111.780733
  0
VERTEX
  5
E5B
  8
TEAM-NET
 10
-152.055974
 20
19.431675
 30
-111.780733
  0
SEQEND
  5
E5C
  8
TEAM-NET
  0
ARC
  5
38
  8
TEAM-NET
 10
-108.700722
 20
39.5
 30
159.555974
 40
2.0
210
0.0
220
-1.0
230
0.0
 50
175.676069
 51
270.0
  0
POLYLINE
  5
3C7
  8
TEAM-NET
 66
     1
 10
0.0
 20
0.0
 30
-111.780733
 70
   128
210
0.995445
220
-0.0
230
-0.095337
1001
ACAD
1000
R13OBJECT
1002
{
1005
38
1002
}
  0
VERTEX
  5
E5D
  8
TEAM-NET
 10
-159.555974
 20
26.965993
 30
-111.780733
  0
VERTEX
  5
E5E
  8
TEAM-NET
 10
-160.534921
 20
26.901536
 30
-111.780733
  0
VERTEX
  5
E5F
  8
TEAM-NET
 10
-161.497117
 20
26.709267
 30
-111.780733
  0
VERTEX
  5
E60
  8
TEAM-NET
 10
-162.4261
 20
26.392477
 30
-111.780733
  0
VERTEX
  5
E61
  8
TEAM-NET
 10
-163.305974
 20
25.956586
 30
-111.780733
  0
VERTEX
  5
E62
  8
TEAM-NET
 10
-164.121685
 20
25.409051
 30
-111.780733
  0
VERTEX
  5
E63
  8
TEAM-NET
 10
-164.859275
 20
24.759242
 30
-111.780733
  0
VERTEX
  5
E64
  8
TEAM-NET
 10
-165.506124
 20
24.018277
 30
-111.780733
  0
VERTEX
  5
E65
  8
TEAM-NET
 10
-166.051165
 20
23.198834
 30
-111.780733
  0
VERTEX
  5
E66
  8
TEAM-NET
 10
-166.485071
 20
22.314933
 30
-111.780733
  0
VERTEX
  5
E67
  8
TEAM-NET
 10
-166.800418
 20
21.3817
 30
-111.780733
  0
VERTEX
  5
E68
  8
TEAM-NET
 10
-166.991811
 20
20.415101
 30
-111.780733
  0
VERTEX
  5
E69
  8
TEAM-NET
 10
-167.055974
 20
19.431675
 30
-111.780733
  0
SEQEND
  5
E6A
  8
TEAM-NET
  0
POLYLINE
  5
3D6
  8
TEAM-NET
 66
     1
 10
0.0
 20
0.0
 30
-111.780733
 70
   128
210
0.995445
220
0.0
230
-0.095337
1001
ACAD
1000
R13OBJECT
1002
{
1005
38
1002
}
  0
VERTEX
  5
E6B
  8
TEAM-NET
 10
-167.055974
 20
19.431675
 30
-111.780733
  0
VERTEX
  5
E6C
  8
TEAM-NET
 10
-166.752171
 20
17.309012
 30
-111.780733
  0
VERTEX
  5
E6D
  8
TEAM-NET
 10
-165.865376
 20
15.358315
 30
-111.780733
  0
VERTEX
  5
E6E
  8
TEAM-NET
 10
-164.46743
 20
13.737617
 30
-111.780733
  0
VERTEX
  5
E6F
  8
TEAM-NET
 10
-162.671587
 20
12.578218
 30
-111.780733
  0
VERTEX
  5
E70
  8
TEAM-NET
 10
-160.623335
 20
11.974045
 30
-111.780733
  0
VERTEX
  5
E71
  8
TEAM-NET
 10
-158.488613
 20
11.974045
 30
-111.780733
  0
VERTEX
  5
E72
  8
TEAM-NET
 10
-156.440362
 20
12.578218
 30
-111.780733
  0
VERTEX
  5
E73
  8
TEAM-NET
 10
-154.644519
 20
13.737617
 30
-111.780733
  0
VERTEX
  5
E74
  8
TEAM-NET
 10
-153.246573
 20
15.358315
 30
-111.780733
  0
VERTEX
  5
E75
  8
TEAM-NET
 10
-152.359777
 20
17.309012
 30
-111.780733
  0
VERTEX
  5
E76
  8
TEAM-NET
 10
-152.055974
 20
19.431675
 30
-111.780733
  0
SEQEND
  5
E77
  8
TEAM-NET
  0
POLYLINE
  5
3E4
  8
TEAM-NET
 66
     1
 10
0.0
 20
0.0
 30
-111.780733
 70
   128
210
0.995445
220
-0.0
230
-0.095337
1001
ACAD
1000
R13OBJECT
1002
{
1005
38
1002
}
  0
VERTEX
  5
E78
  8
TEAM-NET
 10
-152.055974
 20
19.431675
 30
-111.780733
  0
VERTEX
  5
E79
  8
TEAM-NET
 10
-152.132313
 20
20.50392
 30
-111.780733
  0
VERTEX
  5
E7A
  8
TEAM-NET
 10
-152.359777
 20
21.554337
 30
-111.780733
  0
VERTEX
  5
E7B
  8
TEAM-NET
 10
-152.733734
 20
22.561544
 30
-111.780733
  0
VERTEX
  5
E7C
  8
TEAM-NET
 10
-153.246573
 20
23.505035
 30
-111.780733
  0
VERTEX
  5
E7D
  8
TEAM-NET
 10
-153.887852
 20
24.365604
 30
-111.780733
  0
VERTEX
  5
E7E
  8
TEAM-NET
 10
-154.644519
 20
25.125733
 30
-111.780733
  0
VERTEX
  5
E7F
  8
TEAM-NET
 10
-155.501168
 20
25.769947
 30
-111.780733
  0
VERTEX
  5
E80
  8
TEAM-NET
 10
-156.440362
 20
26.285132
 30
-111.780733
  0
VERTEX
  5
E81
  8
TEAM-NET
 10
-157.44298
 20
26.6608
 30
-111.780733
  0
VERTEX
  5
E82
  8
TEAM-NET
 10
-158.488613
 20
26.889305
 30
-111.780733
  0
VERTEX
  5
E83
  8
TEAM-NET
 10
-159.555974
 20
26.965993
 30
-111.780733
  0
SEQEND
  5
E84
  8
TEAM-NET
  0
POLYLINE
  5
3F2
  8
TEAM-NET
 66
     1
 10
0.0
 20
0.0
 30
113.369442
 70
   129
210
-0.997154
220
0.0
230
0.075395
1001
ACAD
1000
R13OBJECT
1002
{
1005
38
1002
}
  0
VERTEX
  5
E85
  8
TEAM-NET
 10
159.555974
 20
31.192058
 30
113.369442
  0
VERTEX
  5
E86
  8
TEAM-NET
 10
154.805974
 20
29.915666
 30
113.369442
  0
VERTEX
  5
E87
  8
TEAM-NET
 10
151.328733
 20
26.4285
 30
113.369442
  0
VERTEX
  5
E88
  8
TEAM-NET
 10
150.055974
 20
21.664941
 30
113.369442
  0
VERTEX
  5
E89
  8
TEAM-NET
 10
151.328733
 20
16.901383
 30
113.369442
  0
VERTEX
  5
E8A
  8
TEAM-NET
 10
154.805974
 20
13.414216
 30
113.369442
  0
VERTEX
  5
E8B
  8
TEAM-NET
 10
159.555974
 20
12.137824
 30
113.369442
  0
VERTEX
  5
E8C
  8
TEAM-NET
 10
164.305974
 20
13.414216
 30
113.369442
  0
VERTEX
  5
E8D
  8
TEAM-NET
 10
167.783215
 20
16.901383
 30
113.369442
  0
VERTEX
  5
E8E
  8
TEAM-NET
 10
169.055974
 20
21.664941
 30
113.369442
  0
VERTEX
  5
E8F
  8
TEAM-NET
 10
167.783215
 20
26.4285
 30
113.369442
  0
VERTEX
  5
E90
  8
TEAM-NET
 10
164.305974
 20
29.915666
 30
113.369442
  0
SEQEND
  5
E91
  8
TEAM-NET
  0
LINE
  5
39
  8
TEAM-NET
 10
-109.419021
 20
-167.055974
 30
30.0
 11
109.419274
 21
-167.055974
 31
30.0
  0
POLYLINE
  5
400
  8
TEAM-NET
 66
     1
 10
0.0
 20
0.0
 30
-111.780733
 70
   128
210
0.995445
220
-0.0
230
-0.095337
1001
ACAD
1000
R13OBJECT
1002
{
1005
39
1002
}
  0
VERTEX
  5
E92
  8
TEAM-NET
 10
-159.555974
 20
26.965993
 30
-111.780733
  0
VERTEX
  5
E93
  8
TEAM-NET
 10
-160.534921
 20
26.901536
 30
-111.780733
  0
VERTEX
  5
E94
  8
TEAM-NET
 10
-161.497117
 20
26.709267
 30
-111.780733
  0
VERTEX
  5
E95
  8
TEAM-NET
 10
-162.4261
 20
26.392477
 30
-111.780733
  0
VERTEX
  5
E96
  8
TEAM-NET
 10
-163.305974
 20
25.956586
 30
-111.780733
  0
VERTEX
  5
E97
  8
TEAM-NET
 10
-164.121685
 20
25.409051
 30
-111.780733
  0
VERTEX
  5
E98
  8
TEAM-NET
 10
-164.859275
 20
24.759242
 30
-111.780733
  0
VERTEX
  5
E99
  8
TEAM-NET
 10
-165.506124
 20
24.018277
 30
-111.780733
  0
VERTEX
  5
E9A
  8
TEAM-NET
 10
-166.051165
 20
23.198834
 30
-111.780733
  0
VERTEX
  5
E9B
  8
TEAM-NET
 10
-166.485071
 20
22.314933
 30
-111.780733
  0
VERTEX
  5
E9C
  8
TEAM-NET
 10
-166.800418
 20
21.3817
 30
-111.780733
  0
VERTEX
  5
E9D
  8
TEAM-NET
 10
-166.991811
 20
20.415101
 30
-111.780733
  0
VERTEX
  5
E9E
  8
TEAM-NET
 10
-167.055974
 20
19.431675
 30
-111.780733
  0
SEQEND
  5
E9F
  8
TEAM-NET
  0
POLYLINE
  5
40F
  8
TEAM-NET
 66
     1
 10
0.0
 20
0.0
 30
-111.780733
 70
   128
210
0.995445
220
-0.0
230
-0.095337
1001
ACAD
1000
R13OBJECT
1002
{
1005
39
1002
}
  0
VERTEX
  5
EA0
  8
TEAM-NET
 10
-152.055974
 20
19.431675
 30
-111.780733
  0
VERTEX
  5
EA1
  8
TEAM-NET
 10
-152.132313
 20
20.50392
 30
-111.780733
  0
VERTEX
  5
EA2
  8
TEAM-NET
 10
-152.359777
 20
21.554337
 30
-111.780733
  0
VERTEX
  5
EA3
  8
TEAM-NET
 10
-152.733734
 20
22.561544
 30
-111.780733
  0
VERTEX
  5
EA4
  8
TEAM-NET
 10
-153.246573
 20
23.505035
 30
-111.780733
  0
VERTEX
  5
EA5
  8
TEAM-NET
 10
-153.887852
 20
24.365604
 30
-111.780733
  0
VERTEX
  5
EA6
  8
TEAM-NET
 10
-154.644519
 20
25.125733
 30
-111.780733
  0
VERTEX
  5
EA7
  8
TEAM-NET
 10
-155.501168
 20
25.769947
 30
-111.780733
  0
VERTEX
  5
EA8
  8
TEAM-NET
 10
-156.440362
 20
26.285132
 30
-111.780733
  0
VERTEX
  5
EA9
  8
TEAM-NET
 10
-157.44298
 20
26.6608
 30
-111.780733
  0
VERTEX
  5
EAA
  8
TEAM-NET
 10
-158.488613
 20
26.889305
 30
-111.780733
  0
VERTEX
  5
EAB
  8
TEAM-NET
 10
-159.555974
 20
26.965993
 30
-111.780733
  0
SEQEND
  5
EAC
  8
TEAM-NET
  0
LINE
  5
41D
  8
TEAM-NET
 10
-109.419021
 20
-152.055974
 30
30.0
 11
109.419274
 21
-152.055974
 31
30.0
1001
ACAD
1000
R13OBJECT
1002
{
1005
39
1002
}
  0
POLYLINE
  5
41E
  8
TEAM-NET
 66
     1
 10
0.0
 20
0.0
 30
-111.780985
 70
   128
210
-0.995445
220
0.0
230
-0.095337
1001
ACAD
1000
R13OBJECT
1002
{
1005
39
1002
}
  0
VERTEX
  5
EAD
  8
TEAM-NET
 10
159.555974
 20
26.965969
 30
-111.780985
  0
VERTEX
  5
EAE
  8
TEAM-NET
 10
158.577028
 20
26.901512
 30
-111.780985
  0
VERTEX
  5
EAF
  8
TEAM-NET
 10
157.614831
 20
26.709243
 30
-111.780985
  0
VERTEX
  5
EB0
  8
TEAM-NET
 10
156.685848
 20
26.392453
 30
-111.780985
  0
VERTEX
  5
EB1
  8
TEAM-NET
 10
155.805974
 20
25.956562
 30
-111.780985
  0
VERTEX
  5
EB2
  8
TEAM-NET
 10
154.990263
 20
25.409027
 30
-111.780985
  0
VERTEX
  5
EB3
  8
TEAM-NET
 10
154.252673
 20
24.759218
 30
-111.780985
  0
VERTEX
  5
EB4
  8
TEAM-NET
 10
153.605824
 20
24.018253
 30
-111.780985
  0
VERTEX
  5
EB5
  8
TEAM-NET
 10
153.060784
 20
23.19881
 30
-111.780985
  0
VERTEX
  5
EB6
  8
TEAM-NET
 10
152.626878
 20
22.314909
 30
-111.780985
  0
VERTEX
  5
EB7
  8
TEAM-NET
 10
152.31153
 20
21.381676
 30
-111.780985
  0
VERTEX
  5
EB8
  8
TEAM-NET
 10
152.120138
 20
20.415076
 30
-111.780985
  0
VERTEX
  5
EB9
  8
TEAM-NET
 10
152.055974
 20
19.431651
 30
-111.780985
  0
SEQEND
  5
EBA
  8
TEAM-NET
  0
POLYLINE
  5
42D
  8
TEAM-NET
 66
     1
 10
0.0
 20
0.0
 30
-111.780985
 70
   128
210
-0.995445
220
0.0
230
-0.095337
1001
ACAD
1000
R13OBJECT
1002
{
1005
39
1002
}
  0
VERTEX
  5
EBB
  8
TEAM-NET
 10
167.055974
 20
19.431651
 30
-111.780985
  0
VERTEX
  5
EBC
  8
TEAM-NET
 10
166.979635
 20
20.503896
 30
-111.780985
  0
VERTEX
  5
EBD
  8
TEAM-NET
 10
166.752171
 20
21.554313
 30
-111.780985
  0
VERTEX
  5
EBE
  8
TEAM-NET
 10
166.378214
 20
22.56152
 30
-111.780985
  0
VERTEX
  5
EBF
  8
TEAM-NET
 10
165.865376
 20
23.505011
 30
-111.780985
  0
VERTEX
  5
EC0
  8
TEAM-NET
 10
165.224096
 20
24.36558
 30
-111.780985
  0
VERTEX
  5
EC1
  8
TEAM-NET
 10
164.46743
 20
25.125708
 30
-111.780985
  0
VERTEX
  5
EC2
  8
TEAM-NET
 10
163.61078
 20
25.769922
 30
-111.780985
  0
VERTEX
  5
EC3
  8
TEAM-NET
 10
162.671587
 20
26.285108
 30
-111.780985
  0
VERTEX
  5
EC4
  8
TEAM-NET
 10
161.668968
 20
26.660776
 30
-111.780985
  0
VERTEX
  5
EC5
  8
TEAM-NET
 10
160.623335
 20
26.88928
 30
-111.780985
  0
VERTEX
  5
EC6
  8
TEAM-NET
 10
159.555974
 20
26.965969
 30
-111.780985
  0
SEQEND
  5
EC7
  8
TEAM-NET
  0
ARC
  5
3A
  8
TEAM-NET
 10
0.000127
 20
-308.640077
 30
80.9
 40
100.973177
 50
249.509555
 51
290.490291
  0
LINE
  5
43B
  8
TEAM-NET
 10
35.345652
 20
-59.555974
 30
80.9
 11
35.345652
 21
-403.224835
 31
80.9
1001
ACAD
1000
R13OBJECT
1002
{
1005
3A
1002
}
  0
LINE
  5
43C
  8
TEAM-NET
 10
35.345652
 20
-59.555974
 30
80.9
 11
-35.345652
 21
-59.555974
 31
80.9
1001
ACAD
1000
R13OBJECT
1002
{
1005
3A
1002
}
  0
LINE
  5
43D
  8
TEAM-NET
 10
-35.345652
 20
-59.555974
 30
80.9
 11
-35.345652
 21
-403.22474
 31
80.9
1001
ACAD
1000
R13OBJECT
1002
{
1005
3A
1002
}
  0
LINE
  5
3B
  8
TEAM-NET
 10
103.255627
 20
-59.555974
 30
133.922506
 11
-103.255627
 21
-59.555974
 31
133.922506
  0
LINE
  5
43E
  8
TEAM-NET
 10
103.255627
 20
-59.555974
 30
133.922506
 11
103.255627
 21
-308.640077
 31
133.922506
1001
ACAD
1000
R13OBJECT
1002
{
1005
3B
1002
}
  0
POLYLINE
  5
43F
  8
TEAM-NET
 66
     1
 10
0.0
 20
0.0
 30
0.0
 70
     8
1001
ACAD
1000
R13OBJECT
1002
{
1005
3B
1002
}
  0
VERTEX
  5
440
  8
TEAM-NET
 10
101.191783
 20
-329.081485
 30
133.922506
 70
    32
  0
VERTEX
  5
441
  8
TEAM-NET
 10
101.643513
 20
-326.720089
 30
133.922506
 70
    32
  0
VERTEX
  5
442
  8
TEAM-NET
 10
101.974385
 20
-324.766331
 30
133.922506
 70
    32
  0
VERTEX
  5
443
  8
TEAM-NET
 10
102.536507
 20
-320.729625
 30
133.922506
 70
    32
  0
VERTEX
  5
444
  8
TEAM-NET
 10
102.86685
 20
-317.530837
 30
133.922506
 70
    32
  0
VERTEX
  5
445
  8
TEAM-NET
 10
103.00631
 20
-315.759571
 30
133.922506
 70
    32
  0
VERTEX
  5
446
  8
TEAM-NET
 10
103.255627
 20
-308.640077
 30
133.922506
 70
    32
  0
SEQEND
  5
447
  8
TEAM-NET
  0
POLYLINE
  5
448
  8
TEAM-NET
 66
     1
 10
0.0
 20
0.0
 30
133.922506
 70
   128
1001
ACAD
1000
R13OBJECT
1002
{
1005
3B
1002
}
  0
VERTEX
  5
EC8
  8
TEAM-NET
 10
35.345652
 20
-403.224835
 30
133.922506
  0
VERTEX
  5
EC9
  8
TEAM-NET
 10
46.085649
 20
-398.528327
 30
133.922506
  0
VERTEX
  5
ECA
  8
TEAM-NET
 10
56.597726
 20
-392.455137
 30
133.922506
  0
VERTEX
  5
ECB
  8
TEAM-NET
 10
60.719146
 20
-389.608413
 30
133.922506
  0
VERTEX
  5
ECC
  8
TEAM-NET
 10
68.214544
 20
-383.631037
 30
133.922506
  0
VERTEX
  5
ECD
  8
TEAM-NET
 10
74.91082
 20
-377.235989
 30
133.922506
  0
VERTEX
  5
ECE
  8
TEAM-NET
 10
84.45035
 20
-365.76635
 30
133.922506
  0
VERTEX
  5
ECF
  8
TEAM-NET
 10
91.932233
 20
-353.701537
 30
133.922506
  0
VERTEX
  5
ED0
  8
TEAM-NET
 10
96.362834
 20
-344.214161
 30
133.922506
  0
VERTEX
  5
ED1
  8
TEAM-NET
 10
100.196753
 20
-332.971879
 30
133.922506
  0
VERTEX
  5
ED2
  8
TEAM-NET
 10
101.191783
 20
-329.081485
 30
133.922506
  0
SEQEND
  5
ED3
  8
TEAM-NET
  0
ARC
  5
455
  8
TEAM-NET
 10
0.000127
 20
-308.640077
 30
133.922506
 40
100.973177
 50
249.509555
 51
290.490291
1001
ACAD
1000
R13OBJECT
1002
{
1005
3B
1002
}
  0
POLYLINE
  5
456
  8
TEAM-NET
 66
     1
 10
0.0
 20
0.0
 30
0.0
 70
     8
1001
ACAD
1000
R13OBJECT
1002
{
1005
3B
1002
}
  0
VERTEX
  5
457
  8
TEAM-NET
 10
-101.193707
 20
-329.072022
 30
133.922506
 70
    32
  0
VERTEX
  5
458
  8
TEAM-NET
 10
-98.37003
 20
-338.86045
 30
133.922506
 70
    32
  0
VERTEX
  5
459
  8
TEAM-NET
 10
-93.77971
 20
-350.04177
 30
133.922506
 70
    32
  0
VERTEX
  5
45A
  8
TEAM-NET
 10
-86.691189
 20
-362.518952
 30
133.922506
 70
    32
  0
VERTEX
  5
45B
  8
TEAM-NET
 10
-79.992452
 20
-371.53983
 30
133.922506
 70
    32
  0
VERTEX
  5
45C
  8
TEAM-NET
 10
-72.052351
 20
-380.103321
 30
133.922506
 70
    32
  0
VERTEX
  5
45D
  8
TEAM-NET
 10
-64.460509
 20
-386.762834
 30
133.922506
 70
    32
  0
VERTEX
  5
45E
  8
TEAM-NET
 10
-60.177599
 20
-389.998863
 30
133.922506
 70
    32
  0
VERTEX
  5
45F
  8
TEAM-NET
 10
-56.817679
 20
-392.310185
 30
133.922506
 70
    32
  0
VERTEX
  5
460
  8
TEAM-NET
 10
-46.423776
 20
-398.356973
 30
133.922506
 70
    32
  0
VERTEX
  5
461
  8
TEAM-NET
 10
-35.345652
 20
-403.22474
 30
133.922506
 70
    32
  0
SEQEND
  5
462
  8
TEAM-NET
  0
POLYLINE
  5
463
  8
TEAM-NET
 66
     1
 10
0.0
 20
0.0
 30
0.0
 70
     8
1001
ACAD
1000
R13OBJECT
1002
{
1005
3B
1002
}
  0
VERTEX
  5
464
  8
TEAM-NET
 10
-103.255627
 20
-308.640077
 30
133.922506
 70
    32
  0
VERTEX
  5
465
  8
TEAM-NET
 10
-103.138162
 20
-313.526016
 30
133.922506
 70
    32
  0
VERTEX
  5
466
  8
TEAM-NET
 10
-102.833052
 20
-317.909189
 30
133.922506
 70
    32
  0
VERTEX
  5
467
  8
TEAM-NET
 10
-102.61533
 20
-320.048578
 30
133.922506
 70
    32
  0
VERTEX
  5
468
  8
TEAM-NET
 10
-101.193707
 20
-329.072022
 30
133.922506
 70
    32
  0
SEQEND
  5
469
  8
TEAM-NET
  0
LINE
  5
46A
  8
TEAM-NET
 10
-103.255627
 20
-59.555974
 30
133.922506
 11
-103.255627
 21
-308.640077
 31
133.922506
1001
ACAD
1000
R13OBJECT
1002
{
1005
3B
1002
}
  0
LINE
  5
3C
  8
TEAM-NET
 10
-103.255627
 20
0.444026
 30
127.55588
 11
-103.567105
 21
0.444026
 31
133.922506
  0
LINE
  5
46B
  8
TEAM-NET
 10
-103.567105
 20
-308.640077
 30
133.922506
 11
-103.567105
 21
0.444026
 31
133.922506
1001
ACAD
1000
R13OBJECT
1002
{
1005
3C
1002
}
  0
LINE
  5
46C
  8
TEAM-NET
 10
-103.255627
 20
-308.640077
 30
127.55588
 11
-103.567105
 21
-308.640077
 31
133.922506
1001
ACAD
1000
R13OBJECT
1002
{
1005
3C
1002
}
  0
LINE
  5
46D
  8
TEAM-NET
 10
-103.255627
 20
0.444026
 30
127.55588
 11
-103.255627
 21
-308.640077
 31
127.55588
1001
ACAD
1000
R13OBJECT
1002
{
1005
3C
1002
}
  0
LINE
  5
3D
  8
TEAM-NET
 10
-103.255627
 20
0.444026
 30
127.55588
 11
-103.255627
 21
-308.640077
 31
127.55588
  0
LINE
  5
46E
  8
TEAM-NET
 10
-103.255627
 20
-308.640077
 30
133.922506
 11
-103.255627
 21
-308.640077
 31
127.55588
1001
ACAD
1000
R13OBJECT
1002
{
1005
3D
1002
}
  0
LINE
  5
46F
  8
TEAM-NET
 10
-103.255627
 20
-59.555974
 30
133.922506
 11
-103.255627
 21
-308.640077
 31
133.922506
1001
ACAD
1000
R13OBJECT
1002
{
1005
3D
1002
}
  0
LINE
  5
470
  8
TEAM-NET
 10
-103.255627
 20
-59.555974
 30
133.922506
 11
-103.255627
 21
0.444026
 31
133.922506
1001
ACAD
1000
R13OBJECT
1002
{
1005
3D
1002
}
  0
LINE
  5
471
  8
TEAM-NET
 10
-103.255627
 20
0.444026
 30
127.55588
 11
-103.255627
 21
0.444026
 31
133.922506
1001
ACAD
1000
R13OBJECT
1002
{
1005
3D
1002
}
  0
LINE
  5
3E
  8
TEAM-NET
 10
103.567358
 20
0.444026
 30
133.922506
 11
103.255627
 21
0.444026
 31
127.550706
  0
LINE
  5
472
  8
TEAM-NET
 10
103.255627
 20
-308.640077
 30
127.550706
 11
103.255627
 21
0.444026
 31
127.550706
1001
ACAD
1000
R13OBJECT
1002
{
1005
3E
1002
}
  0
LINE
  5
473
  8
TEAM-NET
 10
103.567358
 20
-308.640077
 30
133.922506
 11
103.255627
 21
-308.640077
 31
127.550706
1001
ACAD
1000
R13OBJECT
1002
{
1005
3E
1002
}
  0
LINE
  5
474
  8
TEAM-NET
 10
103.567358
 20
-308.640077
 30
133.922506
 11
103.567358
 21
0.444026
 31
133.922506
1001
ACAD
1000
R13OBJECT
1002
{
1005
3E
1002
}
  0
POLYLINE
  5
3F
  8
TEAM-NET
 66
     1
 10
0.0
 20
0.0
 30
0.0
 70
     8
  0
VERTEX
  5
475
  8
TEAM-NET
 10
101.191783
 20
-329.081485
 30
127.145275
 70
    32
  0
VERTEX
  5
476
  8
TEAM-NET
 10
102.732448
 20
-318.949838
 30
127.412466
 70
    32
  0
VERTEX
  5
477
  8
TEAM-NET
 10
103.250717
 20
-309.638277
 30
127.548976
 70
    32
  0
VERTEX
  5
478
  8
TEAM-NET
 10
103.255627
 20
-308.640077
 30
127.550706
 70
    32
  0
SEQEND
  5
479
  8
TEAM-NET
  0
LINE
  5
47A
  8
TEAM-NET
 10
103.255627
 20
-308.640077
 30
133.922506
 11
103.255627
 21
-308.640077
 31
127.550706
1001
ACAD
1000
R13OBJECT
1002
{
1005
3F
1002
}
  0
POLYLINE
  5
47B
  8
TEAM-NET
 66
     1
 10
0.0
 20
0.0
 30
0.0
 70
     8
1001
ACAD
1000
R13OBJECT
1002
{
1005
3F
1002
}
  0
VERTEX
  5
47C
  8
TEAM-NET
 10
101.191783
 20
-329.081485
 30
127.145275
 70
    32
  0
VERTEX
  5
47D
  8
TEAM-NET
 10
101.628489
 20
-326.803708
 30
128.392545
 70
    32
  0
VERTEX
  5
47E
  8
TEAM-NET
 10
101.965857
 20
-324.819714
 30
129.411673
 70
    32
  0
VERTEX
  5
47F
  8
TEAM-NET
 10
102.531504
 20
-320.771559
 30
131.251558
 70
    32
  0
VERTEX
  5
480
  8
TEAM-NET
 10
102.785142
 20
-318.420401
 30
132.140598
 70
    32
  0
VERTEX
  5
481
  8
TEAM-NET
 10
102.964376
 20
-316.335227
 30
132.797289
 70
    32
  0
VERTEX
  5
482
  8
TEAM-NET
 10
103.18599
 20
-312.419983
 30
133.643737
 70
    32
  0
VERTEX
  5
483
  8
TEAM-NET
 10
103.255627
 20
-308.640077
 30
133.922506
 70
    32
  0
SEQEND
  5
484
  8
TEAM-NET
  0
LINE
  5
40
  8
TEAM-NET
 10
103.255627
 20
-308.640077
 30
127.550706
 11
103.255627
 21
0.444026
 31
127.550706
  0
LINE
  5
485
  8
TEAM-NET
 10
103.255627
 20
0.444026
 30
133.922506
 11
103.255627
 21
0.444026
 31
127.550706
1001
ACAD
1000
R13OBJECT
1002
{
1005
40
1002
}
  0
LINE
  5
486
  8
TEAM-NET
 10
103.255627
 20
-59.555974
 30
133.922506
 11
103.255627
 21
0.444026
 31
133.922506
1001
ACAD
1000
R13OBJECT
1002
{
1005
40
1002
}
  0
LINE
  5
487
  8
TEAM-NET
 10
103.255627
 20
-59.555974
 30
133.922506
 11
103.255627
 21
-308.640077
 31
133.922506
1001
ACAD
1000
R13OBJECT
1002
{
1005
40
1002
}
  0
LINE
  5
488
  8
TEAM-NET
 10
103.255627
 20
-308.640077
 30
133.922506
 11
103.255627
 21
-308.640077
 31
127.550706
1001
ACAD
1000
R13OBJECT
1002
{
1005
40
1002
}
  0
POLYLINE
  5
41
  8
TEAM-NET
 66
     1
 10
0.0
 20
0.0
 30
115.019606
 70
   128
210
0.13032
220
-0.006514
230
0.991451
  0
VERTEX
  5
C6C
  8
TEAM-NET
 10
-313.410097
 20
103.612382
 30
115.019606
  0
VERTEX
  5
C6D
  8
TEAM-NET
 10
-323.124922
 20
102.650071
 30
115.019606
  0
VERTEX
  5
C6E
  8
TEAM-NET
 10
-333.713626
 20
100.506446
 30
115.019606
  0
SEQEND
  5
C6F
  8
TEAM-NET
  0
POLYLINE
  5
48D
  8
TEAM-NET
 66
     1
 10
0.0
 20
0.0
 30
0.0
 70
     8
1001
ACAD
1000
R13OBJECT
1002
{
1005
41
1002
}
  0
VERTEX
  5
48E
  8
TEAM-NET
 10
-103.255627
 20
-308.640077
 30
133.922506
 70
    32
  0
VERTEX
  5
48F
  8
TEAM-NET
 10
-103.138164
 20
-313.525979
 30
133.459378
 70
    32
  0
VERTEX
  5
490
  8
TEAM-NET
 10
-102.857519
 20
-317.636885
 30
132.402765
 70
    32
  0
VERTEX
  5
491
  8
TEAM-NET
 10
-102.685179
 20
-319.408863
 30
131.784873
 70
    32
  0
VERTEX
  5
492
  8
TEAM-NET
 10
-101.382001
 20
-328.123079
 30
127.679307
 70
    32
  0
VERTEX
  5
493
  8
TEAM-NET
 10
-101.193707
 20
-329.072022
 30
127.150609
 70
    32
  0
SEQEND
  5
494
  8
TEAM-NET
  0
LINE
  5
495
  8
TEAM-NET
 10
-103.255627
 20
-308.640077
 30
133.922506
 11
-103.255627
 21
-308.640077
 31
127.55588
1001
ACAD
1000
R13OBJECT
1002
{
1005
41
1002
}
  0
LINE
  5
42
  8
TEAM-NET
 10
-160.096135
 20
0.444026
 30
346.108256
 11
-160.096135
 21
-34.628191
 31
346.108256
  0
POLYLINE
  5
496
  8
TEAM-NET
 66
     1
 10
0.0
 20
0.0
 30
0.444026
 70
   128
210
0.0
220
1.0
230
0.0
1001
ACAD
1000
R13OBJECT
1002
{
1005
42
1002
}
  0
VERTEX
  5
ED4
  8
TEAM-NET
 10
139.937664
 20
220.9
 30
0.444026
  0
VERTEX
  5
ED5
  8
TEAM-NET
 10
147.710961
 20
250.586282
 30
0.444026
  0
VERTEX
  5
ED6
  8
TEAM-NET
 10
153.661805
 20
281.349753
 30
0.444026
  0
VERTEX
  5
ED7
  8
TEAM-NET
 10
157.790196
 20
313.190411
 30
0.444026
  0
VERTEX
  5
ED8
  8
TEAM-NET
 10
160.096135
 20
346.108256
 30
0.444026
  0
SEQEND
  5
ED9
  8
TEAM-NET
  0
POLYLINE
  5
49D
  8
TEAM-NET
 66
     1
 10
0.0
 20
0.0
 30
32.425032
 70
   128
210
-0.699394
220
-0.651033
230
-0.294964
1001
ACAD
1000
R13OBJECT
1002
{
1005
42
1002
}
  0
VERTEX
  5
EDA
  8
TEAM-NET
 10
-83.734614
 20
372.233718
 30
32.425032
  0
VERTEX
  5
EDB
  8
TEAM-NET
 10
-87.879687
 20
354.867497
 30
32.425032
  0
VERTEX
  5
EDC
  8
TEAM-NET
 10
-91.266758
 20
337.783112
 30
32.425032
  0
VERTEX
  5
EDD
  8
TEAM-NET
 10
-93.895829
 20
320.980563
 30
32.425032
  0
VERTEX
  5
EDE
  8
TEAM-NET
 10
-95.766898
 20
304.45985
 30
32.425032
  0
VERTEX
  5
EDF
  8
TEAM-NET
 10
-96.879966
 20
288.220974
 30
32.425032
  0
VERTEX
  5
EE0
  8
TEAM-NET
 10
-97.235033
 20
272.263934
 30
32.425032
  0
VERTEX
  5
EE1
  8
TEAM-NET
 10
-96.832098
 20
256.58873
 30
32.425032
  0
VERTEX
  5
EE2
  8
TEAM-NET
 10
-95.671163
 20
241.195363
 30
32.425032
  0
SEQEND
  5
EE3
  8
TEAM-NET
  0
LINE
  5
43
  8
TEAM-NET
 10
160.096135
 20
-34.628191
 30
346.108256
 11
160.096135
 21
0.444026
 31
346.108256
  0
POLYLINE
  5
4A8
  8
TEAM-NET
 66
     1
 10
0.0
 20
0.0
 30
-32.425032
 70
   128
210
-0.699394
220
0.651033
230
0.294964
1001
ACAD
1000
R13OBJECT
1002
{
1005
43
1002
}
  0
VERTEX
  5
EE4
  8
TEAM-NET
 10
-83.734614
 20
372.233718
 30
-32.425032
  0
VERTEX
  5
EE5
  8
TEAM-NET
 10
-87.879687
 20
354.867497
 30
-32.425032
  0
VERTEX
  5
EE6
  8
TEAM-NET
 10
-91.266758
 20
337.783112
 30
-32.425032
  0
VERTEX
  5
EE7
  8
TEAM-NET
 10
-93.895829
 20
320.980563
 30
-32.425032
  0
VERTEX
  5
EE8
  8
TEAM-NET
 10
-95.766898
 20
304.45985
 30
-32.425032
  0
VERTEX
  5
EE9
  8
TEAM-NET
 10
-96.879966
 20
288.220974
 30
-32.425032
  0
VERTEX
  5
EEA
  8
TEAM-NET
 10
-97.235033
 20
272.263934
 30
-32.425032
  0
VERTEX
  5
EEB
  8
TEAM-NET
 10
-96.832098
 20
256.58873
 30
-32.425032
  0
VERTEX
  5
EEC
  8
TEAM-NET
 10
-95.671163
 20
241.195363
 30
-32.425032
  0
SEQEND
  5
EED
  8
TEAM-NET
  0
POLYLINE
  5
4B3
  8
TEAM-NET
 66
     1
 10
0.0
 20
0.0
 30
0.444026
 70
   128
210
0.0
220
1.0
230
0.0
1001
ACAD
1000
R13OBJECT
1002
{
1005
43
1002
}
  0
VERTEX
  5
EEE
  8
TEAM-NET
 10
-160.096135
 20
346.108256
 30
0.444026
  0
VERTEX
  5
EEF
  8
TEAM-NET
 10
-157.790196
 20
313.190411
 30
0.444026
  0
VERTEX
  5
EF0
  8
TEAM-NET
 10
-153.661805
 20
281.349753
 30
0.444026
  0
VERTEX
  5
EF1
  8
TEAM-NET
 10
-147.710961
 20
250.586282
 30
0.444026
  0
VERTEX
  5
EF2
  8
TEAM-NET
 10
-139.937664
 20
220.9
 30
0.444026
  0
SEQEND
  5
EF3
  8
TEAM-NET
  0
LINE
  5
44
  8
TEAM-NET
 10
37.762782
 20
-300.594693
 30
211.467733
 11
37.780338
 21
-299.413749
 31
211.505451
  0
POLYLINE
  5
4BA
  8
TEAM-NET
 66
     1
 10
0.0
 20
0.0
 30
68.910092
 70
   128
210
-0.581265
220
0.243865
230
0.776312
1001
ACAD
1000
R13OBJECT
1002
{
1005
44
1002
}
  0
VERTEX
  5
EF4
  8
TEAM-NET
 10
262.578796
 20
250.610403
 30
68.910092
  0
VERTEX
  5
EF5
  8
TEAM-NET
 10
274.957913
 20
262.517766
 30
68.910092
  0
VERTEX
  5
EF6
  8
TEAM-NET
 10
285.928866
 20
274.284195
 30
68.910092
  0
VERTEX
  5
EF7
  8
TEAM-NET
 10
295.491657
 20
285.909692
 30
68.910092
  0
VERTEX
  5
EF8
  8
TEAM-NET
 10
303.646285
 20
297.394256
 30
68.910092
  0
VERTEX
  5
EF9
  8
TEAM-NET
 10
310.39275
 20
308.737887
 30
68.910092
  0
VERTEX
  5
EFA
  8
TEAM-NET
 10
315.731052
 20
319.940585
 30
68.910092
  0
VERTEX
  5
EFB
  8
TEAM-NET
 10
319.661191
 20
331.00235
 30
68.910092
  0
VERTEX
  5
EFC
  8
TEAM-NET
 10
322.183167
 20
341.923182
 30
68.910092
  0
VERTEX
  5
EFD
  8
TEAM-NET
 10
323.296981
 20
352.703081
 30
68.910092
  0
VERTEX
  5
EFE
  8
TEAM-NET
 10
323.002631
 20
363.342048
 30
68.910092
  0
VERTEX
  5
EFF
  8
TEAM-NET
 10
321.300119
 20
373.840081
 30
68.910092
  0
VERTEX
  5
F00
  8
TEAM-NET
 10
318.189444
 20
384.197181
 30
68.910092
  0
VERTEX
  5
F01
  8
TEAM-NET
 10
313.670606
 20
394.413349
 30
68.910092
  0
VERTEX
  5
F02
  8
TEAM-NET
 10
307.743605
 20
404.488583
 30
68.910092
  0
VERTEX
  5
F03
  8
TEAM-NET
 10
300.408441
 20
414.422884
 30
68.910092
  0
VERTEX
  5
F04
  8
TEAM-NET
 10
291.665114
 20
424.216253
 30
68.910092
  0
SEQEND
  5
F05
  8
TEAM-NET
  0
LINE
  5
4CD
  8
TEAM-NET
 10
150.788
 20
-379.555974
 30
320.9
 11
150.788
 21
-339.555974
 31
320.9
1001
ACAD
1000
R13OBJECT
1002
{
1005
44
1002
}
  0
POLYLINE
  5
4CE
  8
TEAM-NET
 66
     1
 10
0.0
 20
0.0
 30
-165.622438
 70
   128
210
0.747695
220
0.231663
230
-0.622322
1001
ACAD
1000
R13OBJECT
1002
{
1005
44
1002
}
  0
VERTEX
  5
F06
  8
TEAM-NET
 10
-267.859234
 20
138.499402
 30
-165.622438
  0
VERTEX
  5
F07
  8
TEAM-NET
 10
-261.223294
 20
148.086886
 30
-165.622438
  0
VERTEX
  5
F08
  8
TEAM-NET
 10
-256.314744
 20
157.560905
 30
-165.622438
  0
VERTEX
  5
F09
  8
TEAM-NET
 10
-253.133584
 20
166.921461
 30
-165.622438
  0
VERTEX
  5
F0A
  8
TEAM-NET
 10
-251.679815
 20
176.168553
 30
-165.622438
  0
VERTEX
  5
F0B
  8
TEAM-NET
 10
-251.953436
 20
185.30218
 30
-165.622438
  0
VERTEX
  5
F0C
  8
TEAM-NET
 10
-253.954447
 20
194.322344
 30
-165.622438
  0
VERTEX
  5
F0D
  8
TEAM-NET
 10
-257.682849
 20
203.229044
 30
-165.622438
  0
VERTEX
  5
F0E
  8
TEAM-NET
 10
-263.13864
 20
212.022279
 30
-165.622438
  0
VERTEX
  5
F0F
  8
TEAM-NET
 10
-270.321822
 20
220.70205
 30
-165.622438
  0
VERTEX
  5
F10
  8
TEAM-NET
 10
-279.232395
 20
229.268358
 30
-165.622438
  0
VERTEX
  5
F11
  8
TEAM-NET
 10
-289.870357
 20
237.721201
 30
-165.622438
  0
VERTEX
  5
F12
  8
TEAM-NET
 10
-302.23571
 20
246.06058
 30
-165.622438
  0
VERTEX
  5
F13
  8
TEAM-NET
 10
-316.328453
 20
254.286496
 30
-165.622438
  0
VERTEX
  5
F14
  8
TEAM-NET
 10
-332.148586
 20
262.398947
 30
-165.622438
  0
VERTEX
  5
F15
  8
TEAM-NET
 10
-349.69611
 20
270.397934
 30
-165.622438
  0
VERTEX
  5
F16
  8
TEAM-NET
 10
-368.971024
 20
278.283457
 30
-165.622438
  0
SEQEND
  5
F17
  8
TEAM-NET
  0
LINE
  5
4E1
  8
TEAM-NET
 10
37.780338
 20
-269.413749
 30
211.505451
 11
37.769648
 21
-268.719291
 31
211.482486
1001
ACAD
1000
R13OBJECT
1002
{
1005
44
1002
}
  0
LINE
  5
4E2
  8
TEAM-NET
 10
37.780338
 20
-299.413749
 30
211.505451
 11
37.780338
 21
-269.413749
 31
211.505451
1001
ACAD
1000
R13OBJECT
1002
{
1005
44
1002
}
  0
POLYLINE
  5
45
  8
TEAM-NET
 66
     1
 10
0.0
 20
0.0
 30
0.0
 70
     8
  0
VERTEX
  5
4E3
  8
TEAM-NET
 10
-37.762782
 20
-300.594693
 30
211.467733
 70
    32
  0
VERTEX
  5
4E4
  8
TEAM-NET
 10
-37.755007
 20
-302.675031
 30
211.554907
 70
    32
  0
VERTEX
  5
4E5
  8
TEAM-NET
 10
-37.638825
 20
-304.757218
 30
211.624124
 70
    32
  0
VERTEX
  5
4E6
  8
TEAM-NET
 10
-37.410393
 20
-306.834916
 30
211.677724
 70
    32
  0
VERTEX
  5
4E7
  8
TEAM-NET
 10
-37.064638
 20
-308.908931
 30
211.717518
 70
    32
  0
VERTEX
  5
4E8
  8
TEAM-NET
 10
-36.011846
 20
-313.00708
 30
211.762784
 70
    32
  0
VERTEX
  5
4E9
  8
TEAM-NET
 10
-34.479449
 20
-316.969783
 30
211.775358
 70
    32
  0
VERTEX
  5
4EA
  8
TEAM-NET
 10
-32.493614
 20
-320.72373
 30
211.768819
 70
    32
  0
VERTEX
  5
4EB
  8
TEAM-NET
 10
-30.061293
 20
-324.251689
 30
211.752504
 70
    32
  0
VERTEX
  5
4EC
  8
TEAM-NET
 10
-27.220025
 20
-327.489872
 30
211.732302
 70
    32
  0
VERTEX
  5
4ED
  8
TEAM-NET
 10
-25.663927
 20
-328.980404
 30
211.721955
 70
    32
  0
VERTEX
  5
4EE
  8
TEAM-NET
 10
-24.029628
 20
-330.375278
 30
211.711868
 70
    32
  0
VERTEX
  5
4EF
  8
TEAM-NET
 10
-21.730692
 20
-332.086962
 30
211.699114
 70
    32
  0
VERTEX
  5
4F0
  8
TEAM-NET
 10
-19.293473
 20
-333.629133
 30
211.68739
 70
    32
  0
VERTEX
  5
4F1
  8
TEAM-NET
 10
-14.08631
 20
-336.146652
 30
211.668024
 70
    32
  0
VERTEX
  5
4F2
  8
TEAM-NET
 10
-11.361157
 20
-337.10138
 30
211.660664
 70
    32
  0
VERTEX
  5
4F3
  8
TEAM-NET
 10
-8.582535
 20
-337.846541
 30
211.654925
 70
    32
  0
VERTEX
  5
4F4
  8
TEAM-NET
 10
-2.862325
 20
-338.707609
 30
211.648311
 70
    32
  0
VERTEX
  5
4F5
  8
TEAM-NET
 10
2.930442
 20
-338.70236
 30
211.648351
 70
    32
  0
VERTEX
  5
4F6
  8
TEAM-NET
 10
4.366783
 20
-338.565788
 30
211.649399
 70
    32
  0
VERTEX
  5
4F7
  8
TEAM-NET
 10
6.503472
 20
-338.261464
 30
211.651735
 70
    32
  0
VERTEX
  5
4F8
  8
TEAM-NET
 10
8.625752
 20
-337.836566
 30
211.655002
 70
    32
  0
VERTEX
  5
4F9
  8
TEAM-NET
 10
10.029219
 20
-337.486403
 30
211.657697
 70
    32
  0
VERTEX
  5
4FA
  8
TEAM-NET
 10
14.15199
 20
-336.120733
 30
211.668225
 70
    32
  0
VERTEX
  5
4FB
  8
TEAM-NET
 10
15.486907
 20
-335.563576
 30
211.672522
 70
    32
  0
VERTEX
  5
4FC
  8
TEAM-NET
 10
18.08133
 20
-334.303865
 30
211.682218
 70
    32
  0
VERTEX
  5
4FD
  8
TEAM-NET
 10
19.335108
 20
-333.604842
 30
211.687576
 70
    32
  0
VERTEX
  5
4FE
  8
TEAM-NET
 10
21.758794
 20
-332.06761
 30
211.699258
 70
    32
  0
VERTEX
  5
4FF
  8
TEAM-NET
 10
23.501782
 20
-330.792622
 30
211.708789
 70
    32
  0
VERTEX
  5
500
  8
TEAM-NET
 10
24.066417
 20
-330.345532
 30
211.712084
 70
    32
  0
VERTEX
  5
501
  8
TEAM-NET
 10
26.235712
 20
-328.452621
 30
211.725679
 70
    32
  0
VERTEX
  5
502
  8
TEAM-NET
 10
28.247805
 20
-326.40404
 30
211.739471
 70
    32
  0
VERTEX
  5
503
  8
TEAM-NET
 10
31.743504
 20
-321.908884
 30
211.7642
 70
    32
  0
VERTEX
  5
504
  8
TEAM-NET
 10
34.497863
 20
-316.929866
 30
211.775345
 70
    32
  0
VERTEX
  5
505
  8
TEAM-NET
 10
34.607101
 20
-316.68708
 30
211.775231
 70
    32
  0
VERTEX
  5
506
  8
TEAM-NET
 10
34.923916
 20
-315.954641
 30
211.774406
 70
    32
  0
VERTEX
  5
507
  8
TEAM-NET
 10
36.02229
 20
-312.973743
 30
211.762565
 70
    32
  0
VERTEX
  5
508
  8
TEAM-NET
 10
36.603429
 20
-310.951643
 30
211.745005
 70
    32
  0
VERTEX
  5
509
  8
TEAM-NET
 10
37.066088
 20
-308.902035
 30
211.717396
 70
    32
  0
VERTEX
  5
50A
  8
TEAM-NET
 10
37.253037
 20
-307.869512
 30
211.699167
 70
    32
  0
VERTEX
  5
50B
  8
TEAM-NET
 10
37.638932
 20
-304.756403
 30
211.624087
 70
    32
  0
VERTEX
  5
50C
  8
TEAM-NET
 10
37.754995
 20
-302.674987
 30
211.554903
 70
    32
  0
VERTEX
  5
50D
  8
TEAM-NET
 10
37.762782
 20
-300.594693
 30
211.467733
 70
    32
  0
SEQEND
  5
50E
  8
TEAM-NET
  0
POLYLINE
  5
50F
  8
TEAM-NET
 66
     1
 10
0.0
 20
0.0
 30
-68.910092
 70
   128
210
-0.581265
220
-0.243865
230
-0.776312
1001
ACAD
1000
R13OBJECT
1002
{
1005
45
1002
}
  0
VERTEX
  5
F18
  8
TEAM-NET
 10
262.578796
 20
250.610403
 30
-68.910092
  0
VERTEX
  5
F19
  8
TEAM-NET
 10
274.957913
 20
262.517766
 30
-68.910092
  0
VERTEX
  5
F1A
  8
TEAM-NET
 10
285.928866
 20
274.284195
 30
-68.910092
  0
VERTEX
  5
F1B
  8
TEAM-NET
 10
295.491657
 20
285.909692
 30
-68.910092
  0
VERTEX
  5
F1C
  8
TEAM-NET
 10
303.646285
 20
297.394256
 30
-68.910092
  0
VERTEX
  5
F1D
  8
TEAM-NET
 10
310.39275
 20
308.737887
 30
-68.910092
  0
VERTEX
  5
F1E
  8
TEAM-NET
 10
315.731052
 20
319.940585
 30
-68.910092
  0
VERTEX
  5
F1F
  8
TEAM-NET
 10
319.661191
 20
331.00235
 30
-68.910092
  0
VERTEX
  5
F20
  8
TEAM-NET
 10
322.183167
 20
341.923182
 30
-68.910092
  0
VERTEX
  5
F21
  8
TEAM-NET
 10
323.296981
 20
352.703081
 30
-68.910092
  0
VERTEX
  5
F22
  8
TEAM-NET
 10
323.002631
 20
363.342048
 30
-68.910092
  0
VERTEX
  5
F23
  8
TEAM-NET
 10
321.300119
 20
373.840081
 30
-68.910092
  0
VERTEX
  5
F24
  8
TEAM-NET
 10
318.189444
 20
384.197181
 30
-68.910092
  0
VERTEX
  5
F25
  8
TEAM-NET
 10
313.670606
 20
394.413349
 30
-68.910092
  0
VERTEX
  5
F26
  8
TEAM-NET
 10
307.743605
 20
404.488583
 30
-68.910092
  0
VERTEX
  5
F27
  8
TEAM-NET
 10
300.408441
 20
414.422884
 30
-68.910092
  0
VERTEX
  5
F28
  8
TEAM-NET
 10
291.665114
 20
424.216253
 30
-68.910092
  0
SEQEND
  5
F29
  8
TEAM-NET
  0
ARC
  5
522
  8
TEAM-NET
 10
0.0
 20
-379.555974
 30
320.9
 40
150.788
 50
180.0
 51
0.0
1001
ACAD
1000
R13OBJECT
1002
{
1005
45
1002
}
  0
POLYLINE
  5
523
  8
TEAM-NET
 66
     1
 10
0.0
 20
0.0
 30
68.910092
 70
   128
210
-0.581265
220
0.243865
230
0.776312
1001
ACAD
1000
R13OBJECT
1002
{
1005
45
1002
}
  0
VERTEX
  5
F2A
  8
TEAM-NET
 10
262.578796
 20
250.610403
 30
68.910092
  0
VERTEX
  5
F2B
  8
TEAM-NET
 10
274.957913
 20
262.517766
 30
68.910092
  0
VERTEX
  5
F2C
  8
TEAM-NET
 10
285.928866
 20
274.284195
 30
68.910092
  0
VERTEX
  5
F2D
  8
TEAM-NET
 10
295.491657
 20
285.909692
 30
68.910092
  0
VERTEX
  5
F2E
  8
TEAM-NET
 10
303.646285
 20
297.394256
 30
68.910092
  0
VERTEX
  5
F2F
  8
TEAM-NET
 10
310.39275
 20
308.737887
 30
68.910092
  0
VERTEX
  5
F30
  8
TEAM-NET
 10
315.731052
 20
319.940585
 30
68.910092
  0
VERTEX
  5
F31
  8
TEAM-NET
 10
319.661191
 20
331.00235
 30
68.910092
  0
VERTEX
  5
F32
  8
TEAM-NET
 10
322.183167
 20
341.923182
 30
68.910092
  0
VERTEX
  5
F33
  8
TEAM-NET
 10
323.296981
 20
352.703081
 30
68.910092
  0
VERTEX
  5
F34
  8
TEAM-NET
 10
323.002631
 20
363.342048
 30
68.910092
  0
VERTEX
  5
F35
  8
TEAM-NET
 10
321.300119
 20
373.840081
 30
68.910092
  0
VERTEX
  5
F36
  8
TEAM-NET
 10
318.189444
 20
384.197181
 30
68.910092
  0
VERTEX
  5
F37
  8
TEAM-NET
 10
313.670606
 20
394.413349
 30
68.910092
  0
VERTEX
  5
F38
  8
TEAM-NET
 10
307.743605
 20
404.488583
 30
68.910092
  0
VERTEX
  5
F39
  8
TEAM-NET
 10
300.408441
 20
414.422884
 30
68.910092
  0
VERTEX
  5
F3A
  8
TEAM-NET
 10
291.665114
 20
424.216253
 30
68.910092
  0
SEQEND
  5
F3B
  8
TEAM-NET
  0
POLYLINE
  5
46
  8
TEAM-NET
 66
     1
 10
0.0
 20
0.0
 30
0.0
 70
     8
  0
VERTEX
  5
536
  8
TEAM-NET
 10
37.769648
 20
-268.719291
 30
211.482486
 70
    32
  0
VERTEX
  5
537
  8
TEAM-NET
 10
37.705969
 20
-266.472941
 30
211.583276
 70
    32
  0
VERTEX
  5
538
  8
TEAM-NET
 10
37.400742
 20
-264.228671
 30
211.662116
 70
    32
  0
VERTEX
  5
539
  8
TEAM-NET
 10
36.843059
 20
-262.027016
 30
211.718161
 70
    32
  0
VERTEX
  5
53A
  8
TEAM-NET
 10
36.034276
 20
-259.905952
 30
211.754873
 70
    32
  0
VERTEX
  5
53B
  8
TEAM-NET
 10
35.26058
 20
-258.372726
 30
211.772831
 70
    32
  0
VERTEX
  5
53C
  8
TEAM-NET
 10
33.667778
 20
-255.973554
 30
211.789953
 70
    32
  0
VERTEX
  5
53D
  8
TEAM-NET
 10
32.93366
 20
-255.083298
 30
211.793682
 70
    32
  0
VERTEX
  5
53E
  8
TEAM-NET
 10
32.150291
 20
-254.239358
 30
211.796189
 70
    32
  0
VERTEX
  5
53F
  8
TEAM-NET
 10
31.530588
 20
-253.636551
 30
211.797456
 70
    32
  0
VERTEX
  5
540
  8
TEAM-NET
 10
30.435113
 20
-252.688501
 30
211.798696
 70
    32
  0
VERTEX
  5
541
  8
TEAM-NET
 10
30.207263
 20
-252.508082
 30
211.79884
 70
    32
  0
VERTEX
  5
542
  8
TEAM-NET
 10
29.976612
 20
-252.330831
 30
211.798956
 70
    32
  0
VERTEX
  5
543
  8
TEAM-NET
 10
29.507265
 20
-251.986149
 30
211.799113
 70
    32
  0
VERTEX
  5
544
  8
TEAM-NET
 10
28.53842
 20
-251.337572
 30
211.799185
 70
    32
  0
VERTEX
  5
545
  8
TEAM-NET
 10
27.533651
 20
-250.746058
 30
211.79903
 70
    32
  0
VERTEX
  5
546
  8
TEAM-NET
 10
26.498142
 20
-250.214169
 30
211.798738
 70
    32
  0
VERTEX
  5
547
  8
TEAM-NET
 10
25.970735
 20
-249.97132
 30
211.798564
 70
    32
  0
VERTEX
  5
548
  8
TEAM-NET
 10
24.352511
 20
-249.335149
 30
211.798
 70
    32
  0
VERTEX
  5
549
  8
TEAM-NET
 10
22.118525
 20
-248.704284
 30
211.79729
 70
    32
  0
VERTEX
  5
54A
  8
TEAM-NET
 10
19.829164
 20
-248.329793
 30
211.796731
 70
    32
  0
VERTEX
  5
54B
  8
TEAM-NET
 10
19.250465
 20
-248.276458
 30
211.796616
 70
    32
  0
VERTEX
  5
54C
  8
TEAM-NET
 10
17.510466
 20
-248.214035
 30
211.796335
 70
    32
  0
SEQEND
  5
54D
  8
TEAM-NET
  0
POLYLINE
  5
54E
  8
TEAM-NET
 66
     1
 10
0.0
 20
0.0
 30
-165.622438
 70
   128
210
0.747695
220
0.231663
230
-0.622322
1001
ACAD
1000
R13OBJECT
1002
{
1005
46
1002
}
  0
VERTEX
  5
F3C
  8
TEAM-NET
 10
-267.859234
 20
138.499402
 30
-165.622438
  0
VERTEX
  5
F3D
  8
TEAM-NET
 10
-261.223294
 20
148.086886
 30
-165.622438
  0
VERTEX
  5
F3E
  8
TEAM-NET
 10
-256.314744
 20
157.560905
 30
-165.622438
  0
VERTEX
  5
F3F
  8
TEAM-NET
 10
-253.133584
 20
166.921461
 30
-165.622438
  0
VERTEX
  5
F40
  8
TEAM-NET
 10
-251.679815
 20
176.168553
 30
-165.622438
  0
VERTEX
  5
F41
  8
TEAM-NET
 10
-251.953436
 20
185.30218
 30
-165.622438
  0
VERTEX
  5
F42
  8
TEAM-NET
 10
-253.954447
 20
194.322344
 30
-165.622438
  0
VERTEX
  5
F43
  8
TEAM-NET
 10
-257.682849
 20
203.229044
 30
-165.622438
  0
VERTEX
  5
F44
  8
TEAM-NET
 10
-263.13864
 20
212.022279
 30
-165.622438
  0
VERTEX
  5
F45
  8
TEAM-NET
 10
-270.321822
 20
220.70205
 30
-165.622438
  0
VERTEX
  5
F46
  8
TEAM-NET
 10
-279.232395
 20
229.268358
 30
-165.622438
  0
VERTEX
  5
F47
  8
TEAM-NET
 10
-289.870357
 20
237.721201
 30
-165.622438
  0
VERTEX
  5
F48
  8
TEAM-NET
 10
-302.23571
 20
246.06058
 30
-165.622438
  0
VERTEX
  5
F49
  8
TEAM-NET
 10
-316.328453
 20
254.286496
 30
-165.622438
  0
VERTEX
  5
F4A
  8
TEAM-NET
 10
-332.148586
 20
262.398947
 30
-165.622438
  0
VERTEX
  5
F4B
  8
TEAM-NET
 10
-349.69611
 20
270.397934
 30
-165.622438
  0
VERTEX
  5
F4C
  8
TEAM-NET
 10
-368.971024
 20
278.283457
 30
-165.622438
  0
SEQEND
  5
F4D
  8
TEAM-NET
  0
ARC
  5
561
  8
TEAM-NET
 10
0.0
 20
-339.555974
 30
320.9
 40
150.788
 50
0.0
 51
70.638867
1001
ACAD
1000
R13OBJECT
1002
{
1005
46
1002
}
  0
POLYLINE
  5
562
  8
TEAM-NET
 66
     1
 10
0.0
 20
0.0
 30
-156.070856
 70
   128
210
0.846899
220
0.338174
230
-0.410367
1001
ACAD
1000
R13OBJECT
1002
{
1005
46
1002
}
  0
VERTEX
  5
F4E
  8
TEAM-NET
 10
-236.989276
 20
162.020802
 30
-156.070856
  0
VERTEX
  5
F4F
  8
TEAM-NET
 10
-227.99859
 20
170.22506
 30
-156.070856
  0
VERTEX
  5
F50
  8
TEAM-NET
 10
-219.913132
 20
178.33243
 30
-156.070856
  0
VERTEX
  5
F51
  8
TEAM-NET
 10
-212.732903
 20
186.342912
 30
-156.070856
  0
VERTEX
  5
F52
  8
TEAM-NET
 10
-206.457902
 20
194.256505
 30
-156.070856
  0
VERTEX
  5
F53
  8
TEAM-NET
 10
-201.088131
 20
202.073211
 30
-156.070856
  0
VERTEX
  5
F54
  8
TEAM-NET
 10
-196.623588
 20
209.793029
 30
-156.070856
  0
VERTEX
  5
F55
  8
TEAM-NET
 10
-193.064273
 20
217.41596
 30
-156.070856
  0
VERTEX
  5
F56
  8
TEAM-NET
 10
-190.410188
 20
224.942002
 30
-156.070856
  0
VERTEX
  5
F57
  8
TEAM-NET
 10
-188.661331
 20
232.371156
 30
-156.070856
  0
VERTEX
  5
F58
  8
TEAM-NET
 10
-187.817702
 20
239.703422
 30
-156.070856
  0
VERTEX
  5
F59
  8
TEAM-NET
 10
-187.879303
 20
246.938801
 30
-156.070856
  0
VERTEX
  5
F5A
  8
TEAM-NET
 10
-188.846132
 20
254.077291
 30
-156.070856
  0
VERTEX
  5
F5B
  8
TEAM-NET
 10
-190.71819
 20
261.118893
 30
-156.070856
  0
VERTEX
  5
F5C
  8
TEAM-NET
 10
-193.495476
 20
268.063608
 30
-156.070856
  0
VERTEX
  5
F5D
  8
TEAM-NET
 10
-197.177991
 20
274.911435
 30
-156.070856
  0
VERTEX
  5
F5E
  8
TEAM-NET
 10
-201.765735
 20
281.662373
 30
-156.070856
  0
SEQEND
  5
F5F
  8
TEAM-NET
  0
LINE
  5
575
  8
TEAM-NET
 10
17.510466
 20
-248.214035
 30
211.796335
 11
17.455419
 21
-248.214361
 31
211.796385
1001
ACAD
1000
R13OBJECT
1002
{
1005
46
1002
}
  0
POLYLINE
  5
47
  8
TEAM-NET
 66
     1
 10
0.0
 20
0.0
 30
-207.906562
 70
   128
210
0.0
220
-0.015568
230
-0.999879
  0
VERTEX
  5
C70
  8
TEAM-NET
 10
-17.455419
 20
-251.481489
 30
-207.906562
  0
VERTEX
  5
C71
  8
TEAM-NET
 10
-2.493292
 20
-251.546107
 30
-207.906562
  0
VERTEX
  5
C72
  8
TEAM-NET
 10
17.455419
 20
-251.481489
 30
-207.906562
  0
SEQEND
  5
C73
  8
TEAM-NET
  0
POLYLINE
  5
57A
  8
TEAM-NET
 66
     1
 10
0.0
 20
0.0
 30
-156.070856
 70
   128
210
0.846899
220
0.338174
230
-0.410367
1001
ACAD
1000
R13OBJECT
1002
{
1005
47
1002
}
  0
VERTEX
  5
F60
  8
TEAM-NET
 10
-236.989276
 20
162.020802
 30
-156.070856
  0
VERTEX
  5
F61
  8
TEAM-NET
 10
-227.99859
 20
170.22506
 30
-156.070856
  0
VERTEX
  5
F62
  8
TEAM-NET
 10
-219.913132
 20
178.33243
 30
-156.070856
  0
VERTEX
  5
F63
  8
TEAM-NET
 10
-212.732903
 20
186.342912
 30
-156.070856
  0
VERTEX
  5
F64
  8
TEAM-NET
 10
-206.457902
 20
194.256505
 30
-156.070856
  0
VERTEX
  5
F65
  8
TEAM-NET
 10
-201.088131
 20
202.073211
 30
-156.070856
  0
VERTEX
  5
F66
  8
TEAM-NET
 10
-196.623588
 20
209.793029
 30
-156.070856
  0
VERTEX
  5
F67
  8
TEAM-NET
 10
-193.064273
 20
217.41596
 30
-156.070856
  0
VERTEX
  5
F68
  8
TEAM-NET
 10
-190.410188
 20
224.942002
 30
-156.070856
  0
VERTEX
  5
F69
  8
TEAM-NET
 10
-188.661331
 20
232.371156
 30
-156.070856
  0
VERTEX
  5
F6A
  8
TEAM-NET
 10
-187.817702
 20
239.703422
 30
-156.070856
  0
VERTEX
  5
F6B
  8
TEAM-NET
 10
-187.879303
 20
246.938801
 30
-156.070856
  0
VERTEX
  5
F6C
  8
TEAM-NET
 10
-188.846132
 20
254.077291
 30
-156.070856
  0
VERTEX
  5
F6D
  8
TEAM-NET
 10
-190.71819
 20
261.118893
 30
-156.070856
  0
VERTEX
  5
F6E
  8
TEAM-NET
 10
-193.495476
 20
268.063608
 30
-156.070856
  0
VERTEX
  5
F6F
  8
TEAM-NET
 10
-197.177991
 20
274.911435
 30
-156.070856
  0
VERTEX
  5
F70
  8
TEAM-NET
 10
-201.765735
 20
281.662373
 30
-156.070856
  0
SEQEND
  5
F71
  8
TEAM-NET
  0
ARC
  5
58D
  8
TEAM-NET
 10
0.0
 20
-339.555974
 30
320.9
 40
150.788
 50
70.638867
 51
109.361133
1001
ACAD
1000
R13OBJECT
1002
{
1005
47
1002
}
  0
POLYLINE
  5
58E
  8
TEAM-NET
 66
     1
 10
0.0
 20
0.0
 30
156.070856
 70
   128
210
0.846899
220
-0.338174
230
0.410367
1001
ACAD
1000
R13OBJECT
1002
{
1005
47
1002
}
  0
VERTEX
  5
F72
  8
TEAM-NET
 10
-236.989276
 20
162.020802
 30
156.070856
  0
VERTEX
  5
F73
  8
TEAM-NET
 10
-227.99859
 20
170.22506
 30
156.070856
  0
VERTEX
  5
F74
  8
TEAM-NET
 10
-219.913132
 20
178.33243
 30
156.070856
  0
VERTEX
  5
F75
  8
TEAM-NET
 10
-212.732903
 20
186.342912
 30
156.070856
  0
VERTEX
  5
F76
  8
TEAM-NET
 10
-206.457902
 20
194.256505
 30
156.070856
  0
VERTEX
  5
F77
  8
TEAM-NET
 10
-201.088131
 20
202.073211
 30
156.070856
  0
VERTEX
  5
F78
  8
TEAM-NET
 10
-196.623588
 20
209.793029
 30
156.070856
  0
VERTEX
  5
F79
  8
TEAM-NET
 10
-193.064273
 20
217.41596
 30
156.070856
  0
VERTEX
  5
F7A
  8
TEAM-NET
 10
-190.410188
 20
224.942002
 30
156.070856
  0
VERTEX
  5
F7B
  8
TEAM-NET
 10
-188.661331
 20
232.371156
 30
156.070856
  0
VERTEX
  5
F7C
  8
TEAM-NET
 10
-187.817702
 20
239.703422
 30
156.070856
  0
VERTEX
  5
F7D
  8
TEAM-NET
 10
-187.879303
 20
246.938801
 30
156.070856
  0
VERTEX
  5
F7E
  8
TEAM-NET
 10
-188.846132
 20
254.077291
 30
156.070856
  0
VERTEX
  5
F7F
  8
TEAM-NET
 10
-190.71819
 20
261.118893
 30
156.070856
  0
VERTEX
  5
F80
  8
TEAM-NET
 10
-193.495476
 20
268.063608
 30
156.070856
  0
VERTEX
  5
F81
  8
TEAM-NET
 10
-197.177991
 20
274.911435
 30
156.070856
  0
VERTEX
  5
F82
  8
TEAM-NET
 10
-201.765735
 20
281.662373
 30
156.070856
  0
SEQEND
  5
F83
  8
TEAM-NET
  0
POLYLINE
  5
48
  8
TEAM-NET
 66
     1
 10
0.0
 20
0.0
 30
0.0
 70
     8
  0
VERTEX
  5
5A1
  8
TEAM-NET
 10
-17.510466
 20
-248.214035
 30
211.796335
 70
    32
  0
VERTEX
  5
5A2
  8
TEAM-NET
 10
-19.829294
 20
-248.32983
 30
211.79673
 70
    32
  0
VERTEX
  5
5A3
  8
TEAM-NET
 10
-22.119377
 20
-248.704597
 30
211.797291
 70
    32
  0
VERTEX
  5
5A4
  8
TEAM-NET
 10
-23.245044
 20
-248.988255
 30
211.797631
 70
    32
  0
VERTEX
  5
5A5
  8
TEAM-NET
 10
-24.3532
 20
-249.335367
 30
211.798
 70
    32
  0
VERTEX
  5
5A6
  8
TEAM-NET
 10
-26.49793
 20
-250.214053
 30
211.798738
 70
    32
  0
VERTEX
  5
5A7
  8
TEAM-NET
 10
-27.0192
 20
-250.472406
 30
211.798896
 70
    32
  0
VERTEX
  5
5A8
  8
TEAM-NET
 10
-27.533426
 20
-250.745939
 30
211.799029
 70
    32
  0
VERTEX
  5
5A9
  8
TEAM-NET
 10
-28.538247
 20
-251.337488
 30
211.799185
 70
    32
  0
VERTEX
  5
5AA
  8
TEAM-NET
 10
-29.507091
 20
-251.986071
 30
211.799114
 70
    32
  0
VERTEX
  5
5AB
  8
TEAM-NET
 10
-29.976449
 20
-252.33076
 30
211.798957
 70
    32
  0
VERTEX
  5
5AC
  8
TEAM-NET
 10
-30.207099
 20
-252.508011
 30
211.798841
 70
    32
  0
VERTEX
  5
5AD
  8
TEAM-NET
 10
-30.434957
 20
-252.688439
 30
211.798696
 70
    32
  0
VERTEX
  5
5AE
  8
TEAM-NET
 10
-31.740308
 20
-253.834837
 30
211.797085
 70
    32
  0
VERTEX
  5
5AF
  8
TEAM-NET
 10
-32.150122
 20
-254.239322
 30
211.796191
 70
    32
  0
VERTEX
  5
5B0
  8
TEAM-NET
 10
-33.667669
 20
-255.973678
 30
211.789952
 70
    32
  0
VERTEX
  5
5B1
  8
TEAM-NET
 10
-34.971525
 20
-257.875682
 30
211.777362
 70
    32
  0
VERTEX
  5
5B2
  8
TEAM-NET
 10
-36.034339
 20
-259.906075
 30
211.754861
 70
    32
  0
VERTEX
  5
5B3
  8
TEAM-NET
 10
-36.842987
 20
-262.026782
 30
211.718158
 70
    32
  0
VERTEX
  5
5B4
  8
TEAM-NET
 10
-37.400698
 20
-264.228508
 30
211.662113
 70
    32
  0
VERTEX
  5
5B5
  8
TEAM-NET
 10
-37.705996
 20
-266.47292
 30
211.583278
 70
    32
  0
VERTEX
  5
5B6
  8
TEAM-NET
 10
-37.769648
 20
-268.719291
 30
211.482486
 70
    32
  0
SEQEND
  5
5B7
  8
TEAM-NET
  0
LINE
  5
5B8
  8
TEAM-NET
 10
-17.455419
 20
-248.214361
 30
211.796385
 11
-17.510466
 21
-248.214035
 31
211.796335
1001
ACAD
1000
R13OBJECT
1002
{
1005
48
1002
}
  0
POLYLINE
  5
5B9
  8
TEAM-NET
 66
     1
 10
0.0
 20
0.0
 30
156.070856
 70
   128
210
0.846899
220
-0.338174
230
0.410367
1001
ACAD
1000
R13OBJECT
1002
{
1005
48
1002
}
  0
VERTEX
  5
F84
  8
TEAM-NET
 10
-236.989276
 20
162.020802
 30
156.070856
  0
VERTEX
  5
F85
  8
TEAM-NET
 10
-227.99859
 20
170.22506
 30
156.070856
  0
VERTEX
  5
F86
  8
TEAM-NET
 10
-219.913132
 20
178.33243
 30
156.070856
  0
VERTEX
  5
F87
  8
TEAM-NET
 10
-212.732903
 20
186.342912
 30
156.070856
  0
VERTEX
  5
F88
  8
TEAM-NET
 10
-206.457902
 20
194.256505
 30
156.070856
  0
VERTEX
  5
F89
  8
TEAM-NET
 10
-201.088131
 20
202.073211
 30
156.070856
  0
VERTEX
  5
F8A
  8
TEAM-NET
 10
-196.623588
 20
209.793029
 30
156.070856
  0
VERTEX
  5
F8B
  8
TEAM-NET
 10
-193.064273
 20
217.41596
 30
156.070856
  0
VERTEX
  5
F8C
  8
TEAM-NET
 10
-190.410188
 20
224.942002
 30
156.070856
  0
VERTEX
  5
F8D
  8
TEAM-NET
 10
-188.661331
 20
232.371156
 30
156.070856
  0
VERTEX
  5
F8E
  8
TEAM-NET
 10
-187.817702
 20
239.703422
 30
156.070856
  0
VERTEX
  5
F8F
  8
TEAM-NET
 10
-187.879303
 20
246.938801
 30
156.070856
  0
VERTEX
  5
F90
  8
TEAM-NET
 10
-188.846132
 20
254.077291
 30
156.070856
  0
VERTEX
  5
F91
  8
TEAM-NET
 10
-190.71819
 20
261.118893
 30
156.070856
  0
VERTEX
  5
F92
  8
TEAM-NET
 10
-193.495476
 20
268.063608
 30
156.070856
  0
VERTEX
  5
F93
  8
TEAM-NET
 10
-197.177991
 20
274.911435
 30
156.070856
  0
VERTEX
  5
F94
  8
TEAM-NET
 10
-201.765735
 20
281.662373
 30
156.070856
  0
SEQEND
  5
F95
  8
TEAM-NET
  0
ARC
  5
5CC
  8
TEAM-NET
 10
0.0
 20
-339.555974
 30
320.9
 40
150.788
 50
109.361133
 51
180.0
1001
ACAD
1000
R13OBJECT
1002
{
1005
48
1002
}
  0
POLYLINE
  5
5CD
  8
TEAM-NET
 66
     1
 10
0.0
 20
0.0
 30
165.622438
 70
   128
210
0.747695
220
-0.231663
230
0.622322
1001
ACAD
1000
R13OBJECT
1002
{
1005
48
1002
}
  0
VERTEX
  5
F96
  8
TEAM-NET
 10
-267.859234
 20
138.499402
 30
165.622438
  0
VERTEX
  5
F97
  8
TEAM-NET
 10
-261.223294
 20
148.086886
 30
165.622438
  0
VERTEX
  5
F98
  8
TEAM-NET
 10
-256.314744
 20
157.560905
 30
165.622438
  0
VERTEX
  5
F99
  8
TEAM-NET
 10
-253.133584
 20
166.921461
 30
165.622438
  0
VERTEX
  5
F9A
  8
TEAM-NET
 10
-251.679815
 20
176.168553
 30
165.622438
  0
VERTEX
  5
F9B
  8
TEAM-NET
 10
-251.953436
 20
185.30218
 30
165.622438
  0
VERTEX
  5
F9C
  8
TEAM-NET
 10
-253.954447
 20
194.322344
 30
165.622438
  0
VERTEX
  5
F9D
  8
TEAM-NET
 10
-257.682849
 20
203.229044
 30
165.622438
  0
VERTEX
  5
F9E
  8
TEAM-NET
 10
-263.13864
 20
212.022279
 30
165.622438
  0
VERTEX
  5
F9F
  8
TEAM-NET
 10
-270.321822
 20
220.70205
 30
165.622438
  0
VERTEX
  5
FA0
  8
TEAM-NET
 10
-279.232395
 20
229.268358
 30
165.622438
  0
VERTEX
  5
FA1
  8
TEAM-NET
 10
-289.870357
 20
237.721201
 30
165.622438
  0
VERTEX
  5
FA2
  8
TEAM-NET
 10
-302.23571
 20
246.06058
 30
165.622438
  0
VERTEX
  5
FA3
  8
TEAM-NET
 10
-316.328453
 20
254.286496
 30
165.622438
  0
VERTEX
  5
FA4
  8
TEAM-NET
 10
-332.148586
 20
262.398947
 30
165.622438
  0
VERTEX
  5
FA5
  8
TEAM-NET
 10
-349.69611
 20
270.397934
 30
165.622438
  0
VERTEX
  5
FA6
  8
TEAM-NET
 10
-368.971024
 20
278.283457
 30
165.622438
  0
SEQEND
  5
FA7
  8
TEAM-NET
  0
LINE
  5
49
  8
TEAM-NET
 10
-37.780338
 20
-299.413749
 30
211.505451
 11
-37.762782
 21
-300.594693
 31
211.467733
  0
LINE
  5
5E0
  8
TEAM-NET
 10
-37.780338
 20
-269.413749
 30
211.505451
 11
-37.780338
 21
-299.413749
 31
211.505451
1001
ACAD
1000
R13OBJECT
1002
{
1005
49
1002
}
  0
LINE
  5
5E1
  8
TEAM-NET
 10
-37.769648
 20
-268.719291
 30
211.482486
 11
-37.780338
 21
-269.413749
 31
211.505451
1001
ACAD
1000
R13OBJECT
1002
{
1005
49
1002
}
  0
POLYLINE
  5
5E2
  8
TEAM-NET
 66
     1
 10
0.0
 20
0.0
 30
165.622438
 70
   128
210
0.747695
220
-0.231663
230
0.622322
1001
ACAD
1000
R13OBJECT
1002
{
1005
49
1002
}
  0
VERTEX
  5
FA8
  8
TEAM-NET
 10
-267.859234
 20
138.499402
 30
165.622438
  0
VERTEX
  5
FA9
  8
TEAM-NET
 10
-261.223294
 20
148.086886
 30
165.622438
  0
VERTEX
  5
FAA
  8
TEAM-NET
 10
-256.314744
 20
157.560905
 30
165.622438
  0
VERTEX
  5
FAB
  8
TEAM-NET
 10
-253.133584
 20
166.921461
 30
165.622438
  0
VERTEX
  5
FAC
  8
TEAM-NET
 10
-251.679815
 20
176.168553
 30
165.622438
  0
VERTEX
  5
FAD
  8
TEAM-NET
 10
-251.953436
 20
185.30218
 30
165.622438
  0
VERTEX
  5
FAE
  8
TEAM-NET
 10
-253.954447
 20
194.322344
 30
165.622438
  0
VERTEX
  5
FAF
  8
TEAM-NET
 10
-257.682849
 20
203.229044
 30
165.622438
  0
VERTEX
  5
FB0
  8
TEAM-NET
 10
-263.13864
 20
212.022279
 30
165.622438
  0
VERTEX
  5
FB1
  8
TEAM-NET
 10
-270.321822
 20
220.70205
 30
165.622438
  0
VERTEX
  5
FB2
  8
TEAM-NET
 10
-279.232395
 20
229.268358
 30
165.622438
  0
VERTEX
  5
FB3
  8
TEAM-NET
 10
-289.870357
 20
237.721201
 30
165.622438
  0
VERTEX
  5
FB4
  8
TEAM-NET
 10
-302.23571
 20
246.06058
 30
165.622438
  0
VERTEX
  5
FB5
  8
TEAM-NET
 10
-316.328453
 20
254.286496
 30
165.622438
  0
VERTEX
  5
FB6
  8
TEAM-NET
 10
-332.148586
 20
262.398947
 30
165.622438
  0
VERTEX
  5
FB7
  8
TEAM-NET
 10
-349.69611
 20
270.397934
 30
165.622438
  0
VERTEX
  5
FB8
  8
TEAM-NET
 10
-368.971024
 20
278.283457
 30
165.622438
  0
SEQEND
  5
FB9
  8
TEAM-NET
  0
LINE
  5
5F5
  8
TEAM-NET
 10
-150.788
 20
-339.555974
 30
320.9
 11
-150.788
 21
-379.555974
 31
320.9
1001
ACAD
1000
R13OBJECT
1002
{
1005
49
1002
}
  0
POLYLINE
  5
5F6
  8
TEAM-NET
 66
     1
 10
0.0
 20
0.0
 30
-68.910092
 70
   128
210
-0.581265
220
-0.243865
230
-0.776312
1001
ACAD
1000
R13OBJECT
1002
{
1005
49
1002
}
  0
VERTEX
  5
FBA
  8
TEAM-NET
 10
262.578796
 20
250.610403
 30
-68.910092
  0
VERTEX
  5
FBB
  8
TEAM-NET
 10
274.957913
 20
262.517766
 30
-68.910092
  0
VERTEX
  5
FBC
  8
TEAM-NET
 10
285.928866
 20
274.284195
 30
-68.910092
  0
VERTEX
  5
FBD
  8
TEAM-NET
 10
295.491657
 20
285.909692
 30
-68.910092
  0
VERTEX
  5
FBE
  8
TEAM-NET
 10
303.646285
 20
297.394256
 30
-68.910092
  0
VERTEX
  5
FBF
  8
TEAM-NET
 10
310.39275
 20
308.737887
 30
-68.910092
  0
VERTEX
  5
FC0
  8
TEAM-NET
 10
315.731052
 20
319.940585
 30
-68.910092
  0
VERTEX
  5
FC1
  8
TEAM-NET
 10
319.661191
 20
331.00235
 30
-68.910092
  0
VERTEX
  5
FC2
  8
TEAM-NET
 10
322.183167
 20
341.923182
 30
-68.910092
  0
VERTEX
  5
FC3
  8
TEAM-NET
 10
323.296981
 20
352.703081
 30
-68.910092
  0
VERTEX
  5
FC4
  8
TEAM-NET
 10
323.002631
 20
363.342048
 30
-68.910092
  0
VERTEX
  5
FC5
  8
TEAM-NET
 10
321.300119
 20
373.840081
 30
-68.910092
  0
VERTEX
  5
FC6
  8
TEAM-NET
 10
318.189444
 20
384.197181
 30
-68.910092
  0
VERTEX
  5
FC7
  8
TEAM-NET
 10
313.670606
 20
394.413349
 30
-68.910092
  0
VERTEX
  5
FC8
  8
TEAM-NET
 10
307.743605
 20
404.488583
 30
-68.910092
  0
VERTEX
  5
FC9
  8
TEAM-NET
 10
300.408441
 20
414.422884
 30
-68.910092
  0
VERTEX
  5
FCA
  8
TEAM-NET
 10
291.665114
 20
424.216253
 30
-68.910092
  0
SEQEND
  5
FCB
  8
TEAM-NET
  0
LINE
  5
4A
  8
TEAM-NET
 10
37.5
 20
-299.413749
 30
210.239182
 11
37.484054
 21
-300.507216
 31
210.202182
  0
LINE
  5
609
  8
TEAM-NET
 10
37.5
 20
-299.413749
 30
210.239182
 11
37.5
 21
-299.413749
 31
170.9
1001
ACAD
1000
R13OBJECT
1002
{
1005
4A
1002
}
  0
ARC
  5
60A
  8
TEAM-NET
 10
0.0
 20
-299.413749
 30
170.9
 40
37.5
 50
180.0
 51
0.0
1001
ACAD
1000
R13OBJECT
1002
{
1005
4A
1002
}
  0
LINE
  5
60B
  8
TEAM-NET
 10
-37.5
 20
-299.413749
 30
210.239182
 11
-37.5
 21
-299.413749
 31
170.9
1001
ACAD
1000
R13OBJECT
1002
{
1005
4A
1002
}
  0
LINE
  5
60C
  8
TEAM-NET
 10
-37.484054
 20
-300.507216
 30
210.202182
 11
-37.5
 21
-299.413749
 31
210.239182
1001
ACAD
1000
R13OBJECT
1002
{
1005
4A
1002
}
  0
POLYLINE
  5
60D
  8
TEAM-NET
 66
     1
 10
0.0
 20
0.0
 30
0.0
 70
     8
1001
ACAD
1000
R13OBJECT
1002
{
1005
4A
1002
}
  0
VERTEX
  5
60E
  8
TEAM-NET
 10
37.484054
 20
-300.507216
 30
210.202182
 70
    32
  0
VERTEX
  5
60F
  8
TEAM-NET
 10
37.368131
 20
-302.555771
 30
210.068564
 70
    32
  0
VERTEX
  5
610
  8
TEAM-NET
 10
37.140328
 20
-304.59518
 30
209.944174
 70
    32
  0
VERTEX
  5
611
  8
TEAM-NET
 10
36.589683
 20
-307.626295
 30
209.774604
 70
    32
  0
VERTEX
  5
612
  8
TEAM-NET
 10
36.350729
 20
-308.626576
 30
209.722626
 70
    32
  0
VERTEX
  5
613
  8
TEAM-NET
 10
35.791166
 20
-310.60501
 30
209.62551
 70
    32
  0
VERTEX
  5
614
  8
TEAM-NET
 10
35.124673
 20
-312.548083
 30
209.537223
 70
    32
  0
VERTEX
  5
615
  8
TEAM-NET
 10
33.92282
 20
-315.398122
 30
209.41965
 70
    32
  0
VERTEX
  5
616
  8
TEAM-NET
 10
33.585082
 20
-316.096045
 30
209.392886
 70
    32
  0
VERTEX
  5
617
  8
TEAM-NET
 10
33.469312
 20
-316.327199
 30
209.384188
 70
    32
  0
VERTEX
  5
618
  8
TEAM-NET
 10
30.629319
 20
-321.049176
 30
209.223382
 70
    32
  0
VERTEX
  5
619
  8
TEAM-NET
 10
27.143602
 20
-325.287687
 30
209.102899
 70
    32
  0
VERTEX
  5
61A
  8
TEAM-NET
 10
25.168105
 20
-327.213391
 30
209.054407
 70
    32
  0
VERTEX
  5
61B
  8
TEAM-NET
 10
23.054042
 20
-328.99003
 30
209.012729
 70
    32
  0
VERTEX
  5
61C
  8
TEAM-NET
 10
22.505865
 20
-329.409316
 30
209.003289
 70
    32
  0
VERTEX
  5
61D
  8
TEAM-NET
 10
20.818101
 20
-330.604342
 30
208.977177
 70
    32
  0
VERTEX
  5
61E
  8
TEAM-NET
 10
18.480245
 20
-332.043946
 30
208.947197
 70
    32
  0
VERTEX
  5
61F
  8
TEAM-NET
 10
17.274167
 20
-332.698167
 30
208.934079
 70
    32
  0
VERTEX
  5
620
  8
TEAM-NET
 10
14.784043
 20
-333.876542
 30
208.911208
 70
    32
  0
VERTEX
  5
621
  8
TEAM-NET
 10
13.505206
 20
-334.397493
 30
208.901396
 70
    32
  0
VERTEX
  5
622
  8
TEAM-NET
 10
9.563297
 20
-335.673854
 30
208.878092
 70
    32
  0
VERTEX
  5
623
  8
TEAM-NET
 10
8.223413
 20
-336.000996
 30
208.872282
 70
    32
  0
VERTEX
  5
624
  8
TEAM-NET
 10
6.198665
 20
-336.397894
 30
208.865321
 70
    32
  0
VERTEX
  5
625
  8
TEAM-NET
 10
4.161426
 20
-336.682123
 30
208.860393
 70
    32
  0
VERTEX
  5
626
  8
TEAM-NET
 10
2.792424
 20
-336.809663
 30
208.858198
 70
    32
  0
VERTEX
  5
627
  8
TEAM-NET
 10
-2.727508
 20
-336.814565
 30
208.858114
 70
    32
  0
VERTEX
  5
628
  8
TEAM-NET
 10
-8.182166
 20
-336.010314
 30
208.872119
 70
    32
  0
VERTEX
  5
629
  8
TEAM-NET
 10
-10.835731
 20
-335.314088
 30
208.884557
 70
    32
  0
VERTEX
  5
62A
  8
TEAM-NET
 10
-13.442323
 20
-334.421722
 30
208.900946
 70
    32
  0
VERTEX
  5
62B
  8
TEAM-NET
 10
-18.440158
 20
-332.066685
 30
208.946736
 70
    32
  0
VERTEX
  5
62C
  8
TEAM-NET
 10
-20.790935
 20
-330.622476
 30
208.976787
 70
    32
  0
VERTEX
  5
62D
  8
TEAM-NET
 10
-23.018296
 20
-329.017933
 30
209.012093
 70
    32
  0
VERTEX
  5
62E
  8
TEAM-NET
 10
-24.609507
 20
-327.709002
 30
209.042498
 70
    32
  0
VERTEX
  5
62F
  8
TEAM-NET
 10
-26.132441
 20
-326.308797
 30
209.076738
 70
    32
  0
VERTEX
  5
630
  8
TEAM-NET
 10
-28.941039
 20
-323.260684
 30
209.15799
 70
    32
  0
VERTEX
  5
631
  8
TEAM-NET
 10
-31.391163
 20
-319.928132
 30
209.258813
 70
    32
  0
VERTEX
  5
632
  8
TEAM-NET
 10
-33.44987
 20
-316.36519
 30
209.382773
 70
    32
  0
VERTEX
  5
633
  8
TEAM-NET
 10
-35.112888
 20
-312.580055
 30
209.53582
 70
    32
  0
VERTEX
  5
634
  8
TEAM-NET
 10
-36.348934
 20
-308.633255
 30
209.722284
 70
    32
  0
VERTEX
  5
635
  8
TEAM-NET
 10
-36.800781
 20
-306.621505
 30
209.828795
 70
    32
  0
VERTEX
  5
636
  8
TEAM-NET
 10
-37.140178
 20
-304.595979
 30
209.944127
 70
    32
  0
VERTEX
  5
637
  8
TEAM-NET
 10
-37.368139
 20
-302.555816
 30
210.06856
 70
    32
  0
VERTEX
  5
638
  8
TEAM-NET
 10
-37.484054
 20
-300.507216
 30
210.202182
 70
    32
  0
SEQEND
  5
639
  8
TEAM-NET
  0
LINE
  5
4B
  8
TEAM-NET
 10
-37.5
 20
-299.413749
 30
210.239182
 11
-37.5
 21
-269.413749
 31
210.239182
  0
LINE
  5
63A
  8
TEAM-NET
 10
-37.5
 20
-299.413749
 30
210.239182
 11
-37.5
 21
-299.413749
 31
170.9
1001
ACAD
1000
R13OBJECT
1002
{
1005
4B
1002
}
  0
LINE
  5
63B
  8
TEAM-NET
 10
-37.5
 20
-269.413749
 30
170.9
 11
-37.5
 21
-299.413749
 31
170.9
1001
ACAD
1000
R13OBJECT
1002
{
1005
4B
1002
}
  0
LINE
  5
63C
  8
TEAM-NET
 10
-37.5
 20
-269.413749
 30
210.239182
 11
-37.5
 21
-269.413749
 31
170.9
1001
ACAD
1000
R13OBJECT
1002
{
1005
4B
1002
}
  0
LINE
  5
4C
  8
TEAM-NET
 10
-37.5
 20
-269.413749
 30
210.239182
 11
-37.490881
 21
-268.809872
 31
210.216655
  0
LINE
  5
63D
  8
TEAM-NET
 10
-37.5
 20
-269.413749
 30
210.239182
 11
-37.5
 21
-269.413749
 31
170.9
1001
ACAD
1000
R13OBJECT
1002
{
1005
4C
1002
}
  0
ARC
  5
63E
  8
TEAM-NET
 10
-17.5
 20
-269.413749
 30
170.9
 40
20.0
 50
90.0
 51
180.0
1001
ACAD
1000
R13OBJECT
1002
{
1005
4C
1002
}
  0
LINE
  5
63F
  8
TEAM-NET
 10
-17.5
 20
-249.413749
 30
209.396573
 11
-17.5
 21
-249.413749
 31
170.9
1001
ACAD
1000
R13OBJECT
1002
{
1005
4C
1002
}
  0
POLYLINE
  5
640
  8
TEAM-NET
 66
     1
 10
0.0
 20
0.0
 30
0.0
 70
     8
1001
ACAD
1000
R13OBJECT
1002
{
1005
4C
1002
}
  0
VERTEX
  5
641
  8
TEAM-NET
 10
-37.490881
 20
-268.809872
 30
210.216655
 70
    32
  0
VERTEX
  5
642
  8
TEAM-NET
 10
-37.304291
 20
-266.622853
 30
210.057398
 70
    32
  0
VERTEX
  5
643
  8
TEAM-NET
 10
-36.876579
 20
-264.458822
 30
209.912478
 70
    32
  0
VERTEX
  5
644
  8
TEAM-NET
 10
-36.213725
 20
-262.357079
 30
209.787653
 70
    32
  0
VERTEX
  5
645
  8
TEAM-NET
 10
-35.328654
 20
-260.350814
 30
209.684175
 70
    32
  0
VERTEX
  5
646
  8
TEAM-NET
 10
-34.223067
 20
-258.44392
 30
209.599777
 70
    32
  0
VERTEX
  5
647
  8
TEAM-NET
 10
-32.911584
 20
-256.6671
 30
209.532767
 70
    32
  0
VERTEX
  5
648
  8
TEAM-NET
 10
-31.419305
 20
-255.052389
 30
209.481106
 70
    32
  0
VERTEX
  5
649
  8
TEAM-NET
 10
-31.020467
 20
-254.676297
 30
209.47031
 70
    32
  0
VERTEX
  5
64A
  8
TEAM-NET
 10
-29.758354
 20
-253.610874
 30
209.442288
 70
    32
  0
VERTEX
  5
64B
  8
TEAM-NET
 10
-29.53911
 20
-253.443214
 30
209.43823
 70
    32
  0
VERTEX
  5
64C
  8
TEAM-NET
 10
-29.317451
 20
-253.278502
 30
209.43434
 70
    32
  0
VERTEX
  5
64D
  8
TEAM-NET
 10
-28.867167
 20
-252.958168
 30
209.427053
 70
    32
  0
VERTEX
  5
64E
  8
TEAM-NET
 10
-27.940533
 20
-252.355186
 30
209.414383
 70
    32
  0
VERTEX
  5
64F
  8
TEAM-NET
 10
-26.982756
 20
-251.804744
 30
209.404122
 70
    32
  0
VERTEX
  5
650
  8
TEAM-NET
 10
-26.493636
 20
-251.549967
 30
209.399848
 70
    32
  0
VERTEX
  5
651
  8
TEAM-NET
 10
-25.998413
 20
-251.309129
 30
209.39612
 70
    32
  0
VERTEX
  5
652
  8
TEAM-NET
 10
-23.965616
 20
-250.487671
 30
209.386296
 70
    32
  0
VERTEX
  5
653
  8
TEAM-NET
 10
-22.917377
 20
-250.161433
 30
209.384184
 70
    32
  0
VERTEX
  5
654
  8
TEAM-NET
 10
-21.85344
 20
-249.893363
 30
209.383787
 70
    32
  0
VERTEX
  5
655
  8
TEAM-NET
 10
-19.69025
 20
-249.534077
 30
209.387614
 70
    32
  0
VERTEX
  5
656
  8
TEAM-NET
 10
-17.5
 20
-249.413749
 30
209.396573
 70
    32
  0
SEQEND
  5
657
  8
TEAM-NET
  0
LINE
  5
4D
  8
TEAM-NET
 10
17.440195
 20
-249.413749
 30
209.396893
 11
17.5
 21
-249.413749
 31
209.396573
  0
POLYLINE
  5
658
  8
TEAM-NET
 66
     1
 10
0.0
 20
0.0
 30
-249.413749
 70
   128
210
0.0
220
1.0
230
0.0
1001
ACAD
1000
R13OBJECT
1002
{
1005
4D
1002
}
  0
VERTEX
  5
FCC
  8
TEAM-NET
 10
17.440195
 20
209.396893
 30
-249.413749
  0
VERTEX
  5
FCD
  8
TEAM-NET
 10
-2.491473
 20
209.447716
 30
-249.413749
  0
VERTEX
  5
FCE
  8
TEAM-NET
 10
-17.440195
 20
209.396893
 30
-249.413749
  0
SEQEND
  5
FCF
  8
TEAM-NET
  0
LINE
  5
65D
  8
TEAM-NET
 10
-17.5
 20
-249.413749
 30
209.396573
 11
-17.440195
 21
-249.413749
 31
209.396893
1001
ACAD
1000
R13OBJECT
1002
{
1005
4D
1002
}
  0
LINE
  5
65E
  8
TEAM-NET
 10
-17.5
 20
-249.413749
 30
209.396573
 11
-17.5
 21
-249.413749
 31
170.9
1001
ACAD
1000
R13OBJECT
1002
{
1005
4D
1002
}
  0
LINE
  5
65F
  8
TEAM-NET
 10
17.5
 20
-249.413749
 30
170.9
 11
-17.5
 21
-249.413749
 31
170.9
1001
ACAD
1000
R13OBJECT
1002
{
1005
4D
1002
}
  0
LINE
  5
660
  8
TEAM-NET
 10
17.5
 20
-249.413749
 30
209.396573
 11
17.5
 21
-249.413749
 31
170.9
1001
ACAD
1000
R13OBJECT
1002
{
1005
4D
1002
}
  0
LINE
  5
4E
  8
TEAM-NET
 10
37.490881
 20
-268.809872
 30
210.216655
 11
37.5
 21
-269.413749
 31
210.239182
  0
POLYLINE
  5
661
  8
TEAM-NET
 66
     1
 10
0.0
 20
0.0
 30
0.0
 70
     8
1001
ACAD
1000
R13OBJECT
1002
{
1005
4E
1002
}
  0
VERTEX
  5
662
  8
TEAM-NET
 10
17.5
 20
-249.413749
 30
209.396573
 70
    32
  0
VERTEX
  5
663
  8
TEAM-NET
 10
19.143568
 20
-249.481386
 30
209.38943
 70
    32
  0
VERTEX
  5
664
  8
TEAM-NET
 10
19.690126
 20
-249.534041
 30
209.387614
 70
    32
  0
VERTEX
  5
665
  8
TEAM-NET
 10
21.852633
 20
-249.89307
 30
209.383784
 70
    32
  0
VERTEX
  5
666
  8
TEAM-NET
 10
23.964962
 20
-250.487465
 30
209.386294
 70
    32
  0
VERTEX
  5
667
  8
TEAM-NET
 10
25.498087
 20
-251.082624
 30
209.392921
 70
    32
  0
VERTEX
  5
668
  8
TEAM-NET
 10
25.998611
 20
-251.309235
 30
209.39612
 70
    32
  0
VERTEX
  5
669
  8
TEAM-NET
 10
26.982965
 20
-251.804853
 30
209.404123
 70
    32
  0
VERTEX
  5
66A
  8
TEAM-NET
 10
27.940692
 20
-252.355264
 30
209.414383
 70
    32
  0
VERTEX
  5
66B
  8
TEAM-NET
 10
28.867325
 20
-252.95824
 30
209.427053
 70
    32
  0
VERTEX
  5
66C
  8
TEAM-NET
 10
29.3176
 20
-253.278568
 30
209.434339
 70
    32
  0
VERTEX
  5
66D
  8
TEAM-NET
 10
29.539259
 20
-253.443279
 30
209.438229
 70
    32
  0
VERTEX
  5
66E
  8
TEAM-NET
 10
29.758494
 20
-253.610931
 30
209.442287
 70
    32
  0
VERTEX
  5
66F
  8
TEAM-NET
 10
30.816884
 20
-254.491975
 30
209.465188
 70
    32
  0
VERTEX
  5
670
  8
TEAM-NET
 10
31.419454
 20
-255.052422
 30
209.481104
 70
    32
  0
VERTEX
  5
671
  8
TEAM-NET
 10
32.186328
 20
-255.83764
 30
209.505145
 70
    32
  0
VERTEX
  5
672
  8
TEAM-NET
 10
32.911665
 20
-256.666983
 30
209.532756
 70
    32
  0
VERTEX
  5
673
  8
TEAM-NET
 10
34.519512
 20
-258.909638
 30
209.619165
 70
    32
  0
VERTEX
  5
674
  8
TEAM-NET
 10
35.328606
 20
-260.350693
 30
209.684167
 70
    32
  0
VERTEX
  5
675
  8
TEAM-NET
 10
36.213812
 20
-262.357296
 30
209.787661
 70
    32
  0
VERTEX
  5
676
  8
TEAM-NET
 10
36.876639
 20
-264.458974
 30
209.912484
 70
    32
  0
VERTEX
  5
677
  8
TEAM-NET
 10
37.304273
 20
-266.622876
 30
210.057402
 70
    32
  0
VERTEX
  5
678
  8
TEAM-NET
 10
37.490881
 20
-268.809872
 30
210.216655
 70
    32
  0
SEQEND
  5
679
  8
TEAM-NET
  0
LINE
  5
67A
  8
TEAM-NET
 10
17.5
 20
-249.413749
 30
209.396573
 11
17.5
 21
-249.413749
 31
170.9
1001
ACAD
1000
R13OBJECT
1002
{
1005
4E
1002
}
  0
ARC
  5
67B
  8
TEAM-NET
 10
17.5
 20
-269.413749
 30
170.9
 40
20.0
 50
0.0
 51
90.0
1001
ACAD
1000
R13OBJECT
1002
{
1005
4E
1002
}
  0
LINE
  5
67C
  8
TEAM-NET
 10
37.5
 20
-269.413749
 30
210.239182
 11
37.5
 21
-269.413749
 31
170.9
1001
ACAD
1000
R13OBJECT
1002
{
1005
4E
1002
}
  0
LINE
  5
4F
  8
TEAM-NET
 10
37.5
 20
-269.413749
 30
210.239182
 11
37.5
 21
-299.413749
 31
210.239182
  0
LINE
  5
67D
  8
TEAM-NET
 10
37.5
 20
-269.413749
 30
210.239182
 11
37.5
 21
-269.413749
 31
170.9
1001
ACAD
1000
R13OBJECT
1002
{
1005
4F
1002
}
  0
LINE
  5
67E
  8
TEAM-NET
 10
37.5
 20
-299.413749
 30
170.9
 11
37.5
 21
-269.413749
 31
170.9
1001
ACAD
1000
R13OBJECT
1002
{
1005
4F
1002
}
  0
LINE
  5
67F
  8
TEAM-NET
 10
37.5
 20
-299.413749
 30
210.239182
 11
37.5
 21
-299.413749
 31
170.9
1001
ACAD
1000
R13OBJECT
1002
{
1005
4F
1002
}
  0
LINE
  5
50
  8
TEAM-NET
 10
17.5
 20
-249.413749
 30
170.9
 11
-17.5
 21
-249.413749
 31
170.9
  0
ARC
  5
680
  8
TEAM-NET
 10
-17.5
 20
-269.413749
 30
170.9
 40
20.0
 50
90.0
 51
180.0
1001
ACAD
1000
R13OBJECT
1002
{
1005
50
1002
}
  0
LINE
  5
681
  8
TEAM-NET
 10
-37.5
 20
-269.413749
 30
170.9
 11
-37.5
 21
-299.413749
 31
170.9
1001
ACAD
1000
R13OBJECT
1002
{
1005
50
1002
}
  0
ARC
  5
682
  8
TEAM-NET
 10
0.0
 20
-299.413749
 30
170.9
 40
37.5
 50
180.0
 51
0.0
1001
ACAD
1000
R13OBJECT
1002
{
1005
50
1002
}
  0
LINE
  5
683
  8
TEAM-NET
 10
37.5
 20
-299.413749
 30
170.9
 11
37.5
 21
-269.413749
 31
170.9
1001
ACAD
1000
R13OBJECT
1002
{
1005
50
1002
}
  0
ARC
  5
684
  8
TEAM-NET
 10
17.5
 20
-269.413749
 30
170.9
 40
20.0
 50
0.0
 51
90.0
1001
ACAD
1000
R13OBJECT
1002
{
1005
50
1002
}
  0
ARC
  5
51
  8
TEAM-NET
 10
-246.413749
 20
209.4709
 30
16.58664
 40
3.0
210
0.99999
220
-0.0
230
-0.004361
 50
126.876744
 51
180.0
  0
LINE
  5
685
  8
TEAM-NET
 10
17.510466
 20
-248.214035
 30
211.796335
 11
17.455419
 21
-248.214361
 31
211.796385
1001
ACAD
1000
R13OBJECT
1002
{
1005
51
1002
}
  0
ARC
  5
686
  8
TEAM-NET
 10
246.413749
 20
209.503333
 30
-16.111255
 40
3.0
210
-0.99998
220
0.0
230
0.006345
 50
360.0
 51
53.115489
1001
ACAD
1000
R13OBJECT
1002
{
1005
51
1002
}
  0
LINE
  5
687
  8
TEAM-NET
 10
17.440195
 20
-249.413749
 30
209.396893
 11
17.5
 21
-249.413749
 31
209.396573
1001
ACAD
1000
R13OBJECT
1002
{
1005
51
1002
}
  0
ARC
  5
52
  8
TEAM-NET
 10
-246.413749
 20
209.503333
 30
-16.111255
 40
3.0
210
0.99998
220
-0.0
230
0.006345
 50
126.884511
 51
180.0
  0
LINE
  5
688
  8
TEAM-NET
 10
-17.455419
 20
-248.214361
 30
211.796385
 11
-17.510466
 21
-248.214035
 31
211.796335
1001
ACAD
1000
R13OBJECT
1002
{
1005
52
1002
}
  0
ARC
  5
689
  8
TEAM-NET
 10
246.413749
 20
209.4709
 30
16.58664
 40
3.0
210
-0.99999
220
-0.0
230
-0.004361
 50
0.0
 51
53.123256
1001
ACAD
1000
R13OBJECT
1002
{
1005
52
1002
}
  0
LINE
  5
68A
  8
TEAM-NET
 10
-17.5
 20
-249.413749
 30
209.396573
 11
-17.440195
 21
-249.413749
 31
209.396893
1001
ACAD
1000
R13OBJECT
1002
{
1005
52
1002
}
  0
ARC
  5
53
  8
TEAM-NET
 10
-246.413749
 20
209.503333
 30
-16.111255
 40
3.0
210
0.99998
220
-0.0
230
0.006345
 50
126.884511
 51
180.0
  0
POLYLINE
  5
68B
  8
TEAM-NET
 66
     1
 10
0.0
 20
0.0
 30
-249.413749
 70
   128
210
0.0
220
1.0
230
0.0
1001
ACAD
1000
R13OBJECT
1002
{
1005
53
1002
}
  0
VERTEX
  5
FD0
  8
TEAM-NET
 10
17.440195
 20
209.396893
 30
-249.413749
  0
VERTEX
  5
FD1
  8
TEAM-NET
 10
-2.491473
 20
209.447716
 30
-249.413749
  0
VERTEX
  5
FD2
  8
TEAM-NET
 10
-17.440195
 20
209.396893
 30
-249.413749
  0
SEQEND
  5
FD3
  8
TEAM-NET
  0
ARC
  5
690
  8
TEAM-NET
 10
246.413749
 20
209.503333
 30
-16.111255
 40
3.0
210
-0.99998
220
0.0
230
0.006345
 50
360.0
 51
53.115489
1001
ACAD
1000
R13OBJECT
1002
{
1005
53
1002
}
  0
POLYLINE
  5
691
  8
TEAM-NET
 66
     1
 10
0.0
 20
0.0
 30
-207.906562
 70
   128
210
0.0
220
-0.015568
230
-0.999879
1001
ACAD
1000
R13OBJECT
1002
{
1005
53
1002
}
  0
VERTEX
  5
FD4
  8
TEAM-NET
 10
-17.455419
 20
-251.481489
 30
-207.906562
  0
VERTEX
  5
FD5
  8
TEAM-NET
 10
-2.493292
 20
-251.546107
 30
-207.906562
  0
VERTEX
  5
FD6
  8
TEAM-NET
 10
17.455419
 20
-251.481489
 30
-207.906562
  0
SEQEND
  5
FD7
  8
TEAM-NET
  0
ARC
  5
54
  8
TEAM-NET
 10
40.5
 20
210.239182
 30
269.413749
 40
3.0
210
0.0
220
-1.0
230
0.0
 50
155.03342
 51
180.0
  0
LINE
  5
696
  8
TEAM-NET
 10
37.780338
 20
-269.413749
 30
211.505451
 11
37.769648
 21
-268.719291
 31
211.482486
1001
ACAD
1000
R13OBJECT
1002
{
1005
54
1002
}
  0
ARC
  5
697
  8
TEAM-NET
 10
-32.357392
 20
192.30735
 30
-282.862833
 40
3.0
210
-0.03013
220
0.997447
230
-0.064741
 50
360.0
 51
25.013445
1001
ACAD
1000
R13OBJECT
1002
{
1005
54
1002
}
  0
LINE
  5
698
  8
TEAM-NET
 10
37.490881
 20
-268.809872
 30
210.216655
 11
37.5
 21
-269.413749
 31
210.239182
1001
ACAD
1000
R13OBJECT
1002
{
1005
54
1002
}
  0
ARC
  5
55
  8
TEAM-NET
 10
32.357392
 20
192.30735
 30
-282.862833
 40
3.0
210
0.03013
220
0.997447
230
-0.064741
 50
154.986555
 51
180.0
  0
LINE
  5
699
  8
TEAM-NET
 10
-37.769648
 20
-268.719291
 30
211.482486
 11
-37.780338
 21
-269.413749
 31
211.505451
1001
ACAD
1000
R13OBJECT
1002
{
1005
55
1002
}
  0
ARC
  5
69A
  8
TEAM-NET
 10
-40.5
 20
210.239182
 30
269.413749
 40
3.0
210
-0.0
220
-1.0
230
0.0
 50
360.0
 51
24.96658
1001
ACAD
1000
R13OBJECT
1002
{
1005
55
1002
}
  0
LINE
  5
69B
  8
TEAM-NET
 10
-37.5
 20
-269.413749
 30
210.239182
 11
-37.490881
 21
-268.809872
 31
210.216655
1001
ACAD
1000
R13OBJECT
1002
{
1005
55
1002
}
  0
ARC
  5
56
  8
TEAM-NET
 10
32.357392
 20
192.30735
 30
-282.862833
 40
3.0
210
0.03013
220
0.997447
230
-0.064741
 50
154.986555
 51
180.0
  0
POLYLINE
  5
69C
  8
TEAM-NET
 66
     1
 10
0.0
 20
0.0
 30
0.0
 70
     8
1001
ACAD
1000
R13OBJECT
1002
{
1005
56
1002
}
  0
VERTEX
  5
69D
  8
TEAM-NET
 10
-37.490881
 20
-268.809872
 30
210.216655
 70
    32
  0
VERTEX
  5
69E
  8
TEAM-NET
 10
-37.304291
 20
-266.622853
 30
210.057398
 70
    32
  0
VERTEX
  5
69F
  8
TEAM-NET
 10
-36.876579
 20
-264.458822
 30
209.912478
 70
    32
  0
VERTEX
  5
6A0
  8
TEAM-NET
 10
-36.213725
 20
-262.357079
 30
209.787653
 70
    32
  0
VERTEX
  5
6A1
  8
TEAM-NET
 10
-35.328654
 20
-260.350814
 30
209.684175
 70
    32
  0
VERTEX
  5
6A2
  8
TEAM-NET
 10
-34.223067
 20
-258.44392
 30
209.599777
 70
    32
  0
VERTEX
  5
6A3
  8
TEAM-NET
 10
-32.911584
 20
-256.6671
 30
209.532767
 70
    32
  0
VERTEX
  5
6A4
  8
TEAM-NET
 10
-31.419305
 20
-255.052389
 30
209.481106
 70
    32
  0
VERTEX
  5
6A5
  8
TEAM-NET
 10
-31.020467
 20
-254.676297
 30
209.47031
 70
    32
  0
VERTEX
  5
6A6
  8
TEAM-NET
 10
-29.758354
 20
-253.610874
 30
209.442288
 70
    32
  0
VERTEX
  5
6A7
  8
TEAM-NET
 10
-29.53911
 20
-253.443214
 30
209.43823
 70
    32
  0
VERTEX
  5
6A8
  8
TEAM-NET
 10
-29.317451
 20
-253.278502
 30
209.43434
 70
    32
  0
VERTEX
  5
6A9
  8
TEAM-NET
 10
-28.867167
 20
-252.958168
 30
209.427053
 70
    32
  0
VERTEX
  5
6AA
  8
TEAM-NET
 10
-27.940533
 20
-252.355186
 30
209.414383
 70
    32
  0
VERTEX
  5
6AB
  8
TEAM-NET
 10
-26.982756
 20
-251.804744
 30
209.404122
 70
    32
  0
VERTEX
  5
6AC
  8
TEAM-NET
 10
-26.493636
 20
-251.549967
 30
209.399848
 70
    32
  0
VERTEX
  5
6AD
  8
TEAM-NET
 10
-25.998413
 20
-251.309129
 30
209.39612
 70
    32
  0
VERTEX
  5
6AE
  8
TEAM-NET
 10
-23.965616
 20
-250.487671
 30
209.386296
 70
    32
  0
VERTEX
  5
6AF
  8
TEAM-NET
 10
-22.917377
 20
-250.161433
 30
209.384184
 70
    32
  0
VERTEX
  5
6B0
  8
TEAM-NET
 10
-21.85344
 20
-249.893363
 30
209.383787
 70
    32
  0
VERTEX
  5
6B1
  8
TEAM-NET
 10
-19.69025
 20
-249.534077
 30
209.387614
 70
    32
  0
VERTEX
  5
6B2
  8
TEAM-NET
 10
-17.5
 20
-249.413749
 30
209.396573
 70
    32
  0
SEQEND
  5
6B3
  8
TEAM-NET
  0
ARC
  5
6B4
  8
TEAM-NET
 10
246.413749
 20
209.4709
 30
16.58664
 40
3.0
210
-0.99999
220
-0.0
230
-0.004361
 50
0.0
 51
53.123256
1001
ACAD
1000
R13OBJECT
1002
{
1005
56
1002
}
  0
POLYLINE
  5
6B5
  8
TEAM-NET
 66
     1
 10
0.0
 20
0.0
 30
0.0
 70
     8
1001
ACAD
1000
R13OBJECT
1002
{
1005
56
1002
}
  0
VERTEX
  5
6B6
  8
TEAM-NET
 10
-17.510466
 20
-248.214035
 30
211.796335
 70
    32
  0
VERTEX
  5
6B7
  8
TEAM-NET
 10
-19.829294
 20
-248.32983
 30
211.79673
 70
    32
  0
VERTEX
  5
6B8
  8
TEAM-NET
 10
-22.119377
 20
-248.704597
 30
211.797291
 70
    32
  0
VERTEX
  5
6B9
  8
TEAM-NET
 10
-23.245044
 20
-248.988255
 30
211.797631
 70
    32
  0
VERTEX
  5
6BA
  8
TEAM-NET
 10
-24.3532
 20
-249.335367
 30
211.798
 70
    32
  0
VERTEX
  5
6BB
  8
TEAM-NET
 10
-26.49793
 20
-250.214053
 30
211.798738
 70
    32
  0
VERTEX
  5
6BC
  8
TEAM-NET
 10
-27.0192
 20
-250.472406
 30
211.798896
 70
    32
  0
VERTEX
  5
6BD
  8
TEAM-NET
 10
-27.533426
 20
-250.745939
 30
211.799029
 70
    32
  0
VERTEX
  5
6BE
  8
TEAM-NET
 10
-28.538247
 20
-251.337488
 30
211.799185
 70
    32
  0
VERTEX
  5
6BF
  8
TEAM-NET
 10
-29.507091
 20
-251.986071
 30
211.799114
 70
    32
  0
VERTEX
  5
6C0
  8
TEAM-NET
 10
-29.976449
 20
-252.33076
 30
211.798957
 70
    32
  0
VERTEX
  5
6C1
  8
TEAM-NET
 10
-30.207099
 20
-252.508011
 30
211.798841
 70
    32
  0
VERTEX
  5
6C2
  8
TEAM-NET
 10
-30.434957
 20
-252.688439
 30
211.798696
 70
    32
  0
VERTEX
  5
6C3
  8
TEAM-NET
 10
-31.740308
 20
-253.834837
 30
211.797085
 70
    32
  0
VERTEX
  5
6C4
  8
TEAM-NET
 10
-32.150122
 20
-254.239322
 30
211.796191
 70
    32
  0
VERTEX
  5
6C5
  8
TEAM-NET
 10
-33.667669
 20
-255.973678
 30
211.789952
 70
    32
  0
VERTEX
  5
6C6
  8
TEAM-NET
 10
-34.971525
 20
-257.875682
 30
211.777362
 70
    32
  0
VERTEX
  5
6C7
  8
TEAM-NET
 10
-36.034339
 20
-259.906075
 30
211.754861
 70
    32
  0
VERTEX
  5
6C8
  8
TEAM-NET
 10
-36.842987
 20
-262.026782
 30
211.718158
 70
    32
  0
VERTEX
  5
6C9
  8
TEAM-NET
 10
-37.400698
 20
-264.228508
 30
211.662113
 70
    32
  0
VERTEX
  5
6CA
  8
TEAM-NET
 10
-37.705996
 20
-266.47292
 30
211.583278
 70
    32
  0
VERTEX
  5
6CB
  8
TEAM-NET
 10
-37.769648
 20
-268.719291
 30
211.482486
 70
    32
  0
SEQEND
  5
6CC
  8
TEAM-NET
  0
ARC
  5
57
  8
TEAM-NET
 10
49.230642
 20
228.510305
 30
285.552738
 40
3.0
210
-0.029102
220
-0.997618
230
-0.062548
 50
154.99623
 51
180.0
  0
LINE
  5
6CD
  8
TEAM-NET
 10
37.762782
 20
-300.594693
 30
211.467733
 11
37.780338
 21
-299.413749
 31
211.505451
1001
ACAD
1000
R13OBJECT
1002
{
1005
57
1002
}
  0
ARC
  5
6CE
  8
TEAM-NET
 10
-40.5
 20
210.239182
 30
-299.413749
 40
3.0
210
0.0
220
1.0
230
0.0
 50
360.0
 51
24.96658
1001
ACAD
1000
R13OBJECT
1002
{
1005
57
1002
}
  0
LINE
  5
6CF
  8
TEAM-NET
 10
37.5
 20
-299.413749
 30
210.239182
 11
37.484054
 21
-300.507216
 31
210.202182
1001
ACAD
1000
R13OBJECT
1002
{
1005
57
1002
}
  0
ARC
  5
58
  8
TEAM-NET
 10
40.5
 20
210.239182
 30
-299.413749
 40
3.0
210
0.0
220
1.0
230
0.0
 50
155.03342
 51
180.0
  0
LINE
  5
6D0
  8
TEAM-NET
 10
-37.780338
 20
-299.413749
 30
211.505451
 11
-37.762782
 21
-300.594693
 31
211.467733
1001
ACAD
1000
R13OBJECT
1002
{
1005
58
1002
}
  0
ARC
  5
6D1
  8
TEAM-NET
 10
-49.230642
 20
228.510305
 30
285.552738
 40
3.0
210
0.029102
220
-0.997618
230
-0.062548
 50
0.0
 51
25.00377
1001
ACAD
1000
R13OBJECT
1002
{
1005
58
1002
}
  0
LINE
  5
6D2
  8
TEAM-NET
 10
-37.484054
 20
-300.507216
 30
210.202182
 11
-37.5
 21
-299.413749
 31
210.239182
1001
ACAD
1000
R13OBJECT
1002
{
1005
58
1002
}
  0
ARC
  5
59
  8
TEAM-NET
 10
40.5
 20
210.239182
 30
-299.413749
 40
3.0
210
0.0
220
1.0
230
0.0
 50
155.03342
 51
180.0
  0
LINE
  5
6D3
  8
TEAM-NET
 10
-37.5
 20
-299.413749
 30
210.239182
 11
-37.5
 21
-269.413749
 31
210.239182
1001
ACAD
1000
R13OBJECT
1002
{
1005
59
1002
}
  0
ARC
  5
6D4
  8
TEAM-NET
 10
-40.5
 20
210.239182
 30
269.413749
 40
3.0
210
-0.0
220
-1.0
230
0.0
 50
360.0
 51
24.96658
1001
ACAD
1000
R13OBJECT
1002
{
1005
59
1002
}
  0
LINE
  5
6D5
  8
TEAM-NET
 10
-37.780338
 20
-269.413749
 30
211.505451
 11
-37.780338
 21
-299.413749
 31
211.505451
1001
ACAD
1000
R13OBJECT
1002
{
1005
59
1002
}
  0
ARC
  5
5A
  8
TEAM-NET
 10
49.230642
 20
228.510305
 30
285.552738
 40
3.0
210
-0.029102
220
-0.997618
230
-0.062548
 50
154.99623
 51
180.0
  0
POLYLINE
  5
6D6
  8
TEAM-NET
 66
     1
 10
0.0
 20
0.0
 30
0.0
 70
     8
1001
ACAD
1000
R13OBJECT
1002
{
1005
5A
1002
}
  0
VERTEX
  5
6D7
  8
TEAM-NET
 10
37.484054
 20
-300.507216
 30
210.202182
 70
    32
  0
VERTEX
  5
6D8
  8
TEAM-NET
 10
37.368131
 20
-302.555771
 30
210.068564
 70
    32
  0
VERTEX
  5
6D9
  8
TEAM-NET
 10
37.140328
 20
-304.59518
 30
209.944174
 70
    32
  0
VERTEX
  5
6DA
  8
TEAM-NET
 10
36.589683
 20
-307.626295
 30
209.774604
 70
    32
  0
VERTEX
  5
6DB
  8
TEAM-NET
 10
36.350729
 20
-308.626576
 30
209.722626
 70
    32
  0
VERTEX
  5
6DC
  8
TEAM-NET
 10
35.791166
 20
-310.60501
 30
209.62551
 70
    32
  0
VERTEX
  5
6DD
  8
TEAM-NET
 10
35.124673
 20
-312.548083
 30
209.537223
 70
    32
  0
VERTEX
  5
6DE
  8
TEAM-NET
 10
33.92282
 20
-315.398122
 30
209.41965
 70
    32
  0
VERTEX
  5
6DF
  8
TEAM-NET
 10
33.585082
 20
-316.096045
 30
209.392886
 70
    32
  0
VERTEX
  5
6E0
  8
TEAM-NET
 10
33.469312
 20
-316.327199
 30
209.384188
 70
    32
  0
VERTEX
  5
6E1
  8
TEAM-NET
 10
30.629319
 20
-321.049176
 30
209.223382
 70
    32
  0
VERTEX
  5
6E2
  8
TEAM-NET
 10
27.143602
 20
-325.287687
 30
209.102899
 70
    32
  0
VERTEX
  5
6E3
  8
TEAM-NET
 10
25.168105
 20
-327.213391
 30
209.054407
 70
    32
  0
VERTEX
  5
6E4
  8
TEAM-NET
 10
23.054042
 20
-328.99003
 30
209.012729
 70
    32
  0
VERTEX
  5
6E5
  8
TEAM-NET
 10
22.505865
 20
-329.409316
 30
209.003289
 70
    32
  0
VERTEX
  5
6E6
  8
TEAM-NET
 10
20.818101
 20
-330.604342
 30
208.977177
 70
    32
  0
VERTEX
  5
6E7
  8
TEAM-NET
 10
18.480245
 20
-332.043946
 30
208.947197
 70
    32
  0
VERTEX
  5
6E8
  8
TEAM-NET
 10
17.274167
 20
-332.698167
 30
208.934079
 70
    32
  0
VERTEX
  5
6E9
  8
TEAM-NET
 10
14.784043
 20
-333.876542
 30
208.911208
 70
    32
  0
VERTEX
  5
6EA
  8
TEAM-NET
 10
13.505206
 20
-334.397493
 30
208.901396
 70
    32
  0
VERTEX
  5
6EB
  8
TEAM-NET
 10
9.563297
 20
-335.673854
 30
208.878092
 70
    32
  0
VERTEX
  5
6EC
  8
TEAM-NET
 10
8.223413
 20
-336.000996
 30
208.872282
 70
    32
  0
VERTEX
  5
6ED
  8
TEAM-NET
 10
6.198665
 20
-336.397894
 30
208.865321
 70
    32
  0
VERTEX
  5
6EE
  8
TEAM-NET
 10
4.161426
 20
-336.682123
 30
208.860393
 70
    32
  0
VERTEX
  5
6EF
  8
TEAM-NET
 10
2.792424
 20
-336.809663
 30
208.858198
 70
    32
  0
VERTEX
  5
6F0
  8
TEAM-NET
 10
-2.727508
 20
-336.814565
 30
208.858114
 70
    32
  0
VERTEX
  5
6F1
  8
TEAM-NET
 10
-8.182166
 20
-336.010314
 30
208.872119
 70
    32
  0
VERTEX
  5
6F2
  8
TEAM-NET
 10
-10.835731
 20
-335.314088
 30
208.884557
 70
    32
  0
VERTEX
  5
6F3
  8
TEAM-NET
 10
-13.442323
 20
-334.421722
 30
208.900946
 70
    32
  0
VERTEX
  5
6F4
  8
TEAM-NET
 10
-18.440158
 20
-332.066685
 30
208.946736
 70
    32
  0
VERTEX
  5
6F5
  8
TEAM-NET
 10
-20.790935
 20
-330.622476
 30
208.976787
 70
    32
  0
VERTEX
  5
6F6
  8
TEAM-NET
 10
-23.018296
 20
-329.017933
 30
209.012093
 70
    32
  0
VERTEX
  5
6F7
  8
TEAM-NET
 10
-24.609507
 20
-327.709002
 30
209.042498
 70
    32
  0
VERTEX
  5
6F8
  8
TEAM-NET
 10
-26.132441
 20
-326.308797
 30
209.076738
 70
    32
  0
VERTEX
  5
6F9
  8
TEAM-NET
 10
-28.941039
 20
-323.260684
 30
209.15799
 70
    32
  0
VERTEX
  5
6FA
  8
TEAM-NET
 10
-31.391163
 20
-319.928132
 30
209.258813
 70
    32
  0
VERTEX
  5
6FB
  8
TEAM-NET
 10
-33.44987
 20
-316.36519
 30
209.382773
 70
    32
  0
VERTEX
  5
6FC
  8
TEAM-NET
 10
-35.112888
 20
-312.580055
 30
209.53582
 70
    32
  0
VERTEX
  5
6FD
  8
TEAM-NET
 10
-36.348934
 20
-308.633255
 30
209.722284
 70
    32
  0
VERTEX
  5
6FE
  8
TEAM-NET
 10
-36.800781
 20
-306.621505
 30
209.828795
 70
    32
  0
VERTEX
  5
6FF
  8
TEAM-NET
 10
-37.140178
 20
-304.595979
 30
209.944127
 70
    32
  0
VERTEX
  5
700
  8
TEAM-NET
 10
-37.368139
 20
-302.555816
 30
210.06856
 70
    32
  0
VERTEX
  5
701
  8
TEAM-NET
 10
-37.484054
 20
-300.507216
 30
210.202182
 70
    32
  0
SEQEND
  5
702
  8
TEAM-NET
  0
ARC
  5
703
  8
TEAM-NET
 10
-49.230642
 20
228.510305
 30
285.552738
 40
3.0
210
0.029102
220
-0.997618
230
-0.062548
 50
0.0
 51
25.00377
1001
ACAD
1000
R13OBJECT
1002
{
1005
5A
1002
}
  0
POLYLINE
  5
704
  8
TEAM-NET
 66
     1
 10
0.0
 20
0.0
 30
0.0
 70
     8
1001
ACAD
1000
R13OBJECT
1002
{
1005
5A
1002
}
  0
VERTEX
  5
705
  8
TEAM-NET
 10
-37.762782
 20
-300.594693
 30
211.467733
 70
    32
  0
VERTEX
  5
706
  8
TEAM-NET
 10
-37.755007
 20
-302.675031
 30
211.554907
 70
    32
  0
VERTEX
  5
707
  8
TEAM-NET
 10
-37.638825
 20
-304.757218
 30
211.624124
 70
    32
  0
VERTEX
  5
708
  8
TEAM-NET
 10
-37.410393
 20
-306.834916
 30
211.677724
 70
    32
  0
VERTEX
  5
709
  8
TEAM-NET
 10
-37.064638
 20
-308.908931
 30
211.717518
 70
    32
  0
VERTEX
  5
70A
  8
TEAM-NET
 10
-36.011846
 20
-313.00708
 30
211.762784
 70
    32
  0
VERTEX
  5
70B
  8
TEAM-NET
 10
-34.479449
 20
-316.969783
 30
211.775358
 70
    32
  0
VERTEX
  5
70C
  8
TEAM-NET
 10
-32.493614
 20
-320.72373
 30
211.768819
 70
    32
  0
VERTEX
  5
70D
  8
TEAM-NET
 10
-30.061293
 20
-324.251689
 30
211.752504
 70
    32
  0
VERTEX
  5
70E
  8
TEAM-NET
 10
-27.220025
 20
-327.489872
 30
211.732302
 70
    32
  0
VERTEX
  5
70F
  8
TEAM-NET
 10
-25.663927
 20
-328.980404
 30
211.721955
 70
    32
  0
VERTEX
  5
710
  8
TEAM-NET
 10
-24.029628
 20
-330.375278
 30
211.711868
 70
    32
  0
VERTEX
  5
711
  8
TEAM-NET
 10
-21.730692
 20
-332.086962
 30
211.699114
 70
    32
  0
VERTEX
  5
712
  8
TEAM-NET
 10
-19.293473
 20
-333.629133
 30
211.68739
 70
    32
  0
VERTEX
  5
713
  8
TEAM-NET
 10
-14.08631
 20
-336.146652
 30
211.668024
 70
    32
  0
VERTEX
  5
714
  8
TEAM-NET
 10
-11.361157
 20
-337.10138
 30
211.660664
 70
    32
  0
VERTEX
  5
715
  8
TEAM-NET
 10
-8.582535
 20
-337.846541
 30
211.654925
 70
    32
  0
VERTEX
  5
716
  8
TEAM-NET
 10
-2.862325
 20
-338.707609
 30
211.648311
 70
    32
  0
VERTEX
  5
717
  8
TEAM-NET
 10
2.930442
 20
-338.70236
 30
211.648351
 70
    32
  0
VERTEX
  5
718
  8
TEAM-NET
 10
4.366783
 20
-338.565788
 30
211.649399
 70
    32
  0
VERTEX
  5
719
  8
TEAM-NET
 10
6.503472
 20
-338.261464
 30
211.651735
 70
    32
  0
VERTEX
  5
71A
  8
TEAM-NET
 10
8.625752
 20
-337.836566
 30
211.655002
 70
    32
  0
VERTEX
  5
71B
  8
TEAM-NET
 10
10.029219
 20
-337.486403
 30
211.657697
 70
    32
  0
VERTEX
  5
71C
  8
TEAM-NET
 10
14.15199
 20
-336.120733
 30
211.668225
 70
    32
  0
VERTEX
  5
71D
  8
TEAM-NET
 10
15.486907
 20
-335.563576
 30
211.672522
 70
    32
  0
VERTEX
  5
71E
  8
TEAM-NET
 10
18.08133
 20
-334.303865
 30
211.682218
 70
    32
  0
VERTEX
  5
71F
  8
TEAM-NET
 10
19.335108
 20
-333.604842
 30
211.687576
 70
    32
  0
VERTEX
  5
720
  8
TEAM-NET
 10
21.758794
 20
-332.06761
 30
211.699258
 70
    32
  0
VERTEX
  5
721
  8
TEAM-NET
 10
23.501782
 20
-330.792622
 30
211.708789
 70
    32
  0
VERTEX
  5
722
  8
TEAM-NET
 10
24.066417
 20
-330.345532
 30
211.712084
 70
    32
  0
VERTEX
  5
723
  8
TEAM-NET
 10
26.235712
 20
-328.452621
 30
211.725679
 70
    32
  0
VERTEX
  5
724
  8
TEAM-NET
 10
28.247805
 20
-326.40404
 30
211.739471
 70
    32
  0
VERTEX
  5
725
  8
TEAM-NET
 10
31.743504
 20
-321.908884
 30
211.7642
 70
    32
  0
VERTEX
  5
726
  8
TEAM-NET
 10
34.497863
 20
-316.929866
 30
211.775345
 70
    32
  0
VERTEX
  5
727
  8
TEAM-NET
 10
34.607101
 20
-316.68708
 30
211.775231
 70
    32
  0
VERTEX
  5
728
  8
TEAM-NET
 10
34.923916
 20
-315.954641
 30
211.774406
 70
    32
  0
VERTEX
  5
729
  8
TEAM-NET
 10
36.02229
 20
-312.973743
 30
211.762565
 70
    32
  0
VERTEX
  5
72A
  8
TEAM-NET
 10
36.603429
 20
-310.951643
 30
211.745005
 70
    32
  0
VERTEX
  5
72B
  8
TEAM-NET
 10
37.066088
 20
-308.902035
 30
211.717396
 70
    32
  0
VERTEX
  5
72C
  8
TEAM-NET
 10
37.253037
 20
-307.869512
 30
211.699167
 70
    32
  0
VERTEX
  5
72D
  8
TEAM-NET
 10
37.638932
 20
-304.756403
 30
211.624087
 70
    32
  0
VERTEX
  5
72E
  8
TEAM-NET
 10
37.754995
 20
-302.674987
 30
211.554903
 70
    32
  0
VERTEX
  5
72F
  8
TEAM-NET
 10
37.762782
 20
-300.594693
 30
211.467733
 70
    32
  0
SEQEND
  5
730
  8
TEAM-NET
  0
ARC
  5
5B
  8
TEAM-NET
 10
40.5
 20
210.239182
 30
269.413749
 40
3.0
210
0.0
220
-1.0
230
0.0
 50
155.03342
 51
180.0
  0
LINE
  5
731
  8
TEAM-NET
 10
37.5
 20
-269.413749
 30
210.239182
 11
37.5
 21
-299.413749
 31
210.239182
1001
ACAD
1000
R13OBJECT
1002
{
1005
5B
1002
}
  0
ARC
  5
732
  8
TEAM-NET
 10
-40.5
 20
210.239182
 30
-299.413749
 40
3.0
210
0.0
220
1.0
230
0.0
 50
360.0
 51
24.96658
1001
ACAD
1000
R13OBJECT
1002
{
1005
5B
1002
}
  0
LINE
  5
733
  8
TEAM-NET
 10
37.780338
 20
-299.413749
 30
211.505451
 11
37.780338
 21
-269.413749
 31
211.505451
1001
ACAD
1000
R13OBJECT
1002
{
1005
5B
1002
}
  0
ARC
  5
5C
  8
TEAM-NET
 10
-246.413749
 20
209.4709
 30
16.58664
 40
3.0
210
0.99999
220
-0.0
230
-0.004361
 50
126.876744
 51
180.0
  0
POLYLINE
  5
734
  8
TEAM-NET
 66
     1
 10
0.0
 20
0.0
 30
0.0
 70
     8
1001
ACAD
1000
R13OBJECT
1002
{
1005
5C
1002
}
  0
VERTEX
  5
735
  8
TEAM-NET
 10
17.5
 20
-249.413749
 30
209.396573
 70
    32
  0
VERTEX
  5
736
  8
TEAM-NET
 10
19.143568
 20
-249.481386
 30
209.38943
 70
    32
  0
VERTEX
  5
737
  8
TEAM-NET
 10
19.690126
 20
-249.534041
 30
209.387614
 70
    32
  0
VERTEX
  5
738
  8
TEAM-NET
 10
21.852633
 20
-249.89307
 30
209.383784
 70
    32
  0
VERTEX
  5
739
  8
TEAM-NET
 10
23.964962
 20
-250.487465
 30
209.386294
 70
    32
  0
VERTEX
  5
73A
  8
TEAM-NET
 10
25.498087
 20
-251.082624
 30
209.392921
 70
    32
  0
VERTEX
  5
73B
  8
TEAM-NET
 10
25.998611
 20
-251.309235
 30
209.39612
 70
    32
  0
VERTEX
  5
73C
  8
TEAM-NET
 10
26.982965
 20
-251.804853
 30
209.404123
 70
    32
  0
VERTEX
  5
73D
  8
TEAM-NET
 10
27.940692
 20
-252.355264
 30
209.414383
 70
    32
  0
VERTEX
  5
73E
  8
TEAM-NET
 10
28.867325
 20
-252.95824
 30
209.427053
 70
    32
  0
VERTEX
  5
73F
  8
TEAM-NET
 10
29.3176
 20
-253.278568
 30
209.434339
 70
    32
  0
VERTEX
  5
740
  8
TEAM-NET
 10
29.539259
 20
-253.443279
 30
209.438229
 70
    32
  0
VERTEX
  5
741
  8
TEAM-NET
 10
29.758494
 20
-253.610931
 30
209.442287
 70
    32
  0
VERTEX
  5
742
  8
TEAM-NET
 10
30.816884
 20
-254.491975
 30
209.465188
 70
    32
  0
VERTEX
  5
743
  8
TEAM-NET
 10
31.419454
 20
-255.052422
 30
209.481104
 70
    32
  0
VERTEX
  5
744
  8
TEAM-NET
 10
32.186328
 20
-255.83764
 30
209.505145
 70
    32
  0
VERTEX
  5
745
  8
TEAM-NET
 10
32.911665
 20
-256.666983
 30
209.532756
 70
    32
  0
VERTEX
  5
746
  8
TEAM-NET
 10
34.519512
 20
-258.909638
 30
209.619165
 70
    32
  0
VERTEX
  5
747
  8
TEAM-NET
 10
35.328606
 20
-260.350693
 30
209.684167
 70
    32
  0
VERTEX
  5
748
  8
TEAM-NET
 10
36.213812
 20
-262.357296
 30
209.787661
 70
    32
  0
VERTEX
  5
749
  8
TEAM-NET
 10
36.876639
 20
-264.458974
 30
209.912484
 70
    32
  0
VERTEX
  5
74A
  8
TEAM-NET
 10
37.304273
 20
-266.622876
 30
210.057402
 70
    32
  0
VERTEX
  5
74B
  8
TEAM-NET
 10
37.490881
 20
-268.809872
 30
210.216655
 70
    32
  0
SEQEND
  5
74C
  8
TEAM-NET
  0
ARC
  5
74D
  8
TEAM-NET
 10
-32.357392
 20
192.30735
 30
-282.862833
 40
3.0
210
-0.03013
220
0.997447
230
-0.064741
 50
360.0
 51
25.013445
1001
ACAD
1000
R13OBJECT
1002
{
1005
5C
1002
}
  0
POLYLINE
  5
74E
  8
TEAM-NET
 66
     1
 10
0.0
 20
0.0
 30
0.0
 70
     8
1001
ACAD
1000
R13OBJECT
1002
{
1005
5C
1002
}
  0
VERTEX
  5
74F
  8
TEAM-NET
 10
37.769648
 20
-268.719291
 30
211.482486
 70
    32
  0
VERTEX
  5
750
  8
TEAM-NET
 10
37.705969
 20
-266.472941
 30
211.583276
 70
    32
  0
VERTEX
  5
751
  8
TEAM-NET
 10
37.400742
 20
-264.228671
 30
211.662116
 70
    32
  0
VERTEX
  5
752
  8
TEAM-NET
 10
36.843059
 20
-262.027016
 30
211.718161
 70
    32
  0
VERTEX
  5
753
  8
TEAM-NET
 10
36.034276
 20
-259.905952
 30
211.754873
 70
    32
  0
VERTEX
  5
754
  8
TEAM-NET
 10
35.26058
 20
-258.372726
 30
211.772831
 70
    32
  0
VERTEX
  5
755
  8
TEAM-NET
 10
33.667778
 20
-255.973554
 30
211.789953
 70
    32
  0
VERTEX
  5
756
  8
TEAM-NET
 10
32.93366
 20
-255.083298
 30
211.793682
 70
    32
  0
VERTEX
  5
757
  8
TEAM-NET
 10
32.150291
 20
-254.239358
 30
211.796189
 70
    32
  0
VERTEX
  5
758
  8
TEAM-NET
 10
31.530588
 20
-253.636551
 30
211.797456
 70
    32
  0
VERTEX
  5
759
  8
TEAM-NET
 10
30.435113
 20
-252.688501
 30
211.798696
 70
    32
  0
VERTEX
  5
75A
  8
TEAM-NET
 10
30.207263
 20
-252.508082
 30
211.79884
 70
    32
  0
VERTEX
  5
75B
  8
TEAM-NET
 10
29.976612
 20
-252.330831
 30
211.798956
 70
    32
  0
VERTEX
  5
75C
  8
TEAM-NET
 10
29.507265
 20
-251.986149
 30
211.799113
 70
    32
  0
VERTEX
  5
75D
  8
TEAM-NET
 10
28.53842
 20
-251.337572
 30
211.799185
 70
    32
  0
VERTEX
  5
75E
  8
TEAM-NET
 10
27.533651
 20
-250.746058
 30
211.79903
 70
    32
  0
VERTEX
  5
75F
  8
TEAM-NET
 10
26.498142
 20
-250.214169
 30
211.798738
 70
    32
  0
VERTEX
  5
760
  8
TEAM-NET
 10
25.970735
 20
-249.97132
 30
211.798564
 70
    32
  0
VERTEX
  5
761
  8
TEAM-NET
 10
24.352511
 20
-249.335149
 30
211.798
 70
    32
  0
VERTEX
  5
762
  8
TEAM-NET
 10
22.118525
 20
-248.704284
 30
211.79729
 70
    32
  0
VERTEX
  5
763
  8
TEAM-NET
 10
19.829164
 20
-248.329793
 30
211.796731
 70
    32
  0
VERTEX
  5
764
  8
TEAM-NET
 10
19.250465
 20
-248.276458
 30
211.796616
 70
    32
  0
VERTEX
  5
765
  8
TEAM-NET
 10
17.510466
 20
-248.214035
 30
211.796335
 70
    32
  0
SEQEND
  5
766
  8
TEAM-NET
  0
LINE
  5
5D
  8
TEAM-NET
 10
130.090276
 20
-172.555661
 30
392.9
 11
130.090276
 21
-172.555661
 31
405.9
  0
ARC
  5
767
  8
TEAM-NET
 10
130.0
 20
-159.555974
 30
405.9
 40
13.0
 50
270.397881
 51
90.397881
1001
ACAD
1000
R13OBJECT
1002
{
1005
5D
1002
}
  0
LINE
  5
768
  8
TEAM-NET
 10
129.909724
 20
-146.556288
 30
394.750048
 11
129.909724
 21
-146.556288
 31
405.9
1001
ACAD
1000
R13OBJECT
1002
{
1005
5D
1002
}
  0
POLYLINE
  5
769
  8
TEAM-NET
 66
     1
 10
0.0
 20
0.0
 30
0.0
 70
     8
1001
ACAD
1000
R13OBJECT
1002
{
1005
5D
1002
}
  0
VERTEX
  5
76A
  8
TEAM-NET
 10
138.728012
 20
-149.921567
 30
392.9
 70
    32
  0
VERTEX
  5
76B
  8
TEAM-NET
 10
137.653877
 20
-149.047951
 30
393.002643
 70
    32
  0
VERTEX
  5
76C
  8
TEAM-NET
 10
136.502557
 20
-148.299131
 30
393.263669
 70
    32
  0
VERTEX
  5
76D
  8
TEAM-NET
 10
135.90723
 20
-147.975636
 30
393.432491
 70
    32
  0
VERTEX
  5
76E
  8
TEAM-NET
 10
135.297248
 20
-147.684204
 30
393.617988
 70
    32
  0
VERTEX
  5
76F
  8
TEAM-NET
 10
134.036076
 20
-147.198406
 30
394.010633
 70
    32
  0
VERTEX
  5
770
  8
TEAM-NET
 10
133.387447
 20
-147.005086
 30
394.201945
 70
    32
  0
VERTEX
  5
771
  8
TEAM-NET
 10
133.059089
 20
-146.921033
 30
394.292578
 70
    32
  0
VERTEX
  5
772
  8
TEAM-NET
 10
132.728193
 20
-146.84549
 30
394.37831
 70
    32
  0
VERTEX
  5
773
  8
TEAM-NET
 10
131.379292
 20
-146.629376
 30
394.648877
 70
    32
  0
VERTEX
  5
774
  8
TEAM-NET
 10
130.457791
 20
-146.564065
 30
394.739041
 70
    32
  0
VERTEX
  5
775
  8
TEAM-NET
 10
129.909923
 20
-146.556319
 30
394.749976
 70
    32
  0
SEQEND
  5
776
  8
TEAM-NET
  0
ARC
  5
777
  8
TEAM-NET
 10
130.0
 20
-159.555974
 30
392.9
 40
13.0
 50
270.397881
 51
47.825906
1001
ACAD
1000
R13OBJECT
1002
{
1005
5D
1002
}
  0
ARC
  5
5E
  8
TEAM-NET
 10
190.52837
 20
392.9
 30
10.779509
 40
2.0
210
-0.741108
220
-0.671386
230
-0.0
 50
270.0
 51
360.0
  0
POLYLINE
  5
778
  8
TEAM-NET
 66
     1
 10
0.0
 20
0.0
 30
0.0
 70
     8
1001
ACAD
1000
R13OBJECT
1002
{
1005
5E
1002
}
  0
VERTEX
  5
779
  8
TEAM-NET
 10
119.929216
 20
-148.439351
 30
390.9
 70
    32
  0
VERTEX
  5
77A
  8
TEAM-NET
 10
121.16868
 20
-147.027994
 30
391.043672
 70
    32
  0
VERTEX
  5
77B
  8
TEAM-NET
 10
122.497987
 20
-145.817836
 30
391.409425
 70
    32
  0
VERTEX
  5
77C
  8
TEAM-NET
 10
123.88776
 20
-144.825282
 30
391.905135
 70
    32
  0
VERTEX
  5
77D
  8
TEAM-NET
 10
125.337654
 20
-144.042863
 30
392.452834
 70
    32
  0
VERTEX
  5
77E
  8
TEAM-NET
 10
126.33345
 20
-143.63975
 30
392.804524
 70
    32
  0
VERTEX
  5
77F
  8
TEAM-NET
 10
126.840579
 20
-143.473815
 30
392.966081
 70
    32
  0
VERTEX
  5
780
  8
TEAM-NET
 10
127.355156
 20
-143.331717
 30
393.113339
 70
    32
  0
VERTEX
  5
781
  8
TEAM-NET
 10
127.875845
 20
-143.214315
 30
393.241773
 70
    32
  0
VERTEX
  5
782
  8
TEAM-NET
 10
128.401554
 20
-143.122252
 30
393.347144
 70
    32
  0
VERTEX
  5
783
  8
TEAM-NET
 10
129.461727
 20
-143.016224
 30
393.473982
 70
    32
  0
VERTEX
  5
784
  8
TEAM-NET
 10
130.52822
 20
-143.015694
 30
393.474658
 70
    32
  0
VERTEX
  5
785
  8
TEAM-NET
 10
131.59149
 20
-143.121195
 30
393.348428
 70
    32
  0
VERTEX
  5
786
  8
TEAM-NET
 10
133.147915
 20
-143.470303
 30
392.969634
 70
    32
  0
VERTEX
  5
787
  8
TEAM-NET
 10
133.529718
 20
-143.592334
 30
392.84961
 70
    32
  0
VERTEX
  5
788
  8
TEAM-NET
 10
133.908593
 20
-143.728113
 30
392.722723
 70
    32
  0
VERTEX
  5
789
  8
TEAM-NET
 10
134.65701
 20
-144.040398
 30
392.454886
 70
    32
  0
VERTEX
  5
78A
  8
TEAM-NET
 10
136.112209
 20
-144.825149
 30
391.905183
 70
    32
  0
VERTEX
  5
78B
  8
TEAM-NET
 10
136.816035
 20
-145.295923
 30
391.645487
 70
    32
  0
VERTEX
  5
78C
  8
TEAM-NET
 10
137.502951
 20
-145.818493
 30
391.409137
 70
    32
  0
VERTEX
  5
78D
  8
TEAM-NET
 10
138.831397
 20
-147.028124
 30
391.0437
 70
    32
  0
VERTEX
  5
78E
  8
TEAM-NET
 10
140.070784
 20
-148.439351
 30
390.9
 70
    32
  0
SEQEND
  5
78F
  8
TEAM-NET
  0
ARC
  5
790
  8
TEAM-NET
 10
-15.968121
 20
392.9
 30
203.467649
 40
2.0
210
0.741108
220
-0.671386
230
0.0
 50
180.0
 51
270.0
1001
ACAD
1000
R13OBJECT
1002
{
1005
5E
1002
}
  0
POLYLINE
  5
791
  8
TEAM-NET
 66
     1
 10
0.0
 20
0.0
 30
0.0
 70
     8
1001
ACAD
1000
R13OBJECT
1002
{
1005
5E
1002
}
  0
VERTEX
  5
792
  8
TEAM-NET
 10
138.728012
 20
-149.921567
 30
392.9
 70
    32
  0
VERTEX
  5
793
  8
TEAM-NET
 10
137.653877
 20
-149.047951
 30
393.002643
 70
    32
  0
VERTEX
  5
794
  8
TEAM-NET
 10
136.502557
 20
-148.299131
 30
393.263669
 70
    32
  0
VERTEX
  5
795
  8
TEAM-NET
 10
135.90723
 20
-147.975636
 30
393.432491
 70
    32
  0
VERTEX
  5
796
  8
TEAM-NET
 10
135.297248
 20
-147.684204
 30
393.617988
 70
    32
  0
VERTEX
  5
797
  8
TEAM-NET
 10
134.036076
 20
-147.198406
 30
394.010633
 70
    32
  0
VERTEX
  5
798
  8
TEAM-NET
 10
133.387447
 20
-147.005086
 30
394.201945
 70
    32
  0
VERTEX
  5
799
  8
TEAM-NET
 10
133.059089
 20
-146.921033
 30
394.292578
 70
    32
  0
VERTEX
  5
79A
  8
TEAM-NET
 10
132.728193
 20
-146.84549
 30
394.37831
 70
    32
  0
VERTEX
  5
79B
  8
TEAM-NET
 10
131.379292
 20
-146.629376
 30
394.648877
 70
    32
  0
VERTEX
  5
79C
  8
TEAM-NET
 10
130.457791
 20
-146.564065
 30
394.739041
 70
    32
  0
VERTEX
  5
79D
  8
TEAM-NET
 10
129.909923
 20
-146.556319
 30
394.749976
 70
    32
  0
SEQEND
  5
79E
  8
TEAM-NET
  0
POLYLINE
  5
79F
  8
TEAM-NET
 66
     1
 10
0.0
 20
0.0
 30
0.0
 70
     8
1001
ACAD
1000
R13OBJECT
1002
{
1005
5E
1002
}
  0
VERTEX
  5
7A0
  8
TEAM-NET
 10
129.909725
 20
-146.55632
 30
394.749974
 70
    32
  0
VERTEX
  5
7A1
  8
TEAM-NET
 10
129.533496
 20
-146.564394
 30
394.738559
 70
    32
  0
VERTEX
  5
7A2
  8
TEAM-NET
 10
128.61468
 20
-146.63003
 30
394.64796
 70
    32
  0
VERTEX
  5
7A3
  8
TEAM-NET
 10
128.159066
 20
-146.687021
 30
394.572695
 70
    32
  0
VERTEX
  5
7A4
  8
TEAM-NET
 10
127.707802
 20
-146.759698
 30
394.480957
 70
    32
  0
VERTEX
  5
7A5
  8
TEAM-NET
 10
127.261835
 20
-146.847664
 30
394.375772
 70
    32
  0
VERTEX
  5
7A6
  8
TEAM-NET
 10
126.822323
 20
-146.950385
 30
394.260374
 70
    32
  0
VERTEX
  5
7A7
  8
TEAM-NET
 10
125.9593
 20
-147.199932
 30
394.009167
 70
    32
  0
VERTEX
  5
7A8
  8
TEAM-NET
 10
124.702725
 20
-147.684286
 30
393.617953
 70
    32
  0
VERTEX
  5
7A9
  8
TEAM-NET
 10
123.498255
 20
-148.298725
 30
393.263875
 70
    32
  0
VERTEX
  5
7AA
  8
TEAM-NET
 10
122.346189
 20
-149.04787
 30
393.002623
 70
    32
  0
VERTEX
  5
7AB
  8
TEAM-NET
 10
121.271988
 20
-149.921567
 30
392.9
 70
    32
  0
SEQEND
  5
7AC
  8
TEAM-NET
  0
LINE
  5
5F
  8
TEAM-NET
 10
-129.903455
 20
-174.361173
 30
392.9
 11
-129.903455
 21
-174.361173
 31
405.9
  0
ARC
  5
7AD
  8
TEAM-NET
 10
-129.993731
 20
-161.361486
 30
405.9
 40
13.0
 50
270.397881
 51
90.397881
1001
ACAD
1000
R13OBJECT
1002
{
1005
5F
1002
}
  0
LINE
  5
7AE
  8
TEAM-NET
 10
-130.084007
 20
-148.3618
 30
393.352035
 11
-130.084007
 21
-148.3618
 31
405.9
1001
ACAD
1000
R13OBJECT
1002
{
1005
5F
1002
}
  0
POLYLINE
  5
7AF
  8
TEAM-NET
 66
     1
 10
0.0
 20
0.0
 30
0.0
 70
     8
1001
ACAD
1000
R13OBJECT
1002
{
1005
5F
1002
}
  0
VERTEX
  5
7B0
  8
TEAM-NET
 10
-123.392347
 20
-150.162302
 30
392.9
 70
    32
  0
VERTEX
  5
7B1
  8
TEAM-NET
 10
-125.168852
 20
-149.289941
 30
393.002414
 70
    32
  0
VERTEX
  5
7B2
  8
TEAM-NET
 10
-127.056061
 20
-148.697599
 30
393.194445
 70
    32
  0
VERTEX
  5
7B3
  8
TEAM-NET
 10
-128.024714
 20
-148.511353
 30
393.277211
 70
    32
  0
VERTEX
  5
7B4
  8
TEAM-NET
 10
-129.008986
 20
-148.398675
 30
393.333005
 70
    32
  0
VERTEX
  5
7B5
  8
TEAM-NET
 10
-130.084008
 20
-148.361684
 30
393.35221
 70
    32
  0
SEQEND
  5
7B6
  8
TEAM-NET
  0
ARC
  5
7B7
  8
TEAM-NET
 10
-129.993731
 20
-161.361486
 30
392.9
 40
13.0
 50
270.397881
 51
59.48268
1001
ACAD
1000
R13OBJECT
1002
{
1005
5F
1002
}
  0
ARC
  5
60
  8
TEAM-NET
 10
57.998339
 20
392.9
 30
193.925609
 40
2.0
210
-0.861476
220
-0.507799
230
-0.0
 50
270.0
 51
360.0
  0
POLYLINE
  5
7B8
  8
TEAM-NET
 66
     1
 10
0.0
 20
0.0
 30
0.0
 70
     8
1001
ACAD
1000
R13OBJECT
1002
{
1005
60
1002
}
  0
VERTEX
  5
7B9
  8
TEAM-NET
 10
-137.610713
 20
-148.439351
 30
390.9
 70
    32
  0
VERTEX
  5
7BA
  8
TEAM-NET
 10
-135.56305
 20
-147.031664
 30
391.042865
 70
    32
  0
VERTEX
  5
7BB
  8
TEAM-NET
 10
-133.392991
 20
-146.07677
 30
391.310885
 70
    32
  0
VERTEX
  5
7BC
  8
TEAM-NET
 10
-131.140101
 20
-145.591494
 30
391.505789
 70
    32
  0
VERTEX
  5
7BD
  8
TEAM-NET
 10
-130.381082
 20
-145.537128
 30
391.530221
 70
    32
  0
VERTEX
  5
7BE
  8
TEAM-NET
 10
-128.857487
 20
-145.590415
 30
391.506208
 70
    32
  0
VERTEX
  5
7BF
  8
TEAM-NET
 10
-127.721789
 20
-145.772432
 30
391.428095
 70
    32
  0
VERTEX
  5
7C0
  8
TEAM-NET
 10
-126.604112
 20
-146.073292
 30
391.312223
 70
    32
  0
VERTEX
  5
7C1
  8
TEAM-NET
 10
-124.426562
 20
-147.030152
 30
391.04338
 70
    32
  0
VERTEX
  5
7C2
  8
TEAM-NET
 10
-122.376749
 20
-148.439351
 30
390.9
 70
    32
  0
SEQEND
  5
7C3
  8
TEAM-NET
  0
ARC
  5
7C4
  8
TEAM-NET
 10
-190.019659
 20
392.9
 30
-30.047272
 40
2.0
210
0.861476
220
-0.507799
230
0.0
 50
180.0
 51
270.0
1001
ACAD
1000
R13OBJECT
1002
{
1005
60
1002
}
  0
POLYLINE
  5
7C5
  8
TEAM-NET
 66
     1
 10
0.0
 20
0.0
 30
0.0
 70
     8
1001
ACAD
1000
R13OBJECT
1002
{
1005
60
1002
}
  0
VERTEX
  5
7C6
  8
TEAM-NET
 10
-123.392347
 20
-150.162302
 30
392.9
 70
    32
  0
VERTEX
  5
7C7
  8
TEAM-NET
 10
-125.168852
 20
-149.289941
 30
393.002414
 70
    32
  0
VERTEX
  5
7C8
  8
TEAM-NET
 10
-127.056061
 20
-148.697599
 30
393.194445
 70
    32
  0
VERTEX
  5
7C9
  8
TEAM-NET
 10
-128.024714
 20
-148.511353
 30
393.277211
 70
    32
  0
VERTEX
  5
7CA
  8
TEAM-NET
 10
-129.008986
 20
-148.398675
 30
393.333005
 70
    32
  0
VERTEX
  5
7CB
  8
TEAM-NET
 10
-130.084008
 20
-148.361684
 30
393.35221
 70
    32
  0
SEQEND
  5
7CC
  8
TEAM-NET
  0
POLYLINE
  5
7CD
  8
TEAM-NET
 66
     1
 10
0.0
 20
0.0
 30
0.0
 70
     8
1001
ACAD
1000
R13OBJECT
1002
{
1005
60
1002
}
  0
VERTEX
  5
7CE
  8
TEAM-NET
 10
-130.084008
 20
-148.361684
 30
393.35221
 70
    32
  0
VERTEX
  5
7CF
  8
TEAM-NET
 10
-130.329435
 20
-148.365688
 30
393.350158
 70
    32
  0
VERTEX
  5
7D0
  8
TEAM-NET
 10
-130.987252
 20
-148.399343
 30
393.332706
 70
    32
  0
VERTEX
  5
7D1
  8
TEAM-NET
 10
-132.939757
 20
-148.699752
 30
393.193489
 70
    32
  0
VERTEX
  5
7D2
  8
TEAM-NET
 10
-134.820474
 20
-149.290877
 30
393.002047
 70
    32
  0
VERTEX
  5
7D3
  8
TEAM-NET
 10
-136.595115
 20
-150.162302
 30
392.9
 70
    32
  0
SEQEND
  5
7D4
  8
TEAM-NET
  0
LINE
  5
61
  8
TEAM-NET
 10
-129.903455
 20
-174.361173
 30
392.9
 11
-129.903455
 21
-174.361173
 31
405.9
  0
ARC
  5
7D5
  8
TEAM-NET
 10
-129.993731
 20
-161.361486
 30
392.9
 40
13.0
 50
120.51732
 51
270.397881
1001
ACAD
1000
R13OBJECT
1002
{
1005
61
1002
}
  0
POLYLINE
  5
7D6
  8
TEAM-NET
 66
     1
 10
0.0
 20
0.0
 30
0.0
 70
     8
1001
ACAD
1000
R13OBJECT
1002
{
1005
61
1002
}
  0
VERTEX
  5
7D7
  8
TEAM-NET
 10
-130.084008
 20
-148.361684
 30
393.35221
 70
    32
  0
VERTEX
  5
7D8
  8
TEAM-NET
 10
-130.329435
 20
-148.365688
 30
393.350158
 70
    32
  0
VERTEX
  5
7D9
  8
TEAM-NET
 10
-130.987252
 20
-148.399343
 30
393.332706
 70
    32
  0
VERTEX
  5
7DA
  8
TEAM-NET
 10
-132.939757
 20
-148.699752
 30
393.193489
 70
    32
  0
VERTEX
  5
7DB
  8
TEAM-NET
 10
-134.820474
 20
-149.290877
 30
393.002047
 70
    32
  0
VERTEX
  5
7DC
  8
TEAM-NET
 10
-136.595115
 20
-150.162302
 30
392.9
 70
    32
  0
SEQEND
  5
7DD
  8
TEAM-NET
  0
LINE
  5
7DE
  8
TEAM-NET
 10
-130.084007
 20
-148.3618
 30
393.352035
 11
-130.084007
 21
-148.3618
 31
405.9
1001
ACAD
1000
R13OBJECT
1002
{
1005
61
1002
}
  0
ARC
  5
7DF
  8
TEAM-NET
 10
-129.993731
 20
-161.361486
 30
405.9
 40
13.0
 50
90.397881
 51
270.397881
1001
ACAD
1000
R13OBJECT
1002
{
1005
61
1002
}
  0
LINE
  5
62
  8
TEAM-NET
 10
130.090276
 20
-172.555661
 30
392.9
 11
130.090276
 21
-172.555661
 31
405.9
  0
ARC
  5
7E0
  8
TEAM-NET
 10
130.0
 20
-159.555974
 30
392.9
 40
13.0
 50
132.174094
 51
270.397881
1001
ACAD
1000
R13OBJECT
1002
{
1005
62
1002
}
  0
POLYLINE
  5
7E1
  8
TEAM-NET
 66
     1
 10
0.0
 20
0.0
 30
0.0
 70
     8
1001
ACAD
1000
R13OBJECT
1002
{
1005
62
1002
}
  0
VERTEX
  5
7E2
  8
TEAM-NET
 10
129.909725
 20
-146.55632
 30
394.749974
 70
    32
  0
VERTEX
  5
7E3
  8
TEAM-NET
 10
129.533496
 20
-146.564394
 30
394.738559
 70
    32
  0
VERTEX
  5
7E4
  8
TEAM-NET
 10
128.61468
 20
-146.63003
 30
394.64796
 70
    32
  0
VERTEX
  5
7E5
  8
TEAM-NET
 10
128.159066
 20
-146.687021
 30
394.572695
 70
    32
  0
VERTEX
  5
7E6
  8
TEAM-NET
 10
127.707802
 20
-146.759698
 30
394.480957
 70
    32
  0
VERTEX
  5
7E7
  8
TEAM-NET
 10
127.261835
 20
-146.847664
 30
394.375772
 70
    32
  0
VERTEX
  5
7E8
  8
TEAM-NET
 10
126.822323
 20
-146.950385
 30
394.260374
 70
    32
  0
VERTEX
  5
7E9
  8
TEAM-NET
 10
125.9593
 20
-147.199932
 30
394.009167
 70
    32
  0
VERTEX
  5
7EA
  8
TEAM-NET
 10
124.702725
 20
-147.684286
 30
393.617953
 70
    32
  0
VERTEX
  5
7EB
  8
TEAM-NET
 10
123.498255
 20
-148.298725
 30
393.263875
 70
    32
  0
VERTEX
  5
7EC
  8
TEAM-NET
 10
122.346189
 20
-149.04787
 30
393.002623
 70
    32
  0
VERTEX
  5
7ED
  8
TEAM-NET
 10
121.271988
 20
-149.921567
 30
392.9
 70
    32
  0
SEQEND
  5
7EE
  8
TEAM-NET
  0
LINE
  5
7EF
  8
TEAM-NET
 10
129.909724
 20
-146.556288
 30
394.750048
 11
129.909724
 21
-146.556288
 31
405.9
1001
ACAD
1000
R13OBJECT
1002
{
1005
62
1002
}
  0
ARC
  5
7F0
  8
TEAM-NET
 10
130.0
 20
-159.555974
 30
405.9
 40
13.0
 50
90.397881
 51
270.397881
1001
ACAD
1000
R13OBJECT
1002
{
1005
62
1002
}
  0
ARC
  5
63
  8
TEAM-NET
 10
148.439351
 20
397.9
 30
-179.512014
 40
7.0
210
-1.0
220
0.0
230
-0.0
 50
180.0
 51
270.0
  0
ARC
  5
7F1
  8
TEAM-NET
 10
-179.512014
 20
-148.439351
 30
-397.9
 40
7.0
210
0.0
220
0.0
230
-1.0
 50
90.0
 51
180.0
1001
ACAD
1000
R13OBJECT
1002
{
1005
63
1002
}
  0
ARC
  5
7F2
  8
TEAM-NET
 10
179.512014
 20
397.9
 30
148.439351
 40
7.0
210
0.0
220
-1.0
230
0.0
 50
270.0
 51
0.0
1001
ACAD
1000
R13OBJECT
1002
{
1005
63
1002
}
  0
ARC
  5
7F3
  8
TEAM-NET
 10
178.476882
 20
397.9
 30
149.682353
 40
7.0
210
0.006944
220
-0.999976
230
0.0
 50
270.0
 51
0.0
1001
ACAD
1000
R13OBJECT
1002
{
1005
63
1002
}
  0
ARC
  5
7F4
  8
TEAM-NET
 10
179.512014
 20
-148.439351
 30
392.950253
 40
4.949747
 50
0.0
 51
90.0
1001
ACAD
1000
R13OBJECT
1002
{
1005
63
1002
}
  0
ARC
  5
64
  8
TEAM-NET
 10
147.187772
 20
397.9
 30
180.742702
 40
7.0
210
-0.999976
220
-0.006944
230
-0.0
 50
180.0
 51
270.0
  0
ARC
  5
7F5
  8
TEAM-NET
 10
-181.758703
 20
397.9
 30
145.93128
 40
7.0
210
0.013876
220
-0.999904
230
-0.0
 50
180.0
 51
270.0
1001
ACAD
1000
R13OBJECT
1002
{
1005
64
1002
}
  0
ARC
  5
7F6
  8
TEAM-NET
 10
179.716231
 20
-148.439351
 30
-397.9
 40
7.0
210
0.0
220
0.0
230
-1.0
 50
359.204926
 51
89.602119
1001
ACAD
1000
R13OBJECT
1002
{
1005
64
1002
}
  0
ARC
  5
7F7
  8
TEAM-NET
 10
180.742702
 20
397.9
 30
-147.187772
 40
7.0
210
-0.006944
220
0.999976
230
-0.0
 50
270.0
 51
0.0
1001
ACAD
1000
R13OBJECT
1002
{
1005
64
1002
}
  0
ARC
  5
7F8
  8
TEAM-NET
 10
-179.716231
 20
-148.439351
 30
392.950253
 40
4.949747
 50
90.397881
 51
180.795074
1001
ACAD
1000
R13OBJECT
1002
{
1005
64
1002
}
  0
ARC
  5
65
  8
TEAM-NET
 10
181.758703
 20
397.9
 30
-380.437938
 40
7.0
210
-0.013876
220
0.999904
230
0.0
 50
270.0
 51
360.0
  0
ARC
  5
7F9
  8
TEAM-NET
 10
1.516354
 20
-380.453526
 30
390.9
 40
177.99566
 50
180.795074
 51
360.0
1001
ACAD
1000
R13OBJECT
1002
{
1005
65
1002
}
  0
ARC
  5
7FA
  8
TEAM-NET
 10
-179.512014
 20
397.9
 30
-380.453526
 40
7.0
210
0.0
220
1.0
230
0.0
 50
180.0
 51
270.0
1001
ACAD
1000
R13OBJECT
1002
{
1005
65
1002
}
  0
ARC
  5
7FB
  8
TEAM-NET
 10
-1.516354
 20
-380.453526
 30
-397.9
 40
184.99566
210
0.0
220
0.0
230
-1.0
 50
180.0
 51
359.204926
1001
ACAD
1000
R13OBJECT
1002
{
1005
65
1002
}
  0
ARC
  5
7FC
  8
TEAM-NET
 10
-558.450543
 20
397.9
 30
-1.125657
 40
7.0
210
0.999976
220
0.006944
230
0.0
 50
180.0
 51
270.0
1001
ACAD
1000
R13OBJECT
1002
{
1005
65
1002
}
  0
ARC
  5
7FD
  8
TEAM-NET
 10
-1.516354
 20
-380.453526
 30
-392.950253
 40
182.945407
210
0.0
220
0.0
230
-1.0
 50
180.0
 51
359.204926
1001
ACAD
1000
R13OBJECT
1002
{
1005
65
1002
}
  0
ARC
  5
66
  8
TEAM-NET
 10
181.758703
 20
397.9
 30
-380.437938
 40
7.0
210
-0.013876
220
0.999904
230
0.0
 50
270.0
 51
360.0
  0
LINE
  5
7FE
  8
TEAM-NET
 10
-183.461494
 20
-383.020564
 30
397.9
 11
-186.715557
 21
-148.536484
 31
397.9
1001
ACAD
1000
R13OBJECT
1002
{
1005
66
1002
}
  0
ARC
  5
7FF
  8
TEAM-NET
 10
-181.758703
 20
397.9
 30
145.93128
 40
7.0
210
0.013876
220
-0.999904
230
-0.0
 50
180.0
 51
270.0
1001
ACAD
1000
R13OBJECT
1002
{
1005
66
1002
}
  0
LINE
  5
800
  8
TEAM-NET
 10
-179.716231
 20
-148.439351
 30
390.9
 11
-176.462168
 21
-382.923431
 31
390.9
1001
ACAD
1000
R13OBJECT
1002
{
1005
66
1002
}
  0
LINE
  5
801
  8
TEAM-NET
 10
-181.411439
 20
-382.992115
 30
392.950253
 11
-184.665502
 21
-148.508034
 31
392.950253
1001
ACAD
1000
R13OBJECT
1002
{
1005
66
1002
}
  0
ARC
  5
67
  8
TEAM-NET
 10
179.512014
 20
397.9
 30
148.439351
 40
7.0
210
0.0
220
-1.0
230
0.0
 50
270.0
 51
0.0
  0
LINE
  5
802
  8
TEAM-NET
 10
186.512014
 20
-148.439351
 30
397.9
 11
186.512014
 21
-380.453526
 31
397.9
1001
ACAD
1000
R13OBJECT
1002
{
1005
67
1002
}
  0
ARC
  5
803
  8
TEAM-NET
 10
-179.512014
 20
397.9
 30
-380.453526
 40
7.0
210
0.0
220
1.0
230
0.0
 50
180.0
 51
270.0
1001
ACAD
1000
R13OBJECT
1002
{
1005
67
1002
}
  0
LINE
  5
804
  8
TEAM-NET
 10
179.512014
 20
-380.453526
 30
390.9
 11
179.512014
 21
-148.439351
 31
390.9
1001
ACAD
1000
R13OBJECT
1002
{
1005
67
1002
}
  0
LINE
  5
805
  8
TEAM-NET
 10
184.461762
 20
-148.439351
 30
392.950253
 11
184.461762
 21
-380.453526
 31
392.950253
1001
ACAD
1000
R13OBJECT
1002
{
1005
67
1002
}
  0
POLYLINE
  5
68
  8
TEAM-NET
 66
     1
 10
0.0
 20
0.0
 30
0.0
 70
     8
  0
VERTEX
  5
806
  8
TEAM-NET
 10
-137.610713
 20
-148.439351
 30
390.9
 70
    32
  0
VERTEX
  5
807
  8
TEAM-NET
 10
-135.56305
 20
-147.031664
 30
391.042865
 70
    32
  0
VERTEX
  5
808
  8
TEAM-NET
 10
-133.392991
 20
-146.07677
 30
391.310885
 70
    32
  0
VERTEX
  5
809
  8
TEAM-NET
 10
-131.140101
 20
-145.591494
 30
391.505789
 70
    32
  0
VERTEX
  5
80A
  8
TEAM-NET
 10
-130.381082
 20
-145.537128
 30
391.530221
 70
    32
  0
VERTEX
  5
80B
  8
TEAM-NET
 10
-128.857487
 20
-145.590415
 30
391.506208
 70
    32
  0
VERTEX
  5
80C
  8
TEAM-NET
 10
-127.721789
 20
-145.772432
 30
391.428095
 70
    32
  0
VERTEX
  5
80D
  8
TEAM-NET
 10
-126.604112
 20
-146.073292
 30
391.312223
 70
    32
  0
VERTEX
  5
80E
  8
TEAM-NET
 10
-124.426562
 20
-147.030152
 30
391.04338
 70
    32
  0
VERTEX
  5
80F
  8
TEAM-NET
 10
-122.376749
 20
-148.439351
 30
390.9
 70
    32
  0
SEQEND
  5
810
  8
TEAM-NET
  0
LINE
  5
811
  8
TEAM-NET
 10
-137.610713
 20
-148.439351
 30
390.9
 11
-179.716231
 21
-148.439351
 31
390.9
1001
ACAD
1000
R13OBJECT
1002
{
1005
68
1002
}
  0
ARC
  5
812
  8
TEAM-NET
 10
-148.439351
 20
397.9
 30
-179.716231
 40
7.0
210
1.0
220
-0.0
230
-0.0
 50
270.0
 51
0.0
1001
ACAD
1000
R13OBJECT
1002
{
1005
68
1002
}
  0
LINE
  5
813
  8
TEAM-NET
 10
-179.716231
 20
-141.439351
 30
397.9
 11
179.512014
 21
-141.439351
 31
397.9
1001
ACAD
1000
R13OBJECT
1002
{
1005
68
1002
}
  0
ARC
  5
814
  8
TEAM-NET
 10
148.439351
 20
397.9
 30
-179.512014
 40
7.0
210
-1.0
220
0.0
230
-0.0
 50
180.0
 51
270.0
1001
ACAD
1000
R13OBJECT
1002
{
1005
68
1002
}
  0
LINE
  5
815
  8
TEAM-NET
 10
179.512014
 20
-148.439351
 30
390.9
 11
140.070784
 21
-148.439351
 31
390.9
1001
ACAD
1000
R13OBJECT
1002
{
1005
68
1002
}
  0
POLYLINE
  5
816
  8
TEAM-NET
 66
     1
 10
0.0
 20
0.0
 30
0.0
 70
     8
1001
ACAD
1000
R13OBJECT
1002
{
1005
68
1002
}
  0
VERTEX
  5
817
  8
TEAM-NET
 10
119.929216
 20
-148.439351
 30
390.9
 70
    32
  0
VERTEX
  5
818
  8
TEAM-NET
 10
121.16868
 20
-147.027994
 30
391.043672
 70
    32
  0
VERTEX
  5
819
  8
TEAM-NET
 10
122.497987
 20
-145.817836
 30
391.409425
 70
    32
  0
VERTEX
  5
81A
  8
TEAM-NET
 10
123.88776
 20
-144.825282
 30
391.905135
 70
    32
  0
VERTEX
  5
81B
  8
TEAM-NET
 10
125.337654
 20
-144.042863
 30
392.452834
 70
    32
  0
VERTEX
  5
81C
  8
TEAM-NET
 10
126.33345
 20
-143.63975
 30
392.804524
 70
    32
  0
VERTEX
  5
81D
  8
TEAM-NET
 10
126.840579
 20
-143.473815
 30
392.966081
 70
    32
  0
VERTEX
  5
81E
  8
TEAM-NET
 10
127.355156
 20
-143.331717
 30
393.113339
 70
    32
  0
VERTEX
  5
81F
  8
TEAM-NET
 10
127.875845
 20
-143.214315
 30
393.241773
 70
    32
  0
VERTEX
  5
820
  8
TEAM-NET
 10
128.401554
 20
-143.122252
 30
393.347144
 70
    32
  0
VERTEX
  5
821
  8
TEAM-NET
 10
129.461727
 20
-143.016224
 30
393.473982
 70
    32
  0
VERTEX
  5
822
  8
TEAM-NET
 10
130.52822
 20
-143.015694
 30
393.474658
 70
    32
  0
VERTEX
  5
823
  8
TEAM-NET
 10
131.59149
 20
-143.121195
 30
393.348428
 70
    32
  0
VERTEX
  5
824
  8
TEAM-NET
 10
133.147915
 20
-143.470303
 30
392.969634
 70
    32
  0
VERTEX
  5
825
  8
TEAM-NET
 10
133.529718
 20
-143.592334
 30
392.84961
 70
    32
  0
VERTEX
  5
826
  8
TEAM-NET
 10
133.908593
 20
-143.728113
 30
392.722723
 70
    32
  0
VERTEX
  5
827
  8
TEAM-NET
 10
134.65701
 20
-144.040398
 30
392.454886
 70
    32
  0
VERTEX
  5
828
  8
TEAM-NET
 10
136.112209
 20
-144.825149
 30
391.905183
 70
    32
  0
VERTEX
  5
829
  8
TEAM-NET
 10
136.816035
 20
-145.295923
 30
391.645487
 70
    32
  0
VERTEX
  5
82A
  8
TEAM-NET
 10
137.502951
 20
-145.818493
 30
391.409137
 70
    32
  0
VERTEX
  5
82B
  8
TEAM-NET
 10
138.831397
 20
-147.028124
 30
391.0437
 70
    32
  0
VERTEX
  5
82C
  8
TEAM-NET
 10
140.070784
 20
-148.439351
 30
390.9
 70
    32
  0
SEQEND
  5
82D
  8
TEAM-NET
  0
LINE
  5
82E
  8
TEAM-NET
 10
119.929216
 20
-148.439351
 30
390.9
 11
-122.376749
 21
-148.439351
 31
390.9
1001
ACAD
1000
R13OBJECT
1002
{
1005
68
1002
}
  0
LINE
  5
82F
  8
TEAM-NET
 10
-179.716231
 20
-143.489603
 30
392.950253
 11
179.512014
 21
-143.489603
 31
392.950253
1001
ACAD
1000
R13OBJECT
1002
{
1005
68
1002
}
  0
ARC
  5
69
  8
TEAM-NET
 10
-145.866748
 20
395.9
 30
-380.454883
 40
5.0
210
-0.006944
220
0.999976
230
-0.0
 50
270.0
 51
0.0
  0
ARC
  5
830
  8
TEAM-NET
 10
-1.516354
 20
-380.453526
 30
-390.9
 40
146.992405
210
0.0
220
0.0
230
-1.0
 50
179.602119
 51
359.602119
1001
ACAD
1000
R13OBJECT
1002
{
1005
69
1002
}
  0
ARC
  5
831
  8
TEAM-NET
 10
148.118062
 20
395.9
 30
-380.454883
 40
5.0
210
-0.006944
220
0.999976
230
0.0
 50
180.0
 51
270.0
1001
ACAD
1000
R13OBJECT
1002
{
1005
69
1002
}
  0
ARC
  5
832
  8
TEAM-NET
 10
1.516354
 20
-380.453526
 30
395.9
 40
141.992405
 50
180.397881
 51
0.397881
1001
ACAD
1000
R13OBJECT
1002
{
1005
69
1002
}
  0
ARC
  5
833
  8
TEAM-NET
 10
527.447288
 20
395.9
 30
1.125657
 40
5.0
210
-0.999976
220
-0.006944
230
0.0
 50
180.0
 51
270.0
1001
ACAD
1000
R13OBJECT
1002
{
1005
69
1002
}
  0
ARC
  5
834
  8
TEAM-NET
 10
1.516354
 20
-380.453526
 30
392.364466
 40
143.456871
 50
180.397881
 51
0.397881
1001
ACAD
1000
R13OBJECT
1002
{
1005
69
1002
}
  0
ARC
  5
6A
  8
TEAM-NET
 10
148.118062
 20
395.9
 30
-380.454883
 40
5.0
210
-0.006944
220
0.999976
230
0.0
 50
180.0
 51
270.0
  0
LINE
  5
835
  8
TEAM-NET
 10
-145.472506
 20
-381.474282
 30
390.9
 11
-145.784972
 21
-336.479182
 31
390.9
1001
ACAD
1000
R13OBJECT
1002
{
1005
6A
1002
}
  0
ARC
  5
836
  8
TEAM-NET
 10
148.118062
 20
395.9
 30
-335.458698
 40
5.0
210
-0.006944
220
0.999976
230
-0.0
 50
180.0
 51
270.0
1001
ACAD
1000
R13OBJECT
1002
{
1005
6A
1002
}
  0
LINE
  5
837
  8
TEAM-NET
 10
-140.785093
 20
-336.444461
 30
395.9
 11
-140.472627
 21
-381.439561
 31
395.9
1001
ACAD
1000
R13OBJECT
1002
{
1005
6A
1002
}
  0
LINE
  5
838
  8
TEAM-NET
 10
-142.249524
 20
-336.45463
 30
392.364466
 11
-141.937058
 21
-381.449731
 31
392.364466
1001
ACAD
1000
R13OBJECT
1002
{
1005
6A
1002
}
  0
ARC
  5
6B
  8
TEAM-NET
 10
-145.866748
 20
395.9
 30
-380.454883
 40
5.0
210
-0.006944
220
0.999976
230
-0.0
 50
270.0
 51
0.0
  0
LINE
  5
839
  8
TEAM-NET
 10
143.505336
 20
-379.467492
 30
395.9
 11
143.172926
 21
-331.600566
 31
395.9
1001
ACAD
1000
R13OBJECT
1002
{
1005
6B
1002
}
  0
POLYLINE
  5
83A
  8
TEAM-NET
 66
     1
 10
0.0
 20
0.0
 30
0.0
 70
     8
1001
ACAD
1000
R13OBJECT
1002
{
1005
6B
1002
}
  0
VERTEX
  5
83B
  8
TEAM-NET
 10
148.172458
 20
-331.515719
 30
390.9
 70
    32
  0
VERTEX
  5
83C
  8
TEAM-NET
 10
148.157353
 20
-331.515974
 30
390.900023
 70
    32
  0
VERTEX
  5
83D
  8
TEAM-NET
 10
146.213695
 20
-331.548858
 30
391.299725
 70
    32
  0
VERTEX
  5
83E
  8
TEAM-NET
 10
144.614015
 20
-331.57602
 30
392.387861
 70
    32
  0
VERTEX
  5
83F
  8
TEAM-NET
 10
143.547203
 20
-331.594184
 30
394.00184
 70
    32
  0
VERTEX
  5
840
  8
TEAM-NET
 10
143.172926
 20
-331.600566
 30
395.9
 70
    32
  0
SEQEND
  5
841
  8
TEAM-NET
  0
LINE
  5
842
  8
TEAM-NET
 10
148.172458
 20
-331.515719
 30
390.9
 11
148.505215
 21
-379.43277
 31
390.9
1001
ACAD
1000
R13OBJECT
1002
{
1005
6B
1002
}
  0
LINE
  5
843
  8
TEAM-NET
 10
144.969766
 20
-379.457322
 30
392.364466
 11
144.637255
 21
-331.575625
 31
392.364466
1001
ACAD
1000
R13OBJECT
1002
{
1005
6B
1002
}
  0
ARC
  5
6C
  8
TEAM-NET
 10
148.118062
 20
395.9
 30
-335.458698
 40
5.0
210
-0.006944
220
0.999976
230
-0.0
 50
180.0
 51
270.0
  0
ARC
  5
844
  8
TEAM-NET
 10
-1.218409
 20
-335.458325
 30
-390.9
 40
147.006926
210
0.0
220
0.0
230
-1.0
 50
359.602119
 51
178.463189
1001
ACAD
1000
R13OBJECT
1002
{
1005
6C
1002
}
  0
POLYLINE
  5
845
  8
TEAM-NET
 66
     1
 10
0.0
 20
0.0
 30
0.0
 70
     8
1001
ACAD
1000
R13OBJECT
1002
{
1005
6C
1002
}
  0
VERTEX
  5
846
  8
TEAM-NET
 10
148.172458
 20
-331.515719
 30
390.9
 70
    32
  0
VERTEX
  5
847
  8
TEAM-NET
 10
148.157353
 20
-331.515974
 30
390.900023
 70
    32
  0
VERTEX
  5
848
  8
TEAM-NET
 10
146.213695
 20
-331.548858
 30
391.299725
 70
    32
  0
VERTEX
  5
849
  8
TEAM-NET
 10
144.614015
 20
-331.57602
 30
392.387861
 70
    32
  0
VERTEX
  5
84A
  8
TEAM-NET
 10
143.547203
 20
-331.594184
 30
394.00184
 70
    32
  0
VERTEX
  5
84B
  8
TEAM-NET
 10
143.172926
 20
-331.600566
 30
395.9
 70
    32
  0
SEQEND
  5
84C
  8
TEAM-NET
  0
ARC
  5
84D
  8
TEAM-NET
 10
1.218409
 20
-335.458325
 30
395.9
 40
142.006926
 50
1.556688
 51
180.397881
1001
ACAD
1000
R13OBJECT
1002
{
1005
6C
1002
}
  0
ARC
  5
84E
  8
TEAM-NET
 10
-188.451771
 20
395.9
 30
-1.111135
 40
5.0
210
0.999976
220
0.006944
230
-0.0
 50
180.0
 51
270.0
1001
ACAD
1000
R13OBJECT
1002
{
1005
6C
1002
}
  0
ARC
  5
84F
  8
TEAM-NET
 10
1.218409
 20
-335.458325
 30
392.364466
 40
143.471393
 50
1.550759
 51
180.397881
1001
ACAD
1000
R13OBJECT
1002
{
1005
6C
1002
}
  0
ARC
  5
6D
  8
TEAM-NET
 10
147.187772
 20
397.9
 30
180.742702
 40
7.0
210
-0.999976
220
-0.006944
230
-0.0
 50
180.0
 51
270.0
  0
ARC
  5
850
  8
TEAM-NET
 10
179.716231
 20
-148.439351
 30
-397.9
 40
7.0
210
0.0
220
0.0
230
-1.0
 50
89.602119
 51
90.0
1001
ACAD
1000
R13OBJECT
1002
{
1005
6D
1002
}
  0
ARC
  5
851
  8
TEAM-NET
 10
-148.439351
 20
397.9
 30
-179.716231
 40
7.0
210
1.0
220
-0.0
230
-0.0
 50
270.0
 51
0.0
1001
ACAD
1000
R13OBJECT
1002
{
1005
6D
1002
}
  0
ARC
  5
852
  8
TEAM-NET
 10
-179.716231
 20
-148.439351
 30
392.950253
 40
4.949748
 50
90.0
 51
90.397881
1001
ACAD
1000
R13OBJECT
1002
{
1005
6D
1002
}
  0
ARC
  5
6E
  8
TEAM-NET
 10
-177.978146
 20
383.9
 30
-55.119986
 40
7.0
210
0.013157
220
0.999913
230
0.0
 50
90.0
 51
180.0
  0
POLYLINE
  5
853
  8
TEAM-NET
 66
     1
 10
0.0
 20
0.0
 30
184.978146
 70
   128
210
0.999913
220
-0.013157
230
-0.0
1001
ACAD
1000
R13OBJECT
1002
{
1005
6E
1002
}
  0
VERTEX
  5
FD8
  8
TEAM-NET
 10
-55.119986
 20
383.9
 30
184.978146
  0
VERTEX
  5
FD9
  8
TEAM-NET
 10
-53.244014
 20
383.965239
 30
184.978146
  0
VERTEX
  5
FDA
  8
TEAM-NET
 10
-51.377108
 20
384.160642
 30
184.978146
  0
VERTEX
  5
FDB
  8
TEAM-NET
 10
-49.528289
 20
384.485263
 30
184.978146
  0
VERTEX
  5
FDC
  8
TEAM-NET
 10
-47.706493
 20
384.937534
 30
184.978146
  0
VERTEX
  5
FDD
  8
TEAM-NET
 10
-45.920522
 20
385.51527
 30
184.978146
  0
VERTEX
  5
FDE
  8
TEAM-NET
 10
-44.179009
 20
386.215678
 30
184.978146
  0
VERTEX
  5
FDF
  8
TEAM-NET
 10
-42.490368
 20
387.035374
 30
184.978146
  0
VERTEX
  5
FE0
  8
TEAM-NET
 10
-40.862759
 20
387.970397
 30
184.978146
  0
VERTEX
  5
FE1
  8
TEAM-NET
 10
-39.30405
 20
389.016228
 30
184.978146
  0
VERTEX
  5
FE2
  8
TEAM-NET
 10
-37.821771
 20
390.167813
 30
184.978146
  0
VERTEX
  5
FE3
  8
TEAM-NET
 10
-36.423087
 20
391.419587
 30
184.978146
  0
VERTEX
  5
FE4
  8
TEAM-NET
 10
-35.114756
 20
392.765501
 30
184.978146
  0
VERTEX
  5
FE5
  8
TEAM-NET
 10
-33.903101
 20
394.19905
 30
184.978146
  0
VERTEX
  5
FE6
  8
TEAM-NET
 10
-32.793978
 20
395.713307
 30
184.978146
  0
VERTEX
  5
FE7
  8
TEAM-NET
 10
-31.792745
 20
397.300955
 30
184.978146
  0
VERTEX
  5
FE8
  8
TEAM-NET
 10
-30.904242
 20
398.95432
 30
184.978146
  0
VERTEX
  5
FE9
  8
TEAM-NET
 10
-30.132763
 20
400.665413
 30
184.978146
  0
VERTEX
  5
FEA
  8
TEAM-NET
 10
-29.482035
 20
402.425965
 30
184.978146
  0
VERTEX
  5
FEB
  8
TEAM-NET
 10
-28.955204
 20
404.227468
 30
184.978146
  0
VERTEX
  5
FEC
  8
TEAM-NET
 10
-28.554814
 20
406.061217
 30
184.978146
  0
VERTEX
  5
FED
  8
TEAM-NET
 10
-28.282802
 20
407.918349
 30
184.978146
  0
SEQEND
  5
FEE
  8
TEAM-NET
  0
ARC
  5
86B
  8
TEAM-NET
 10
177.978146
 20
73.160685
 30
-402.299404
 40
7.0
210
-0.001453
220
-0.110431
230
-0.993883
 50
0.0
 51
89.250763
1001
ACAD
1000
R13OBJECT
1002
{
1005
6E
1002
}
  0
POLYLINE
  5
86C
  8
TEAM-NET
 66
     1
 10
0.0
 20
0.0
 30
-178.230039
 70
   128
210
-0.999842
220
0.01776
230
-0.0
1001
ACAD
1000
R13OBJECT
1002
{
1005
6E
1002
}
  0
VERTEX
  5
FEF
  8
TEAM-NET
 10
34.419155
 20
408.691369
 30
-178.230039
  0
VERTEX
  5
FF0
  8
TEAM-NET
 10
34.663523
 20
407.087946
 30
-178.230039
  0
VERTEX
  5
FF1
  8
TEAM-NET
 10
35.037033
 20
405.509593
 30
-178.230039
  0
VERTEX
  5
FF2
  8
TEAM-NET
 10
35.537229
 20
403.966691
 30
-178.230039
  0
VERTEX
  5
FF3
  8
TEAM-NET
 10
36.160821
 20
402.469387
 30
-178.230039
  0
VERTEX
  5
FF4
  8
TEAM-NET
 10
36.903708
 20
401.027529
 30
-178.230039
  0
VERTEX
  5
FF5
  8
TEAM-NET
 10
37.761004
 20
399.650598
 30
-178.230039
  0
VERTEX
  5
FF6
  8
TEAM-NET
 10
38.727072
 20
398.347651
 30
-178.230039
  0
VERTEX
  5
FF7
  8
TEAM-NET
 10
39.795557
 20
397.127256
 30
-178.230039
  0
VERTEX
  5
FF8
  8
TEAM-NET
 10
40.959432
 20
395.99744
 30
-178.230039
  0
VERTEX
  5
FF9
  8
TEAM-NET
 10
42.211044
 20
394.965633
 30
-178.230039
  0
VERTEX
  5
FFA
  8
TEAM-NET
 10
43.54216
 20
394.03862
 30
-178.230039
  0
VERTEX
  5
FFB
  8
TEAM-NET
 10
44.944027
 20
393.2225
 30
-178.230039
  0
VERTEX
  5
FFC
  8
TEAM-NET
 10
46.407424
 20
392.522638
 30
-178.230039
  0
VERTEX
  5
FFD
  8
TEAM-NET
 10
47.922728
 20
391.943638
 30
-178.230039
  0
VERTEX
  5
FFE
  8
TEAM-NET
 10
49.479973
 20
391.489307
 30
-178.230039
  0
VERTEX
  5
FFF
  8
TEAM-NET
 10
51.068918
 20
391.162634
 30
-178.230039
  0
VERTEX
  5
1000
  8
TEAM-NET
 10
52.679112
 20
390.965767
 30
-178.230039
  0
VERTEX
  5
1001
  8
TEAM-NET
 10
54.299966
 20
390.9
 30
-178.230039
  0
SEQEND
  5
1002
  8
TEAM-NET
  0
POLYLINE
  5
6F
  8
TEAM-NET
 66
     1
 10
0.0
 20
0.0
 30
-178.230039
 70
   128
210
0.999842
220
0.01776
230
-0.0
  0
VERTEX
  5
C74
  8
TEAM-NET
 10
-54.299966
 20
390.9
 30
-178.230039
  0
VERTEX
  5
C75
  8
TEAM-NET
 10
-52.679112
 20
390.965767
 30
-178.230039
  0
VERTEX
  5
C76
  8
TEAM-NET
 10
-51.068918
 20
391.162634
 30
-178.230039
  0
VERTEX
  5
C77
  8
TEAM-NET
 10
-49.479973
 20
391.489307
 30
-178.230039
  0
VERTEX
  5
C78
  8
TEAM-NET
 10
-47.922728
 20
391.943638
 30
-178.230039
  0
VERTEX
  5
C79
  8
TEAM-NET
 10
-46.407424
 20
392.522638
 30
-178.230039
  0
VERTEX
  5
C7A
  8
TEAM-NET
 10
-44.944027
 20
393.2225
 30
-178.230039
  0
VERTEX
  5
C7B
  8
TEAM-NET
 10
-43.54216
 20
394.03862
 30
-178.230039
  0
VERTEX
  5
C7C
  8
TEAM-NET
 10
-42.211044
 20
394.965633
 30
-178.230039
  0
VERTEX
  5
C7D
  8
TEAM-NET
 10
-40.959432
 20
395.99744
 30
-178.230039
  0
VERTEX
  5
C7E
  8
TEAM-NET
 10
-39.795557
 20
397.127256
 30
-178.230039
  0
VERTEX
  5
C7F
  8
TEAM-NET
 10
-38.727072
 20
398.347651
 30
-178.230039
  0
VERTEX
  5
C80
  8
TEAM-NET
 10
-37.761004
 20
399.650598
 30
-178.230039
  0
VERTEX
  5
C81
  8
TEAM-NET
 10
-36.903708
 20
401.027529
 30
-178.230039
  0
VERTEX
  5
C82
  8
TEAM-NET
 10
-36.160821
 20
402.469387
 30
-178.230039
  0
VERTEX
  5
C83
  8
TEAM-NET
 10
-35.537229
 20
403.966691
 30
-178.230039
  0
VERTEX
  5
C84
  8
TEAM-NET
 10
-35.037033
 20
405.509593
 30
-178.230039
  0
VERTEX
  5
C85
  8
TEAM-NET
 10
-34.663523
 20
407.087946
 30
-178.230039
  0
VERTEX
  5
C86
  8
TEAM-NET
 10
-34.419155
 20
408.691369
 30
-178.230039
  0
SEQEND
  5
C87
  8
TEAM-NET
  0
LINE
  5
895
  8
TEAM-NET
 10
-177.237541
 20
-57.45683
 30
390.9
 11
177.237541
 21
-57.45683
 31
390.9
1001
ACAD
1000
R13OBJECT
1002
{
1005
6F
1002
}
  0
POLYLINE
  5
896
  8
TEAM-NET
 66
     1
 10
0.0
 20
0.0
 30
-178.230039
 70
   128
210
-0.999842
220
0.01776
230
-0.0
1001
ACAD
1000
R13OBJECT
1002
{
1005
6F
1002
}
  0
VERTEX
  5
1003
  8
TEAM-NET
 10
34.419155
 20
408.691369
 30
-178.230039
  0
VERTEX
  5
1004
  8
TEAM-NET
 10
34.663523
 20
407.087946
 30
-178.230039
  0
VERTEX
  5
1005
  8
TEAM-NET
 10
35.037033
 20
405.509593
 30
-178.230039
  0
VERTEX
  5
1006
  8
TEAM-NET
 10
35.537229
 20
403.966691
 30
-178.230039
  0
VERTEX
  5
1007
  8
TEAM-NET
 10
36.160821
 20
402.469387
 30
-178.230039
  0
VERTEX
  5
1008
  8
TEAM-NET
 10
36.903708
 20
401.027529
 30
-178.230039
  0
VERTEX
  5
1009
  8
TEAM-NET
 10
37.761004
 20
399.650598
 30
-178.230039
  0
VERTEX
  5
100A
  8
TEAM-NET
 10
38.727072
 20
398.347651
 30
-178.230039
  0
VERTEX
  5
100B
  8
TEAM-NET
 10
39.795557
 20
397.127256
 30
-178.230039
  0
VERTEX
  5
100C
  8
TEAM-NET
 10
40.959432
 20
395.99744
 30
-178.230039
  0
VERTEX
  5
100D
  8
TEAM-NET
 10
42.211044
 20
394.965633
 30
-178.230039
  0
VERTEX
  5
100E
  8
TEAM-NET
 10
43.54216
 20
394.03862
 30
-178.230039
  0
VERTEX
  5
100F
  8
TEAM-NET
 10
44.944027
 20
393.2225
 30
-178.230039
  0
VERTEX
  5
1010
  8
TEAM-NET
 10
46.407424
 20
392.522638
 30
-178.230039
  0
VERTEX
  5
1011
  8
TEAM-NET
 10
47.922728
 20
391.943638
 30
-178.230039
  0
VERTEX
  5
1012
  8
TEAM-NET
 10
49.479973
 20
391.489307
 30
-178.230039
  0
VERTEX
  5
1013
  8
TEAM-NET
 10
51.068918
 20
391.162634
 30
-178.230039
  0
VERTEX
  5
1014
  8
TEAM-NET
 10
52.679112
 20
390.965767
 30
-178.230039
  0
VERTEX
  5
1015
  8
TEAM-NET
 10
54.299966
 20
390.9
 30
-178.230039
  0
SEQEND
  5
1016
  8
TEAM-NET
  0
LINE
  5
8AB
  8
TEAM-NET
 10
177.590631
 20
-37.579155
 30
408.691369
 11
-177.590631
 21
-37.579155
 31
408.691369
1001
ACAD
1000
R13OBJECT
1002
{
1005
6F
1002
}
  0
ARC
  5
70
  8
TEAM-NET
 10
-177.978146
 20
73.160685
 30
-402.299404
 40
7.0
210
0.001453
220
-0.110431
230
-0.993883
 50
90.749237
 51
180.0
  0
POLYLINE
  5
8AC
  8
TEAM-NET
 66
     1
 10
0.0
 20
0.0
 30
184.978146
 70
   128
210
-0.999913
220
-0.013157
230
0.0
1001
ACAD
1000
R13OBJECT
1002
{
1005
70
1002
}
  0
VERTEX
  5
1017
  8
TEAM-NET
 10
28.282802
 20
407.918349
 30
184.978146
  0
VERTEX
  5
1018
  8
TEAM-NET
 10
28.554814
 20
406.061217
 30
184.978146
  0
VERTEX
  5
1019
  8
TEAM-NET
 10
28.955204
 20
404.227468
 30
184.978146
  0
VERTEX
  5
101A
  8
TEAM-NET
 10
29.482035
 20
402.425965
 30
184.978146
  0
VERTEX
  5
101B
  8
TEAM-NET
 10
30.132763
 20
400.665413
 30
184.978146
  0
VERTEX
  5
101C
  8
TEAM-NET
 10
30.904242
 20
398.95432
 30
184.978146
  0
VERTEX
  5
101D
  8
TEAM-NET
 10
31.792745
 20
397.300955
 30
184.978146
  0
VERTEX
  5
101E
  8
TEAM-NET
 10
32.793978
 20
395.713307
 30
184.978146
  0
VERTEX
  5
101F
  8
TEAM-NET
 10
33.903101
 20
394.19905
 30
184.978146
  0
VERTEX
  5
1020
  8
TEAM-NET
 10
35.114756
 20
392.765501
 30
184.978146
  0
VERTEX
  5
1021
  8
TEAM-NET
 10
36.423087
 20
391.419587
 30
184.978146
  0
VERTEX
  5
1022
  8
TEAM-NET
 10
37.821771
 20
390.167813
 30
184.978146
  0
VERTEX
  5
1023
  8
TEAM-NET
 10
39.30405
 20
389.016228
 30
184.978146
  0
VERTEX
  5
1024
  8
TEAM-NET
 10
40.862759
 20
387.970397
 30
184.978146
  0
VERTEX
  5
1025
  8
TEAM-NET
 10
42.490368
 20
387.035374
 30
184.978146
  0
VERTEX
  5
1026
  8
TEAM-NET
 10
44.179009
 20
386.215678
 30
184.978146
  0
VERTEX
  5
1027
  8
TEAM-NET
 10
45.920522
 20
385.51527
 30
184.978146
  0
VERTEX
  5
1028
  8
TEAM-NET
 10
47.706493
 20
384.937534
 30
184.978146
  0
VERTEX
  5
1029
  8
TEAM-NET
 10
49.528289
 20
384.485263
 30
184.978146
  0
VERTEX
  5
102A
  8
TEAM-NET
 10
51.377108
 20
384.160642
 30
184.978146
  0
VERTEX
  5
102B
  8
TEAM-NET
 10
53.244014
 20
383.965239
 30
184.978146
  0
VERTEX
  5
102C
  8
TEAM-NET
 10
55.119986
 20
383.9
 30
184.978146
  0
SEQEND
  5
102D
  8
TEAM-NET
  0
ARC
  5
8C4
  8
TEAM-NET
 10
-177.978146
 20
383.9
 30
55.119986
 40
7.0
210
0.013157
220
-0.999913
230
0.0
 50
90.0
 51
180.0
1001
ACAD
1000
R13OBJECT
1002
{
1005
70
1002
}
  0
POLYLINE
  5
8C5
  8
TEAM-NET
 66
     1
 10
0.0
 20
0.0
 30
-178.230039
 70
   128
210
0.999842
220
0.01776
230
-0.0
1001
ACAD
1000
R13OBJECT
1002
{
1005
70
1002
}
  0
VERTEX
  5
102E
  8
TEAM-NET
 10
-54.299966
 20
390.9
 30
-178.230039
  0
VERTEX
  5
102F
  8
TEAM-NET
 10
-52.679112
 20
390.965767
 30
-178.230039
  0
VERTEX
  5
1030
  8
TEAM-NET
 10
-51.068918
 20
391.162634
 30
-178.230039
  0
VERTEX
  5
1031
  8
TEAM-NET
 10
-49.479973
 20
391.489307
 30
-178.230039
  0
VERTEX
  5
1032
  8
TEAM-NET
 10
-47.922728
 20
391.943638
 30
-178.230039
  0
VERTEX
  5
1033
  8
TEAM-NET
 10
-46.407424
 20
392.522638
 30
-178.230039
  0
VERTEX
  5
1034
  8
TEAM-NET
 10
-44.944027
 20
393.2225
 30
-178.230039
  0
VERTEX
  5
1035
  8
TEAM-NET
 10
-43.54216
 20
394.03862
 30
-178.230039
  0
VERTEX
  5
1036
  8
TEAM-NET
 10
-42.211044
 20
394.965633
 30
-178.230039
  0
VERTEX
  5
1037
  8
TEAM-NET
 10
-40.959432
 20
395.99744
 30
-178.230039
  0
VERTEX
  5
1038
  8
TEAM-NET
 10
-39.795557
 20
397.127256
 30
-178.230039
  0
VERTEX
  5
1039
  8
TEAM-NET
 10
-38.727072
 20
398.347651
 30
-178.230039
  0
VERTEX
  5
103A
  8
TEAM-NET
 10
-37.761004
 20
399.650598
 30
-178.230039
  0
VERTEX
  5
103B
  8
TEAM-NET
 10
-36.903708
 20
401.027529
 30
-178.230039
  0
VERTEX
  5
103C
  8
TEAM-NET
 10
-36.160821
 20
402.469387
 30
-178.230039
  0
VERTEX
  5
103D
  8
TEAM-NET
 10
-35.537229
 20
403.966691
 30
-178.230039
  0
VERTEX
  5
103E
  8
TEAM-NET
 10
-35.037033
 20
405.509593
 30
-178.230039
  0
VERTEX
  5
103F
  8
TEAM-NET
 10
-34.663523
 20
407.087946
 30
-178.230039
  0
VERTEX
  5
1040
  8
TEAM-NET
 10
-34.419155
 20
408.691369
 30
-178.230039
  0
SEQEND
  5
1041
  8
TEAM-NET
  0
LINE
  5
71
  8
TEAM-NET
 10
-180.0
 20
-379.555974
 30
357.9
 11
-185.0
 21
0.444026
 31
357.9
  0
LINE
  5
8DA
  8
TEAM-NET
 10
-180.0
 20
-379.555974
 30
383.9
 11
-180.0
 21
-379.555974
 31
357.9
1001
ACAD
1000
R13OBJECT
1002
{
1005
71
1002
}
  0
LINE
  5
8DB
  8
TEAM-NET
 10
-184.236935
 20
-57.548927
 30
383.9
 11
-180.0
 21
-379.555974
 31
383.9
1001
ACAD
1000
R13OBJECT
1002
{
1005
71
1002
}
  0
POLYLINE
  5
8DC
  8
TEAM-NET
 66
     1
 10
0.0
 20
0.0
 30
184.978146
 70
   128
210
-0.999913
220
-0.013157
230
0.0
1001
ACAD
1000
R13OBJECT
1002
{
1005
71
1002
}
  0
VERTEX
  5
1042
  8
TEAM-NET
 10
28.282802
 20
407.918349
 30
184.978146
  0
VERTEX
  5
1043
  8
TEAM-NET
 10
28.554814
 20
406.061217
 30
184.978146
  0
VERTEX
  5
1044
  8
TEAM-NET
 10
28.955204
 20
404.227468
 30
184.978146
  0
VERTEX
  5
1045
  8
TEAM-NET
 10
29.482035
 20
402.425965
 30
184.978146
  0
VERTEX
  5
1046
  8
TEAM-NET
 10
30.132763
 20
400.665413
 30
184.978146
  0
VERTEX
  5
1047
  8
TEAM-NET
 10
30.904242
 20
398.95432
 30
184.978146
  0
VERTEX
  5
1048
  8
TEAM-NET
 10
31.792745
 20
397.300955
 30
184.978146
  0
VERTEX
  5
1049
  8
TEAM-NET
 10
32.793978
 20
395.713307
 30
184.978146
  0
VERTEX
  5
104A
  8
TEAM-NET
 10
33.903101
 20
394.19905
 30
184.978146
  0
VERTEX
  5
104B
  8
TEAM-NET
 10
35.114756
 20
392.765501
 30
184.978146
  0
VERTEX
  5
104C
  8
TEAM-NET
 10
36.423087
 20
391.419587
 30
184.978146
  0
VERTEX
  5
104D
  8
TEAM-NET
 10
37.821771
 20
390.167813
 30
184.978146
  0
VERTEX
  5
104E
  8
TEAM-NET
 10
39.30405
 20
389.016228
 30
184.978146
  0
VERTEX
  5
104F
  8
TEAM-NET
 10
40.862759
 20
387.970397
 30
184.978146
  0
VERTEX
  5
1050
  8
TEAM-NET
 10
42.490368
 20
387.035374
 30
184.978146
  0
VERTEX
  5
1051
  8
TEAM-NET
 10
44.179009
 20
386.215678
 30
184.978146
  0
VERTEX
  5
1052
  8
TEAM-NET
 10
45.920522
 20
385.51527
 30
184.978146
  0
VERTEX
  5
1053
  8
TEAM-NET
 10
47.706493
 20
384.937534
 30
184.978146
  0
VERTEX
  5
1054
  8
TEAM-NET
 10
49.528289
 20
384.485263
 30
184.978146
  0
VERTEX
  5
1055
  8
TEAM-NET
 10
51.377108
 20
384.160642
 30
184.978146
  0
VERTEX
  5
1056
  8
TEAM-NET
 10
53.244014
 20
383.965239
 30
184.978146
  0
VERTEX
  5
1057
  8
TEAM-NET
 10
55.119986
 20
383.9
 30
184.978146
  0
SEQEND
  5
1058
  8
TEAM-NET
  0
LINE
  5
8F4
  8
TEAM-NET
 10
-184.604764
 20
-29.593883
 30
418.0
 11
-184.590025
 21
-30.714066
 31
407.918349
1001
ACAD
1000
R13OBJECT
1002
{
1005
71
1002
}
  0
LINE
  5
8F5
  8
TEAM-NET
 10
-185.0
 20
0.444026
 30
418.0
 11
-184.604764
 21
-29.593883
 31
418.0
1001
ACAD
1000
R13OBJECT
1002
{
1005
71
1002
}
  0
LINE
  5
8F6
  8
TEAM-NET
 10
-185.0
 20
0.444026
 30
418.0
 11
-185.0
 21
0.444026
 31
357.9
1001
ACAD
1000
R13OBJECT
1002
{
1005
71
1002
}
  0
LINE
  5
72
  8
TEAM-NET
 10
185.0
 20
0.444026
 30
357.9
 11
180.0
 21
-379.555974
 31
357.9
  0
LINE
  5
8F7
  8
TEAM-NET
 10
185.0
 20
0.444026
 30
418.0
 11
185.0
 21
0.444026
 31
357.9
1001
ACAD
1000
R13OBJECT
1002
{
1005
72
1002
}
  0
LINE
  5
8F8
  8
TEAM-NET
 10
184.604764
 20
-29.593883
 30
418.0
 11
185.0
 21
0.444026
 31
418.0
1001
ACAD
1000
R13OBJECT
1002
{
1005
72
1002
}
  0
LINE
  5
8F9
  8
TEAM-NET
 10
184.590025
 20
-30.714066
 30
407.918349
 11
184.604764
 21
-29.593883
 31
418.0
1001
ACAD
1000
R13OBJECT
1002
{
1005
72
1002
}
  0
POLYLINE
  5
8FA
  8
TEAM-NET
 66
     1
 10
0.0
 20
0.0
 30
184.978146
 70
   128
210
0.999913
220
-0.013157
230
-0.0
1001
ACAD
1000
R13OBJECT
1002
{
1005
72
1002
}
  0
VERTEX
  5
1059
  8
TEAM-NET
 10
-55.119986
 20
383.9
 30
184.978146
  0
VERTEX
  5
105A
  8
TEAM-NET
 10
-53.244014
 20
383.965239
 30
184.978146
  0
VERTEX
  5
105B
  8
TEAM-NET
 10
-51.377108
 20
384.160642
 30
184.978146
  0
VERTEX
  5
105C
  8
TEAM-NET
 10
-49.528289
 20
384.485263
 30
184.978146
  0
VERTEX
  5
105D
  8
TEAM-NET
 10
-47.706493
 20
384.937534
 30
184.978146
  0
VERTEX
  5
105E
  8
TEAM-NET
 10
-45.920522
 20
385.51527
 30
184.978146
  0
VERTEX
  5
105F
  8
TEAM-NET
 10
-44.179009
 20
386.215678
 30
184.978146
  0
VERTEX
  5
1060
  8
TEAM-NET
 10
-42.490368
 20
387.035374
 30
184.978146
  0
VERTEX
  5
1061
  8
TEAM-NET
 10
-40.862759
 20
387.970397
 30
184.978146
  0
VERTEX
  5
1062
  8
TEAM-NET
 10
-39.30405
 20
389.016228
 30
184.978146
  0
VERTEX
  5
1063
  8
TEAM-NET
 10
-37.821771
 20
390.167813
 30
184.978146
  0
VERTEX
  5
1064
  8
TEAM-NET
 10
-36.423087
 20
391.419587
 30
184.978146
  0
VERTEX
  5
1065
  8
TEAM-NET
 10
-35.114756
 20
392.765501
 30
184.978146
  0
VERTEX
  5
1066
  8
TEAM-NET
 10
-33.903101
 20
394.19905
 30
184.978146
  0
VERTEX
  5
1067
  8
TEAM-NET
 10
-32.793978
 20
395.713307
 30
184.978146
  0
VERTEX
  5
1068
  8
TEAM-NET
 10
-31.792745
 20
397.300955
 30
184.978146
  0
VERTEX
  5
1069
  8
TEAM-NET
 10
-30.904242
 20
398.95432
 30
184.978146
  0
VERTEX
  5
106A
  8
TEAM-NET
 10
-30.132763
 20
400.665413
 30
184.978146
  0
VERTEX
  5
106B
  8
TEAM-NET
 10
-29.482035
 20
402.425965
 30
184.978146
  0
VERTEX
  5
106C
  8
TEAM-NET
 10
-28.955204
 20
404.227468
 30
184.978146
  0
VERTEX
  5
106D
  8
TEAM-NET
 10
-28.554814
 20
406.061217
 30
184.978146
  0
VERTEX
  5
106E
  8
TEAM-NET
 10
-28.282802
 20
407.918349
 30
184.978146
  0
SEQEND
  5
106F
  8
TEAM-NET
  0
LINE
  5
912
  8
TEAM-NET
 10
180.0
 20
-379.555974
 30
383.9
 11
184.236935
 21
-57.548927
 31
383.9
1001
ACAD
1000
R13OBJECT
1002
{
1005
72
1002
}
  0
LINE
  5
913
  8
TEAM-NET
 10
180.0
 20
-379.555974
 30
357.9
 11
180.0
 21
-379.555974
 31
383.9
1001
ACAD
1000
R13OBJECT
1002
{
1005
72
1002
}
  0
POLYLINE
  5
73
  8
TEAM-NET
 66
     1
 10
0.0
 20
0.0
 30
-0.444026
 70
   128
210
0.0
220
-1.0
230
0.0
  0
VERTEX
  5
C88
  8
TEAM-NET
 10
177.999394
 20
350.9
 30
-0.444026
  0
VERTEX
  5
C89
  8
TEAM-NET
 10
182.94957
 20
352.950253
 30
-0.444026
  0
VERTEX
  5
C8A
  8
TEAM-NET
 10
185.0
 20
357.9
 30
-0.444026
  0
SEQEND
  5
C8B
  8
TEAM-NET
  0
LINE
  5
918
  8
TEAM-NET
 10
185.0
 20
0.444026
 30
357.9
 11
180.0
 21
-379.555974
 31
357.9
1001
ACAD
1000
R13OBJECT
1002
{
1005
73
1002
}
  0
POLYLINE
  5
919
  8
TEAM-NET
 66
     1
 10
0.0
 20
0.0
 30
0.0
 70
     8
1001
ACAD
1000
R13OBJECT
1002
{
1005
73
1002
}
  0
VERTEX
  5
91A
  8
TEAM-NET
 10
172.999994
 20
-379.51038
 30
350.9
 70
    32
  0
VERTEX
  5
91B
  8
TEAM-NET
 10
173.022304
 20
-379.510524
 30
350.900036
 70
    32
  0
VERTEX
  5
91C
  8
TEAM-NET
 10
175.742397
 20
-379.528132
 30
351.459562
 70
    32
  0
VERTEX
  5
91D
  8
TEAM-NET
 10
177.982189
 20
-379.542737
 30
352.982909
 70
    32
  0
VERTEX
  5
91E
  8
TEAM-NET
 10
179.475933
 20
-379.552529
 30
355.242502
 70
    32
  0
VERTEX
  5
91F
  8
TEAM-NET
 10
180.0
 20
-379.555974
 30
357.9
 70
    32
  0
SEQEND
  5
920
  8
TEAM-NET
  0
LINE
  5
921
  8
TEAM-NET
 10
172.999994
 20
-379.51038
 30
350.9
 11
177.999394
 21
0.444026
 31
350.9
1001
ACAD
1000
R13OBJECT
1002
{
1005
73
1002
}
  0
LINE
  5
922
  8
TEAM-NET
 10
177.949747
 20
-379.542525
 30
352.950253
 11
182.94957
 21
0.444026
 31
352.950253
1001
ACAD
1000
R13OBJECT
1002
{
1005
73
1002
}
  0
ARC
  5
74
  8
TEAM-NET
 10
0.0
 20
-379.555974
 30
350.9
 40
173.0
 50
179.9849
 51
0.0151
  0
POLYLINE
  5
923
  8
TEAM-NET
 66
     1
 10
0.0
 20
0.0
 30
0.0
 70
     8
1001
ACAD
1000
R13OBJECT
1002
{
1005
74
1002
}
  0
VERTEX
  5
924
  8
TEAM-NET
 10
172.999994
 20
-379.51038
 30
350.9
 70
    32
  0
VERTEX
  5
925
  8
TEAM-NET
 10
173.022304
 20
-379.510524
 30
350.900036
 70
    32
  0
VERTEX
  5
926
  8
TEAM-NET
 10
175.742397
 20
-379.528132
 30
351.459562
 70
    32
  0
VERTEX
  5
927
  8
TEAM-NET
 10
177.982189
 20
-379.542737
 30
352.982909
 70
    32
  0
VERTEX
  5
928
  8
TEAM-NET
 10
179.475933
 20
-379.552529
 30
355.242502
 70
    32
  0
VERTEX
  5
929
  8
TEAM-NET
 10
180.0
 20
-379.555974
 30
357.9
 70
    32
  0
SEQEND
  5
92A
  8
TEAM-NET
  0
ARC
  5
92B
  8
TEAM-NET
 10
0.0
 20
-379.555974
 30
-357.9
 40
180.0
210
-0.0
220
0.0
230
-1.0
 50
180.0
 51
0.0
1001
ACAD
1000
R13OBJECT
1002
{
1005
74
1002
}
  0
POLYLINE
  5
92C
  8
TEAM-NET
 66
     1
 10
0.0
 20
0.0
 30
0.0
 70
     8
1001
ACAD
1000
R13OBJECT
1002
{
1005
74
1002
}
  0
VERTEX
  5
92D
  8
TEAM-NET
 10
-172.999994
 20
-379.51038
 30
350.9
 70
    32
  0
VERTEX
  5
92E
  8
TEAM-NET
 10
-173.022304
 20
-379.510524
 30
350.900036
 70
    32
  0
VERTEX
  5
92F
  8
TEAM-NET
 10
-175.742397
 20
-379.528132
 30
351.459562
 70
    32
  0
VERTEX
  5
930
  8
TEAM-NET
 10
-177.982189
 20
-379.542737
 30
352.982909
 70
    32
  0
VERTEX
  5
931
  8
TEAM-NET
 10
-179.475933
 20
-379.552529
 30
355.242502
 70
    32
  0
VERTEX
  5
932
  8
TEAM-NET
 10
-180.0
 20
-379.555974
 30
357.9
 70
    32
  0
SEQEND
  5
933
  8
TEAM-NET
  0
ARC
  5
934
  8
TEAM-NET
 10
173.0
 20
357.9
 30
379.555974
 40
7.0
210
0.0
220
-1.0
230
0.0
 50
270.0
 51
360.0
1001
ACAD
1000
R13OBJECT
1002
{
1005
74
1002
}
  0
ARC
  5
935
  8
TEAM-NET
 10
173.0
 20
357.9
 30
-379.555974
 40
7.0
210
0.0
220
1.0
230
0.0
 50
270.0
 51
360.0
1001
ACAD
1000
R13OBJECT
1002
{
1005
74
1002
}
  0
ARC
  5
936
  8
TEAM-NET
 10
552.555974
 20
357.9
 30
0.0
 40
7.0
210
-1.0
220
-0.0
230
0.0
 50
270.0
 51
360.0
1001
ACAD
1000
R13OBJECT
1002
{
1005
74
1002
}
  0
ARC
  5
937
  8
TEAM-NET
 10
0.0
 20
-379.555974
 30
352.950253
 40
177.949747
 50
179.99567
 51
0.00433
1001
ACAD
1000
R13OBJECT
1002
{
1005
74
1002
}
  0
POLYLINE
  5
75
  8
TEAM-NET
 66
     1
 10
0.0
 20
0.0
 30
-0.444026
 70
   128
210
-0.0
220
-1.0
230
0.0
  0
VERTEX
  5
C8C
  8
TEAM-NET
 10
-185.0
 20
357.9
 30
-0.444026
  0
VERTEX
  5
C8D
  8
TEAM-NET
 10
-182.94957
 20
352.950253
 30
-0.444026
  0
VERTEX
  5
C8E
  8
TEAM-NET
 10
-177.999394
 20
350.9
 30
-0.444026
  0
SEQEND
  5
C8F
  8
TEAM-NET
  0
LINE
  5
93C
  8
TEAM-NET
 10
-177.999394
 20
0.444026
 30
350.9
 11
-172.999994
 21
-379.51038
 31
350.9
1001
ACAD
1000
R13OBJECT
1002
{
1005
75
1002
}
  0
POLYLINE
  5
93D
  8
TEAM-NET
 66
     1
 10
0.0
 20
0.0
 30
0.0
 70
     8
1001
ACAD
1000
R13OBJECT
1002
{
1005
75
1002
}
  0
VERTEX
  5
93E
  8
TEAM-NET
 10
-172.999994
 20
-379.51038
 30
350.9
 70
    32
  0
VERTEX
  5
93F
  8
TEAM-NET
 10
-173.022304
 20
-379.510524
 30
350.900036
 70
    32
  0
VERTEX
  5
940
  8
TEAM-NET
 10
-175.742397
 20
-379.528132
 30
351.459562
 70
    32
  0
VERTEX
  5
941
  8
TEAM-NET
 10
-177.982189
 20
-379.542737
 30
352.982909
 70
    32
  0
VERTEX
  5
942
  8
TEAM-NET
 10
-179.475933
 20
-379.552529
 30
355.242502
 70
    32
  0
VERTEX
  5
943
  8
TEAM-NET
 10
-180.0
 20
-379.555974
 30
357.9
 70
    32
  0
SEQEND
  5
944
  8
TEAM-NET
  0
LINE
  5
945
  8
TEAM-NET
 10
-180.0
 20
-379.555974
 30
357.9
 11
-185.0
 21
0.444026
 31
357.9
1001
ACAD
1000
R13OBJECT
1002
{
1005
75
1002
}
  0
LINE
  5
946
  8
TEAM-NET
 10
-182.94957
 20
0.444026
 30
352.950253
 11
-177.949747
 21
-379.542525
 31
352.950253
1001
ACAD
1000
R13OBJECT
1002
{
1005
75
1002
}
  0
ARC
  5
76
  8
TEAM-NET
 10
0.0
 20
345.0
 30
-34.555974
 40
26.0
210
0.0
220
1.0
230
0.0
 50
270.0
 51
90.0
  0
ARC
  5
947
  8
TEAM-NET
 10
0.0
 20
345.0
 30
-34.555974
 40
26.0
210
0.0
220
1.0
230
0.0
 50
90.0
 51
270.0
1001
ACAD
1000
R13OBJECT
1002
{
1005
76
1002
}
  0
LINE
  5
77
  8
TEAM-NET
 10
0.0
 20
0.444026
 30
371.0
 11
0.0
 21
-34.555974
 31
371.0
  0
ARC
  5
948
  8
TEAM-NET
 10
0.0
 20
345.0
 30
-34.555974
 40
26.0
210
0.0
220
1.0
230
0.0
 50
270.0
 51
90.0
1001
ACAD
1000
R13OBJECT
1002
{
1005
77
1002
}
  0
LINE
  5
949
  8
TEAM-NET
 10
0.0
 20
0.444026
 30
319.0
 11
0.0
 21
-34.555974
 31
319.0
1001
ACAD
1000
R13OBJECT
1002
{
1005
77
1002
}
  0
ARC
  5
94A
  8
TEAM-NET
 10
0.0
 20
345.0
 30
-0.444026
 40
26.0
210
-0.0
220
-1.0
230
0.0
 50
90.0
 51
270.0
1001
ACAD
1000
R13OBJECT
1002
{
1005
77
1002
}
  0
LINE
  5
78
  8
TEAM-NET
 10
0.0
 20
0.444026
 30
371.0
 11
0.0
 21
-34.555974
 31
371.0
  0
ARC
  5
94B
  8
TEAM-NET
 10
0.0
 20
345.0
 30
-0.444026
 40
26.0
210
-0.0
220
-1.0
230
0.0
 50
270.0
 51
90.0
1001
ACAD
1000
R13OBJECT
1002
{
1005
78
1002
}
  0
LINE
  5
94C
  8
TEAM-NET
 10
0.0
 20
0.444026
 30
319.0
 11
0.0
 21
-34.555974
 31
319.0
1001
ACAD
1000
R13OBJECT
1002
{
1005
78
1002
}
  0
ARC
  5
94D
  8
TEAM-NET
 10
0.0
 20
345.0
 30
-34.555974
 40
26.0
210
0.0
220
1.0
230
0.0
 50
90.0
 51
270.0
1001
ACAD
1000
R13OBJECT
1002
{
1005
78
1002
}
  0
ARC
  5
79
  8
TEAM-NET
 10
0.0
 20
-339.555974
 30
325.9
 40
140.0
 50
0.0
 51
180.0
  0
LINE
  5
94E
  8
TEAM-NET
 10
140.0
 20
-339.555974
 30
383.9
 11
140.0
 21
-339.555974
 31
325.9
1001
ACAD
1000
R13OBJECT
1002
{
1005
79
1002
}
  0
ARC
  5
94F
  8
TEAM-NET
 10
0.0
 20
-339.555974
 30
-383.9
 40
140.0
210
0.0
220
0.0
230
-1.0
 50
0.0
 51
180.0
1001
ACAD
1000
R13OBJECT
1002
{
1005
79
1002
}
  0
LINE
  5
950
  8
TEAM-NET
 10
-140.0
 20
-339.555974
 30
383.9
 11
-140.0
 21
-339.555974
 31
325.9
1001
ACAD
1000
R13OBJECT
1002
{
1005
79
1002
}
  0
LINE
  5
7A
  8
TEAM-NET
 10
-140.0
 20
-339.555974
 30
325.9
 11
-140.0
 21
-379.555974
 31
325.9
  0
LINE
  5
951
  8
TEAM-NET
 10
-140.0
 20
-339.555974
 30
383.9
 11
-140.0
 21
-339.555974
 31
325.9
1001
ACAD
1000
R13OBJECT
1002
{
1005
7A
1002
}
  0
LINE
  5
952
  8
TEAM-NET
 10
-140.0
 20
-379.555974
 30
383.9
 11
-140.0
 21
-339.555974
 31
383.9
1001
ACAD
1000
R13OBJECT
1002
{
1005
7A
1002
}
  0
LINE
  5
953
  8
TEAM-NET
 10
-140.0
 20
-379.555974
 30
383.9
 11
-140.0
 21
-379.555974
 31
325.9
1001
ACAD
1000
R13OBJECT
1002
{
1005
7A
1002
}
  0
ARC
  5
7B
  8
TEAM-NET
 10
0.0
 20
-379.555974
 30
325.9
 40
140.0
 50
180.0
 51
0.0
  0
LINE
  5
954
  8
TEAM-NET
 10
-140.0
 20
-379.555974
 30
383.9
 11
-140.0
 21
-379.555974
 31
325.9
1001
ACAD
1000
R13OBJECT
1002
{
1005
7B
1002
}
  0
ARC
  5
955
  8
TEAM-NET
 10
0.0
 20
-379.555974
 30
-383.9
 40
140.0
210
0.0
220
0.0
230
-1.0
 50
180.0
 51
0.0
1001
ACAD
1000
R13OBJECT
1002
{
1005
7B
1002
}
  0
LINE
  5
956
  8
TEAM-NET
 10
140.0
 20
-379.555974
 30
383.9
 11
140.0
 21
-379.555974
 31
325.9
1001
ACAD
1000
R13OBJECT
1002
{
1005
7B
1002
}
  0
LINE
  5
7C
  8
TEAM-NET
 10
140.0
 20
-379.555974
 30
325.9
 11
140.0
 21
-339.555974
 31
325.9
  0
LINE
  5
957
  8
TEAM-NET
 10
140.0
 20
-379.555974
 30
383.9
 11
140.0
 21
-379.555974
 31
325.9
1001
ACAD
1000
R13OBJECT
1002
{
1005
7C
1002
}
  0
LINE
  5
958
  8
TEAM-NET
 10
140.0
 20
-339.555974
 30
383.9
 11
140.0
 21
-379.555974
 31
383.9
1001
ACAD
1000
R13OBJECT
1002
{
1005
7C
1002
}
  0
LINE
  5
959
  8
TEAM-NET
 10
140.0
 20
-339.555974
 30
383.9
 11
140.0
 21
-339.555974
 31
325.9
1001
ACAD
1000
R13OBJECT
1002
{
1005
7C
1002
}
  0
ARC
  5
7D
  8
TEAM-NET
 10
0.0
 20
-379.555974
 30
-320.9
 40
145.0
210
0.0
220
0.0
230
-1.0
 50
180.0
 51
0.0
  0
LINE
  5
95A
  8
TEAM-NET
 10
145.0
 20
-339.555974
 30
320.9
 11
145.0
 21
-379.555974
 31
320.9
1001
ACAD
1000
R13OBJECT
1002
{
1005
7D
1002
}
  0
ARC
  5
95B
  8
TEAM-NET
 10
0.0
 20
-339.555974
 30
-320.9
 40
145.0
210
0.0
220
0.0
230
-1.0
 50
0.0
 51
180.0
1001
ACAD
1000
R13OBJECT
1002
{
1005
7D
1002
}
  0
LINE
  5
95C
  8
TEAM-NET
 10
-145.0
 20
-379.555974
 30
320.9
 11
-145.0
 21
-339.555974
 31
320.9
1001
ACAD
1000
R13OBJECT
1002
{
1005
7D
1002
}
  0
ARC
  5
95D
  8
TEAM-NET
 10
0.0
 20
-339.555974
 30
320.9
 40
150.788
 50
0.0
 51
70.638867
1001
ACAD
1000
R13OBJECT
1002
{
1005
7D
1002
}
  0
LINE
  5
95E
  8
TEAM-NET
 10
150.788
 20
-379.555974
 30
320.9
 11
150.788
 21
-339.555974
 31
320.9
1001
ACAD
1000
R13OBJECT
1002
{
1005
7D
1002
}
  0
ARC
  5
95F
  8
TEAM-NET
 10
0.0
 20
-379.555974
 30
320.9
 40
150.788
 50
180.0
 51
0.0
1001
ACAD
1000
R13OBJECT
1002
{
1005
7D
1002
}
  0
LINE
  5
960
  8
TEAM-NET
 10
-150.788
 20
-339.555974
 30
320.9
 11
-150.788
 21
-379.555974
 31
320.9
1001
ACAD
1000
R13OBJECT
1002
{
1005
7D
1002
}
  0
ARC
  5
961
  8
TEAM-NET
 10
0.0
 20
-339.555974
 30
320.9
 40
150.788
 50
109.361133
 51
180.0
1001
ACAD
1000
R13OBJECT
1002
{
1005
7D
1002
}
  0
ARC
  5
962
  8
TEAM-NET
 10
0.0
 20
-339.555974
 30
320.9
 40
150.788
 50
70.638867
 51
109.361133
1001
ACAD
1000
R13OBJECT
1002
{
1005
7D
1002
}
  0
ARC
  5
7E
  8
TEAM-NET
 10
-145.0
 20
325.9
 30
339.555974
 40
5.0
210
0.0
220
-1.0
230
0.0
 50
270.0
 51
0.0
  0
ARC
  5
963
  8
TEAM-NET
 10
0.0
 20
-339.555974
 30
-320.9
 40
145.0
210
0.0
220
0.0
230
-1.0
 50
0.0
 51
180.0
1001
ACAD
1000
R13OBJECT
1002
{
1005
7E
1002
}
  0
ARC
  5
964
  8
TEAM-NET
 10
145.0
 20
325.9
 30
339.555974
 40
5.0
210
0.0
220
-1.0
230
0.0
 50
180.0
 51
270.0
1001
ACAD
1000
R13OBJECT
1002
{
1005
7E
1002
}
  0
ARC
  5
965
  8
TEAM-NET
 10
0.0
 20
-339.555974
 30
325.9
 40
140.0
 50
0.0
 51
180.0
1001
ACAD
1000
R13OBJECT
1002
{
1005
7E
1002
}
  0
ARC
  5
966
  8
TEAM-NET
 10
-194.555974
 20
325.9
 30
0.0
 40
5.0
210
1.0
220
-0.0
230
0.0
 50
180.0
 51
270.0
1001
ACAD
1000
R13OBJECT
1002
{
1005
7E
1002
}
  0
ARC
  5
967
  8
TEAM-NET
 10
0.0
 20
-339.555974
 30
322.364466
 40
141.464466
 50
0.0
 51
180.0
1001
ACAD
1000
R13OBJECT
1002
{
1005
7E
1002
}
  0
ARC
  5
7F
  8
TEAM-NET
 10
145.0
 20
325.9
 30
339.555974
 40
5.0
210
0.0
220
-1.0
230
0.0
 50
180.0
 51
270.0
  0
LINE
  5
968
  8
TEAM-NET
 10
145.0
 20
-339.555974
 30
320.9
 11
145.0
 21
-379.555974
 31
320.9
1001
ACAD
1000
R13OBJECT
1002
{
1005
7F
1002
}
  0
ARC
  5
969
  8
TEAM-NET
 10
145.0
 20
325.9
 30
379.555974
 40
5.0
210
0.0
220
-1.0
230
0.0
 50
180.0
 51
270.0
1001
ACAD
1000
R13OBJECT
1002
{
1005
7F
1002
}
  0
LINE
  5
96A
  8
TEAM-NET
 10
140.0
 20
-379.555974
 30
325.9
 11
140.0
 21
-339.555974
 31
325.9
1001
ACAD
1000
R13OBJECT
1002
{
1005
7F
1002
}
  0
LINE
  5
96B
  8
TEAM-NET
 10
141.464466
 20
-379.555974
 30
322.364466
 11
141.464466
 21
-339.555974
 31
322.364466
1001
ACAD
1000
R13OBJECT
1002
{
1005
7F
1002
}
  0
ARC
  5
80
  8
TEAM-NET
 10
-145.0
 20
325.9
 30
339.555974
 40
5.0
210
0.0
220
-1.0
230
0.0
 50
270.0
 51
0.0
  0
LINE
  5
96C
  8
TEAM-NET
 10
-140.0
 20
-339.555974
 30
325.9
 11
-140.0
 21
-379.555974
 31
325.9
1001
ACAD
1000
R13OBJECT
1002
{
1005
80
1002
}
  0
ARC
  5
96D
  8
TEAM-NET
 10
-145.0
 20
325.9
 30
379.555974
 40
5.0
210
0.0
220
-1.0
230
0.0
 50
270.0
 51
360.0
1001
ACAD
1000
R13OBJECT
1002
{
1005
80
1002
}
  0
LINE
  5
96E
  8
TEAM-NET
 10
-145.0
 20
-379.555974
 30
320.9
 11
-145.0
 21
-339.555974
 31
320.9
1001
ACAD
1000
R13OBJECT
1002
{
1005
80
1002
}
  0
LINE
  5
96F
  8
TEAM-NET
 10
-141.464466
 20
-339.555974
 30
322.364466
 11
-141.464466
 21
-379.555974
 31
322.364466
1001
ACAD
1000
R13OBJECT
1002
{
1005
80
1002
}
  0
ARC
  5
81
  8
TEAM-NET
 10
-145.0
 20
325.9
 30
379.555974
 40
5.0
210
0.0
220
-1.0
230
0.0
 50
270.0
 51
360.0
  0
ARC
  5
970
  8
TEAM-NET
 10
0.0
 20
-379.555974
 30
325.9
 40
140.0
 50
180.0
 51
0.0
1001
ACAD
1000
R13OBJECT
1002
{
1005
81
1002
}
  0
ARC
  5
971
  8
TEAM-NET
 10
145.0
 20
325.9
 30
379.555974
 40
5.0
210
0.0
220
-1.0
230
0.0
 50
180.0
 51
270.0
1001
ACAD
1000
R13OBJECT
1002
{
1005
81
1002
}
  0
ARC
  5
972
  8
TEAM-NET
 10
0.0
 20
-379.555974
 30
-320.9
 40
145.0
210
0.0
220
0.0
230
-1.0
 50
180.0
 51
0.0
1001
ACAD
1000
R13OBJECT
1002
{
1005
81
1002
}
  0
ARC
  5
973
  8
TEAM-NET
 10
524.555974
 20
325.9
 30
0.0
 40
5.0
210
-1.0
220
-0.0
230
0.0
 50
180.0
 51
270.0
1001
ACAD
1000
R13OBJECT
1002
{
1005
81
1002
}
  0
ARC
  5
974
  8
TEAM-NET
 10
0.0
 20
-379.555974
 30
322.364466
 40
141.464466
 50
180.0
 51
0.0
1001
ACAD
1000
R13OBJECT
1002
{
1005
81
1002
}
  0
LINE
  5
82
  8
TEAM-NET
 10
-165.091796
 20
-377.459208
 30
350.9
 11
-165.091796
 21
-34.628191
 31
350.9
  0
POLYLINE
  5
83
  8
TEAM-NET
 66
     1
 10
0.0
 20
0.0
 30
-350.9
 70
   128
210
0.0
220
0.0
230
-1.0
  0
VERTEX
  5
C90
  8
TEAM-NET
 10
161.740599
 20
-410.580893
 30
-350.9
  0
VERTEX
  5
C91
  8
TEAM-NET
 10
164.251848
 20
-394.109316
 30
-350.9
  0
VERTEX
  5
C92
  8
TEAM-NET
 10
165.091796
 20
-377.459208
 30
-350.9
  0
SEQEND
  5
C93
  8
TEAM-NET
  0
LINE
  5
84
  8
TEAM-NET
 10
-165.091796
 20
-34.628191
 30
350.9
 11
-165.091796
 21
0.444026
 31
350.9
  0
POLYLINE
  5
85
  8
TEAM-NET
 66
     1
 10
0.0
 20
0.0
 30
-350.9
 70
   128
210
-0.0
220
-0.0
230
-1.0
  0
VERTEX
  5
C94
  8
TEAM-NET
 10
57.439945
 20
-532.809862
 30
-350.9
  0
VERTEX
  5
C95
  8
TEAM-NET
 10
67.140956
 20
-528.866352
 30
-350.9
  0
VERTEX
  5
C96
  8
TEAM-NET
 10
76.607327
 20
-524.29468
 30
-350.9
  0
VERTEX
  5
C97
  8
TEAM-NET
 10
85.780013
 20
-519.118289
 30
-350.9
  0
VERTEX
  5
C98
  8
TEAM-NET
 10
94.602245
 20
-513.368789
 30
-350.9
  0
VERTEX
  5
C99
  8
TEAM-NET
 10
103.021929
 20
-507.084917
 30
-350.9
  0
VERTEX
  5
C9A
  8
TEAM-NET
 10
110.994684
 20
-500.30787
 30
-350.9
  0
VERTEX
  5
C9B
  8
TEAM-NET
 10
118.537714
 20
-493.025474
 30
-350.9
  0
VERTEX
  5
C9C
  8
TEAM-NET
 10
125.62972
 20
-485.249812
 30
-350.9
  0
VERTEX
  5
C9D
  8
TEAM-NET
 10
132.222847
 20
-477.024124
 30
-350.9
  0
VERTEX
  5
C9E
  8
TEAM-NET
 10
138.274248
 20
-468.397924
 30
-350.9
  0
VERTEX
  5
C9F
  8
TEAM-NET
 10
143.747578
 20
-459.42512
 30
-350.9
  0
VERTEX
  5
CA0
  8
TEAM-NET
 10
148.614402
 20
-450.160499
 30
-350.9
  0
VERTEX
  5
CA1
  8
TEAM-NET
 10
152.873769
 20
-440.607887
 30
-350.9
  0
VERTEX
  5
CA2
  8
TEAM-NET
 10
156.505854
 20
-430.79683
 30
-350.9
  0
VERTEX
  5
CA3
  8
TEAM-NET
 10
159.479316
 20
-420.779498
 30
-350.9
  0
VERTEX
  5
CA4
  8
TEAM-NET
 10
161.740598
 20
-410.580893
 30
-350.9
  0
SEQEND
  5
CA5
  8
TEAM-NET
  0
LINE
  5
86
  8
TEAM-NET
 10
-165.091796
 20
0.444026
 30
350.9
 11
-177.999394
 21
0.444026
 31
350.9
210
0.0
220
0.0
230
-1.0
  0
POLYLINE
  5
87
  8
TEAM-NET
 66
     1
 10
0.0
 20
0.0
 30
-350.9
 70
   128
210
0.0
220
-0.0
230
-1.0
  0
VERTEX
  5
CA6
  8
TEAM-NET
 10
-57.439475
 20
-532.810014
 30
-350.9
  0
VERTEX
  5
CA7
  8
TEAM-NET
 10
-43.506461
 20
-537.273604
 30
-350.9
  0
VERTEX
  5
CA8
  8
TEAM-NET
 10
-29.175909
 20
-540.500185
 30
-350.9
  0
VERTEX
  5
CA9
  8
TEAM-NET
 10
-14.616316
 20
-542.444264
 30
-350.9
  0
VERTEX
  5
CAA
  8
TEAM-NET
 10
0.000078
 20
-543.090651
 30
-350.9
  0
VERTEX
  5
CAB
  8
TEAM-NET
 10
14.616648
 20
-542.444305
 30
-350.9
  0
VERTEX
  5
CAC
  8
TEAM-NET
 10
29.176535
 20
-540.500125
 30
-350.9
  0
VERTEX
  5
CAD
  8
TEAM-NET
 10
43.506797
 20
-537.273446
 30
-350.9
  0
VERTEX
  5
CAE
  8
TEAM-NET
 10
57.439945
 20
-532.809862
 30
-350.9
  0
SEQEND
  5
CAF
  8
TEAM-NET
  0
LINE
  5
88
  8
TEAM-NET
 10
-177.999394
 20
0.444026
 30
350.9
 11
-172.999994
 21
-379.51038
 31
350.9
210
0.0
220
0.0
230
-1.0
  0
POLYLINE
  5
89
  8
TEAM-NET
 66
     1
 10
0.0
 20
0.0
 30
-350.9
 70
   128
210
0.0
220
-0.0
230
-1.0
  0
VERTEX
  5
CB0
  8
TEAM-NET
 10
-161.737419
 20
-410.596437
 30
-350.9
  0
VERTEX
  5
CB1
  8
TEAM-NET
 10
-159.475351
 20
-420.793884
 30
-350.9
  0
VERTEX
  5
CB2
  8
TEAM-NET
 10
-156.501283
 20
-430.810034
 30
-350.9
  0
VERTEX
  5
CB3
  8
TEAM-NET
 10
-152.868731
 20
-440.619904
 30
-350.9
  0
VERTEX
  5
CB4
  8
TEAM-NET
 10
-148.609051
 20
-450.171279
 30
-350.9
  0
VERTEX
  5
CB5
  8
TEAM-NET
 10
-143.742003
 20
-459.434751
 30
-350.9
  0
VERTEX
  5
CB6
  8
TEAM-NET
 10
-138.268589
 20
-468.406405
 30
-350.9
  0
VERTEX
  5
CB7
  8
TEAM-NET
 10
-132.217245
 20
-477.031464
 30
-350.9
  0
VERTEX
  5
CB8
  8
TEAM-NET
 10
-125.624309
 20
-485.256037
 30
-350.9
  0
VERTEX
  5
CB9
  8
TEAM-NET
 10
-118.532624
 20
-493.030637
 30
-350.9
  0
VERTEX
  5
CBA
  8
TEAM-NET
 10
-110.990024
 20
-500.312027
 30
-350.9
  0
VERTEX
  5
CBB
  8
TEAM-NET
 10
-103.017757
 20
-507.088187
 30
-350.9
  0
VERTEX
  5
CBC
  8
TEAM-NET
 10
-94.598654
 20
-513.371254
 30
-350.9
  0
VERTEX
  5
CBD
  8
TEAM-NET
 10
-85.777107
 20
-519.120049
 30
-350.9
  0
VERTEX
  5
CBE
  8
TEAM-NET
 10
-76.605168
 20
-524.295797
 30
-350.9
  0
VERTEX
  5
CBF
  8
TEAM-NET
 10
-67.13961
 20
-528.866927
 30
-350.9
  0
VERTEX
  5
CC0
  8
TEAM-NET
 10
-57.439475
 20
-532.810014
 30
-350.9
  0
SEQEND
  5
CC1
  8
TEAM-NET
  0
ARC
  5
8A
  8
TEAM-NET
 10
0.0
 20
-379.555974
 30
-350.9
 40
173.0
210
0.0
220
0.0
230
-1.0
 50
179.9849
 51
0.0151
  0
POLYLINE
  5
8B
  8
TEAM-NET
 66
     1
 10
0.0
 20
0.0
 30
-350.9
 70
   128
210
0.0
220
0.0
230
-1.0
  0
VERTEX
  5
CC2
  8
TEAM-NET
 10
-165.091796
 20
-377.459208
 30
-350.9
  0
VERTEX
  5
CC3
  8
TEAM-NET
 10
-164.250896
 20
-394.118364
 30
-350.9
  0
VERTEX
  5
CC4
  8
TEAM-NET
 10
-161.737419
 20
-410.596437
 30
-350.9
  0
SEQEND
  5
CC5
  8
TEAM-NET
  0
LINE
  5
8C
  8
TEAM-NET
 10
172.999994
 20
-379.51038
 30
350.9
 11
177.999394
 21
0.444026
 31
350.9
210
0.0
220
0.0
230
-1.0
  0
LINE
  5
8D
  8
TEAM-NET
 10
165.091796
 20
-34.628191
 30
350.9
 11
165.091796
 21
-377.459208
 31
350.9
  0
LINE
  5
8E
  8
TEAM-NET
 10
177.999394
 20
0.444026
 30
350.9
 11
165.091796
 21
0.444026
 31
350.9
210
0.0
220
0.0
230
-1.0
  0
LINE
  5
8F
  8
TEAM-NET
 10
165.091796
 20
0.444026
 30
350.9
 11
165.091796
 21
-34.628191
 31
350.9
  0
POLYLINE
  5
90
  8
TEAM-NET
 66
     1
 10
0.0
 20
0.0
 30
0.444026
 70
   128
210
0.0
220
1.0
230
0.0
  0
VERTEX
  5
CC6
  8
TEAM-NET
 10
-160.096135
 20
346.108256
 30
0.444026
  0
VERTEX
  5
CC7
  8
TEAM-NET
 10
-160.549224
 20
347.989269
 30
0.444026
  0
VERTEX
  5
CC8
  8
TEAM-NET
 10
-161.682518
 20
349.557434
 30
0.444026
  0
VERTEX
  5
CC9
  8
TEAM-NET
 10
-163.326317
 20
350.577936
 30
0.444026
  0
VERTEX
  5
CCA
  8
TEAM-NET
 10
-165.091796
 20
350.9
 30
0.444026
  0
SEQEND
  5
CCB
  8
TEAM-NET
  0
LINE
  5
9B1
  8
TEAM-NET
 10
165.091796
 20
0.444026
 30
350.9
 11
165.091796
 21
-34.628191
 31
350.9
1001
ACAD
1000
R13OBJECT
1002
{
1005
90
1002
}
  0
ARC
  5
9B2
  8
TEAM-NET
 10
-165.091796
 20
345.9
 30
-34.628191
 40
5.0
210
0.0
220
1.0
230
-0.0
 50
2.38713
 51
90.0
1001
ACAD
1000
R13OBJECT
1002
{
1005
90
1002
}
  0
LINE
  5
9B3
  8
TEAM-NET
 10
160.096135
 20
-34.628191
 30
346.108256
 11
160.096135
 21
0.444026
 31
346.108256
1001
ACAD
1000
R13OBJECT
1002
{
1005
90
1002
}
  0
ARC
  5
91
  8
TEAM-NET
 10
-165.091796
 20
345.9
 30
-377.459208
 40
5.0
210
0.0
220
1.0
230
0.0
 50
2.38713
 51
90.0
  0
LINE
  5
9B4
  8
TEAM-NET
 10
160.096135
 20
-377.459208
 30
346.108256
 11
160.096135
 21
-34.628191
 31
346.108256
1001
ACAD
1000
R13OBJECT
1002
{
1005
91
1002
}
  0
ARC
  5
9B5
  8
TEAM-NET
 10
-165.091796
 20
345.9
 30
-34.628191
 40
5.0
210
0.0
220
1.0
230
-0.0
 50
2.38713
 51
90.0
1001
ACAD
1000
R13OBJECT
1002
{
1005
91
1002
}
  0
LINE
  5
9B6
  8
TEAM-NET
 10
165.091796
 20
-34.628191
 30
350.9
 11
165.091796
 21
-377.459208
 31
350.9
1001
ACAD
1000
R13OBJECT
1002
{
1005
91
1002
}
  0
POLYLINE
  5
92
  8
TEAM-NET
 66
     1
 10
0.0
 20
0.0
 30
0.0
 70
     8
  0
VERTEX
  5
9B7
  8
TEAM-NET
 10
161.737419
 20
-410.596437
 30
350.9
 70
    32
  0
VERTEX
  5
9B8
  8
TEAM-NET
 10
161.73595
 20
-410.604877
 30
350.9
 70
    32
  0
VERTEX
  5
9B9
  8
TEAM-NET
 10
161.719843
 20
-410.696794
 30
350.9
 70
    32
  0
VERTEX
  5
9BA
  8
TEAM-NET
 10
161.687127
 20
-410.880539
 30
350.9
 70
    32
  0
VERTEX
  5
9BB
  8
TEAM-NET
 10
161.620193
 20
-411.247763
 30
350.9
 70
    32
  0
VERTEX
  5
9BC
  8
TEAM-NET
 10
161.586113
 20
-411.431265
 30
350.9
 70
    32
  0
VERTEX
  5
9BD
  8
TEAM-NET
 10
161.551672
 20
-411.614699
 30
350.9
 70
    32
  0
VERTEX
  5
9BE
  8
TEAM-NET
 10
161.48178
 20
-411.981373
 30
350.9
 70
    32
  0
VERTEX
  5
9BF
  8
TEAM-NET
 10
161.338336
 20
-412.713998
 30
350.9
 70
    32
  0
VERTEX
  5
9C0
  8
TEAM-NET
 10
161.190381
 20
-413.445742
 30
350.9
 70
    32
  0
VERTEX
  5
9C1
  8
TEAM-NET
 10
160.88197
 20
-414.906627
 30
350.9
 70
    32
  0
VERTEX
  5
9C2
  8
TEAM-NET
 10
160.557729
 20
-416.364224
 30
350.9
 70
    32
  0
VERTEX
  5
9C3
  8
TEAM-NET
 10
159.864064
 20
-419.269532
 30
350.9
 70
    32
  0
VERTEX
  5
9C4
  8
TEAM-NET
 10
159.112446
 20
-422.160703
 30
350.9
 70
    32
  0
VERTEX
  5
9C5
  8
TEAM-NET
 10
158.304685
 20
-425.036417
 30
350.9
 70
    32
  0
VERTEX
  5
9C6
  8
TEAM-NET
 10
157.880195
 20
-426.468022
 30
350.9
 70
    32
  0
VERTEX
  5
9C7
  8
TEAM-NET
 10
157.66283
 20
-427.182298
 30
350.9
 70
    32
  0
VERTEX
  5
9C8
  8
TEAM-NET
 10
157.442026
 20
-427.895668
 30
350.9
 70
    32
  0
VERTEX
  5
9C9
  8
TEAM-NET
 10
155.553582
 20
-433.56724
 30
350.9
 70
    32
  0
VERTEX
  5
9CA
  8
TEAM-NET
 10
152.705983
 20
-441.017487
 30
350.9
 70
    32
  0
VERTEX
  5
9CB
  8
TEAM-NET
 10
151.144855
 20
-444.687355
 30
350.9
 70
    32
  0
VERTEX
  5
9CC
  8
TEAM-NET
 10
150.330776
 20
-446.507068
 30
350.9
 70
    32
  0
VERTEX
  5
9CD
  8
TEAM-NET
 10
149.494672
 20
-448.316099
 30
350.9
 70
    32
  0
VERTEX
  5
9CE
  8
TEAM-NET
 10
148.636797
 20
-450.11406
 30
350.9
 70
    32
  0
VERTEX
  5
9CF
  8
TEAM-NET
 10
148.199776
 20
-451.008766
 30
350.9
 70
    32
  0
VERTEX
  5
9D0
  8
TEAM-NET
 10
147.979257
 20
-451.455032
 30
350.9
 70
    32
  0
VERTEX
  5
9D1
  8
TEAM-NET
 10
147.75741
 20
-451.900564
 30
350.9
 70
    32
  0
VERTEX
  5
9D2
  8
TEAM-NET
 10
146.855908
 20
-453.676889
 30
350.9
 70
    32
  0
VERTEX
  5
9D3
  8
TEAM-NET
 10
145.931844
 20
-455.443932
 30
350.9
 70
    32
  0
VERTEX
  5
9D4
  8
TEAM-NET
 10
140.978168
 20
-464.126364
 30
350.9
 70
    32
  0
VERTEX
  5
9D5
  8
TEAM-NET
 10
139.922023
 20
-465.82957
 30
350.9
 70
    32
  0
VERTEX
  5
9D6
  8
TEAM-NET
 10
134.325567
 20
-474.15782
 30
350.9
 70
    32
  0
VERTEX
  5
9D7
  8
TEAM-NET
 10
133.144785
 20
-475.783252
 30
350.9
 70
    32
  0
VERTEX
  5
9D8
  8
TEAM-NET
 10
127.589057
 20
-482.91584
 30
350.9
 70
    32
  0
VERTEX
  5
9D9
  8
TEAM-NET
 10
125.652091
 20
-485.223552
 30
350.9
 70
    32
  0
VERTEX
  5
9DA
  8
TEAM-NET
 10
121.65686
 20
-489.727536
 30
350.9
 70
    32
  0
VERTEX
  5
9DB
  8
TEAM-NET
 10
117.507243
 20
-494.075996
 30
350.9
 70
    32
  0
VERTEX
  5
9DC
  8
TEAM-NET
 10
113.212468
 20
-498.261324
 30
350.9
 70
    32
  0
VERTEX
  5
9DD
  8
TEAM-NET
 10
111.013605
 20
-500.29066
 30
350.9
 70
    32
  0
VERTEX
  5
9DE
  8
TEAM-NET
 10
109.901838
 20
-501.28915
 30
350.9
 70
    32
  0
VERTEX
  5
9DF
  8
TEAM-NET
 10
108.781796
 20
-502.276949
 30
350.9
 70
    32
  0
VERTEX
  5
9E0
  8
TEAM-NET
 10
107.652245
 20
-503.255152
 30
350.9
 70
    32
  0
VERTEX
  5
9E1
  8
TEAM-NET
 10
104.206059
 20
-506.132227
 30
350.9
 70
    32
  0
VERTEX
  5
9E2
  8
TEAM-NET
 10
99.481417
 20
-509.829012
 30
350.9
 70
    32
  0
VERTEX
  5
9E3
  8
TEAM-NET
 10
97.065803
 20
-511.615352
 30
350.9
 70
    32
  0
VERTEX
  5
9E4
  8
TEAM-NET
 10
94.616154
 20
-513.359037
 30
350.9
 70
    32
  0
VERTEX
  5
9E5
  8
TEAM-NET
 10
87.074327
 20
-518.324198
 30
350.9
 70
    32
  0
VERTEX
  5
9E6
  8
TEAM-NET
 10
84.500116
 20
-519.887542
 30
350.9
 70
    32
  0
VERTEX
  5
9E7
  8
TEAM-NET
 10
79.268944
 20
-522.87162
 30
350.9
 70
    32
  0
VERTEX
  5
9E8
  8
TEAM-NET
 10
73.9363
 20
-525.660622
 30
350.9
 70
    32
  0
VERTEX
  5
9E9
  8
TEAM-NET
 10
65.771039
 20
-529.467311
 30
350.9
 70
    32
  0
VERTEX
  5
9EA
  8
TEAM-NET
 10
63.010486
 20
-530.633638
 30
350.9
 70
    32
  0
VERTEX
  5
9EB
  8
TEAM-NET
 10
57.439475
 20
-532.810014
 30
350.9
 70
    32
  0
SEQEND
  5
9EC
  8
TEAM-NET
  0
ARC
  5
9ED
  8
TEAM-NET
 10
-519.656381
 20
345.9
 30
-130.931471
 40
5.0
210
0.937921
220
0.34685
230
-0.0
 50
6.484952
 51
90.0
1001
ACAD
1000
R13OBJECT
1002
{
1005
92
1002
}
  0
POLYLINE
  5
9EE
  8
TEAM-NET
 66
     1
 10
0.0
 20
0.0
 30
0.0
 70
     8
1001
ACAD
1000
R13OBJECT
1002
{
1005
92
1002
}
  0
VERTEX
  5
9EF
  8
TEAM-NET
 10
55.716321
 20
-528.150417
 30
346.464711
 70
    32
  0
VERTEX
  5
9F0
  8
TEAM-NET
 10
61.118555
 20
-526.039332
 30
346.45941
 70
    32
  0
VERTEX
  5
9F1
  8
TEAM-NET
 10
63.795547
 20
-524.907967
 30
346.456605
 70
    32
  0
VERTEX
  5
9F2
  8
TEAM-NET
 10
71.71382
 20
-521.215314
 30
346.447555
 70
    32
  0
VERTEX
  5
9F3
  8
TEAM-NET
 10
76.885273
 20
-518.509803
 30
346.440989
 70
    32
  0
VERTEX
  5
9F4
  8
TEAM-NET
 10
81.958412
 20
-515.615003
 30
346.433998
 70
    32
  0
VERTEX
  5
9F5
  8
TEAM-NET
 10
84.454899
 20
-514.098404
 30
346.430343
 70
    32
  0
VERTEX
  5
9F6
  8
TEAM-NET
 10
91.769212
 20
-509.28156
 30
346.418743
 70
    32
  0
VERTEX
  5
9F7
  8
TEAM-NET
 10
94.145054
 20
-507.58989
 30
346.414665
 70
    32
  0
VERTEX
  5
9F8
  8
TEAM-NET
 10
96.48788
 20
-505.85684
 30
346.410479
 70
    32
  0
VERTEX
  5
9F9
  8
TEAM-NET
 10
101.069945
 20
-502.27049
 30
346.401782
 70
    32
  0
VERTEX
  5
9FA
  8
TEAM-NET
 10
104.412104
 20
-499.479378
 30
346.394999
 70
    32
  0
VERTEX
  5
9FB
  8
TEAM-NET
 10
105.507542
 20
-498.530415
 30
346.392689
 70
    32
  0
VERTEX
  5
9FC
  8
TEAM-NET
 10
106.593757
 20
-497.572142
 30
346.390354
 70
    32
  0
VERTEX
  5
9FD
  8
TEAM-NET
 10
107.671937
 20
-496.603504
 30
346.387993
 70
    32
  0
VERTEX
  5
9FE
  8
TEAM-NET
 10
109.804354
 20
-494.634854
 30
346.383189
 70
    32
  0
VERTEX
  5
9FF
  8
TEAM-NET
 10
113.969254
 20
-490.574759
 30
346.373262
 70
    32
  0
VERTEX
  5
A00
  8
TEAM-NET
 10
117.993248
 20
-486.356535
 30
346.362923
 70
    32
  0
VERTEX
  5
A01
  8
TEAM-NET
 10
121.867371
 20
-481.987596
 30
346.352193
 70
    32
  0
VERTEX
  5
A02
  8
TEAM-NET
 10
123.745554
 20
-479.749145
 30
346.34669
 70
    32
  0
VERTEX
  5
A03
  8
TEAM-NET
 10
129.132385
 20
-472.830959
 30
346.329666
 70
    32
  0
VERTEX
  5
A04
  8
TEAM-NET
 10
130.277205
 20
-471.254465
 30
346.325786
 70
    32
  0
VERTEX
  5
A05
  8
TEAM-NET
 10
135.702821
 20
-463.177484
 30
346.305927
 70
    32
  0
VERTEX
  5
A06
  8
TEAM-NET
 10
136.726639
 20
-461.525787
 30
346.301873
 70
    32
  0
VERTEX
  5
A07
  8
TEAM-NET
 10
141.528207
 20
-453.106711
 30
346.281284
 70
    32
  0
VERTEX
  5
A08
  8
TEAM-NET
 10
142.423789
 20
-451.393448
 30
346.277115
 70
    32
  0
VERTEX
  5
A09
  8
TEAM-NET
 10
143.297465
 20
-449.671257
 30
346.272933
 70
    32
  0
VERTEX
  5
A0A
  8
TEAM-NET
 10
143.512458
 20
-449.239315
 30
346.271885
 70
    32
  0
VERTEX
  5
A0B
  8
TEAM-NET
 10
143.726161
 20
-448.806665
 30
346.270837
 70
    32
  0
VERTEX
  5
A0C
  8
TEAM-NET
 10
144.149667
 20
-447.939274
 30
346.268737
 70
    32
  0
VERTEX
  5
A0D
  8
TEAM-NET
 10
144.980977
 20
-446.196269
 30
346.264525
 70
    32
  0
VERTEX
  5
A0E
  8
TEAM-NET
 10
145.791144
 20
-444.442624
 30
346.2603
 70
    32
  0
VERTEX
  5
A0F
  8
TEAM-NET
 10
146.579922
 20
-442.678723
 30
346.256064
 70
    32
  0
VERTEX
  5
A10
  8
TEAM-NET
 10
148.092371
 20
-439.121762
 30
346.24757
 70
    32
  0
VERTEX
  5
A11
  8
TEAM-NET
 10
150.850471
 20
-431.902468
 30
346.230578
 70
    32
  0
VERTEX
  5
A12
  8
TEAM-NET
 10
152.678772
 20
-426.408952
 30
346.217934
 70
    32
  0
VERTEX
  5
A13
  8
TEAM-NET
 10
152.892473
 20
-425.718193
 30
346.216363
 70
    32
  0
VERTEX
  5
A14
  8
TEAM-NET
 10
153.102828
 20
-425.026612
 30
346.214796
 70
    32
  0
VERTEX
  5
A15
  8
TEAM-NET
 10
153.513567
 20
-423.640692
 30
346.211671
 70
    32
  0
VERTEX
  5
A16
  8
TEAM-NET
 10
154.294886
 20
-420.857704
 30
346.205467
 70
    32
  0
VERTEX
  5
A17
  8
TEAM-NET
 10
155.021422
 20
-418.061554
 30
346.199335
 70
    32
  0
VERTEX
  5
A18
  8
TEAM-NET
 10
155.691194
 20
-415.2548
 30
346.193276
 70
    32
  0
VERTEX
  5
A19
  8
TEAM-NET
 10
156.003797
 20
-413.848715
 30
346.190259
 70
    32
  0
VERTEX
  5
A1A
  8
TEAM-NET
 10
156.300569
 20
-412.442125
 30
346.187208
 70
    32
  0
VERTEX
  5
A1B
  8
TEAM-NET
 10
156.44257
 20
-411.739375
 30
346.185635
 70
    32
  0
VERTEX
  5
A1C
  8
TEAM-NET
 10
156.579767
 20
-411.038171
 30
346.183967
 70
    32
  0
VERTEX
  5
A1D
  8
TEAM-NET
 10
156.646299
 20
-410.688848
 30
346.183054
 70
    32
  0
VERTEX
  5
A1E
  8
TEAM-NET
 10
156.678952
 20
-410.514786
 30
346.18256
 70
    32
  0
VERTEX
  5
A1F
  8
TEAM-NET
 10
156.711146
 20
-410.341281
 30
346.182032
 70
    32
  0
VERTEX
  5
A20
  8
TEAM-NET
 10
156.773664
 20
-409.997889
 30
346.180728
 70
    32
  0
VERTEX
  5
A21
  8
TEAM-NET
 10
156.803484
 20
-409.830116
 30
346.179794
 70
    32
  0
VERTEX
  5
A22
  8
TEAM-NET
 10
156.817753
 20
-409.748488
 30
346.179159
 70
    32
  0
VERTEX
  5
A23
  8
TEAM-NET
 10
156.831314
 20
-409.669739
 30
346.178305
 70
    32
  0
SEQEND
  5
A24
  8
TEAM-NET
  0
LINE
  5
A25
  8
TEAM-NET
 10
156.831966
 20
-409.670421
 30
346.191592
 11
156.831314
 21
-409.669739
 31
346.178305
1001
ACAD
1000
R13OBJECT
1002
{
1005
92
1002
}
  0
POLYLINE
  5
A26
  8
TEAM-NET
 66
     1
 10
0.0
 20
0.0
 30
0.0
 70
     8
1001
ACAD
1000
R13OBJECT
1002
{
1005
92
1002
}
  0
VERTEX
  5
A27
  8
TEAM-NET
 10
161.737419
 20
-410.596437
 30
350.9
 70
    32
  0
VERTEX
  5
A28
  8
TEAM-NET
 10
161.723181
 20
-410.593743
 30
350.899979
 70
    32
  0
VERTEX
  5
A29
  8
TEAM-NET
 10
159.968507
 20
-410.261962
 30
350.564741
 70
    32
  0
VERTEX
  5
A2A
  8
TEAM-NET
 10
158.447195
 20
-409.974767
 30
349.613565
 70
    32
  0
VERTEX
  5
A2B
  8
TEAM-NET
 10
157.307993
 20
-409.760045
 30
348.064595
 70
    32
  0
VERTEX
  5
A2C
  8
TEAM-NET
 10
156.831966
 20
-409.670421
 30
346.191592
 70
    32
  0
SEQEND
  5
A2D
  8
TEAM-NET
  0
ARC
  5
93
  8
TEAM-NET
 10
-519.656053
 20
345.9
 30
130.932357
 40
5.0
210
0.93792
220
-0.346852
230
-0.0
 50
6.484935
 51
90.0
  0
POLYLINE
  5
A2E
  8
TEAM-NET
 66
     1
 10
0.0
 20
0.0
 30
0.0
 70
     8
1001
ACAD
1000
R13OBJECT
1002
{
1005
93
1002
}
  0
VERTEX
  5
A2F
  8
TEAM-NET
 10
-55.716779
 20
-528.150269
 30
346.46471
 70
    32
  0
VERTEX
  5
A30
  8
TEAM-NET
 10
-40.236158
 20
-533.003241
 30
346.4769
 70
    32
  0
VERTEX
  5
A31
  8
TEAM-NET
 10
-24.281789
 20
-536.279256
 30
346.485121
 70
    32
  0
VERTEX
  5
A32
  8
TEAM-NET
 10
-16.203186
 20
-537.306005
 30
346.487695
 70
    32
  0
VERTEX
  5
A33
  8
TEAM-NET
 10
-8.099075
 20
-537.921199
 30
346.489238
 70
    32
  0
VERTEX
  5
A34
  8
TEAM-NET
 10
-4.046941
 20
-538.074542
 30
346.489622
 70
    32
  0
VERTEX
  5
A35
  8
TEAM-NET
 10
-0.000077
 20
-538.125553
 30
346.48975
 70
    32
  0
VERTEX
  5
A36
  8
TEAM-NET
 10
4.046428
 20
-538.074554
 30
346.489622
 70
    32
  0
VERTEX
  5
A37
  8
TEAM-NET
 10
8.098428
 20
-537.921248
 30
346.489238
 70
    32
  0
VERTEX
  5
A38
  8
TEAM-NET
 10
24.281241
 20
-536.279258
 30
346.485121
 70
    32
  0
VERTEX
  5
A39
  8
TEAM-NET
 10
40.235816
 20
-533.003392
 30
346.476902
 70
    32
  0
VERTEX
  5
A3A
  8
TEAM-NET
 10
55.716321
 20
-528.150417
 30
346.464711
 70
    32
  0
SEQEND
  5
A3B
  8
TEAM-NET
  0
ARC
  5
A3C
  8
TEAM-NET
 10
-519.656381
 20
345.9
 30
-130.931471
 40
5.0
210
0.937921
220
0.34685
230
-0.0
 50
6.484952
 51
90.0
1001
ACAD
1000
R13OBJECT
1002
{
1005
93
1002
}
  0
POLYLINE
  5
A3D
  8
TEAM-NET
 66
     1
 10
0.0
 20
0.0
 30
0.0
 70
     8
1001
ACAD
1000
R13OBJECT
1002
{
1005
93
1002
}
  0
VERTEX
  5
A3E
  8
TEAM-NET
 10
57.439475
 20
-532.810014
 30
350.9
 70
    32
  0
VERTEX
  5
A3F
  8
TEAM-NET
 10
41.479845
 20
-537.811677
 30
350.9
 70
    32
  0
VERTEX
  5
A40
  8
TEAM-NET
 10
25.031834
 20
-541.187847
 30
350.9
 70
    32
  0
VERTEX
  5
A41
  8
TEAM-NET
 10
8.348746
 20
-542.880094
 30
350.9
 70
    32
  0
VERTEX
  5
A42
  8
TEAM-NET
 10
4.1715
 20
-543.038092
 30
350.9
 70
    32
  0
VERTEX
  5
A43
  8
TEAM-NET
 10
-0.000078
 20
-543.090651
 30
350.9
 70
    32
  0
VERTEX
  5
A44
  8
TEAM-NET
 10
-4.172028
 20
-543.038079
 30
350.9
 70
    32
  0
VERTEX
  5
A45
  8
TEAM-NET
 10
-8.349412
 20
-542.880043
 30
350.9
 70
    32
  0
VERTEX
  5
A46
  8
TEAM-NET
 10
-16.704034
 20
-542.246022
 30
350.9
 70
    32
  0
VERTEX
  5
A47
  8
TEAM-NET
 10
-25.032397
 20
-541.187845
 30
350.9
 70
    32
  0
VERTEX
  5
A48
  8
TEAM-NET
 10
-41.480197
 20
-537.811522
 30
350.9
 70
    32
  0
VERTEX
  5
A49
  8
TEAM-NET
 10
-57.439945
 20
-532.809862
 30
350.9
 70
    32
  0
SEQEND
  5
A4A
  8
TEAM-NET
  0
POLYLINE
  5
94
  8
TEAM-NET
 66
     1
 10
0.0
 20
0.0
 30
0.444026
 70
   128
210
0.0
220
1.0
230
0.0
  0
VERTEX
  5
CCC
  8
TEAM-NET
 10
165.091796
 20
350.9
 30
0.444026
  0
VERTEX
  5
CCD
  8
TEAM-NET
 10
163.193544
 20
350.52565
 30
0.444026
  0
VERTEX
  5
CCE
  8
TEAM-NET
 10
161.579536
 20
349.458656
 30
0.444026
  0
VERTEX
  5
CCF
  8
TEAM-NET
 10
160.491454
 20
347.858789
 30
0.444026
  0
VERTEX
  5
CD0
  8
TEAM-NET
 10
160.096135
 20
346.108256
 30
0.444026
  0
SEQEND
  5
CD1
  8
TEAM-NET
  0
LINE
  5
A51
  8
TEAM-NET
 10
-160.096135
 20
0.444026
 30
346.108256
 11
-160.096135
 21
-34.628191
 31
346.108256
1001
ACAD
1000
R13OBJECT
1002
{
1005
94
1002
}
  0
ARC
  5
A52
  8
TEAM-NET
 10
165.091796
 20
345.9
 30
-34.628191
 40
5.0
210
0.0
220
1.0
230
0.0
 50
90.0
 51
177.61287
1001
ACAD
1000
R13OBJECT
1002
{
1005
94
1002
}
  0
LINE
  5
A53
  8
TEAM-NET
 10
-165.091796
 20
-34.628191
 30
350.9
 11
-165.091796
 21
0.444026
 31
350.9
1001
ACAD
1000
R13OBJECT
1002
{
1005
94
1002
}
  0
POLYLINE
  5
95
  8
TEAM-NET
 66
     1
 10
0.0
 20
0.0
 30
-350.9
 70
   128
210
0.0
220
0.0
230
-1.0
  0
VERTEX
  5
CD2
  8
TEAM-NET
 10
161.740599
 20
-410.580893
 30
-350.9
  0
VERTEX
  5
CD3
  8
TEAM-NET
 10
163.989899
 20
-396.522116
 30
-350.9
  0
VERTEX
  5
CD4
  8
TEAM-NET
 10
165.091796
 20
-377.459208
 30
-350.9
  0
SEQEND
  5
CD5
  8
TEAM-NET
  0
ARC
  5
A58
  8
TEAM-NET
 10
-165.091796
 20
345.9
 30
377.459208
 40
5.0
210
-0.0
220
-1.0
230
-0.0
 50
2.38713
 51
90.0
1001
ACAD
1000
R13OBJECT
1002
{
1005
95
1002
}
  0
POLYLINE
  5
A59
  8
TEAM-NET
 66
     1
 10
0.0
 20
0.0
 30
345.111603
 70
   128
210
0.000096
220
0.002597
230
0.999997
1001
ACAD
1000
R13OBJECT
1002
{
1005
95
1002
}
  0
VERTEX
  5
1070
  8
TEAM-NET
 10
-160.129233
 20
-378.356659
 30
345.111603
  0
VERTEX
  5
1071
  8
TEAM-NET
 10
-159.062858
 20
-396.843959
 30
345.111603
  0
VERTEX
  5
1072
  8
TEAM-NET
 10
-156.868143
 20
-410.552998
 30
345.111603
  0
SEQEND
  5
1073
  8
TEAM-NET
  0
POLYLINE
  5
A5E
  8
TEAM-NET
 66
     1
 10
0.0
 20
0.0
 30
0.0
 70
     8
1001
ACAD
1000
R13OBJECT
1002
{
1005
95
1002
}
  0
VERTEX
  5
A5F
  8
TEAM-NET
 10
-161.740598
 20
-410.580893
 30
350.9
 70
    32
  0
VERTEX
  5
A60
  8
TEAM-NET
 10
-161.726364
 20
-410.578201
 30
350.899979
 70
    32
  0
VERTEX
  5
A61
  8
TEAM-NET
 10
-159.971631
 20
-410.246615
 30
350.564734
 70
    32
  0
VERTEX
  5
A62
  8
TEAM-NET
 10
-158.450272
 20
-409.959592
 30
349.613536
 70
    32
  0
VERTEX
  5
A63
  8
TEAM-NET
 10
-157.311058
 20
-409.745004
 30
348.064557
 70
    32
  0
VERTEX
  5
A64
  8
TEAM-NET
 10
-156.835037
 20
-409.655438
 30
346.191551
 70
    32
  0
SEQEND
  5
A65
  8
TEAM-NET
  0
ARC
  5
96
  8
TEAM-NET
 10
165.091796
 20
345.9
 30
-34.628191
 40
5.0
210
0.0
220
1.0
230
0.0
 50
90.0
 51
177.61287
  0
LINE
  5
A66
  8
TEAM-NET
 10
-160.096135
 20
-34.628191
 30
346.108256
 11
-160.096135
 21
-377.459208
 31
346.108256
1001
ACAD
1000
R13OBJECT
1002
{
1005
96
1002
}
  0
ARC
  5
A67
  8
TEAM-NET
 10
-165.091796
 20
345.9
 30
377.459208
 40
5.0
210
-0.0
220
-1.0
230
-0.0
 50
2.38713
 51
90.0
1001
ACAD
1000
R13OBJECT
1002
{
1005
96
1002
}
  0
LINE
  5
A68
  8
TEAM-NET
 10
-165.091796
 20
-377.459208
 30
350.9
 11
-165.091796
 21
-34.628191
 31
350.9
1001
ACAD
1000
R13OBJECT
1002
{
1005
96
1002
}
  0
POLYLINE
  5
97
  8
TEAM-NET
 66
     1
 10
0.0
 20
0.0
 30
0.0
 70
     8
  0
VERTEX
  5
A69
  8
TEAM-NET
 10
-156.834383
 20
-409.654756
 30
346.178251
 70
    32
  0
VERTEX
  5
A6A
  8
TEAM-NET
 10
-156.81378
 20
-409.774012
 30
346.179447
 70
    32
  0
VERTEX
  5
A6B
  8
TEAM-NET
 10
-156.806581
 20
-409.815094
 30
346.179745
 70
    32
  0
VERTEX
  5
A6C
  8
TEAM-NET
 10
-156.776786
 20
-409.982846
 30
346.180682
 70
    32
  0
VERTEX
  5
A6D
  8
TEAM-NET
 10
-156.714299
 20
-410.326275
 30
346.181986
 70
    32
  0
VERTEX
  5
A6E
  8
TEAM-NET
 10
-156.649487
 20
-410.673862
 30
346.18301
 70
    32
  0
VERTEX
  5
A6F
  8
TEAM-NET
 10
-156.582987
 20
-411.023215
 30
346.183924
 70
    32
  0
VERTEX
  5
A70
  8
TEAM-NET
 10
-156.44585
 20
-411.724491
 30
346.185592
 70
    32
  0
VERTEX
  5
A71
  8
TEAM-NET
 10
-156.303908
 20
-412.427313
 30
346.187165
 70
    32
  0
VERTEX
  5
A72
  8
TEAM-NET
 10
-156.007247
 20
-413.834061
 30
346.190216
 70
    32
  0
VERTEX
  5
A73
  8
TEAM-NET
 10
-155.694753
 20
-415.240299
 30
346.193235
 70
    32
  0
VERTEX
  5
A74
  8
TEAM-NET
 10
-155.025185
 20
-418.047372
 30
346.199294
 70
    32
  0
VERTEX
  5
A75
  8
TEAM-NET
 10
-154.298839
 20
-420.843845
 30
346.205426
 70
    32
  0
VERTEX
  5
A76
  8
TEAM-NET
 10
-153.517697
 20
-423.627162
 30
346.211632
 70
    32
  0
VERTEX
  5
A77
  8
TEAM-NET
 10
-152.683067
 20
-426.395759
 30
346.217895
 70
    32
  0
VERTEX
  5
A78
  8
TEAM-NET
 10
-152.24578
 20
-427.774868
 30
346.221044
 70
    32
  0
VERTEX
  5
A79
  8
TEAM-NET
 10
-150.855065
 20
-431.889918
 30
346.230542
 70
    32
  0
VERTEX
  5
A7A
  8
TEAM-NET
 10
-149.975943
 20
-434.311136
 30
346.236196
 70
    32
  0
VERTEX
  5
A7B
  8
TEAM-NET
 10
-149.521239
 20
-435.516487
 30
346.23903
 70
    32
  0
VERTEX
  5
A7C
  8
TEAM-NET
 10
-148.097297
 20
-439.110099
 30
346.247536
 70
    32
  0
VERTEX
  5
A7D
  8
TEAM-NET
 10
-146.584982
 20
-442.667522
 30
346.256031
 70
    32
  0
VERTEX
  5
A7E
  8
TEAM-NET
 10
-144.986151
 20
-446.185513
 30
346.264493
 70
    32
  0
VERTEX
  5
A7F
  8
TEAM-NET
 10
-144.15488
 20
-447.928762
 30
346.268705
 70
    32
  0
VERTEX
  5
A80
  8
TEAM-NET
 10
-143.302721
 20
-449.66097
 30
346.272902
 70
    32
  0
VERTEX
  5
A81
  8
TEAM-NET
 10
-142.429117
 20
-451.383339
 30
346.277085
 70
    32
  0
VERTEX
  5
A82
  8
TEAM-NET
 10
-141.533546
 20
-453.096845
 30
346.281255
 70
    32
  0
VERTEX
  5
A83
  8
TEAM-NET
 10
-140.616207
 20
-454.801
 30
346.28541
 70
    32
  0
VERTEX
  5
A84
  8
TEAM-NET
 10
-139.677223
 20
-456.495484
 30
346.289549
 70
    32
  0
VERTEX
  5
A85
  8
TEAM-NET
 10
-137.735006
 20
-459.853852
 30
346.297769
 70
    32
  0
VERTEX
  5
A86
  8
TEAM-NET
 10
-135.708313
 20
-463.168887
 30
346.305901
 70
    32
  0
VERTEX
  5
A87
  8
TEAM-NET
 10
-134.663772
 20
-464.809194
 30
346.30993
 70
    32
  0
VERTEX
  5
A88
  8
TEAM-NET
 10
-134.133797
 20
-465.624884
 30
346.311934
 70
    32
  0
VERTEX
  5
A89
  8
TEAM-NET
 10
-129.137859
 20
-472.823638
 30
346.329644
 70
    32
  0
VERTEX
  5
A8A
  8
TEAM-NET
 10
-127.384456
 20
-475.162674
 30
346.335401
 70
    32
  0
VERTEX
  5
A8B
  8
TEAM-NET
 10
-125.588487
 20
-477.469436
 30
346.341078
 70
    32
  0
VERTEX
  5
A8C
  8
TEAM-NET
 10
-124.67483
 20
-478.610348
 30
346.343885
 70
    32
  0
VERTEX
  5
A8D
  8
TEAM-NET
 10
-121.872648
 20
-481.981522
 30
346.352175
 70
    32
  0
VERTEX
  5
A8E
  8
TEAM-NET
 10
-119.954786
 20
-484.184636
 30
346.357588
 70
    32
  0
VERTEX
  5
A8F
  8
TEAM-NET
 10
-118.981327
 20
-485.272499
 30
346.360259
 70
    32
  0
VERTEX
  5
A90
  8
TEAM-NET
 10
-113.974167
 20
-490.569868
 30
346.373247
 70
    32
  0
VERTEX
  5
A91
  8
TEAM-NET
 10
-112.94574
 20
-491.600132
 30
346.375769
 70
    32
  0
VERTEX
  5
A92
  8
TEAM-NET
 10
-109.809027
 20
-494.630526
 30
346.383176
 70
    32
  0
VERTEX
  5
A93
  8
TEAM-NET
 10
-107.676482
 20
-496.599449
 30
346.387981
 70
    32
  0
VERTEX
  5
A94
  8
TEAM-NET
 10
-106.598231
 20
-497.568219
 30
346.390342
 70
    32
  0
VERTEX
  5
A95
  8
TEAM-NET
 10
-105.51195
 20
-498.526623
 30
346.392677
 70
    32
  0
VERTEX
  5
A96
  8
TEAM-NET
 10
-103.311554
 20
-500.415593
 30
346.397273
 70
    32
  0
VERTEX
  5
A97
  8
TEAM-NET
 10
-101.074095
 20
-502.267173
 30
346.401773
 70
    32
  0
VERTEX
  5
A98
  8
TEAM-NET
 10
-98.800485
 20
-504.080323
 30
346.406172
 70
    32
  0
VERTEX
  5
A99
  8
TEAM-NET
 10
-96.491721
 20
-505.853993
 30
346.41047
 70
    32
  0
VERTEX
  5
A9A
  8
TEAM-NET
 10
-94.148729
 20
-507.587271
 30
346.414657
 70
    32
  0
VERTEX
  5
A9B
  8
TEAM-NET
 10
-91.772712
 20
-509.279156
 30
346.418735
 70
    32
  0
VERTEX
  5
A9C
  8
TEAM-NET
 10
-89.364798
 20
-510.928608
 30
346.422708
 70
    32
  0
VERTEX
  5
A9D
  8
TEAM-NET
 10
-88.149241
 20
-511.737154
 30
346.424655
 70
    32
  0
VERTEX
  5
A9E
  8
TEAM-NET
 10
-76.887614
 20
-518.50858
 30
346.440985
 70
    32
  0
VERTEX
  5
A9F
  8
TEAM-NET
 10
-74.313284
 20
-519.885464
 30
346.444321
 70
    32
  0
VERTEX
  5
AA0
  8
TEAM-NET
 10
-71.715714
 20
-521.214399
 30
346.447551
 70
    32
  0
VERTEX
  5
AA1
  8
TEAM-NET
 10
-69.096192
 20
-522.494716
 30
346.450675
 70
    32
  0
VERTEX
  5
AA2
  8
TEAM-NET
 10
-67.778628
 20
-523.116488
 30
346.452196
 70
    32
  0
VERTEX
  5
AA3
  8
TEAM-NET
 10
-61.119505
 20
-526.03897
 30
346.459408
 70
    32
  0
VERTEX
  5
AA4
  8
TEAM-NET
 10
-58.425739
 20
-527.120014
 30
346.46211
 70
    32
  0
VERTEX
  5
AA5
  8
TEAM-NET
 10
-55.716779
 20
-528.150269
 30
346.46471
 70
    32
  0
SEQEND
  5
AA6
  8
TEAM-NET
  0
ARC
  5
AA7
  8
TEAM-NET
 10
-519.656053
 20
345.9
 30
130.932357
 40
5.0
210
0.93792
220
-0.346852
230
-0.0
 50
6.484935
 51
90.0
1001
ACAD
1000
R13OBJECT
1002
{
1005
97
1002
}
  0
POLYLINE
  5
AA8
  8
TEAM-NET
 66
     1
 10
0.0
 20
0.0
 30
0.0
 70
     8
1001
ACAD
1000
R13OBJECT
1002
{
1005
97
1002
}
  0
VERTEX
  5
AA9
  8
TEAM-NET
 10
-57.439945
 20
-532.809862
 30
350.9
 70
    32
  0
VERTEX
  5
AAA
  8
TEAM-NET
 10
-60.233569
 20
-531.747733
 30
350.9
 70
    32
  0
VERTEX
  5
AAB
  8
TEAM-NET
 10
-63.011464
 20
-530.633266
 30
350.9
 70
    32
  0
VERTEX
  5
AAC
  8
TEAM-NET
 10
-69.878387
 20
-527.620496
 30
350.9
 70
    32
  0
VERTEX
  5
AAD
  8
TEAM-NET
 10
-71.237045
 20
-526.979524
 30
350.9
 70
    32
  0
VERTEX
  5
AAE
  8
TEAM-NET
 10
-73.93825
 20
-525.65968
 30
350.9
 70
    32
  0
VERTEX
  5
AAF
  8
TEAM-NET
 10
-76.616797
 20
-524.289728
 30
350.9
 70
    32
  0
VERTEX
  5
AB0
  8
TEAM-NET
 10
-79.271355
 20
-522.87036
 30
350.9
 70
    32
  0
VERTEX
  5
AB1
  8
TEAM-NET
 10
-90.883626
 20
-515.89021
 30
350.9
 70
    32
  0
VERTEX
  5
AB2
  8
TEAM-NET
 10
-92.136989
 20
-515.05677
 30
350.9
 70
    32
  0
VERTEX
  5
AB3
  8
TEAM-NET
 10
-94.619763
 20
-513.356559
 30
350.9
 70
    32
  0
VERTEX
  5
AB4
  8
TEAM-NET
 10
-97.06959
 20
-511.612653
 30
350.9
 70
    32
  0
VERTEX
  5
AB5
  8
TEAM-NET
 10
-99.485372
 20
-509.826079
 30
350.9
 70
    32
  0
VERTEX
  5
AB6
  8
TEAM-NET
 10
-101.865969
 20
-507.997797
 30
350.9
 70
    32
  0
VERTEX
  5
AB7
  8
TEAM-NET
 10
-104.210325
 20
-506.128816
 30
350.9
 70
    32
  0
VERTEX
  5
AB8
  8
TEAM-NET
 10
-106.51743
 20
-504.220206
 30
350.9
 70
    32
  0
VERTEX
  5
AB9
  8
TEAM-NET
 10
-108.786336
 20
-502.273043
 30
350.9
 70
    32
  0
VERTEX
  5
ABA
  8
TEAM-NET
 10
-109.90645
 20
-501.285107
 30
350.9
 70
    32
  0
VERTEX
  5
ABB
  8
TEAM-NET
 10
-111.018288
 20
-500.286481
 30
350.9
 70
    32
  0
VERTEX
  5
ABC
  8
TEAM-NET
 10
-113.217284
 20
-498.256864
 30
350.9
 70
    32
  0
VERTEX
  5
ABD
  8
TEAM-NET
 10
-116.451796
 20
-495.133008
 30
350.9
 70
    32
  0
VERTEX
  5
ABE
  8
TEAM-NET
 10
-117.512305
 20
-494.070956
 30
350.9
 70
    32
  0
VERTEX
  5
ABF
  8
TEAM-NET
 10
-122.675807
 20
-488.610009
 30
350.9
 70
    32
  0
VERTEX
  5
AC0
  8
TEAM-NET
 10
-123.679691
 20
-487.488526
 30
350.9
 70
    32
  0
VERTEX
  5
AC1
  8
TEAM-NET
 10
-125.65753
 20
-485.217292
 30
350.9
 70
    32
  0
VERTEX
  5
AC2
  8
TEAM-NET
 10
-128.547431
 20
-481.74179
 30
350.9
 70
    32
  0
VERTEX
  5
AC3
  8
TEAM-NET
 10
-129.489714
 20
-480.565543
 30
350.9
 70
    32
  0
VERTEX
  5
AC4
  8
TEAM-NET
 10
-131.341992
 20
-478.187294
 30
350.9
 70
    32
  0
VERTEX
  5
AC5
  8
TEAM-NET
 10
-133.150427
 20
-475.775707
 30
350.9
 70
    32
  0
VERTEX
  5
AC6
  8
TEAM-NET
 10
-138.303514
 20
-468.353213
 30
350.9
 70
    32
  0
VERTEX
  5
AC7
  8
TEAM-NET
 10
-138.850194
 20
-467.512124
 30
350.9
 70
    32
  0
VERTEX
  5
AC8
  8
TEAM-NET
 10
-139.927683
 20
-465.820708
 30
350.9
 70
    32
  0
VERTEX
  5
AC9
  8
TEAM-NET
 10
-142.018401
 20
-462.402244
 30
350.9
 70
    32
  0
VERTEX
  5
ACA
  8
TEAM-NET
 10
-144.022109
 20
-458.938888
 30
350.9
 70
    32
  0
VERTEX
  5
ACB
  8
TEAM-NET
 10
-144.990874
 20
-457.191344
 30
350.9
 70
    32
  0
VERTEX
  5
ACC
  8
TEAM-NET
 10
-145.937346
 20
-455.433763
 30
350.9
 70
    32
  0
VERTEX
  5
ACD
  8
TEAM-NET
 10
-146.861399
 20
-453.666469
 30
350.9
 70
    32
  0
VERTEX
  5
ACE
  8
TEAM-NET
 10
-147.762828
 20
-451.88996
 30
350.9
 70
    32
  0
VERTEX
  5
ACF
  8
TEAM-NET
 10
-148.642171
 20
-450.103223
 30
350.9
 70
    32
  0
VERTEX
  5
AD0
  8
TEAM-NET
 10
-149.500005
 20
-448.30501
 30
350.9
 70
    32
  0
VERTEX
  5
AD1
  8
TEAM-NET
 10
-151.150071
 20
-444.675806
 30
350.9
 70
    32
  0
VERTEX
  5
AD2
  8
TEAM-NET
 10
-152.711061
 20
-441.005463
 30
350.9
 70
    32
  0
VERTEX
  5
AD3
  8
TEAM-NET
 10
-154.181072
 20
-437.297221
 30
350.9
 70
    32
  0
VERTEX
  5
AD4
  8
TEAM-NET
 10
-154.650549
 20
-436.05327
 30
350.9
 70
    32
  0
VERTEX
  5
AD5
  8
TEAM-NET
 10
-155.558316
 20
-433.554301
 30
350.9
 70
    32
  0
VERTEX
  5
AD6
  8
TEAM-NET
 10
-156.994687
 20
-429.306146
 30
350.9
 70
    32
  0
VERTEX
  5
AD7
  8
TEAM-NET
 10
-157.446454
 20
-427.882061
 30
350.9
 70
    32
  0
VERTEX
  5
AD8
  8
TEAM-NET
 10
-158.308941
 20
-425.022463
 30
350.9
 70
    32
  0
VERTEX
  5
AD9
  8
TEAM-NET
 10
-159.11652
 20
-422.146407
 30
350.9
 70
    32
  0
VERTEX
  5
ADA
  8
TEAM-NET
 10
-159.867942
 20
-419.2549
 30
350.9
 70
    32
  0
VERTEX
  5
ADB
  8
TEAM-NET
 10
-160.561397
 20
-416.349258
 30
350.9
 70
    32
  0
VERTEX
  5
ADC
  8
TEAM-NET
 10
-160.885526
 20
-414.891496
 30
350.9
 70
    32
  0
VERTEX
  5
ADD
  8
TEAM-NET
 10
-161.193823
 20
-413.430443
 30
350.9
 70
    32
  0
VERTEX
  5
ADE
  8
TEAM-NET
 10
-161.341717
 20
-412.698617
 30
350.9
 70
    32
  0
VERTEX
  5
ADF
  8
TEAM-NET
 10
-161.4851
 20
-411.965909
 30
350.9
 70
    32
  0
VERTEX
  5
AE0
  8
TEAM-NET
 10
-161.55496
 20
-411.599194
 30
350.9
 70
    32
  0
VERTEX
  5
AE1
  8
TEAM-NET
 10
-161.623448
 20
-411.232217
 30
350.9
 70
    32
  0
VERTEX
  5
AE2
  8
TEAM-NET
 10
-161.690349
 20
-410.864951
 30
350.9
 70
    32
  0
VERTEX
  5
AE3
  8
TEAM-NET
 10
-161.723046
 20
-410.681185
 30
350.9
 70
    32
  0
VERTEX
  5
AE4
  8
TEAM-NET
 10
-161.731119
 20
-410.635226
 30
350.9
 70
    32
  0
VERTEX
  5
AE5
  8
TEAM-NET
 10
-161.740598
 20
-410.580893
 30
350.9
 70
    32
  0
SEQEND
  5
AE6
  8
TEAM-NET
  0
POLYLINE
  5
AE7
  8
TEAM-NET
 66
     1
 10
0.0
 20
0.0
 30
0.0
 70
     8
1001
ACAD
1000
R13OBJECT
1002
{
1005
97
1002
}
  0
VERTEX
  5
AE8
  8
TEAM-NET
 10
-161.740598
 20
-410.580893
 30
350.9
 70
    32
  0
VERTEX
  5
AE9
  8
TEAM-NET
 10
-161.726364
 20
-410.578201
 30
350.899979
 70
    32
  0
VERTEX
  5
AEA
  8
TEAM-NET
 10
-159.971631
 20
-410.246615
 30
350.564734
 70
    32
  0
VERTEX
  5
AEB
  8
TEAM-NET
 10
-158.450272
 20
-409.959592
 30
349.613536
 70
    32
  0
VERTEX
  5
AEC
  8
TEAM-NET
 10
-157.311058
 20
-409.745004
 30
348.064557
 70
    32
  0
VERTEX
  5
AED
  8
TEAM-NET
 10
-156.835037
 20
-409.655438
 30
346.191551
 70
    32
  0
SEQEND
  5
AEE
  8
TEAM-NET
  0
LINE
  5
AEF
  8
TEAM-NET
 10
-156.834383
 20
-409.654756
 30
346.178251
 11
-156.835037
 21
-409.655438
 31
346.191551
1001
ACAD
1000
R13OBJECT
1002
{
1005
97
1002
}
  0
POLYLINE
  5
98
  8
TEAM-NET
 66
     1
 10
0.0
 20
0.0
 30
345.110637
 70
   128
210
-0.0001
220
0.002597
230
0.999997
  0
VERTEX
  5
CD6
  8
TEAM-NET
 10
156.866695
 20
-410.568175
 30
345.110637
  0
VERTEX
  5
CD7
  8
TEAM-NET
 10
159.530336
 20
-392.244465
 30
345.110637
  0
VERTEX
  5
CD8
  8
TEAM-NET
 10
160.130856
 20
-378.356853
 30
345.110637
  0
SEQEND
  5
CD9
  8
TEAM-NET
  0
ARC
  5
AF4
  8
TEAM-NET
 10
-165.091796
 20
345.9
 30
-377.459208
 40
5.0
210
0.0
220
1.0
230
0.0
 50
2.38713
 51
90.0
1001
ACAD
1000
R13OBJECT
1002
{
1005
98
1002
}
  0
POLYLINE
  5
AF5
  8
TEAM-NET
 66
     1
 10
0.0
 20
0.0
 30
-350.9
 70
   128
210
0.0
220
0.0
230
-1.0
1001
ACAD
1000
R13OBJECT
1002
{
1005
98
1002
}
  0
VERTEX
  5
1074
  8
TEAM-NET
 10
-165.091796
 20
-377.459208
 30
-350.9
  0
VERTEX
  5
1075
  8
TEAM-NET
 10
-164.470886
 20
-391.779162
 30
-350.9
  0
VERTEX
  5
1076
  8
TEAM-NET
 10
-161.737419
 20
-410.596437
 30
-350.9
  0
SEQEND
  5
1077
  8
TEAM-NET
  0
POLYLINE
  5
AFA
  8
TEAM-NET
 66
     1
 10
0.0
 20
0.0
 30
0.0
 70
     8
1001
ACAD
1000
R13OBJECT
1002
{
1005
98
1002
}
  0
VERTEX
  5
AFB
  8
TEAM-NET
 10
161.737419
 20
-410.596437
 30
350.9
 70
    32
  0
VERTEX
  5
AFC
  8
TEAM-NET
 10
161.723181
 20
-410.593743
 30
350.899979
 70
    32
  0
VERTEX
  5
AFD
  8
TEAM-NET
 10
159.968507
 20
-410.261962
 30
350.564741
 70
    32
  0
VERTEX
  5
AFE
  8
TEAM-NET
 10
158.447195
 20
-409.974767
 30
349.613565
 70
    32
  0
VERTEX
  5
AFF
  8
TEAM-NET
 10
157.307993
 20
-409.760045
 30
348.064595
 70
    32
  0
VERTEX
  5
B00
  8
TEAM-NET
 10
156.831966
 20
-409.670421
 30
346.191592
 70
    32
  0
SEQEND
  5
B01
  8
TEAM-NET
  0
ARC
  5
99
  8
TEAM-NET
 10
0.0
 20
-379.555974
 30
-357.9
 40
180.0
210
-0.0
220
0.0
230
-1.0
 50
180.0
 51
0.0
  0
LINE
  5
B02
  8
TEAM-NET
 10
180.0
 20
-379.555974
 30
357.9
 11
180.0
 21
-379.555974
 31
383.9
1001
ACAD
1000
R13OBJECT
1002
{
1005
99
1002
}
  0
ARC
  5
B03
  8
TEAM-NET
 10
0.0
 20
-379.555974
 30
383.9
 40
180.0
 50
180.0
 51
0.0
1001
ACAD
1000
R13OBJECT
1002
{
1005
99
1002
}
  0
LINE
  5
B04
  8
TEAM-NET
 10
-180.0
 20
-379.555974
 30
383.9
 11
-180.0
 21
-379.555974
 31
357.9
1001
ACAD
1000
R13OBJECT
1002
{
1005
99
1002
}
  0
LINE
  5
B05
  8
TEAM-NET
 10
0.0
 20
-559.555974
 30
357.9
 11
0.0
 21
-559.555974
 31
383.9
1001
ACAD
1000
R13OBJECT
1002
{
1005
99
1002
}
  0
LINE
  5
9A
  8
TEAM-NET
 10
130.0
 20
-169.555974
 30
387.9
 11
130.0
 21
-169.555974
 31
360.9
  0
ARC
  5
B06
  8
TEAM-NET
 10
130.0
 20
-159.555974
 30
360.9
 40
10.0
 50
90.0
 51
270.0
1001
ACAD
1000
R13OBJECT
1002
{
1005
9A
1002
}
  0
LINE
  5
B07
  8
TEAM-NET
 10
130.0
 20
-149.555974
 30
387.9
 11
130.0
 21
-149.555974
 31
360.9
1001
ACAD
1000
R13OBJECT
1002
{
1005
9A
1002
}
  0
ARC
  5
B08
  8
TEAM-NET
 10
-130.0
 20
-159.555974
 30
-387.9
 40
10.0
210
0.0
220
0.0
230
-1.0
 50
270.0
 51
90.0
1001
ACAD
1000
R13OBJECT
1002
{
1005
9A
1002
}
  0
LINE
  5
9B
  8
TEAM-NET
 10
-130.0
 20
-169.555974
 30
387.9
 11
-130.0
 21
-169.555974
 31
360.9
  0
ARC
  5
B09
  8
TEAM-NET
 10
-130.0
 20
-159.555974
 30
360.9
 40
10.0
 50
90.0
 51
270.0
1001
ACAD
1000
R13OBJECT
1002
{
1005
9B
1002
}
  0
LINE
  5
B0A
  8
TEAM-NET
 10
-130.0
 20
-149.555974
 30
387.9
 11
-130.0
 21
-149.555974
 31
360.9
1001
ACAD
1000
R13OBJECT
1002
{
1005
9B
1002
}
  0
ARC
  5
B0B
  8
TEAM-NET
 10
130.0
 20
-159.555974
 30
-387.9
 40
10.0
210
0.0
220
0.0
230
-1.0
 50
270.0
 51
90.0
1001
ACAD
1000
R13OBJECT
1002
{
1005
9B
1002
}
  0
LINE
  5
9C
  8
TEAM-NET
 10
-130.0
 20
-169.555974
 30
387.9
 11
-130.0
 21
-169.555974
 31
360.9
  0
ARC
  5
B0C
  8
TEAM-NET
 10
130.0
 20
-159.555974
 30
-387.9
 40
10.0
210
0.0
220
0.0
230
-1.0
 50
90.0
 51
270.0
1001
ACAD
1000
R13OBJECT
1002
{
1005
9C
1002
}
  0
LINE
  5
B0D
  8
TEAM-NET
 10
-130.0
 20
-149.555974
 30
387.9
 11
-130.0
 21
-149.555974
 31
360.9
1001
ACAD
1000
R13OBJECT
1002
{
1005
9C
1002
}
  0
ARC
  5
B0E
  8
TEAM-NET
 10
-130.0
 20
-159.555974
 30
360.9
 40
10.0
 50
270.0
 51
90.0
1001
ACAD
1000
R13OBJECT
1002
{
1005
9C
1002
}
  0
LINE
  5
9D
  8
TEAM-NET
 10
130.0
 20
-169.555974
 30
387.9
 11
130.0
 21
-169.555974
 31
360.9
  0
ARC
  5
B0F
  8
TEAM-NET
 10
-130.0
 20
-159.555974
 30
-387.9
 40
10.0
210
0.0
220
0.0
230
-1.0
 50
90.0
 51
270.0
1001
ACAD
1000
R13OBJECT
1002
{
1005
9D
1002
}
  0
LINE
  5
B10
  8
TEAM-NET
 10
130.0
 20
-149.555974
 30
387.9
 11
130.0
 21
-149.555974
 31
360.9
1001
ACAD
1000
R13OBJECT
1002
{
1005
9D
1002
}
  0
ARC
  5
B11
  8
TEAM-NET
 10
130.0
 20
-159.555974
 30
360.9
 40
10.0
 50
270.0
 51
90.0
1001
ACAD
1000
R13OBJECT
1002
{
1005
9D
1002
}
  0
ARC
  5
9E
  8
TEAM-NET
 10
-130.0
 20
-159.555974
 30
360.9
 40
10.0
 50
90.0
 51
270.0
  0
ARC
  5
B12
  8
TEAM-NET
 10
-130.0
 20
-159.555974
 30
360.9
 40
10.0
 50
270.0
 51
90.0
1001
ACAD
1000
R13OBJECT
1002
{
1005
9E
1002
}
  0
ARC
  5
9F
  8
TEAM-NET
 10
130.0
 20
-159.555974
 30
360.9
 40
10.0
 50
90.0
 51
270.0
  0
ARC
  5
B13
  8
TEAM-NET
 10
130.0
 20
-159.555974
 30
360.9
 40
10.0
 50
270.0
 51
90.0
1001
ACAD
1000
R13OBJECT
1002
{
1005
9F
1002
}
  0
LINE
  5
A0
  8
TEAM-NET
 10
55.841693
 20
-529.494979
 30
361.210331
 11
64.117231
 21
-526.147177
 31
360.9
  0
ARC
  5
B14
  8
TEAM-NET
 10
0.0
 20
-379.555974
 30
360.9
 40
160.0
 50
246.379051
 51
293.623991
1001
ACAD
1000
R13OBJECT
1002
{
1005
A0
1002
}
  0
LINE
  5
B15
  8
TEAM-NET
 10
-64.109449
 20
-526.15058
 30
360.9
 11
-55.842139
 21
-529.494813
 31
361.21006
1001
ACAD
1000
R13OBJECT
1002
{
1005
A0
1002
}
  0
POLYLINE
  5
B16
  8
TEAM-NET
 66
     1
 10
0.0
 20
0.0
 30
0.0
 70
     8
1001
ACAD
1000
R13OBJECT
1002
{
1005
A0
1002
}
  0
VERTEX
  5
B17
  8
TEAM-NET
 10
-55.842139
 20
-529.494813
 30
361.21006
 70
    32
  0
VERTEX
  5
B18
  8
TEAM-NET
 10
-44.905828
 20
-533.125009
 30
361.569303
 70
    32
  0
VERTEX
  5
B19
  8
TEAM-NET
 10
-33.755886
 20
-535.95452
 30
361.843879
 70
    32
  0
VERTEX
  5
B1A
  8
TEAM-NET
 10
-22.436786
 20
-537.974945
 30
362.036488
 70
    32
  0
VERTEX
  5
B1B
  8
TEAM-NET
 10
-10.993001
 20
-539.177883
 30
362.149833
 70
    32
  0
VERTEX
  5
B1C
  8
TEAM-NET
 10
2.763458
 20
-539.532108
 30
362.183213
 70
    32
  0
VERTEX
  5
B1D
  8
TEAM-NET
 10
15.243219
 20
-538.827919
 30
362.116941
 70
    32
  0
VERTEX
  5
B1E
  8
TEAM-NET
 10
27.627278
 20
-537.152718
 30
361.957895
 70
    32
  0
VERTEX
  5
B1F
  8
TEAM-NET
 10
46.340474
 20
-532.698262
 30
361.527271
 70
    32
  0
VERTEX
  5
B20
  8
TEAM-NET
 10
55.841693
 20
-529.494979
 30
361.210331
 70
    32
  0
SEQEND
  5
B21
  8
TEAM-NET
  0
LINE
  5
B22
  8
TEAM-NET
 10
-64.109449
 20
-526.15058
 30
360.9
 11
-55.840832
 21
-529.474093
 31
360.9
1001
ACAD
1000
R13OBJECT
1002
{
1005
A0
1002
}
  0
LINE
  5
B23
  8
TEAM-NET
 10
-55.842139
 20
-529.494813
 30
361.21006
 11
-55.840832
 21
-529.474093
 31
360.9
1001
ACAD
1000
R13OBJECT
1002
{
1005
A0
1002
}
  0
LINE
  5
B24
  8
TEAM-NET
 10
55.840384
 20
-529.474241
 30
360.9
 11
64.117231
 21
-526.147177
 31
360.9
1001
ACAD
1000
R13OBJECT
1002
{
1005
A0
1002
}
  0
LINE
  5
B25
  8
TEAM-NET
 10
55.841693
 20
-529.494979
 30
361.210331
 11
55.840384
 21
-529.474241
 31
360.9
1001
ACAD
1000
R13OBJECT
1002
{
1005
A0
1002
}
  0
POLYLINE
  5
B26
  8
TEAM-NET
 66
     1
 10
0.0
 20
0.0
 30
360.9
 70
   128
1001
ACAD
1000
R13OBJECT
1002
{
1005
A0
1002
}
  0
VERTEX
  5
1078
  8
TEAM-NET
 10
-55.840832
 20
-529.474093
 30
360.9
  0
VERTEX
  5
1079
  8
TEAM-NET
 10
-42.254965
 20
-533.82551
 30
360.9
  0
VERTEX
  5
107A
  8
TEAM-NET
 10
-28.364422
 20
-536.952009
 30
360.9
  0
VERTEX
  5
107B
  8
TEAM-NET
 10
-14.251934
 20
-538.838778
 30
360.9
  0
VERTEX
  5
107C
  8
TEAM-NET
 10
-0.000237
 20
-539.471005
 30
360.9
  0
VERTEX
  5
107D
  8
TEAM-NET
 10
14.251462
 20
-538.838815
 30
360.9
  0
VERTEX
  5
107E
  8
TEAM-NET
 10
28.363954
 20
-536.952084
 30
360.9
  0
VERTEX
  5
107F
  8
TEAM-NET
 10
42.254506
 20
-533.825622
 30
360.9
  0
VERTEX
  5
1080
  8
TEAM-NET
 10
55.840384
 20
-529.474241
 30
360.9
  0
SEQEND
  5
1081
  8
TEAM-NET
  0
ARC
  5
A1
  8
TEAM-NET
 10
190.52837
 20
392.9
 30
10.779509
 40
2.0
210
-0.741108
220
-0.671386
230
-0.0
 50
270.0
 51
360.0
  0
ARC
  5
B31
  8
TEAM-NET
 10
130.0
 20
-159.555974
 30
392.9
 40
13.0
 50
132.174094
 51
270.397881
1001
ACAD
1000
R13OBJECT
1002
{
1005
A1
1002
}
  0
ARC
  5
B32
  8
TEAM-NET
 10
130.0
 20
-159.555974
 30
392.9
 40
13.0
 50
270.397881
 51
47.825906
1001
ACAD
1000
R13OBJECT
1002
{
1005
A1
1002
}
  0
ARC
  5
B33
  8
TEAM-NET
 10
-15.968121
 20
392.9
 30
203.467649
 40
2.0
210
0.741108
220
-0.671386
230
0.0
 50
180.0
 51
270.0
1001
ACAD
1000
R13OBJECT
1002
{
1005
A1
1002
}
  0
ARC
  5
B34
  8
TEAM-NET
 10
-130.0
 20
-159.555974
 30
-390.9
 40
15.0
210
0.0
220
0.0
230
-1.0
 50
132.174094
 51
47.825906
1001
ACAD
1000
R13OBJECT
1002
{
1005
A1
1002
}
  0
ARC
  5
B35
  8
TEAM-NET
 10
143.888865
 20
392.9
 30
160.454883
 40
2.0
210
0.006944
220
-0.999976
230
0.0
 50
180.0
 51
270.0
1001
ACAD
1000
R13OBJECT
1002
{
1005
A1
1002
}
  0
ARC
  5
B36
  8
TEAM-NET
 10
-113.888865
 20
392.9
 30
-160.454883
 40
2.0
210
-0.006944
220
0.999976
230
0.0
 50
180.0
 51
270.0
1001
ACAD
1000
R13OBJECT
1002
{
1005
A1
1002
}
  0
ARC
  5
B37
  8
TEAM-NET
 10
175.454883
 20
392.9
 30
-128.888865
 40
2.0
210
-0.999976
220
-0.006944
230
-0.0
 50
180.0
 51
270.0
1001
ACAD
1000
R13OBJECT
1002
{
1005
A1
1002
}
  0
ARC
  5
B38
  8
TEAM-NET
 10
130.0
 20
-159.555974
 30
391.485786
 40
13.585786
 50
132.174094
 51
47.825906
1001
ACAD
1000
R13OBJECT
1002
{
1005
A1
1002
}
  0
ARC
  5
A2
  8
TEAM-NET
 10
-1.218409
 20
-335.458325
 30
-390.9
 40
147.006926
210
0.0
220
0.0
230
-1.0
 50
359.602119
 51
178.463189
  0
LINE
  5
B39
  8
TEAM-NET
 10
-145.472506
 20
-381.474282
 30
390.9
 11
-145.784972
 21
-336.479182
 31
390.9
1001
ACAD
1000
R13OBJECT
1002
{
1005
A2
1002
}
  0
ARC
  5
B3A
  8
TEAM-NET
 10
-1.516354
 20
-380.453526
 30
-390.9
 40
146.992405
210
0.0
220
0.0
230
-1.0
 50
179.602119
 51
359.602119
1001
ACAD
1000
R13OBJECT
1002
{
1005
A2
1002
}
  0
LINE
  5
B3B
  8
TEAM-NET
 10
148.172458
 20
-331.515719
 30
390.9
 11
148.505215
 21
-379.43277
 31
390.9
1001
ACAD
1000
R13OBJECT
1002
{
1005
A2
1002
}
  0
ARC
  5
B3C
  8
TEAM-NET
 10
129.993731
 20
-161.361486
 30
-390.9
 40
15.0
210
0.0
220
0.0
230
-1.0
 50
120.51732
 51
59.48268
1001
ACAD
1000
R13OBJECT
1002
{
1005
A2
1002
}
  0
LINE
  5
B3D
  8
TEAM-NET
 10
119.929216
 20
-148.439351
 30
390.9
 11
-122.376749
 21
-148.439351
 31
390.9
1001
ACAD
1000
R13OBJECT
1002
{
1005
A2
1002
}
  0
ARC
  5
B3E
  8
TEAM-NET
 10
-130.0
 20
-159.555974
 30
-390.9
 40
15.0
210
0.0
220
0.0
230
-1.0
 50
132.174094
 51
47.825906
1001
ACAD
1000
R13OBJECT
1002
{
1005
A2
1002
}
  0
LINE
  5
B3F
  8
TEAM-NET
 10
179.512014
 20
-148.439351
 30
390.9
 11
140.070784
 21
-148.439351
 31
390.9
1001
ACAD
1000
R13OBJECT
1002
{
1005
A2
1002
}
  0
LINE
  5
B40
  8
TEAM-NET
 10
179.512014
 20
-380.453526
 30
390.9
 11
179.512014
 21
-148.439351
 31
390.9
1001
ACAD
1000
R13OBJECT
1002
{
1005
A2
1002
}
  0
ARC
  5
B41
  8
TEAM-NET
 10
1.516354
 20
-380.453526
 30
390.9
 40
177.99566
 50
180.795074
 51
360.0
1001
ACAD
1000
R13OBJECT
1002
{
1005
A2
1002
}
  0
LINE
  5
B42
  8
TEAM-NET
 10
-179.716231
 20
-148.439351
 30
390.9
 11
-176.462168
 21
-382.923431
 31
390.9
1001
ACAD
1000
R13OBJECT
1002
{
1005
A2
1002
}
  0
LINE
  5
B43
  8
TEAM-NET
 10
-137.610713
 20
-148.439351
 30
390.9
 11
-179.716231
 21
-148.439351
 31
390.9
1001
ACAD
1000
R13OBJECT
1002
{
1005
A2
1002
}
  0
ARC
  5
A3
  8
TEAM-NET
 10
57.998339
 20
392.9
 30
193.925609
 40
2.0
210
-0.861476
220
-0.507799
230
-0.0
 50
270.0
 51
360.0
  0
ARC
  5
B44
  8
TEAM-NET
 10
-129.993731
 20
-161.361486
 30
392.9
 40
13.0
 50
120.51732
 51
270.397881
1001
ACAD
1000
R13OBJECT
1002
{
1005
A3
1002
}
  0
ARC
  5
B45
  8
TEAM-NET
 10
-129.993731
 20
-161.361486
 30
392.9
 40
13.0
 50
270.397881
 51
59.48268
1001
ACAD
1000
R13OBJECT
1002
{
1005
A3
1002
}
  0
ARC
  5
B46
  8
TEAM-NET
 10
-190.019659
 20
392.9
 30
-30.047272
 40
2.0
210
0.861476
220
-0.507799
230
0.0
 50
180.0
 51
270.0
1001
ACAD
1000
R13OBJECT
1002
{
1005
A3
1002
}
  0
ARC
  5
B47
  8
TEAM-NET
 10
129.993731
 20
-161.361486
 30
-390.9
 40
15.0
210
0.0
220
0.0
230
-1.0
 50
120.51732
 51
59.48268
1001
ACAD
1000
R13OBJECT
1002
{
1005
A3
1002
}
  0
ARC
  5
B48
  8
TEAM-NET
 10
-116.111135
 20
392.9
 30
160.454883
 40
2.0
210
0.006944
220
-0.999976
230
0.0
 50
180.0
 51
270.0
1001
ACAD
1000
R13OBJECT
1002
{
1005
A3
1002
}
  0
ARC
  5
B49
  8
TEAM-NET
 10
146.111135
 20
392.9
 30
-160.454883
 40
2.0
210
-0.006944
220
0.999976
230
0.0
 50
180.0
 51
270.0
1001
ACAD
1000
R13OBJECT
1002
{
1005
A3
1002
}
  0
ARC
  5
B4A
  8
TEAM-NET
 10
175.454883
 20
392.9
 30
131.111135
 40
2.0
210
-0.999976
220
-0.006944
230
-0.0
 50
180.0
 51
270.0
1001
ACAD
1000
R13OBJECT
1002
{
1005
A3
1002
}
  0
ARC
  5
B4B
  8
TEAM-NET
 10
-129.993731
 20
-161.361486
 30
391.485786
 40
13.585786
 50
120.51732
 51
59.48268
1001
ACAD
1000
R13OBJECT
1002
{
1005
A3
1002
}
  0
ARC
  5
A4
  8
TEAM-NET
 10
0.0
 20
-379.555974
 30
390.9
 40
147.0
 50
180.0
 51
0.0
  0
LINE
  5
B4C
  8
TEAM-NET
 10
-147.0
 20
-339.555974
 30
390.9
 11
-147.0
 21
-379.555974
 31
390.9
1001
ACAD
1000
R13OBJECT
1002
{
1005
A4
1002
}
  0
ARC
  5
B4D
  8
TEAM-NET
 10
0.0
 20
-339.555974
 30
390.9
 40
147.0
 50
0.0
 51
180.0
1001
ACAD
1000
R13OBJECT
1002
{
1005
A4
1002
}
  0
LINE
  5
B4E
  8
TEAM-NET
 10
147.0
 20
-379.555974
 30
390.9
 11
147.0
 21
-339.555974
 31
390.9
1001
ACAD
1000
R13OBJECT
1002
{
1005
A4
1002
}
  0
ARC
  5
B4F
  8
TEAM-NET
 10
130.0
 20
-159.555974
 30
390.9
 40
13.0
 50
90.0
 51
270.0
1001
ACAD
1000
R13OBJECT
1002
{
1005
A4
1002
}
  0
ARC
  5
B50
  8
TEAM-NET
 10
130.0
 20
-159.555974
 30
390.9
 40
13.0
 50
270.0
 51
90.0
1001
ACAD
1000
R13OBJECT
1002
{
1005
A4
1002
}
  0
ARC
  5
B51
  8
TEAM-NET
 10
-130.0
 20
-159.555974
 30
390.9
 40
13.0
 50
90.0
 51
270.0
1001
ACAD
1000
R13OBJECT
1002
{
1005
A4
1002
}
  0
ARC
  5
B52
  8
TEAM-NET
 10
-130.0
 20
-159.555974
 30
390.9
 40
13.0
 50
270.0
 51
90.0
1001
ACAD
1000
R13OBJECT
1002
{
1005
A4
1002
}
  0
LINE
  5
B53
  8
TEAM-NET
 10
-172.999994
 20
-379.51038
 30
390.9
 11
-177.237541
 21
-57.45683
 31
390.9
1001
ACAD
1000
R13OBJECT
1002
{
1005
A4
1002
}
  0
ARC
  5
B54
  8
TEAM-NET
 10
0.0
 20
-379.555974
 30
-390.9
 40
173.0
210
0.0
220
0.0
230
-1.0
 50
179.9849
 51
0.0151
1001
ACAD
1000
R13OBJECT
1002
{
1005
A4
1002
}
  0
LINE
  5
B55
  8
TEAM-NET
 10
177.237541
 20
-57.45683
 30
390.9
 11
172.999994
 21
-379.51038
 31
390.9
1001
ACAD
1000
R13OBJECT
1002
{
1005
A4
1002
}
  0
LINE
  5
B56
  8
TEAM-NET
 10
-177.237541
 20
-57.45683
 30
390.9
 11
177.237541
 21
-57.45683
 31
390.9
1001
ACAD
1000
R13OBJECT
1002
{
1005
A4
1002
}
  0
LINE
  5
A5
  8
TEAM-NET
 10
181.514297
 20
-149.382864
 30
380.0
 11
181.514297
 21
-149.382864
 31
381.368421
  0
LINE
  5
B57
  8
TEAM-NET
 10
181.514297
 20
-149.382864
 30
381.368421
 11
182.229875
 21
-40.615039
 31
381.368421
1001
ACAD
1000
R13OBJECT
1002
{
1005
A5
1002
}
  0
LINE
  5
B58
  8
TEAM-NET
 10
182.229875
 20
-40.615039
 30
381.368421
 11
182.228874
 21
-40.767085
 31
380.0
1001
ACAD
1000
R13OBJECT
1002
{
1005
A5
1002
}
  0
LINE
  5
B59
  8
TEAM-NET
 10
182.228874
 20
-40.767085
 30
380.0
 11
181.514297
 21
-149.382864
 31
380.0
1001
ACAD
1000
R13OBJECT
1002
{
1005
A5
1002
}
  0
LINE
  5
B5A
  8
TEAM-NET
 10
181.514297
 20
-40.615039
 30
381.368421
 11
181.514297
 21
-40.767085
 31
380.0
1001
ACAD
1000
R13OBJECT
1002
{
1005
A5
1002
}
  0
LINE
  5
B5B
  8
TEAM-NET
 10
181.514297
 20
-149.382864
 30
381.368421
 11
181.514297
 21
-40.615039
 31
381.368421
1001
ACAD
1000
R13OBJECT
1002
{
1005
A5
1002
}
  0
LINE
  5
B5C
  8
TEAM-NET
 10
181.514297
 20
-40.767085
 30
380.0
 11
181.514297
 21
-149.382864
 31
380.0
1001
ACAD
1000
R13OBJECT
1002
{
1005
A5
1002
}
  0
LINE
  5
B5D
  8
TEAM-NET
 10
181.514297
 20
-40.615039
 30
381.368421
 11
182.229875
 21
-40.615039
 31
381.368421
1001
ACAD
1000
R13OBJECT
1002
{
1005
A5
1002
}
  0
LINE
  5
B5E
  8
TEAM-NET
 10
181.514297
 20
-40.767085
 30
380.0
 11
182.228874
 21
-40.767085
 31
380.0
1001
ACAD
1000
R13OBJECT
1002
{
1005
A5
1002
}
  0
LINE
  5
A6
  8
TEAM-NET
 10
180.0
 20
-379.555974
 30
383.9
 11
184.236935
 21
-57.548927
 31
383.9
  0
ARC
  5
B5F
  8
TEAM-NET
 10
-177.978146
 20
383.9
 30
-55.119986
 40
7.0
210
0.013157
220
0.999913
230
0.0
 50
90.0
 51
180.0
1001
ACAD
1000
R13OBJECT
1002
{
1005
A6
1002
}
  0
LINE
  5
B60
  8
TEAM-NET
 10
177.237541
 20
-57.45683
 30
390.9
 11
172.999994
 21
-379.51038
 31
390.9
1001
ACAD
1000
R13OBJECT
1002
{
1005
A6
1002
}
  0
POLYLINE
  5
B61
  8
TEAM-NET
 66
     1
 10
0.0
 20
0.0
 30
0.0
 70
     8
1001
ACAD
1000
R13OBJECT
1002
{
1005
A6
1002
}
  0
VERTEX
  5
B62
  8
TEAM-NET
 10
180.0
 20
-379.555974
 30
383.9
 70
    32
  0
VERTEX
  5
B63
  8
TEAM-NET
 10
179.475933
 20
-379.552529
 30
386.557498
 70
    32
  0
VERTEX
  5
B64
  8
TEAM-NET
 10
177.98219
 20
-379.542737
 30
388.81709
 70
    32
  0
VERTEX
  5
B65
  8
TEAM-NET
 10
175.742399
 20
-379.528132
 30
390.340437
 70
    32
  0
VERTEX
  5
B66
  8
TEAM-NET
 10
173.059492
 20
-379.510764
 30
390.899747
 70
    32
  0
VERTEX
  5
B67
  8
TEAM-NET
 10
172.999994
 20
-379.51038
 30
390.9
 70
    32
  0
SEQEND
  5
B68
  8
TEAM-NET
  0
LINE
  5
B69
  8
TEAM-NET
 10
182.18686
 20
-57.521953
 30
388.849747
 11
177.949747
 21
-379.542525
 31
388.849747
1001
ACAD
1000
R13OBJECT
1002
{
1005
A6
1002
}
  0
ARC
  5
A7
  8
TEAM-NET
 10
-177.978146
 20
383.9
 30
55.119986
 40
7.0
210
0.013157
220
-0.999913
230
0.0
 50
90.0
 51
180.0
  0
LINE
  5
B6A
  8
TEAM-NET
 10
-184.236935
 20
-57.548927
 30
383.9
 11
-180.0
 21
-379.555974
 31
383.9
1001
ACAD
1000
R13OBJECT
1002
{
1005
A7
1002
}
  0
POLYLINE
  5
B6B
  8
TEAM-NET
 66
     1
 10
0.0
 20
0.0
 30
0.0
 70
     8
1001
ACAD
1000
R13OBJECT
1002
{
1005
A7
1002
}
  0
VERTEX
  5
B6C
  8
TEAM-NET
 10
-172.999994
 20
-379.51038
 30
390.9
 70
    32
  0
VERTEX
  5
B6D
  8
TEAM-NET
 10
-173.059492
 20
-379.510764
 30
390.899747
 70
    32
  0
VERTEX
  5
B6E
  8
TEAM-NET
 10
-175.742399
 20
-379.528132
 30
390.340437
 70
    32
  0
VERTEX
  5
B6F
  8
TEAM-NET
 10
-177.98219
 20
-379.542737
 30
388.81709
 70
    32
  0
VERTEX
  5
B70
  8
TEAM-NET
 10
-179.475933
 20
-379.552529
 30
386.557498
 70
    32
  0
VERTEX
  5
B71
  8
TEAM-NET
 10
-180.0
 20
-379.555974
 30
383.9
 70
    32
  0
SEQEND
  5
B72
  8
TEAM-NET
  0
LINE
  5
B73
  8
TEAM-NET
 10
-172.999994
 20
-379.51038
 30
390.9
 11
-177.237541
 21
-57.45683
 31
390.9
1001
ACAD
1000
R13OBJECT
1002
{
1005
A7
1002
}
  0
LINE
  5
B74
  8
TEAM-NET
 10
-177.949747
 20
-379.542525
 30
388.849747
 11
-182.18686
 21
-57.521953
 31
388.849747
1001
ACAD
1000
R13OBJECT
1002
{
1005
A7
1002
}
  0
POLYLINE
  5
A8
  8
TEAM-NET
 66
     1
 10
0.0
 20
0.0
 30
0.0
 70
     8
  0
VERTEX
  5
B75
  8
TEAM-NET
 10
180.0
 20
-379.555974
 30
383.9
 70
    32
  0
VERTEX
  5
B76
  8
TEAM-NET
 10
179.475933
 20
-379.552529
 30
386.557498
 70
    32
  0
VERTEX
  5
B77
  8
TEAM-NET
 10
177.98219
 20
-379.542737
 30
388.81709
 70
    32
  0
VERTEX
  5
B78
  8
TEAM-NET
 10
175.742399
 20
-379.528132
 30
390.340437
 70
    32
  0
VERTEX
  5
B79
  8
TEAM-NET
 10
173.059492
 20
-379.510764
 30
390.899747
 70
    32
  0
VERTEX
  5
B7A
  8
TEAM-NET
 10
172.999994
 20
-379.51038
 30
390.9
 70
    32
  0
SEQEND
  5
B7B
  8
TEAM-NET
  0
ARC
  5
B7C
  8
TEAM-NET
 10
0.0
 20
-379.555974
 30
-390.9
 40
173.0
210
0.0
220
0.0
230
-1.0
 50
179.9849
 51
0.0151
1001
ACAD
1000
R13OBJECT
1002
{
1005
A8
1002
}
  0
POLYLINE
  5
B7D
  8
TEAM-NET
 66
     1
 10
0.0
 20
0.0
 30
0.0
 70
     8
1001
ACAD
1000
R13OBJECT
1002
{
1005
A8
1002
}
  0
VERTEX
  5
B7E
  8
TEAM-NET
 10
-172.999994
 20
-379.51038
 30
390.9
 70
    32
  0
VERTEX
  5
B7F
  8
TEAM-NET
 10
-173.059492
 20
-379.510764
 30
390.899747
 70
    32
  0
VERTEX
  5
B80
  8
TEAM-NET
 10
-175.742399
 20
-379.528132
 30
390.340437
 70
    32
  0
VERTEX
  5
B81
  8
TEAM-NET
 10
-177.98219
 20
-379.542737
 30
388.81709
 70
    32
  0
VERTEX
  5
B82
  8
TEAM-NET
 10
-179.475933
 20
-379.552529
 30
386.557498
 70
    32
  0
VERTEX
  5
B83
  8
TEAM-NET
 10
-180.0
 20
-379.555974
 30
383.9
 70
    32
  0
SEQEND
  5
B84
  8
TEAM-NET
  0
ARC
  5
B85
  8
TEAM-NET
 10
0.0
 20
-379.555974
 30
383.9
 40
180.0
 50
180.0
 51
0.0
1001
ACAD
1000
R13OBJECT
1002
{
1005
A8
1002
}
  0
ARC
  5
B86
  8
TEAM-NET
 10
-173.0
 20
383.9
 30
-379.555974
 40
7.0
210
0.0
220
1.0
230
0.0
 50
90.0
 51
180.0
1001
ACAD
1000
R13OBJECT
1002
{
1005
A8
1002
}
  0
ARC
  5
B87
  8
TEAM-NET
 10
-552.555974
 20
383.9
 30
0.0
 40
7.0
210
1.0
220
-0.0
230
0.0
 50
90.0
 51
180.0
1001
ACAD
1000
R13OBJECT
1002
{
1005
A8
1002
}
  0
ARC
  5
B88
  8
TEAM-NET
 10
-173.0
 20
383.9
 30
379.555974
 40
7.0
210
0.0
220
-1.0
230
0.0
 50
90.0
 51
180.0
1001
ACAD
1000
R13OBJECT
1002
{
1005
A8
1002
}
  0
ARC
  5
B89
  8
TEAM-NET
 10
0.0
 20
-379.555974
 30
-388.849747
 40
177.949747
210
0.0
220
0.0
230
-1.0
 50
179.99567
 51
0.00433
1001
ACAD
1000
R13OBJECT
1002
{
1005
A8
1002
}
  0
ARC
  5
A9
  8
TEAM-NET
 10
172.555974
 20
387.9
 30
-130.0
 40
3.0
210
-1.0
220
0.0
230
0.0
 50
90.0
 51
180.0
  0
ARC
  5
B8A
  8
TEAM-NET
 10
-130.0
 20
-159.555974
 30
-387.9
 40
10.0
210
0.0
220
0.0
230
-1.0
 50
270.0
 51
90.0
1001
ACAD
1000
R13OBJECT
1002
{
1005
A9
1002
}
  0
ARC
  5
B8B
  8
TEAM-NET
 10
-146.555974
 20
387.9
 30
130.0
 40
3.0
210
1.0
220
0.0
230
0.0
 50
90.0
 51
180.0
1001
ACAD
1000
R13OBJECT
1002
{
1005
A9
1002
}
  0
ARC
  5
B8C
  8
TEAM-NET
 10
130.0
 20
-159.555974
 30
390.9
 40
13.0
 50
90.0
 51
270.0
1001
ACAD
1000
R13OBJECT
1002
{
1005
A9
1002
}
  0
ARC
  5
B8D
  8
TEAM-NET
 10
117.0
 20
387.9
 30
159.555974
 40
3.0
210
0.0
220
-1.0
230
0.0
 50
0.0
 51
90.0
1001
ACAD
1000
R13OBJECT
1002
{
1005
A9
1002
}
  0
ARC
  5
B8E
  8
TEAM-NET
 10
-130.0
 20
-159.555974
 30
-390.02132
 40
10.87868
210
0.0
220
0.0
230
-1.0
 50
270.0
 51
90.0
1001
ACAD
1000
R13OBJECT
1002
{
1005
A9
1002
}
  0
ARC
  5
AA
  8
TEAM-NET
 10
172.555974
 20
387.9
 30
130.0
 40
3.0
210
-1.0
220
0.0
230
0.0
 50
90.0
 51
180.0
  0
ARC
  5
B8F
  8
TEAM-NET
 10
130.0
 20
-159.555974
 30
-387.9
 40
10.0
210
0.0
220
0.0
230
-1.0
 50
270.0
 51
90.0
1001
ACAD
1000
R13OBJECT
1002
{
1005
AA
1002
}
  0
ARC
  5
B90
  8
TEAM-NET
 10
-146.555974
 20
387.9
 30
-130.0
 40
3.0
210
1.0
220
0.0
230
0.0
 50
90.0
 51
180.0
1001
ACAD
1000
R13OBJECT
1002
{
1005
AA
1002
}
  0
ARC
  5
B91
  8
TEAM-NET
 10
-130.0
 20
-159.555974
 30
390.9
 40
13.0
 50
90.0
 51
270.0
1001
ACAD
1000
R13OBJECT
1002
{
1005
AA
1002
}
  0
ARC
  5
B92
  8
TEAM-NET
 10
-143.0
 20
387.9
 30
159.555974
 40
3.0
210
0.0
220
-1.0
230
0.0
 50
0.0
 51
90.0
1001
ACAD
1000
R13OBJECT
1002
{
1005
AA
1002
}
  0
ARC
  5
B93
  8
TEAM-NET
 10
130.0
 20
-159.555974
 30
-390.02132
 40
10.87868
210
0.0
220
0.0
230
-1.0
 50
270.0
 51
90.0
1001
ACAD
1000
R13OBJECT
1002
{
1005
AA
1002
}
  0
ARC
  5
AB
  8
TEAM-NET
 10
147.0
 20
383.9
 30
339.555974
 40
7.0
210
0.0
220
-1.0
230
0.0
 50
90.0
 51
180.0
  0
ARC
  5
B94
  8
TEAM-NET
 10
0.0
 20
-339.555974
 30
390.9
 40
147.0
 50
0.0
 51
180.0
1001
ACAD
1000
R13OBJECT
1002
{
1005
AB
1002
}
  0
ARC
  5
B95
  8
TEAM-NET
 10
-147.0
 20
383.9
 30
339.555974
 40
7.0
210
0.0
220
-1.0
230
0.0
 50
0.0
 51
90.0
1001
ACAD
1000
R13OBJECT
1002
{
1005
AB
1002
}
  0
ARC
  5
B96
  8
TEAM-NET
 10
0.0
 20
-339.555974
 30
-383.9
 40
140.0
210
0.0
220
0.0
230
-1.0
 50
0.0
 51
180.0
1001
ACAD
1000
R13OBJECT
1002
{
1005
AB
1002
}
  0
ARC
  5
B97
  8
TEAM-NET
 10
192.555974
 20
383.9
 30
0.0
 40
7.0
210
-1.0
220
0.0
230
0.0
 50
0.0
 51
90.0
1001
ACAD
1000
R13OBJECT
1002
{
1005
AB
1002
}
  0
ARC
  5
B98
  8
TEAM-NET
 10
0.0
 20
-339.555974
 30
-388.849747
 40
142.050253
210
0.0
220
0.0
230
-1.0
 50
0.0
 51
180.0
1001
ACAD
1000
R13OBJECT
1002
{
1005
AB
1002
}
  0
ARC
  5
AC
  8
TEAM-NET
 10
-147.0
 20
383.9
 30
339.555974
 40
7.0
210
0.0
220
-1.0
230
0.0
 50
0.0
 51
90.0
  0
LINE
  5
B99
  8
TEAM-NET
 10
-147.0
 20
-339.555974
 30
390.9
 11
-147.0
 21
-379.555974
 31
390.9
1001
ACAD
1000
R13OBJECT
1002
{
1005
AC
1002
}
  0
ARC
  5
B9A
  8
TEAM-NET
 10
-147.0
 20
383.9
 30
379.555974
 40
7.0
210
0.0
220
-1.0
230
0.0
 50
0.0
 51
90.0
1001
ACAD
1000
R13OBJECT
1002
{
1005
AC
1002
}
  0
LINE
  5
B9B
  8
TEAM-NET
 10
-140.0
 20
-379.555974
 30
383.9
 11
-140.0
 21
-339.555974
 31
383.9
1001
ACAD
1000
R13OBJECT
1002
{
1005
AC
1002
}
  0
LINE
  5
B9C
  8
TEAM-NET
 10
-142.050253
 20
-379.555974
 30
388.849747
 11
-142.050253
 21
-339.555974
 31
388.849747
1001
ACAD
1000
R13OBJECT
1002
{
1005
AC
1002
}
  0
ARC
  5
AD
  8
TEAM-NET
 10
147.0
 20
383.9
 30
339.555974
 40
7.0
210
0.0
220
-1.0
230
0.0
 50
90.0
 51
180.0
  0
LINE
  5
B9D
  8
TEAM-NET
 10
140.0
 20
-339.555974
 30
383.9
 11
140.0
 21
-379.555974
 31
383.9
1001
ACAD
1000
R13OBJECT
1002
{
1005
AD
1002
}
  0
ARC
  5
B9E
  8
TEAM-NET
 10
147.0
 20
383.9
 30
379.555974
 40
7.0
210
0.0
220
-1.0
230
0.0
 50
90.0
 51
180.0
1001
ACAD
1000
R13OBJECT
1002
{
1005
AD
1002
}
  0
LINE
  5
B9F
  8
TEAM-NET
 10
147.0
 20
-379.555974
 30
390.9
 11
147.0
 21
-339.555974
 31
390.9
1001
ACAD
1000
R13OBJECT
1002
{
1005
AD
1002
}
  0
LINE
  5
BA0
  8
TEAM-NET
 10
142.050253
 20
-339.555974
 30
388.849747
 11
142.050253
 21
-379.555974
 31
388.849747
1001
ACAD
1000
R13OBJECT
1002
{
1005
AD
1002
}
  0
ARC
  5
AE
  8
TEAM-NET
 10
147.0
 20
383.9
 30
379.555974
 40
7.0
210
0.0
220
-1.0
230
0.0
 50
90.0
 51
180.0
  0
ARC
  5
BA1
  8
TEAM-NET
 10
0.0
 20
-379.555974
 30
-383.9
 40
140.0
210
0.0
220
0.0
230
-1.0
 50
180.0
 51
0.0
1001
ACAD
1000
R13OBJECT
1002
{
1005
AE
1002
}
  0
ARC
  5
BA2
  8
TEAM-NET
 10
-147.0
 20
383.9
 30
379.555974
 40
7.0
210
0.0
220
-1.0
230
0.0
 50
0.0
 51
90.0
1001
ACAD
1000
R13OBJECT
1002
{
1005
AE
1002
}
  0
ARC
  5
BA3
  8
TEAM-NET
 10
0.0
 20
-379.555974
 30
390.9
 40
147.0
 50
180.0
 51
0.0
1001
ACAD
1000
R13OBJECT
1002
{
1005
AE
1002
}
  0
ARC
  5
BA4
  8
TEAM-NET
 10
-526.555974
 20
383.9
 30
0.0
 40
7.0
210
1.0
220
-0.0
230
0.0
 50
0.0
 51
90.0
1001
ACAD
1000
R13OBJECT
1002
{
1005
AE
1002
}
  0
ARC
  5
BA5
  8
TEAM-NET
 10
0.0
 20
-379.555974
 30
-388.849747
 40
142.050253
210
0.0
220
0.0
230
-1.0
 50
180.0
 51
0.0
1001
ACAD
1000
R13OBJECT
1002
{
1005
AE
1002
}
  0
ARC
  5
AF
  8
TEAM-NET
 10
172.555974
 20
387.9
 30
130.0
 40
3.0
210
-1.0
220
0.0
230
0.0
 50
90.0
 51
180.0
  0
ARC
  5
BA6
  8
TEAM-NET
 10
-130.0
 20
-159.555974
 30
390.9
 40
13.0
 50
270.0
 51
90.0
1001
ACAD
1000
R13OBJECT
1002
{
1005
AF
1002
}
  0
ARC
  5
BA7
  8
TEAM-NET
 10
-146.555974
 20
387.9
 30
-130.0
 40
3.0
210
1.0
220
0.0
230
0.0
 50
90.0
 51
180.0
1001
ACAD
1000
R13OBJECT
1002
{
1005
AF
1002
}
  0
ARC
  5
BA8
  8
TEAM-NET
 10
130.0
 20
-159.555974
 30
-387.9
 40
10.0
210
0.0
220
0.0
230
-1.0
 50
90.0
 51
270.0
1001
ACAD
1000
R13OBJECT
1002
{
1005
AF
1002
}
  0
ARC
  5
BA9
  8
TEAM-NET
 10
117.0
 20
387.9
 30
-159.555974
 40
3.0
210
0.0
220
1.0
230
0.0
 50
0.0
 51
90.0
1001
ACAD
1000
R13OBJECT
1002
{
1005
AF
1002
}
  0
ARC
  5
BAA
  8
TEAM-NET
 10
130.0
 20
-159.555974
 30
-390.02132
 40
10.87868
210
0.0
220
0.0
230
-1.0
 50
90.0
 51
270.0
1001
ACAD
1000
R13OBJECT
1002
{
1005
AF
1002
}
  0
ARC
  5
B0
  8
TEAM-NET
 10
172.555974
 20
387.9
 30
-130.0
 40
3.0
210
-1.0
220
0.0
230
0.0
 50
90.0
 51
180.0
  0
ARC
  5
BAB
  8
TEAM-NET
 10
130.0
 20
-159.555974
 30
390.9
 40
13.0
 50
270.0
 51
90.0
1001
ACAD
1000
R13OBJECT
1002
{
1005
B0
1002
}
  0
ARC
  5
BAC
  8
TEAM-NET
 10
-146.555974
 20
387.9
 30
130.0
 40
3.0
210
1.0
220
0.0
230
0.0
 50
90.0
 51
180.0
1001
ACAD
1000
R13OBJECT
1002
{
1005
B0
1002
}
  0
ARC
  5
BAD
  8
TEAM-NET
 10
-130.0
 20
-159.555974
 30
-387.9
 40
10.0
210
0.0
220
0.0
230
-1.0
 50
90.0
 51
270.0
1001
ACAD
1000
R13OBJECT
1002
{
1005
B0
1002
}
  0
ARC
  5
BAE
  8
TEAM-NET
 10
-143.0
 20
387.9
 30
-159.555974
 40
3.0
210
0.0
220
1.0
230
0.0
 50
360.0
 51
90.0
1001
ACAD
1000
R13OBJECT
1002
{
1005
B0
1002
}
  0
ARC
  5
BAF
  8
TEAM-NET
 10
-130.0
 20
-159.555974
 30
-390.02132
 40
10.87868
210
0.0
220
0.0
230
-1.0
 50
90.0
 51
270.0
1001
ACAD
1000
R13OBJECT
1002
{
1005
B0
1002
}
  0
LINE
  5
B1
  8
TEAM-NET
 10
-177.60537
 20
-36.458972
 30
418.773021
 11
177.60537
 21
-36.458972
 31
418.773021
  0
LINE
  5
BB0
  8
TEAM-NET
 10
-177.590631
 20
-37.579155
 30
408.691369
 11
-177.60537
 21
-36.458972
 31
418.773021
1001
ACAD
1000
R13OBJECT
1002
{
1005
B1
1002
}
  0
LINE
  5
BB1
  8
TEAM-NET
 10
177.590631
 20
-37.579155
 30
408.691369
 11
-177.590631
 21
-37.579155
 31
408.691369
1001
ACAD
1000
R13OBJECT
1002
{
1005
B1
1002
}
  0
LINE
  5
BB2
  8
TEAM-NET
 10
177.60537
 20
-36.458972
 30
418.773021
 11
177.590631
 21
-37.579155
 31
408.691369
1001
ACAD
1000
R13OBJECT
1002
{
1005
B1
1002
}
  0
ARC
  5
B2
  8
TEAM-NET
 10
1.516354
 20
-380.453526
 30
418.9
 40
184.99566
 50
180.795074
 51
360.0
  0
LINE
  5
BB3
  8
TEAM-NET
 10
-183.461494
 20
-383.020564
 30
397.9
 11
-183.461494
 21
-383.020564
 31
418.9
1001
ACAD
1000
R13OBJECT
1002
{
1005
B2
1002
}
  0
ARC
  5
BB4
  8
TEAM-NET
 10
-1.516354
 20
-380.453526
 30
-397.9
 40
184.99566
210
0.0
220
0.0
230
-1.0
 50
180.0
 51
359.204926
1001
ACAD
1000
R13OBJECT
1002
{
1005
B2
1002
}
  0
LINE
  5
BB5
  8
TEAM-NET
 10
186.512014
 20
-380.453526
 30
397.9
 11
186.512014
 21
-380.453526
 31
418.9
1001
ACAD
1000
R13OBJECT
1002
{
1005
B2
1002
}
  0
LINE
  5
BB6
  8
TEAM-NET
 10
4.083392
 20
-565.431375
 30
397.9
 11
4.083392
 21
-565.431375
 31
418.9
1001
ACAD
1000
R13OBJECT
1002
{
1005
B2
1002
}
  0
LINE
  5
B3
  8
TEAM-NET
 10
186.512014
 20
-380.453526
 30
418.9
 11
186.512014
 21
-148.439351
 31
418.9
  0
LINE
  5
BB7
  8
TEAM-NET
 10
186.512014
 20
-380.453526
 30
397.9
 11
186.512014
 21
-380.453526
 31
418.9
1001
ACAD
1000
R13OBJECT
1002
{
1005
B3
1002
}
  0
LINE
  5
BB8
  8
TEAM-NET
 10
186.512014
 20
-148.439351
 30
397.9
 11
186.512014
 21
-380.453526
 31
397.9
1001
ACAD
1000
R13OBJECT
1002
{
1005
B3
1002
}
  0
LINE
  5
BB9
  8
TEAM-NET
 10
186.512014
 20
-148.439351
 30
418.9
 11
186.512014
 21
-148.439351
 31
397.9
1001
ACAD
1000
R13OBJECT
1002
{
1005
B3
1002
}
  0
ARC
  5
B4
  8
TEAM-NET
 10
179.512014
 20
-148.439351
 30
418.9
 40
7.0
 50
360.0
 51
90.0
  0
LINE
  5
BBA
  8
TEAM-NET
 10
186.512014
 20
-148.439351
 30
418.9
 11
186.512014
 21
-148.439351
 31
397.9
1001
ACAD
1000
R13OBJECT
1002
{
1005
B4
1002
}
  0
ARC
  5
BBB
  8
TEAM-NET
 10
-179.512014
 20
-148.439351
 30
-397.9
 40
7.0
210
0.0
220
0.0
230
-1.0
 50
90.0
 51
180.0
1001
ACAD
1000
R13OBJECT
1002
{
1005
B4
1002
}
  0
LINE
  5
BBC
  8
TEAM-NET
 10
179.512014
 20
-141.439351
 30
397.9
 11
179.512014
 21
-141.439351
 31
418.9
1001
ACAD
1000
R13OBJECT
1002
{
1005
B4
1002
}
  0
LINE
  5
BBD
  8
TEAM-NET
 10
184.461762
 20
-143.489603
 30
397.9
 11
184.461762
 21
-143.489603
 31
418.9
1001
ACAD
1000
R13OBJECT
1002
{
1005
B4
1002
}
  0
LINE
  5
B5
  8
TEAM-NET
 10
179.512014
 20
-141.439351
 30
418.9
 11
-179.716231
 21
-141.439351
 31
418.9
  0
LINE
  5
BBE
  8
TEAM-NET
 10
179.512014
 20
-141.439351
 30
397.9
 11
179.512014
 21
-141.439351
 31
418.9
1001
ACAD
1000
R13OBJECT
1002
{
1005
B5
1002
}
  0
LINE
  5
BBF
  8
TEAM-NET
 10
-179.716231
 20
-141.439351
 30
397.9
 11
179.512014
 21
-141.439351
 31
397.9
1001
ACAD
1000
R13OBJECT
1002
{
1005
B5
1002
}
  0
LINE
  5
BC0
  8
TEAM-NET
 10
-179.716231
 20
-141.439351
 30
418.9
 11
-179.716231
 21
-141.439351
 31
397.9
1001
ACAD
1000
R13OBJECT
1002
{
1005
B5
1002
}
  0
ARC
  5
B6
  8
TEAM-NET
 10
-179.716231
 20
-148.439351
 30
418.9
 40
7.0
 50
90.0
 51
90.397881
  0
LINE
  5
BC1
  8
TEAM-NET
 10
-179.716231
 20
-141.439351
 30
418.9
 11
-179.716231
 21
-141.439351
 31
397.9
1001
ACAD
1000
R13OBJECT
1002
{
1005
B6
1002
}
  0
ARC
  5
BC2
  8
TEAM-NET
 10
179.716231
 20
-148.439351
 30
-397.9
 40
7.0
210
0.0
220
0.0
230
-1.0
 50
89.602119
 51
90.0
1001
ACAD
1000
R13OBJECT
1002
{
1005
B6
1002
}
  0
ARC
  5
BC3
  8
TEAM-NET
 10
179.716231
 20
-148.439351
 30
-397.9
 40
7.0
210
0.0
220
0.0
230
-1.0
 50
359.204926
 51
89.602119
1001
ACAD
1000
R13OBJECT
1002
{
1005
B6
1002
}
  0
LINE
  5
BC4
  8
TEAM-NET
 10
-186.715557
 20
-148.536484
 30
397.9
 11
-186.715557
 21
-148.536484
 31
418.9
1001
ACAD
1000
R13OBJECT
1002
{
1005
B6
1002
}
  0
ARC
  5
BC5
  8
TEAM-NET
 10
-179.716231
 20
-148.439351
 30
418.9
 40
7.0
 50
90.397881
 51
180.795074
1001
ACAD
1000
R13OBJECT
1002
{
1005
B6
1002
}
  0
LINE
  5
BC6
  8
TEAM-NET
 10
-184.700202
 20
-143.524065
 30
418.9
 11
-184.700202
 21
-143.524065
 31
397.9
1001
ACAD
1000
R13OBJECT
1002
{
1005
B6
1002
}
  0
LINE
  5
B7
  8
TEAM-NET
 10
-186.715557
 20
-148.536484
 30
418.9
 11
-183.461494
 21
-383.020564
 31
418.9
  0
LINE
  5
BC7
  8
TEAM-NET
 10
-186.715557
 20
-148.536484
 30
397.9
 11
-186.715557
 21
-148.536484
 31
418.9
1001
ACAD
1000
R13OBJECT
1002
{
1005
B7
1002
}
  0
LINE
  5
BC8
  8
TEAM-NET
 10
-183.461494
 20
-383.020564
 30
397.9
 11
-186.715557
 21
-148.536484
 31
397.9
1001
ACAD
1000
R13OBJECT
1002
{
1005
B7
1002
}
  0
LINE
  5
BC9
  8
TEAM-NET
 10
-183.461494
 20
-383.020564
 30
397.9
 11
-183.461494
 21
-383.020564
 31
418.9
1001
ACAD
1000
R13OBJECT
1002
{
1005
B7
1002
}
  0
ARC
  5
B8
  8
TEAM-NET
 10
177.978146
 20
73.160685
 30
412.443107
 40
7.0
210
-0.001453
220
0.110431
230
0.993883
 50
0.0
 51
89.250763
  0
LINE
  5
BCA
  8
TEAM-NET
 10
-184.604764
 20
-29.593883
 30
418.0
 11
-184.590025
 21
-30.714066
 31
407.918349
1001
ACAD
1000
R13OBJECT
1002
{
1005
B8
1002
}
  0
ARC
  5
BCB
  8
TEAM-NET
 10
-177.978146
 20
73.160685
 30
-402.299404
 40
7.0
210
0.001453
220
-0.110431
230
-0.993883
 50
90.749237
 51
180.0
1001
ACAD
1000
R13OBJECT
1002
{
1005
B8
1002
}
  0
LINE
  5
BCC
  8
TEAM-NET
 10
-177.590631
 20
-37.579155
 30
408.691369
 11
-177.60537
 21
-36.458972
 31
418.773021
1001
ACAD
1000
R13OBJECT
1002
{
1005
B8
1002
}
  0
LINE
  5
BCD
  8
TEAM-NET
 10
-182.522644
 20
-34.454108
 30
418.543069
 11
-182.507905
 21
-35.574291
 31
408.461418
1001
ACAD
1000
R13OBJECT
1002
{
1005
B8
1002
}
  0
ARC
  5
B9
  8
TEAM-NET
 10
-177.978146
 20
73.160685
 30
412.443107
 40
7.0
210
0.001453
220
0.110431
230
0.993883
 50
90.749237
 51
180.0
  0
LINE
  5
BCE
  8
TEAM-NET
 10
177.60537
 20
-36.458972
 30
418.773021
 11
177.590631
 21
-37.579155
 31
408.691369
1001
ACAD
1000
R13OBJECT
1002
{
1005
B9
1002
}
  0
ARC
  5
BCF
  8
TEAM-NET
 10
177.978146
 20
73.160685
 30
-402.299404
 40
7.0
210
-0.001453
220
-0.110431
230
-0.993883
 50
0.0
 51
89.250763
1001
ACAD
1000
R13OBJECT
1002
{
1005
B9
1002
}
  0
LINE
  5
BD0
  8
TEAM-NET
 10
184.590025
 20
-30.714066
 30
407.918349
 11
184.604764
 21
-29.593883
 31
418.0
1001
ACAD
1000
R13OBJECT
1002
{
1005
B9
1002
}
  0
LINE
  5
BD1
  8
TEAM-NET
 10
182.507905
 20
-35.574291
 30
408.461418
 11
182.522644
 21
-34.454108
 31
418.543069
1001
ACAD
1000
R13OBJECT
1002
{
1005
B9
1002
}
  0
LINE
  5
BA
  8
TEAM-NET
 10
143.505336
 20
-379.467492
 30
395.9
 11
143.172926
 21
-331.600566
 31
395.9
  0
LINE
  5
BD2
  8
TEAM-NET
 10
143.505336
 20
-379.467492
 30
395.9
 11
143.505336
 21
-379.467492
 31
405.9
1001
ACAD
1000
R13OBJECT
1002
{
1005
BA
1002
}
  0
LINE
  5
BD3
  8
TEAM-NET
 10
143.505336
 20
-379.467492
 30
405.9
 11
143.172926
 21
-331.600566
 31
405.9
1001
ACAD
1000
R13OBJECT
1002
{
1005
BA
1002
}
  0
LINE
  5
BD4
  8
TEAM-NET
 10
143.172926
 20
-331.600566
 30
395.9
 11
143.172926
 21
-331.600566
 31
405.9
1001
ACAD
1000
R13OBJECT
1002
{
1005
BA
1002
}
  0
ARC
  5
BB
  8
TEAM-NET
 10
1.516354
 20
-380.453526
 30
395.9
 40
141.992405
 50
180.397881
 51
0.397881
  0
LINE
  5
BD5
  8
TEAM-NET
 10
-140.472627
 20
-381.439561
 30
395.9
 11
-140.472627
 21
-381.439561
 31
405.9
1001
ACAD
1000
R13OBJECT
1002
{
1005
BB
1002
}
  0
ARC
  5
BD6
  8
TEAM-NET
 10
1.516354
 20
-380.453526
 30
405.9
 40
141.992405
 50
180.397881
 51
0.397881
1001
ACAD
1000
R13OBJECT
1002
{
1005
BB
1002
}
  0
LINE
  5
BD7
  8
TEAM-NET
 10
143.505336
 20
-379.467492
 30
395.9
 11
143.505336
 21
-379.467492
 31
405.9
1001
ACAD
1000
R13OBJECT
1002
{
1005
BB
1002
}
  0
ARC
  5
BC
  8
TEAM-NET
 10
130.0
 20
-159.555974
 30
405.9
 40
13.0
 50
90.397881
 51
270.397881
  0
ARC
  5
BD8
  8
TEAM-NET
 10
130.0
 20
-159.555974
 30
405.9
 40
13.0
 50
270.397881
 51
90.397881
1001
ACAD
1000
R13OBJECT
1002
{
1005
BC
1002
}
  0
ARC
  5
BD
  8
TEAM-NET
 10
-129.993731
 20
-161.361486
 30
405.9
 40
13.0
 50
90.397881
 51
270.397881
  0
ARC
  5
BD9
  8
TEAM-NET
 10
-129.993731
 20
-161.361486
 30
405.9
 40
13.0
 50
270.397881
 51
90.397881
1001
ACAD
1000
R13OBJECT
1002
{
1005
BD
1002
}
  0
LINE
  5
BE
  8
TEAM-NET
 10
-140.785093
 20
-336.444461
 30
405.9
 11
-140.472627
 21
-381.439561
 31
405.9
  0
ARC
  5
BDA
  8
TEAM-NET
 10
1.218409
 20
-335.458325
 30
405.9
 40
142.006926
 50
1.556688
 51
180.397881
1001
ACAD
1000
R13OBJECT
1002
{
1005
BE
1002
}
  0
LINE
  5
BDB
  8
TEAM-NET
 10
143.505336
 20
-379.467492
 30
405.9
 11
143.172926
 21
-331.600566
 31
405.9
1001
ACAD
1000
R13OBJECT
1002
{
1005
BE
1002
}
  0
ARC
  5
BDC
  8
TEAM-NET
 10
1.516354
 20
-380.453526
 30
405.9
 40
141.992405
 50
180.397881
 51
0.397881
1001
ACAD
1000
R13OBJECT
1002
{
1005
BE
1002
}
  0
ARC
  5
BF
  8
TEAM-NET
 10
1.218409
 20
-335.458325
 30
395.9
 40
142.006926
 50
1.556688
 51
180.397881
  0
LINE
  5
BDD
  8
TEAM-NET
 10
143.172926
 20
-331.600566
 30
395.9
 11
143.172926
 21
-331.600566
 31
405.9
1001
ACAD
1000
R13OBJECT
1002
{
1005
BF
1002
}
  0
ARC
  5
BDE
  8
TEAM-NET
 10
1.218409
 20
-335.458325
 30
405.9
 40
142.006926
 50
1.556688
 51
180.397881
1001
ACAD
1000
R13OBJECT
1002
{
1005
BF
1002
}
  0
LINE
  5
BDF
  8
TEAM-NET
 10
-140.785093
 20
-336.444461
 30
395.9
 11
-140.785093
 21
-336.444461
 31
405.9
1001
ACAD
1000
R13OBJECT
1002
{
1005
BF
1002
}
  0
LINE
  5
C0
  8
TEAM-NET
 10
-140.785093
 20
-336.444461
 30
395.9
 11
-140.472627
 21
-381.439561
 31
395.9
  0
LINE
  5
BE0
  8
TEAM-NET
 10
-140.785093
 20
-336.444461
 30
395.9
 11
-140.785093
 21
-336.444461
 31
405.9
1001
ACAD
1000
R13OBJECT
1002
{
1005
C0
1002
}
  0
LINE
  5
BE1
  8
TEAM-NET
 10
-140.785093
 20
-336.444461
 30
405.9
 11
-140.472627
 21
-381.439561
 31
405.9
1001
ACAD
1000
R13OBJECT
1002
{
1005
C0
1002
}
  0
LINE
  5
BE2
  8
TEAM-NET
 10
-140.472627
 20
-381.439561
 30
395.9
 11
-140.472627
 21
-381.439561
 31
405.9
1001
ACAD
1000
R13OBJECT
1002
{
1005
C0
1002
}
  0
LINE
  5
C1
  8
TEAM-NET
 10
-176.462168
 20
-382.923431
 30
425.9
 11
-179.716231
 21
-148.439351
 31
425.9
  0
ARC
  5
BE3
  8
TEAM-NET
 10
-1.516354
 20
-380.453526
 30
-425.9
 40
177.99566
210
0.0
220
0.0
230
-1.0
 50
180.0
 51
359.204926
1001
ACAD
1000
R13OBJECT
1002
{
1005
C1
1002
}
  0
LINE
  5
BE4
  8
TEAM-NET
 10
179.512014
 20
-148.439351
 30
425.9
 11
179.512014
 21
-380.453526
 31
425.9
1001
ACAD
1000
R13OBJECT
1002
{
1005
C1
1002
}
  0
LINE
  5
BE5
  8
TEAM-NET
 10
-179.716231
 20
-148.439351
 30
425.9
 11
179.512014
 21
-148.439351
 31
425.9
1001
ACAD
1000
R13OBJECT
1002
{
1005
C1
1002
}
  0
LINE
  5
C2
  8
TEAM-NET
 10
177.999394
 20
0.444026
 30
425.0
 11
177.60537
 21
-29.501786
 31
425.0
  0
LINE
  5
BE6
  8
TEAM-NET
 10
177.999394
 20
0.444026
 30
425.0
 11
-177.999394
 21
0.444026
 31
425.0
1001
ACAD
1000
R13OBJECT
1002
{
1005
C2
1002
}
  0
LINE
  5
BE7
  8
TEAM-NET
 10
-177.60537
 20
-29.501786
 30
425.0
 11
-177.999394
 21
0.444026
 31
425.0
1001
ACAD
1000
R13OBJECT
1002
{
1005
C2
1002
}
  0
LINE
  5
BE8
  8
TEAM-NET
 10
177.60537
 20
-29.501786
 30
425.0
 11
-177.60537
 21
-29.501786
 31
425.0
1001
ACAD
1000
R13OBJECT
1002
{
1005
C2
1002
}
  0
ARC
  5
C3
  8
TEAM-NET
 10
177.978146
 20
418.0
 30
-27.162522
 40
7.0
210
-0.013157
220
0.999913
230
0.0
 50
0.0
 51
90.0
  0
ARC
  5
BE9
  8
TEAM-NET
 10
177.978146
 20
73.160685
 30
412.443107
 40
7.0
210
-0.001453
220
0.110431
230
0.993883
 50
0.0
 51
89.250763
1001
ACAD
1000
R13OBJECT
1002
{
1005
C3
1002
}
  0
ARC
  5
BEA
  8
TEAM-NET
 10
-29.501786
 20
418.0
 30
-177.60537
 40
7.0
210
1.0
220
0.0
230
0.0
 50
90.0
 51
173.659808
1001
ACAD
1000
R13OBJECT
1002
{
1005
C3
1002
}
  0
ARC
  5
BEB
  8
TEAM-NET
 10
-177.60537
 20
-29.501786
 30
422.949747
 40
4.949747
 50
180.753848
 51
270.0
1001
ACAD
1000
R13OBJECT
1002
{
1005
C3
1002
}
  0
POLYLINE
  5
C4
  8
TEAM-NET
 66
     1
 10
0.0
 20
0.0
 30
-0.444026
 70
   128
210
-0.0
220
-1.0
230
0.0
  0
VERTEX
  5
CDA
  8
TEAM-NET
 10
-177.999394
 20
425.0
 30
-0.444026
  0
VERTEX
  5
CDB
  8
TEAM-NET
 10
-182.94957
 20
422.949747
 30
-0.444026
  0
VERTEX
  5
CDC
  8
TEAM-NET
 10
-185.0
 20
418.0
 30
-0.444026
  0
SEQEND
  5
CDD
  8
TEAM-NET
  0
LINE
  5
BF0
  8
TEAM-NET
 10
-185.0
 20
0.444026
 30
418.0
 11
-184.604764
 21
-29.593883
 31
418.0
1001
ACAD
1000
R13OBJECT
1002
{
1005
C4
1002
}
  0
ARC
  5
BF1
  8
TEAM-NET
 10
177.978146
 20
418.0
 30
-27.162522
 40
7.0
210
-0.013157
220
0.999913
230
0.0
 50
0.0
 51
90.0
1001
ACAD
1000
R13OBJECT
1002
{
1005
C4
1002
}
  0
LINE
  5
BF2
  8
TEAM-NET
 10
-177.60537
 20
-29.501786
 30
425.0
 11
-177.999394
 21
0.444026
 31
425.0
1001
ACAD
1000
R13OBJECT
1002
{
1005
C4
1002
}
  0
LINE
  5
BF3
  8
TEAM-NET
 10
-182.94957
 20
0.444026
 30
422.949747
 11
-182.554689
 21
-29.566908
 31
422.949747
1001
ACAD
1000
R13OBJECT
1002
{
1005
C4
1002
}
  0
ARC
  5
C5
  8
TEAM-NET
 10
29.501786
 20
418.0
 30
-177.60537
 40
7.0
210
-1.0
220
0.0
230
0.0
 50
6.340192
 51
90.0
  0
ARC
  5
BF4
  8
TEAM-NET
 10
-177.978146
 20
73.160685
 30
412.443107
 40
7.0
210
0.001453
220
0.110431
230
0.993883
 50
90.749237
 51
180.0
1001
ACAD
1000
R13OBJECT
1002
{
1005
C5
1002
}
  0
ARC
  5
BF5
  8
TEAM-NET
 10
-177.978146
 20
418.0
 30
-27.162522
 40
7.0
210
0.013157
220
0.999913
230
-0.0
 50
90.0
 51
180.0
1001
ACAD
1000
R13OBJECT
1002
{
1005
C5
1002
}
  0
ARC
  5
BF6
  8
TEAM-NET
 10
177.60537
 20
-29.501786
 30
422.949747
 40
4.949747
 50
270.0
 51
359.246152
1001
ACAD
1000
R13OBJECT
1002
{
1005
C5
1002
}
  0
ARC
  5
C6
  8
TEAM-NET
 10
29.501786
 20
418.0
 30
-177.60537
 40
7.0
210
-1.0
220
0.0
230
0.0
 50
6.340192
 51
90.0
  0
LINE
  5
BF7
  8
TEAM-NET
 10
177.60537
 20
-29.501786
 30
425.0
 11
-177.60537
 21
-29.501786
 31
425.0
1001
ACAD
1000
R13OBJECT
1002
{
1005
C6
1002
}
  0
ARC
  5
BF8
  8
TEAM-NET
 10
-29.501786
 20
418.0
 30
-177.60537
 40
7.0
210
1.0
220
0.0
230
0.0
 50
90.0
 51
173.659808
1001
ACAD
1000
R13OBJECT
1002
{
1005
C6
1002
}
  0
LINE
  5
BF9
  8
TEAM-NET
 10
-177.60537
 20
-36.458972
 30
418.773021
 11
177.60537
 21
-36.458972
 31
418.773021
1001
ACAD
1000
R13OBJECT
1002
{
1005
C6
1002
}
  0
LINE
  5
BFA
  8
TEAM-NET
 10
177.60537
 20
-34.170236
 30
423.215896
 11
-177.60537
 21
-34.170236
 31
423.215896
1001
ACAD
1000
R13OBJECT
1002
{
1005
C6
1002
}
  0
POLYLINE
  5
C7
  8
TEAM-NET
 66
     1
 10
0.0
 20
0.0
 30
-0.444026
 70
   128
210
-0.0
220
-1.0
230
0.0
  0
VERTEX
  5
CDE
  8
TEAM-NET
 10
185.0
 20
418.0
 30
-0.444026
  0
VERTEX
  5
CDF
  8
TEAM-NET
 10
182.94957
 20
422.949747
 30
-0.444026
  0
VERTEX
  5
CE0
  8
TEAM-NET
 10
177.999394
 20
425.0
 30
-0.444026
  0
SEQEND
  5
CE1
  8
TEAM-NET
  0
LINE
  5
BFF
  8
TEAM-NET
 10
177.999394
 20
0.444026
 30
425.0
 11
177.60537
 21
-29.501786
 31
425.0
1001
ACAD
1000
R13OBJECT
1002
{
1005
C7
1002
}
  0
ARC
  5
C00
  8
TEAM-NET
 10
-177.978146
 20
418.0
 30
-27.162522
 40
7.0
210
0.013157
220
0.999913
230
-0.0
 50
90.0
 51
180.0
1001
ACAD
1000
R13OBJECT
1002
{
1005
C7
1002
}
  0
LINE
  5
C01
  8
TEAM-NET
 10
184.604764
 20
-29.593883
 30
418.0
 11
185.0
 21
0.444026
 31
418.0
1001
ACAD
1000
R13OBJECT
1002
{
1005
C7
1002
}
  0
LINE
  5
C02
  8
TEAM-NET
 10
182.554689
 20
-29.566908
 30
422.949747
 11
182.94957
 21
0.444026
 31
422.949747
1001
ACAD
1000
R13OBJECT
1002
{
1005
C7
1002
}
  0
TEXT
  5
C8
  8
TEAM-TXT
 10
-97.36733
 20
-168.066556
 30
425.0
 40
30.0
  1
team 344009
 41
0.8
 51
15.0
  7
TEAM
  0
ARC
  5
CB
  8
TEAM-NET
 10
179.512014
 20
418.9
 30
148.439351
 40
7.0
210
0.0
220
-1.0
230
0.0
 50
360.0
 51
90.0
  0
ARC
  5
C03
  8
TEAM-NET
 10
179.512014
 20
-148.439351
 30
418.9
 40
7.0
 50
360.0
 51
90.0
1001
ACAD
1000
R13OBJECT
1002
{
1005
CB
1002
}
  0
ARC
  5
C04
  8
TEAM-NET
 10
148.439351
 20
418.9
 30
-179.512014
 40
7.0
210
-1.0
220
0.0
230
0.0
 50
90.0
 51
180.0
1001
ACAD
1000
R13OBJECT
1002
{
1005
CB
1002
}
  0
ARC
  5
C05
  8
TEAM-NET
 10
178.476882
 20
418.9
 30
149.682353
 40
7.0
210
0.006944
220
-0.999976
230
-0.0
 50
0.0
 51
90.0
1001
ACAD
1000
R13OBJECT
1002
{
1005
CB
1002
}
  0
ARC
  5
C06
  8
TEAM-NET
 10
179.512014
 20
-148.439351
 30
423.849747
 40
4.949747
 50
0.0
 51
90.0
1001
ACAD
1000
R13OBJECT
1002
{
1005
CB
1002
}
  0
ARC
  5
CC
  8
TEAM-NET
 10
147.187772
 20
418.9
 30
180.742702
 40
7.0
210
-0.999976
220
-0.006944
230
0.0
 50
90.0
 51
180.0
  0
ARC
  5
C07
  8
TEAM-NET
 10
-179.716231
 20
-148.439351
 30
418.9
 40
7.0
 50
90.397881
 51
180.795074
1001
ACAD
1000
R13OBJECT
1002
{
1005
CC
1002
}
  0
ARC
  5
C08
  8
TEAM-NET
 10
-181.758703
 20
418.9
 30
145.93128
 40
7.0
210
0.013876
220
-0.999904
230
0.0
 50
90.0
 51
180.0
1001
ACAD
1000
R13OBJECT
1002
{
1005
CC
1002
}
  0
ARC
  5
C09
  8
TEAM-NET
 10
180.742702
 20
418.9
 30
-147.187772
 40
7.0
210
-0.006944
220
0.999976
230
0.0
 50
0.0
 51
90.0
1001
ACAD
1000
R13OBJECT
1002
{
1005
CC
1002
}
  0
ARC
  5
C0A
  8
TEAM-NET
 10
-179.716231
 20
-148.439351
 30
423.849747
 40
4.949747
 50
90.397881
 51
180.795074
1001
ACAD
1000
R13OBJECT
1002
{
1005
CC
1002
}
  0
ARC
  5
CD
  8
TEAM-NET
 10
148.439351
 20
418.9
 30
-179.512014
 40
7.0
210
-1.0
220
0.0
230
0.0
 50
90.0
 51
180.0
  0
LINE
  5
C0B
  8
TEAM-NET
 10
179.512014
 20
-141.439351
 30
418.9
 11
-179.716231
 21
-141.439351
 31
418.9
1001
ACAD
1000
R13OBJECT
1002
{
1005
CD
1002
}
  0
ARC
  5
C0C
  8
TEAM-NET
 10
-148.439351
 20
418.9
 30
-179.716231
 40
7.0
210
1.0
220
0.0
230
0.0
 50
360.0
 51
90.0
1001
ACAD
1000
R13OBJECT
1002
{
1005
CD
1002
}
  0
LINE
  5
C0D
  8
TEAM-NET
 10
-179.716231
 20
-148.439351
 30
425.9
 11
179.512014
 21
-148.439351
 31
425.9
1001
ACAD
1000
R13OBJECT
1002
{
1005
CD
1002
}
  0
LINE
  5
C0E
  8
TEAM-NET
 10
179.512014
 20
-143.489603
 30
423.849747
 11
-179.716231
 21
-143.489603
 31
423.849747
1001
ACAD
1000
R13OBJECT
1002
{
1005
CD
1002
}
  0
ARC
  5
CE
  8
TEAM-NET
 10
179.512014
 20
418.9
 30
148.439351
 40
7.0
210
0.0
220
-1.0
230
0.0
 50
360.0
 51
90.0
  0
LINE
  5
C0F
  8
TEAM-NET
 10
179.512014
 20
-148.439351
 30
425.9
 11
179.512014
 21
-380.453526
 31
425.9
1001
ACAD
1000
R13OBJECT
1002
{
1005
CE
1002
}
  0
ARC
  5
C10
  8
TEAM-NET
 10
179.512014
 20
418.9
 30
380.453526
 40
7.0
210
-0.0
220
-1.0
230
0.0
 50
360.0
 51
90.0
1001
ACAD
1000
R13OBJECT
1002
{
1005
CE
1002
}
  0
LINE
  5
C11
  8
TEAM-NET
 10
186.512014
 20
-380.453526
 30
418.9
 11
186.512014
 21
-148.439351
 31
418.9
1001
ACAD
1000
R13OBJECT
1002
{
1005
CE
1002
}
  0
LINE
  5
C12
  8
TEAM-NET
 10
184.461762
 20
-148.439351
 30
423.849747
 11
184.461762
 21
-380.453526
 31
423.849747
1001
ACAD
1000
R13OBJECT
1002
{
1005
CE
1002
}
  0
ARC
  5
CF
  8
TEAM-NET
 10
179.512014
 20
418.9
 30
380.453526
 40
7.0
210
-0.0
220
-1.0
230
0.0
 50
360.0
 51
90.0
  0
ARC
  5
C13
  8
TEAM-NET
 10
-1.516354
 20
-380.453526
 30
-425.9
 40
177.99566
210
0.0
220
0.0
230
-1.0
 50
180.0
 51
359.204926
1001
ACAD
1000
R13OBJECT
1002
{
1005
CF
1002
}
  0
ARC
  5
C14
  8
TEAM-NET
 10
181.758703
 20
418.9
 30
-380.437938
 40
7.0
210
-0.013876
220
0.999904
230
-0.0
 50
360.0
 51
90.0
1001
ACAD
1000
R13OBJECT
1002
{
1005
CF
1002
}
  0
ARC
  5
C15
  8
TEAM-NET
 10
1.516354
 20
-380.453526
 30
418.9
 40
184.99566
 50
180.795074
 51
360.0
1001
ACAD
1000
R13OBJECT
1002
{
1005
CF
1002
}
  0
ARC
  5
C16
  8
TEAM-NET
 10
-558.450543
 20
418.9
 30
-1.125657
 40
7.0
210
0.999976
220
0.006944
230
-0.0
 50
90.0
 51
180.0
1001
ACAD
1000
R13OBJECT
1002
{
1005
CF
1002
}
  0
ARC
  5
C17
  8
TEAM-NET
 10
-1.516354
 20
-380.453526
 30
-423.849747
 40
182.945407
210
0.0
220
0.0
230
-1.0
 50
180.0
 51
359.204926
1001
ACAD
1000
R13OBJECT
1002
{
1005
CF
1002
}
  0
ARC
  5
D0
  8
TEAM-NET
 10
181.758703
 20
418.9
 30
-380.437938
 40
7.0
210
-0.013876
220
0.999904
230
-0.0
 50
360.0
 51
90.0
  0
LINE
  5
C18
  8
TEAM-NET
 10
-176.462168
 20
-382.923431
 30
425.9
 11
-179.716231
 21
-148.439351
 31
425.9
1001
ACAD
1000
R13OBJECT
1002
{
1005
D0
1002
}
  0
ARC
  5
C19
  8
TEAM-NET
 10
-181.758703
 20
418.9
 30
145.93128
 40
7.0
210
0.013876
220
-0.999904
230
0.0
 50
90.0
 51
180.0
1001
ACAD
1000
R13OBJECT
1002
{
1005
D0
1002
}
  0
LINE
  5
C1A
  8
TEAM-NET
 10
-186.715557
 20
-148.536484
 30
418.9
 11
-183.461494
 21
-383.020564
 31
418.9
1001
ACAD
1000
R13OBJECT
1002
{
1005
D0
1002
}
  0
LINE
  5
C1B
  8
TEAM-NET
 10
-181.411439
 20
-382.992115
 30
423.849747
 11
-184.665502
 21
-148.508034
 31
423.849747
1001
ACAD
1000
R13OBJECT
1002
{
1005
D0
1002
}
  0
ARC
  5
D1
  8
TEAM-NET
 10
147.187772
 20
418.9
 30
180.742702
 40
7.0
210
-0.999976
220
-0.006944
230
0.0
 50
90.0
 51
180.0
  0
ARC
  5
C1C
  8
TEAM-NET
 10
-148.439351
 20
418.9
 30
-179.716231
 40
7.0
210
1.0
220
0.0
230
0.0
 50
360.0
 51
90.0
1001
ACAD
1000
R13OBJECT
1002
{
1005
D1
1002
}
  0
ARC
  5
C1D
  8
TEAM-NET
 10
-179.716231
 20
-148.439351
 30
418.9
 40
7.0
 50
90.0
 51
90.397881
1001
ACAD
1000
R13OBJECT
1002
{
1005
D1
1002
}
  0
ARC
  5
C1E
  8
TEAM-NET
 10
-179.716231
 20
-148.439351
 30
423.849747
 40
4.949748
 50
90.0
 51
90.397881
1001
ACAD
1000
R13OBJECT
1002
{
1005
D1
1002
}
  0
ENDSEC
  0
EOF
