  0
SECTION
  2
HEADER
  9
$ACADVER
  1
AC1009
  9
$INSBASE
 10
0.0
 20
0.0
 30
0.0
  9
$EXTMIN
 10
-1050.083152
 20
-530.02853
 30
-0.004166
  9
$EXTMAX
 10
1050.009054
 20
30.097052
 30
850.032796
  9
$LIMMIN
 10
-1050.083152
 20
-530.02853
  9
$LIMMAX
 10
1050.009054
 20
30.097052
  9
$ORTHOMODE
 70
     0
  9
$REGENMODE
 70
     1
  9
$FILLMODE
 70
     1
  9
$QTEXTMODE
 70
     0
  9
$MIRRTEXT
 70
     0
  9
$DRAGMODE
 70
     2
  9
$LTSCALE
 40
25.0
  9
$OSMODE
 70
     0
  9
$ATTMODE
 70
     1
  9
$TEXTSIZE
 40
200.0
  9
$TRACEWID
 40
1.0
  9
$TEXTSTYLE
  7
STANDARD
  9
$CLAYER
  8
0
  9
$CELTYPE
  6
BYLAYER
  9
$CECOLOR
 62
   256
  9
$DIMSCALE
 40
0.0
  9
$DIMASZ
 40
20.0
  9
$DIMEXO
 40
10.0
  9
$DIMDLI
 40
1.0
  9
$DIMRND
 40
0.0
  9
$DIMDLE
 40
0.0
  9
$DIMEXE
 40
1.0
  9
$DIMTP
 40
0.0
  9
$DIMTM
 40
0.0
  9
$DIMTXT
 40
35.0
  9
$DIMCEN
 40
1.0
  9
$DIMTSZ
 40
0.0
  9
$DIMTOL
 70
     0
  9
$DIMLIM
 70
     0
  9
$DIMTIH
 70
     0
  9
$DIMTOH
 70
     0
  9
$DIMSE1
 70
     0
  9
$DIMSE2
 70
     0
  9
$DIMTAD
 70
     0
  9
$DIMZIN
 70
     0
  9
$DIMBLK
  1

  9
$DIMASO
 70
     1
  9
$DIMSHO
 70
     0
  9
$DIMPOST
  1

  9
$DIMAPOST
  1

  9
$DIMALT
 70
     0
  9
$DIMALTD
 70
     2
  9
$DIMALTF
 40
25.4
  9
$DIMLFAC
 40
1.0
  9
$DIMTOFL
 70
     0
  9
$DIMTVP
 40
0.0
  9
$DIMTIX
 70
     0
  9
$DIMSOXD
 70
     0
  9
$DIMSAH
 70
     0
  9
$DIMBLK1
  1

  9
$DIMBLK2
  1

  9
$DIMSTYLE
  2
TEAM
  9
$DIMCLRD
 70
     9
  9
$DIMCLRE
 70
     9
  9
$DIMCLRT
 70
    11
  9
$DIMTFAC
 40
1.0
  9
$DIMGAP
 40
15.0
  9
$LUNITS
 70
     2
  9
$LUPREC
 70
     1
  9
$SKETCHINC
 40
1.0
  9
$FILLETRAD
 40
50.0
  9
$AUNITS
 70
     0
  9
$AUPREC
 70
     0
  9
$MENU
  1
ROPLANS
  9
$ELEVATION
 40
0.0
  9
$PELEVATION
 40
0.0
  9
$THICKNESS
 40
0.0
  9
$LIMCHECK
 70
     0
  9
$BLIPMODE
 70
     1
  9
$CHAMFERA
 40
0.0
  9
$CHAMFERB
 40
0.0
  9
$SKPOLY
 70
     0
  9
$TDCREATE
 40
2450392.957851
  9
$TDUPDATE
 40
2455526.756388
  9
$TDINDWG
 40
1.964545
  9
$TDUSRTIMER
 40
1.964545
  9
$USRTIMER
 70
     1
  9
$ANGBASE
 50
0.0
  9
$ANGDIR
 70
     0
  9
$PDMODE
 70
     0
  9
$PDSIZE
 40
0.0
  9
$PLINEWID
 40
0.0
  9
$COORDS
 70
     2
  9
$SPLFRAME
 70
     0
  9
$SPLINETYPE
 70
     6
  9
$SPLINESEGS
 70
     8
  9
$ATTDIA
 70
     0
  9
$ATTREQ
 70
     0
  9
$HANDLING
 70
     1
  9
$HANDSEED
  5
424
  9
$SURFTAB1
 70
    24
  9
$SURFTAB2
 70
    24
  9
$SURFTYPE
 70
     6
  9
$SURFU
 70
     6
  9
$SURFV
 70
     6
  9
$UCSNAME
  2

  9
$UCSORG
 10
0.0
 20
0.0
 30
0.0
  9
$UCSXDIR
 10
1.0
 20
0.0
 30
0.0
  9
$UCSYDIR
 10
0.0
 20
1.0
 30
0.0
  9
$PUCSNAME
  2

  9
$PUCSORG
 10
0.0
 20
0.0
 30
0.0
  9
$PUCSXDIR
 10
1.0
 20
0.0
 30
0.0
  9
$PUCSYDIR
 10
0.0
 20
1.0
 30
0.0
  9
$USERI1
 70
     0
  9
$USERI2
 70
     0
  9
$USERI3
 70
     0
  9
$USERI4
 70
     0
  9
$USERI5
 70
     0
  9
$USERR1
 40
0.0
  9
$USERR2
 40
0.0
  9
$USERR3
 40
0.0
  9
$USERR4
 40
0.0
  9
$USERR5
 40
0.0
  9
$WORLDVIEW
 70
     1
  9
$SHADEDGE
 70
     0
  9
$SHADEDIF
 70
    70
  9
$TILEMODE
 70
     1
  9
$MAXACTVP
 70
    16
  9
$PLIMCHECK
 70
     0
  9
$PEXTMIN
 10
-0.805942
 20
0.005011
 30
0.0
  9
$PEXTMAX
 10
20.392854
 20
13.725274
 30
0.0
  9
$PLIMMIN
 10
0.0
 20
0.0
  9
$PLIMMAX
 10
12.0
 20
9.0
  9
$UNITMODE
 70
     0
  9
$VISRETAIN
 70
     0
  9
$PLINEGEN
 70
     0
  9
$PSLTSCALE
 70
     0
  0
ENDSEC
  0
SECTION
  2
TABLES
  0
TABLE
  2
VPORT
 70
     2
  0
VPORT
  2
*ACTIVE
 70
     0
 10
0.0
 20
0.0
 11
1.0
 21
1.0
 12
-0.037049
 22
-249.965739
 13
0.0
 23
0.0
 14
1.0
 24
1.0
 15
50.0
 25
50.0
 16
0.0
 26
0.0
 36
1.0
 17
0.0
 27
0.0
 37
0.0
 40
1129.289725
 41
1.865779
 42
50.0
 43
0.0
 44
0.0
 50
0.0
 51
0.0
 71
     0
 72
   100
 73
     1
 74
     1
 75
     0
 76
     0
 77
     0
 78
     0
  0
ENDTAB
  0
TABLE
  2
LTYPE
 70
     2
  0
LTYPE
  2
CONTINUOUS
 70
     0
  3
Solid Line
 72
    65
 73
     0
 40
0.0
  0
LTYPE
  2
31
 70
     0
  3

 72
    65
 73
     4
 40
2.1
 49
1.5
 49
-0.3
 49
0.0
 49
-0.3
  0
ENDTAB
  0
TABLE
  2
LAYER
 70
     8
  0
LAYER
  2
0
 70
     0
 62
     7
  6
CONTINUOUS
  0
LAYER
  2
TEAM-BODY
 70
     0
 62
     2
  6
CONTINUOUS
  0
LAYER
  2
TEAM-AXE
 70
     0
 62
    10
  6
31
  0
LAYER
  2
TEAM-TXT
 70
     0
 62
    11
  6
CONTINUOUS
  0
LAYER
  2
TEAM-DET1
 70
     0
 62
     4
  6
CONTINUOUS
  0
LAYER
  2
TEAM-DET3
 70
     0
 62
    14
  6
CONTINUOUS
  0
LAYER
  2
TEAM-NET
 70
     0
 62
    15
  6
CONTINUOUS
  0
LAYER
  2
TEAM-INSP
 70
     0
 62
     5
  6
CONTINUOUS
  0
ENDTAB
  0
TABLE
  2
STYLE
 70
     2
  0
STYLE
  2
STANDARD
 70
     0
 40
0.0
 41
1.0
 50
0.0
 71
     0
 42
200.0
  3
txt
  4

  0
STYLE
  2
TEAM
 70
     0
 40
0.0
 41
0.8
 50
15.0
 71
     0
 42
7.0
  3
ROMANS.shx
  4

  0
ENDTAB
  0
TABLE
  2
VIEW
 70
     0
  0
ENDTAB
  0
TABLE
  2
UCS
 70
     0
  0
ENDTAB
  0
TABLE
  2
APPID
 70
     1
  0
APPID
  2
ACAD
 70
     0
  0
ENDTAB
  0
TABLE
  2
DIMSTYLE
 70
     1
  0
DIMSTYLE
  2
TEAM
 70
     0
  3

  4

  5

  6

  7

 40
0.0
 41
20.0
 42
10.0
 43
1.0
 44
1.0
 45
0.0
 46
0.0
 47
0.0
 48
0.0
140
35.0
141
1.0
142
0.0
143
25.4
144
1.0
145
0.0
146
1.0
147
15.0
 71
     0
 72
     0
 73
     0
 74
     0
 75
     0
 76
     0
 77
     0
 78
     0
170
     0
171
     2
172
     0
173
     0
174
     0
175
     0
176
     9
177
     9
178
    11
  0
ENDTAB
  0
ENDSEC
  0
SECTION
  2
BLOCKS
  0
BLOCK
  8
0
  2
$MODEL_SPACE
 70
     0
 10
0.0
 20
0.0
 30
0.0
  3
$MODEL_SPACE
  1

  0
ENDBLK
  5
409
  8
0
  0
BLOCK
 67
     1
  8
0
  2
$PAPER_SPACE
 70
     0
 10
0.0
 20
0.0
 30
0.0
  3
$PAPER_SPACE
  1

  0
ENDBLK
  5
407
 67
     1
  8
0
  0
ENDSEC
  0
SECTION
  2
ENTITIES
  0
CIRCLE
  5
1F
  8
TEAM-INSP
 10
0.0
 20
0.0
 30
0.0
 40
10.0
  0
POLYLINE
  5
21
  8
TEAM-NET
 66
     1
 10
0.0
 20
0.0
 30
0.0
 70
    16
 71
     2
 72
    25
  0
VERTEX
  5
22
  8
TEAM-NET
 10
466.777748
 20
-115.0
 30
850.0
 70
    64
  0
VERTEX
  5
23
  8
TEAM-NET
 10
480.09408
 20
-115.0
 30
831.342307
 70
    64
  0
VERTEX
  5
24
  8
TEAM-NET
 10
494.90594
 20
-115.0
 30
813.848223
 70
    64
  0
VERTEX
  5
25
  8
TEAM-NET
 10
511.112111
 20
-115.0
 30
797.637294
 70
    64
  0
VERTEX
  5
26
  8
TEAM-NET
 10
528.601846
 20
-115.0
 30
782.820299
 70
    64
  0
VERTEX
  5
27
  8
TEAM-NET
 10
547.255629
 20
-115.0
 30
769.49849
 70
    64
  0
VERTEX
  5
28
  8
TEAM-NET
 10
566.945987
 20
-115.0
 30
757.762904
 70
    64
  0
VERTEX
  5
29
  8
TEAM-NET
 10
587.538365
 20
-115.0
 30
747.693736
 70
    64
  0
VERTEX
  5
2A
  8
TEAM-NET
 10
608.892044
 20
-115.0
 30
739.359793
 70
    64
  0
VERTEX
  5
2B
  8
TEAM-NET
 10
630.861102
 20
-115.0
 30
732.818028
 70
    64
  0
VERTEX
  5
2C
  8
TEAM-NET
 10
653.295411
 20
-115.0
 30
728.113144
 70
    64
  0
VERTEX
  5
2D
  8
TEAM-NET
 10
676.041667
 20
-115.0
 30
725.27729
 70
    64
  0
VERTEX
  5
2E
  8
TEAM-NET
 10
698.944429
 20
-115.0
 30
724.329848
 70
    64
  0
VERTEX
  5
2F
  8
TEAM-NET
 10
721.847192
 20
-115.0
 30
725.27729
 70
    64
  0
VERTEX
  5
30
  8
TEAM-NET
 10
744.593447
 20
-115.0
 30
728.113144
 70
    64
  0
VERTEX
  5
31
  8
TEAM-NET
 10
767.027757
 20
-115.0
 30
732.818028
 70
    64
  0
VERTEX
  5
32
  8
TEAM-NET
 10
788.996815
 20
-115.0
 30
739.359793
 70
    64
  0
VERTEX
  5
33
  8
TEAM-NET
 10
810.350494
 20
-115.0
 30
747.693736
 70
    64
  0
VERTEX
  5
34
  8
TEAM-NET
 10
830.942872
 20
-115.0
 30
757.762904
 70
    64
  0
VERTEX
  5
35
  8
TEAM-NET
 10
850.63323
 20
-115.0
 30
769.49849
 70
    64
  0
VERTEX
  5
36
  8
TEAM-NET
 10
869.287013
 20
-115.0
 30
782.820299
 70
    64
  0
VERTEX
  5
37
  8
TEAM-NET
 10
886.776748
 20
-115.0
 30
797.637294
 70
    64
  0
VERTEX
  5
38
  8
TEAM-NET
 10
902.982919
 20
-115.0
 30
813.848223
 70
    64
  0
VERTEX
  5
39
  8
TEAM-NET
 10
917.794779
 20
-115.0
 30
831.342307
 70
    64
  0
VERTEX
  5
3A
  8
TEAM-NET
 10
931.111111
 20
-115.0
 30
850.0
 70
    64
  0
VERTEX
  5
3B
  8
TEAM-NET
 10
466.777748
 20
-115.0
 30
850.0
 70
    64
  0
VERTEX
  5
3C
  8
TEAM-NET
 10
486.212935
 20
-115.0
 30
850.0
 70
    64
  0
VERTEX
  5
3D
  8
TEAM-NET
 10
505.648123
 20
-115.0
 30
850.0
 70
    64
  0
VERTEX
  5
3E
  8
TEAM-NET
 10
525.083311
 20
-115.0
 30
850.0
 70
    64
  0
VERTEX
  5
3F
  8
TEAM-NET
 10
544.518498
 20
-115.0
 30
850.0
 70
    64
  0
VERTEX
  5
40
  8
TEAM-NET
 10
563.953686
 20
-115.0
 30
850.0
 70
    64
  0
VERTEX
  5
41
  8
TEAM-NET
 10
583.388874
 20
-115.0
 30
850.0
 70
    64
  0
VERTEX
  5
42
  8
TEAM-NET
 10
602.824062
 20
-115.0
 30
850.0
 70
    64
  0
VERTEX
  5
43
  8
TEAM-NET
 10
622.259249
 20
-115.0
 30
850.0
 70
    64
  0
VERTEX
  5
44
  8
TEAM-NET
 10
641.694437
 20
-115.0
 30
850.0
 70
    64
  0
VERTEX
  5
45
  8
TEAM-NET
 10
661.129625
 20
-115.0
 30
850.0
 70
    64
  0
VERTEX
  5
46
  8
TEAM-NET
 10
680.564812
 20
-115.0
 30
850.0
 70
    64
  0
VERTEX
  5
47
  8
TEAM-NET
 10
700.0
 20
-115.0
 30
850.0
 70
    64
  0
VERTEX
  5
48
  8
TEAM-NET
 10
719.435188
 20
-115.0
 30
850.0
 70
    64
  0
VERTEX
  5
49
  8
TEAM-NET
 10
738.870375
 20
-115.0
 30
850.0
 70
    64
  0
VERTEX
  5
4A
  8
TEAM-NET
 10
758.305563
 20
-115.0
 30
850.0
 70
    64
  0
VERTEX
  5
4B
  8
TEAM-NET
 10
777.740751
 20
-115.0
 30
850.0
 70
    64
  0
VERTEX
  5
4C
  8
TEAM-NET
 10
797.175938
 20
-115.0
 30
850.0
 70
    64
  0
VERTEX
  5
4D
  8
TEAM-NET
 10
816.611126
 20
-115.0
 30
850.0
 70
    64
  0
VERTEX
  5
4E
  8
TEAM-NET
 10
836.046314
 20
-115.0
 30
850.0
 70
    64
  0
VERTEX
  5
4F
  8
TEAM-NET
 10
855.481502
 20
-115.0
 30
850.0
 70
    64
  0
VERTEX
  5
50
  8
TEAM-NET
 10
874.916689
 20
-115.0
 30
850.0
 70
    64
  0
VERTEX
  5
51
  8
TEAM-NET
 10
894.351877
 20
-115.0
 30
850.0
 70
    64
  0
VERTEX
  5
52
  8
TEAM-NET
 10
913.787065
 20
-115.0
 30
850.0
 70
    64
  0
VERTEX
  5
53
  8
TEAM-NET
 10
933.222252
 20
-115.0
 30
850.0
 70
    64
  0
SEQEND
  5
55
  8
TEAM-NET
  0
POLYLINE
  5
56
  8
TEAM-NET
 66
     1
 10
0.0
 20
0.0
 30
0.0
 70
    16
 71
     2
 72
    25
  0
VERTEX
  5
57
  8
TEAM-NET
 10
-233.222252
 20
-115.0
 30
850.0
 70
    64
  0
VERTEX
  5
58
  8
TEAM-NET
 10
-219.90592
 20
-115.0
 30
831.342307
 70
    64
  0
VERTEX
  5
59
  8
TEAM-NET
 10
-205.09406
 20
-115.0
 30
813.848223
 70
    64
  0
VERTEX
  5
5A
  8
TEAM-NET
 10
-188.887889
 20
-115.0
 30
797.637294
 70
    64
  0
VERTEX
  5
5B
  8
TEAM-NET
 10
-171.398154
 20
-115.0
 30
782.820299
 70
    64
  0
VERTEX
  5
5C
  8
TEAM-NET
 10
-152.744371
 20
-115.0
 30
769.49849
 70
    64
  0
VERTEX
  5
5D
  8
TEAM-NET
 10
-133.054013
 20
-115.0
 30
757.762904
 70
    64
  0
VERTEX
  5
5E
  8
TEAM-NET
 10
-112.461635
 20
-115.0
 30
747.693736
 70
    64
  0
VERTEX
  5
5F
  8
TEAM-NET
 10
-91.107956
 20
-115.0
 30
739.359793
 70
    64
  0
VERTEX
  5
60
  8
TEAM-NET
 10
-69.138898
 20
-115.0
 30
732.818028
 70
    64
  0
VERTEX
  5
61
  8
TEAM-NET
 10
-46.704589
 20
-115.0
 30
728.113144
 70
    64
  0
VERTEX
  5
62
  8
TEAM-NET
 10
-23.958333
 20
-115.0
 30
725.27729
 70
    64
  0
VERTEX
  5
63
  8
TEAM-NET
 10
-1.055571
 20
-115.0
 30
724.329848
 70
    64
  0
VERTEX
  5
64
  8
TEAM-NET
 10
21.847192
 20
-115.0
 30
725.27729
 70
    64
  0
VERTEX
  5
65
  8
TEAM-NET
 10
44.593447
 20
-115.0
 30
728.113144
 70
    64
  0
VERTEX
  5
66
  8
TEAM-NET
 10
67.027757
 20
-115.0
 30
732.818028
 70
    64
  0
VERTEX
  5
67
  8
TEAM-NET
 10
88.996815
 20
-115.0
 30
739.359793
 70
    64
  0
VERTEX
  5
68
  8
TEAM-NET
 10
110.350494
 20
-115.0
 30
747.693736
 70
    64
  0
VERTEX
  5
69
  8
TEAM-NET
 10
130.942872
 20
-115.0
 30
757.762904
 70
    64
  0
VERTEX
  5
6A
  8
TEAM-NET
 10
150.63323
 20
-115.0
 30
769.49849
 70
    64
  0
VERTEX
  5
6B
  8
TEAM-NET
 10
169.287013
 20
-115.0
 30
782.820299
 70
    64
  0
VERTEX
  5
6C
  8
TEAM-NET
 10
186.776748
 20
-115.0
 30
797.637294
 70
    64
  0
VERTEX
  5
6D
  8
TEAM-NET
 10
202.982919
 20
-115.0
 30
813.848223
 70
    64
  0
VERTEX
  5
6E
  8
TEAM-NET
 10
217.794779
 20
-115.0
 30
831.342307
 70
    64
  0
VERTEX
  5
6F
  8
TEAM-NET
 10
231.111111
 20
-115.0
 30
850.0
 70
    64
  0
VERTEX
  5
70
  8
TEAM-NET
 10
-233.222252
 20
-115.0
 30
850.0
 70
    64
  0
VERTEX
  5
71
  8
TEAM-NET
 10
-213.787065
 20
-115.0
 30
850.0
 70
    64
  0
VERTEX
  5
72
  8
TEAM-NET
 10
-194.351877
 20
-115.0
 30
850.0
 70
    64
  0
VERTEX
  5
73
  8
TEAM-NET
 10
-174.916689
 20
-115.0
 30
850.0
 70
    64
  0
VERTEX
  5
74
  8
TEAM-NET
 10
-155.481502
 20
-115.0
 30
850.0
 70
    64
  0
VERTEX
  5
75
  8
TEAM-NET
 10
-136.046314
 20
-115.0
 30
850.0
 70
    64
  0
VERTEX
  5
76
  8
TEAM-NET
 10
-116.611126
 20
-115.0
 30
850.0
 70
    64
  0
VERTEX
  5
77
  8
TEAM-NET
 10
-97.175938
 20
-115.0
 30
850.0
 70
    64
  0
VERTEX
  5
78
  8
TEAM-NET
 10
-77.740751
 20
-115.0
 30
850.0
 70
    64
  0
VERTEX
  5
79
  8
TEAM-NET
 10
-58.305563
 20
-115.0
 30
850.0
 70
    64
  0
VERTEX
  5
7A
  8
TEAM-NET
 10
-38.870375
 20
-115.0
 30
850.0
 70
    64
  0
VERTEX
  5
7B
  8
TEAM-NET
 10
-19.435188
 20
-115.0
 30
850.0
 70
    64
  0
VERTEX
  5
7C
  8
TEAM-NET
 10
0.0
 20
-115.0
 30
850.0
 70
    64
  0
VERTEX
  5
7D
  8
TEAM-NET
 10
19.435188
 20
-115.0
 30
850.0
 70
    64
  0
VERTEX
  5
7E
  8
TEAM-NET
 10
38.870375
 20
-115.0
 30
850.0
 70
    64
  0
VERTEX
  5
7F
  8
TEAM-NET
 10
58.305563
 20
-115.0
 30
850.0
 70
    64
  0
VERTEX
  5
80
  8
TEAM-NET
 10
77.740751
 20
-115.0
 30
850.0
 70
    64
  0
VERTEX
  5
81
  8
TEAM-NET
 10
97.175938
 20
-115.0
 30
850.0
 70
    64
  0
VERTEX
  5
82
  8
TEAM-NET
 10
116.611126
 20
-115.0
 30
850.0
 70
    64
  0
VERTEX
  5
83
  8
TEAM-NET
 10
136.046314
 20
-115.0
 30
850.0
 70
    64
  0
VERTEX
  5
84
  8
TEAM-NET
 10
155.481502
 20
-115.0
 30
850.0
 70
    64
  0
VERTEX
  5
85
  8
TEAM-NET
 10
174.916689
 20
-115.0
 30
850.0
 70
    64
  0
VERTEX
  5
86
  8
TEAM-NET
 10
194.351877
 20
-115.0
 30
850.0
 70
    64
  0
VERTEX
  5
87
  8
TEAM-NET
 10
213.787065
 20
-115.0
 30
850.0
 70
    64
  0
VERTEX
  5
88
  8
TEAM-NET
 10
233.222252
 20
-115.0
 30
850.0
 70
    64
  0
SEQEND
  5
89
  8
TEAM-NET
  0
POLYLINE
  5
8A
  8
TEAM-NET
 66
     1
 10
0.0
 20
0.0
 30
0.0
 70
    16
 71
     2
 72
    25
  0
VERTEX
  5
8B
  8
TEAM-NET
 10
-933.222252
 20
-115.0
 30
850.0
 70
    64
  0
VERTEX
  5
8C
  8
TEAM-NET
 10
-919.90592
 20
-115.0
 30
831.342307
 70
    64
  0
VERTEX
  5
8D
  8
TEAM-NET
 10
-905.09406
 20
-115.0
 30
813.848223
 70
    64
  0
VERTEX
  5
8E
  8
TEAM-NET
 10
-888.887889
 20
-115.0
 30
797.637294
 70
    64
  0
VERTEX
  5
8F
  8
TEAM-NET
 10
-871.398154
 20
-115.0
 30
782.820299
 70
    64
  0
VERTEX
  5
90
  8
TEAM-NET
 10
-852.744371
 20
-115.0
 30
769.49849
 70
    64
  0
VERTEX
  5
91
  8
TEAM-NET
 10
-833.054013
 20
-115.0
 30
757.762904
 70
    64
  0
VERTEX
  5
92
  8
TEAM-NET
 10
-812.461635
 20
-115.0
 30
747.693736
 70
    64
  0
VERTEX
  5
93
  8
TEAM-NET
 10
-791.107956
 20
-115.0
 30
739.359793
 70
    64
  0
VERTEX
  5
94
  8
TEAM-NET
 10
-769.138898
 20
-115.0
 30
732.818028
 70
    64
  0
VERTEX
  5
95
  8
TEAM-NET
 10
-746.704589
 20
-115.0
 30
728.113144
 70
    64
  0
VERTEX
  5
96
  8
TEAM-NET
 10
-723.958333
 20
-115.0
 30
725.27729
 70
    64
  0
VERTEX
  5
97
  8
TEAM-NET
 10
-701.055571
 20
-115.0
 30
724.329848
 70
    64
  0
VERTEX
  5
98
  8
TEAM-NET
 10
-678.152808
 20
-115.0
 30
725.27729
 70
    64
  0
VERTEX
  5
99
  8
TEAM-NET
 10
-655.406553
 20
-115.0
 30
728.113144
 70
    64
  0
VERTEX
  5
9A
  8
TEAM-NET
 10
-632.972243
 20
-115.0
 30
732.818028
 70
    64
  0
VERTEX
  5
9B
  8
TEAM-NET
 10
-611.003185
 20
-115.0
 30
739.359793
 70
    64
  0
VERTEX
  5
9C
  8
TEAM-NET
 10
-589.649506
 20
-115.0
 30
747.693736
 70
    64
  0
VERTEX
  5
9D
  8
TEAM-NET
 10
-569.057128
 20
-115.0
 30
757.762904
 70
    64
  0
VERTEX
  5
9E
  8
TEAM-NET
 10
-549.36677
 20
-115.0
 30
769.49849
 70
    64
  0
VERTEX
  5
9F
  8
TEAM-NET
 10
-530.712987
 20
-115.0
 30
782.820299
 70
    64
  0
VERTEX
  5
A0
  8
TEAM-NET
 10
-513.223252
 20
-115.0
 30
797.637294
 70
    64
  0
VERTEX
  5
A1
  8
TEAM-NET
 10
-497.017081
 20
-115.0
 30
813.848223
 70
    64
  0
VERTEX
  5
A2
  8
TEAM-NET
 10
-482.205221
 20
-115.0
 30
831.342307
 70
    64
  0
VERTEX
  5
A3
  8
TEAM-NET
 10
-468.888889
 20
-115.0
 30
850.0
 70
    64
  0
VERTEX
  5
A4
  8
TEAM-NET
 10
-933.222252
 20
-115.0
 30
850.0
 70
    64
  0
VERTEX
  5
A5
  8
TEAM-NET
 10
-913.787065
 20
-115.0
 30
850.0
 70
    64
  0
VERTEX
  5
A6
  8
TEAM-NET
 10
-894.351877
 20
-115.0
 30
850.0
 70
    64
  0
VERTEX
  5
A7
  8
TEAM-NET
 10
-874.916689
 20
-115.0
 30
850.0
 70
    64
  0
VERTEX
  5
A8
  8
TEAM-NET
 10
-855.481502
 20
-115.0
 30
850.0
 70
    64
  0
VERTEX
  5
A9
  8
TEAM-NET
 10
-836.046314
 20
-115.0
 30
850.0
 70
    64
  0
VERTEX
  5
AA
  8
TEAM-NET
 10
-816.611126
 20
-115.0
 30
850.0
 70
    64
  0
VERTEX
  5
AB
  8
TEAM-NET
 10
-797.175938
 20
-115.0
 30
850.0
 70
    64
  0
VERTEX
  5
AC
  8
TEAM-NET
 10
-777.740751
 20
-115.0
 30
850.0
 70
    64
  0
VERTEX
  5
AD
  8
TEAM-NET
 10
-758.305563
 20
-115.0
 30
850.0
 70
    64
  0
VERTEX
  5
AE
  8
TEAM-NET
 10
-738.870375
 20
-115.0
 30
850.0
 70
    64
  0
VERTEX
  5
AF
  8
TEAM-NET
 10
-719.435188
 20
-115.0
 30
850.0
 70
    64
  0
VERTEX
  5
B0
  8
TEAM-NET
 10
-700.0
 20
-115.0
 30
850.0
 70
    64
  0
VERTEX
  5
B1
  8
TEAM-NET
 10
-680.564812
 20
-115.0
 30
850.0
 70
    64
  0
VERTEX
  5
B2
  8
TEAM-NET
 10
-661.129625
 20
-115.0
 30
850.0
 70
    64
  0
VERTEX
  5
B3
  8
TEAM-NET
 10
-641.694437
 20
-115.0
 30
850.0
 70
    64
  0
VERTEX
  5
B4
  8
TEAM-NET
 10
-622.259249
 20
-115.0
 30
850.0
 70
    64
  0
VERTEX
  5
B5
  8
TEAM-NET
 10
-602.824062
 20
-115.0
 30
850.0
 70
    64
  0
VERTEX
  5
B6
  8
TEAM-NET
 10
-583.388874
 20
-115.0
 30
850.0
 70
    64
  0
VERTEX
  5
B7
  8
TEAM-NET
 10
-563.953686
 20
-115.0
 30
850.0
 70
    64
  0
VERTEX
  5
B8
  8
TEAM-NET
 10
-544.518498
 20
-115.0
 30
850.0
 70
    64
  0
VERTEX
  5
B9
  8
TEAM-NET
 10
-525.083311
 20
-115.0
 30
850.0
 70
    64
  0
VERTEX
  5
BA
  8
TEAM-NET
 10
-505.648123
 20
-115.0
 30
850.0
 70
    64
  0
VERTEX
  5
BB
  8
TEAM-NET
 10
-486.212935
 20
-115.0
 30
850.0
 70
    64
  0
VERTEX
  5
BC
  8
TEAM-NET
 10
-466.777748
 20
-115.0
 30
850.0
 70
    64
  0
SEQEND
  5
BD
  8
TEAM-NET
  0
POLYLINE
  5
BE
  8
TEAM-NET
 66
     1
 10
0.0
 20
0.0
 30
0.0
 70
    16
 71
     2
 72
    37
  0
VERTEX
  5
BF
  8
TEAM-NET
 10
466.777748
 20
-115.0
 30
850.0
 70
    64
  0
VERTEX
  5
C0
  8
TEAM-NET
 10
475.484422
 20
-115.0
 30
837.438389
 70
    64
  0
VERTEX
  5
C1
  8
TEAM-NET
 10
484.869991
 20
-115.0
 30
825.375581
 70
    64
  0
VERTEX
  5
C2
  8
TEAM-NET
 10
494.90594
 20
-115.0
 30
813.848223
 70
    64
  0
VERTEX
  5
C3
  8
TEAM-NET
 10
505.561779
 20
-115.0
 30
802.891337
 70
    64
  0
VERTEX
  5
C4
  8
TEAM-NET
 10
516.805134
 20
-115.0
 30
792.538211
 70
    64
  0
VERTEX
  5
C5
  8
TEAM-NET
 10
528.601846
 20
-115.0
 30
782.820299
 70
    64
  0
VERTEX
  5
C6
  8
TEAM-NET
 10
540.916077
 20
-115.0
 30
773.767125
 70
    64
  0
VERTEX
  5
C7
  8
TEAM-NET
 10
553.710414
 20
-115.0
 30
765.406192
 70
    64
  0
VERTEX
  5
C8
  8
TEAM-NET
 10
566.945987
 20
-115.0
 30
757.762904
 70
    64
  0
VERTEX
  5
C9
  8
TEAM-NET
 10
580.582585
 20
-115.0
 30
750.86048
 70
    64
  0
VERTEX
  5
CA
  8
TEAM-NET
 10
594.578777
 20
-115.0
 30
744.719891
 70
    64
  0
VERTEX
  5
CB
  8
TEAM-NET
 10
608.892044
 20
-115.0
 30
739.359793
 70
    64
  0
VERTEX
  5
CC
  8
TEAM-NET
 10
623.478899
 20
-115.0
 30
734.796471
 70
    64
  0
VERTEX
  5
CD
  8
TEAM-NET
 10
638.295025
 20
-115.0
 30
731.043787
 70
    64
  0
VERTEX
  5
CE
  8
TEAM-NET
 10
653.295411
 20
-115.0
 30
728.113144
 70
    64
  0
VERTEX
  5
CF
  8
TEAM-NET
 10
668.434484
 20
-115.0
 30
726.013444
 70
    64
  0
VERTEX
  5
D0
  8
TEAM-NET
 10
683.666248
 20
-115.0
 30
724.751067
 70
    64
  0
VERTEX
  5
D1
  8
TEAM-NET
 10
698.944429
 20
-115.0
 30
724.329848
 70
    64
  0
VERTEX
  5
D2
  8
TEAM-NET
 10
714.222611
 20
-115.0
 30
724.751067
 70
    64
  0
VERTEX
  5
D3
  8
TEAM-NET
 10
729.454375
 20
-115.0
 30
726.013444
 70
    64
  0
VERTEX
  5
D4
  8
TEAM-NET
 10
744.593447
 20
-115.0
 30
728.113144
 70
    64
  0
VERTEX
  5
D5
  8
TEAM-NET
 10
759.593833
 20
-115.0
 30
731.043787
 70
    64
  0
VERTEX
  5
D6
  8
TEAM-NET
 10
774.40996
 20
-115.0
 30
734.796471
 70
    64
  0
VERTEX
  5
D7
  8
TEAM-NET
 10
788.996815
 20
-115.0
 30
739.359793
 70
    64
  0
VERTEX
  5
D8
  8
TEAM-NET
 10
803.310081
 20
-115.0
 30
744.719891
 70
    64
  0
VERTEX
  5
D9
  8
TEAM-NET
 10
817.306274
 20
-115.0
 30
750.86048
 70
    64
  0
VERTEX
  5
DA
  8
TEAM-NET
 10
830.942872
 20
-115.0
 30
757.762904
 70
    64
  0
VERTEX
  5
DB
  8
TEAM-NET
 10
844.178445
 20
-115.0
 30
765.406192
 70
    64
  0
VERTEX
  5
DC
  8
TEAM-NET
 10
856.972782
 20
-115.0
 30
773.767125
 70
    64
  0
VERTEX
  5
DD
  8
TEAM-NET
 10
869.287013
 20
-115.0
 30
782.820299
 70
    64
  0
VERTEX
  5
DE
  8
TEAM-NET
 10
881.083725
 20
-115.0
 30
792.538211
 70
    64
  0
VERTEX
  5
DF
  8
TEAM-NET
 10
892.32708
 20
-115.0
 30
802.891337
 70
    64
  0
VERTEX
  5
E0
  8
TEAM-NET
 10
902.982919
 20
-115.0
 30
813.848223
 70
    64
  0
VERTEX
  5
E1
  8
TEAM-NET
 10
913.018868
 20
-115.0
 30
825.375581
 70
    64
  0
VERTEX
  5
E2
  8
TEAM-NET
 10
922.404437
 20
-115.0
 30
837.438389
 70
    64
  0
VERTEX
  5
E3
  8
TEAM-NET
 10
931.111111
 20
-115.0
 30
850.0
 70
    64
  0
VERTEX
  5
E4
  8
TEAM-NET
 10
466.777748
 20
-115.0
 30
850.0
 70
    64
  0
VERTEX
  5
E5
  8
TEAM-NET
 10
455.332644
 20
-141.958123
 30
850.0
 70
    64
  0
VERTEX
  5
E6
  8
TEAM-NET
 10
446.991959
 20
-170.032377
 30
850.0
 70
    64
  0
VERTEX
  5
E7
  8
TEAM-NET
 10
441.861522
 20
-198.866547
 30
850.0
 70
    64
  0
VERTEX
  5
E8
  8
TEAM-NET
 10
440.00643
 20
-228.094777
 30
850.0
 70
    64
  0
VERTEX
  5
E9
  8
TEAM-NET
 10
441.450222
 20
-257.346208
 30
850.0
 70
    64
  0
VERTEX
  5
EA
  8
TEAM-NET
 10
446.174576
 20
-286.24969
 30
850.0
 70
    64
  0
VERTEX
  5
EB
  8
TEAM-NET
 10
454.119551
 20
-314.438485
 30
850.0
 70
    64
  0
VERTEX
  5
EC
  8
TEAM-NET
 10
465.184336
 20
-341.554924
 30
850.0
 70
    64
  0
VERTEX
  5
ED
  8
TEAM-NET
 10
479.228539
 20
-367.254947
 30
850.0
 70
    64
  0
VERTEX
  5
EE
  8
TEAM-NET
 10
496.073962
 20
-391.212461
 30
850.0
 70
    64
  0
VERTEX
  5
EF
  8
TEAM-NET
 10
515.506864
 20
-413.123487
 30
850.0
 70
    64
  0
VERTEX
  5
F0
  8
TEAM-NET
 10
537.280676
 20
-432.710011
 30
850.0
 70
    64
  0
VERTEX
  5
F1
  8
TEAM-NET
 10
561.119123
 20
-449.723511
 30
850.0
 70
    64
  0
VERTEX
  5
F2
  8
TEAM-NET
 10
586.719736
 20
-463.948116
 30
850.0
 70
    64
  0
VERTEX
  5
F3
  8
TEAM-NET
 10
613.757686
 20
-475.203339
 30
850.0
 70
    64
  0
VERTEX
  5
F4
  8
TEAM-NET
 10
641.889906
 20
-483.34637
 30
850.0
 70
    64
  0
VERTEX
  5
F5
  8
TEAM-NET
 10
670.759446
 20
-488.273888
 30
850.0
 70
    64
  0
VERTEX
  5
F6
  8
TEAM-NET
 10
700.0
 20
-489.92337
 30
850.0
 70
    64
  0
VERTEX
  5
F7
  8
TEAM-NET
 10
729.240554
 20
-488.273888
 30
850.0
 70
    64
  0
VERTEX
  5
F8
  8
TEAM-NET
 10
758.110094
 20
-483.34637
 30
850.0
 70
    64
  0
VERTEX
  5
F9
  8
TEAM-NET
 10
786.242314
 20
-475.203339
 30
850.0
 70
    64
  0
VERTEX
  5
FA
  8
TEAM-NET
 10
813.280264
 20
-463.948116
 30
850.0
 70
    64
  0
VERTEX
  5
FB
  8
TEAM-NET
 10
838.880877
 20
-449.723511
 30
850.0
 70
    64
  0
VERTEX
  5
FC
  8
TEAM-NET
 10
862.719324
 20
-432.710011
 30
850.0
 70
    64
  0
VERTEX
  5
FD
  8
TEAM-NET
 10
884.493136
 20
-413.123487
 30
850.0
 70
    64
  0
VERTEX
  5
FE
  8
TEAM-NET
 10
903.926038
 20
-391.212461
 30
850.0
 70
    64
  0
VERTEX
  5
FF
  8
TEAM-NET
 10
920.771461
 20
-367.254947
 30
850.0
 70
    64
  0
VERTEX
  5
100
  8
TEAM-NET
 10
934.815664
 20
-341.554924
 30
850.0
 70
    64
  0
VERTEX
  5
101
  8
TEAM-NET
 10
945.880449
 20
-314.438485
 30
850.0
 70
    64
  0
VERTEX
  5
102
  8
TEAM-NET
 10
953.825424
 20
-286.24969
 30
850.0
 70
    64
  0
VERTEX
  5
103
  8
TEAM-NET
 10
958.549778
 20
-257.346208
 30
850.0
 70
    64
  0
VERTEX
  5
104
  8
TEAM-NET
 10
959.99357
 20
-228.094777
 30
850.0
 70
    64
  0
VERTEX
  5
105
  8
TEAM-NET
 10
958.138478
 20
-198.866547
 30
850.0
 70
    64
  0
VERTEX
  5
106
  8
TEAM-NET
 10
953.008041
 20
-170.032377
 30
850.0
 70
    64
  0
VERTEX
  5
107
  8
TEAM-NET
 10
944.667356
 20
-141.958123
 30
850.0
 70
    64
  0
VERTEX
  5
108
  8
TEAM-NET
 10
933.222252
 20
-115.0
 30
850.0
 70
    64
  0
SEQEND
  5
109
  8
TEAM-NET
  0
POLYLINE
  5
10A
  8
TEAM-NET
 66
     1
 10
0.0
 20
0.0
 30
0.0
 70
    16
 71
     2
 72
    37
  0
VERTEX
  5
10B
  8
TEAM-NET
 10
-233.222252
 20
-115.0
 30
850.0
 70
    64
  0
VERTEX
  5
10C
  8
TEAM-NET
 10
-224.515578
 20
-115.0
 30
837.438389
 70
    64
  0
VERTEX
  5
10D
  8
TEAM-NET
 10
-215.130009
 20
-115.0
 30
825.375581
 70
    64
  0
VERTEX
  5
10E
  8
TEAM-NET
 10
-205.09406
 20
-115.0
 30
813.848223
 70
    64
  0
VERTEX
  5
10F
  8
TEAM-NET
 10
-194.438221
 20
-115.0
 30
802.891337
 70
    64
  0
VERTEX
  5
110
  8
TEAM-NET
 10
-183.194866
 20
-115.0
 30
792.538211
 70
    64
  0
VERTEX
  5
111
  8
TEAM-NET
 10
-171.398154
 20
-115.0
 30
782.820299
 70
    64
  0
VERTEX
  5
112
  8
TEAM-NET
 10
-159.083923
 20
-115.0
 30
773.767125
 70
    64
  0
VERTEX
  5
113
  8
TEAM-NET
 10
-146.289586
 20
-115.0
 30
765.406192
 70
    64
  0
VERTEX
  5
114
  8
TEAM-NET
 10
-133.054013
 20
-115.0
 30
757.762904
 70
    64
  0
VERTEX
  5
115
  8
TEAM-NET
 10
-119.417415
 20
-115.0
 30
750.86048
 70
    64
  0
VERTEX
  5
116
  8
TEAM-NET
 10
-105.421223
 20
-115.0
 30
744.719891
 70
    64
  0
VERTEX
  5
117
  8
TEAM-NET
 10
-91.107956
 20
-115.0
 30
739.359793
 70
    64
  0
VERTEX
  5
118
  8
TEAM-NET
 10
-76.521101
 20
-115.0
 30
734.796471
 70
    64
  0
VERTEX
  5
119
  8
TEAM-NET
 10
-61.704975
 20
-115.0
 30
731.043787
 70
    64
  0
VERTEX
  5
11A
  8
TEAM-NET
 10
-46.704589
 20
-115.0
 30
728.113144
 70
    64
  0
VERTEX
  5
11B
  8
TEAM-NET
 10
-31.565516
 20
-115.0
 30
726.013444
 70
    64
  0
VERTEX
  5
11C
  8
TEAM-NET
 10
-16.333752
 20
-115.0
 30
724.751067
 70
    64
  0
VERTEX
  5
11D
  8
TEAM-NET
 10
-1.055571
 20
-115.0
 30
724.329848
 70
    64
  0
VERTEX
  5
11E
  8
TEAM-NET
 10
14.222611
 20
-115.0
 30
724.751067
 70
    64
  0
VERTEX
  5
11F
  8
TEAM-NET
 10
29.454375
 20
-115.0
 30
726.013444
 70
    64
  0
VERTEX
  5
120
  8
TEAM-NET
 10
44.593447
 20
-115.0
 30
728.113144
 70
    64
  0
VERTEX
  5
121
  8
TEAM-NET
 10
59.593833
 20
-115.0
 30
731.043787
 70
    64
  0
VERTEX
  5
122
  8
TEAM-NET
 10
74.40996
 20
-115.0
 30
734.796471
 70
    64
  0
VERTEX
  5
123
  8
TEAM-NET
 10
88.996815
 20
-115.0
 30
739.359793
 70
    64
  0
VERTEX
  5
124
  8
TEAM-NET
 10
103.310081
 20
-115.0
 30
744.719891
 70
    64
  0
VERTEX
  5
125
  8
TEAM-NET
 10
117.306274
 20
-115.0
 30
750.86048
 70
    64
  0
VERTEX
  5
126
  8
TEAM-NET
 10
130.942872
 20
-115.0
 30
757.762904
 70
    64
  0
VERTEX
  5
127
  8
TEAM-NET
 10
144.178445
 20
-115.0
 30
765.406192
 70
    64
  0
VERTEX
  5
128
  8
TEAM-NET
 10
156.972782
 20
-115.0
 30
773.767125
 70
    64
  0
VERTEX
  5
129
  8
TEAM-NET
 10
169.287013
 20
-115.0
 30
782.820299
 70
    64
  0
VERTEX
  5
12A
  8
TEAM-NET
 10
181.083725
 20
-115.0
 30
792.538211
 70
    64
  0
VERTEX
  5
12B
  8
TEAM-NET
 10
192.32708
 20
-115.0
 30
802.891337
 70
    64
  0
VERTEX
  5
12C
  8
TEAM-NET
 10
202.982919
 20
-115.0
 30
813.848223
 70
    64
  0
VERTEX
  5
12D
  8
TEAM-NET
 10
213.018868
 20
-115.0
 30
825.375581
 70
    64
  0
VERTEX
  5
12E
  8
TEAM-NET
 10
222.404437
 20
-115.0
 30
837.438389
 70
    64
  0
VERTEX
  5
12F
  8
TEAM-NET
 10
231.111111
 20
-115.0
 30
850.0
 70
    64
  0
VERTEX
  5
130
  8
TEAM-NET
 10
-233.222252
 20
-115.0
 30
850.0
 70
    64
  0
VERTEX
  5
131
  8
TEAM-NET
 10
-244.667356
 20
-141.958123
 30
850.0
 70
    64
  0
VERTEX
  5
132
  8
TEAM-NET
 10
-253.008041
 20
-170.032377
 30
850.0
 70
    64
  0
VERTEX
  5
133
  8
TEAM-NET
 10
-258.138478
 20
-198.866547
 30
850.0
 70
    64
  0
VERTEX
  5
134
  8
TEAM-NET
 10
-259.99357
 20
-228.094777
 30
850.0
 70
    64
  0
VERTEX
  5
135
  8
TEAM-NET
 10
-258.549778
 20
-257.346208
 30
850.0
 70
    64
  0
VERTEX
  5
136
  8
TEAM-NET
 10
-253.825424
 20
-286.24969
 30
850.0
 70
    64
  0
VERTEX
  5
137
  8
TEAM-NET
 10
-245.880449
 20
-314.438485
 30
850.0
 70
    64
  0
VERTEX
  5
138
  8
TEAM-NET
 10
-234.815664
 20
-341.554924
 30
850.0
 70
    64
  0
VERTEX
  5
139
  8
TEAM-NET
 10
-220.771461
 20
-367.254947
 30
850.0
 70
    64
  0
VERTEX
  5
13A
  8
TEAM-NET
 10
-203.926038
 20
-391.212461
 30
850.0
 70
    64
  0
VERTEX
  5
13B
  8
TEAM-NET
 10
-184.493136
 20
-413.123487
 30
850.0
 70
    64
  0
VERTEX
  5
13C
  8
TEAM-NET
 10
-162.719324
 20
-432.710011
 30
850.0
 70
    64
  0
VERTEX
  5
13D
  8
TEAM-NET
 10
-138.880877
 20
-449.723511
 30
850.0
 70
    64
  0
VERTEX
  5
13E
  8
TEAM-NET
 10
-113.280264
 20
-463.948116
 30
850.0
 70
    64
  0
VERTEX
  5
13F
  8
TEAM-NET
 10
-86.242314
 20
-475.203339
 30
850.0
 70
    64
  0
VERTEX
  5
140
  8
TEAM-NET
 10
-58.110094
 20
-483.34637
 30
850.0
 70
    64
  0
VERTEX
  5
141
  8
TEAM-NET
 10
-29.240554
 20
-488.273888
 30
850.0
 70
    64
  0
VERTEX
  5
142
  8
TEAM-NET
 10
0.0
 20
-489.92337
 30
850.0
 70
    64
  0
VERTEX
  5
143
  8
TEAM-NET
 10
29.240554
 20
-488.273888
 30
850.0
 70
    64
  0
VERTEX
  5
144
  8
TEAM-NET
 10
58.110094
 20
-483.34637
 30
850.0
 70
    64
  0
VERTEX
  5
145
  8
TEAM-NET
 10
86.242314
 20
-475.203339
 30
850.0
 70
    64
  0
VERTEX
  5
146
  8
TEAM-NET
 10
113.280264
 20
-463.948116
 30
850.0
 70
    64
  0
VERTEX
  5
147
  8
TEAM-NET
 10
138.880877
 20
-449.723511
 30
850.0
 70
    64
  0
VERTEX
  5
148
  8
TEAM-NET
 10
162.719324
 20
-432.710011
 30
850.0
 70
    64
  0
VERTEX
  5
149
  8
TEAM-NET
 10
184.493136
 20
-413.123487
 30
850.0
 70
    64
  0
VERTEX
  5
14A
  8
TEAM-NET
 10
203.926038
 20
-391.212461
 30
850.0
 70
    64
  0
VERTEX
  5
14B
  8
TEAM-NET
 10
220.771461
 20
-367.254947
 30
850.0
 70
    64
  0
VERTEX
  5
14C
  8
TEAM-NET
 10
234.815664
 20
-341.554924
 30
850.0
 70
    64
  0
VERTEX
  5
14D
  8
TEAM-NET
 10
245.880449
 20
-314.438485
 30
850.0
 70
    64
  0
VERTEX
  5
14E
  8
TEAM-NET
 10
253.825424
 20
-286.24969
 30
850.0
 70
    64
  0
VERTEX
  5
14F
  8
TEAM-NET
 10
258.549778
 20
-257.346208
 30
850.0
 70
    64
  0
VERTEX
  5
150
  8
TEAM-NET
 10
259.99357
 20
-228.094777
 30
850.0
 70
    64
  0
VERTEX
  5
151
  8
TEAM-NET
 10
258.138478
 20
-198.866547
 30
850.0
 70
    64
  0
VERTEX
  5
152
  8
TEAM-NET
 10
253.008041
 20
-170.032377
 30
850.0
 70
    64
  0
VERTEX
  5
153
  8
TEAM-NET
 10
244.667356
 20
-141.958123
 30
850.0
 70
    64
  0
VERTEX
  5
154
  8
TEAM-NET
 10
233.222252
 20
-115.0
 30
850.0
 70
    64
  0
SEQEND
  5
155
  8
TEAM-NET
  0
POLYLINE
  5
156
  8
TEAM-NET
 66
     1
 10
0.0
 20
0.0
 30
0.0
 70
    16
 71
     2
 72
    37
  0
VERTEX
  5
157
  8
TEAM-NET
 10
-468.888889
 20
-115.0
 30
850.0
 70
    64
  0
VERTEX
  5
158
  8
TEAM-NET
 10
-477.595563
 20
-115.0
 30
837.438389
 70
    64
  0
VERTEX
  5
159
  8
TEAM-NET
 10
-486.981132
 20
-115.0
 30
825.375581
 70
    64
  0
VERTEX
  5
15A
  8
TEAM-NET
 10
-497.017081
 20
-115.0
 30
813.848223
 70
    64
  0
VERTEX
  5
15B
  8
TEAM-NET
 10
-507.67292
 20
-115.0
 30
802.891337
 70
    64
  0
VERTEX
  5
15C
  8
TEAM-NET
 10
-518.916275
 20
-115.0
 30
792.538211
 70
    64
  0
VERTEX
  5
15D
  8
TEAM-NET
 10
-530.712987
 20
-115.0
 30
782.820299
 70
    64
  0
VERTEX
  5
15E
  8
TEAM-NET
 10
-543.027218
 20
-115.0
 30
773.767125
 70
    64
  0
VERTEX
  5
15F
  8
TEAM-NET
 10
-555.821555
 20
-115.0
 30
765.406192
 70
    64
  0
VERTEX
  5
160
  8
TEAM-NET
 10
-569.057128
 20
-115.0
 30
757.762904
 70
    64
  0
VERTEX
  5
161
  8
TEAM-NET
 10
-582.693726
 20
-115.0
 30
750.86048
 70
    64
  0
VERTEX
  5
162
  8
TEAM-NET
 10
-596.689919
 20
-115.0
 30
744.719891
 70
    64
  0
VERTEX
  5
163
  8
TEAM-NET
 10
-611.003185
 20
-115.0
 30
739.359793
 70
    64
  0
VERTEX
  5
164
  8
TEAM-NET
 10
-625.59004
 20
-115.0
 30
734.796471
 70
    64
  0
VERTEX
  5
165
  8
TEAM-NET
 10
-640.406167
 20
-115.0
 30
731.043787
 70
    64
  0
VERTEX
  5
166
  8
TEAM-NET
 10
-655.406553
 20
-115.0
 30
728.113144
 70
    64
  0
VERTEX
  5
167
  8
TEAM-NET
 10
-670.545625
 20
-115.0
 30
726.013444
 70
    64
  0
VERTEX
  5
168
  8
TEAM-NET
 10
-685.777389
 20
-115.0
 30
724.751067
 70
    64
  0
VERTEX
  5
169
  8
TEAM-NET
 10
-701.055571
 20
-115.0
 30
724.329848
 70
    64
  0
VERTEX
  5
16A
  8
TEAM-NET
 10
-716.333752
 20
-115.0
 30
724.751067
 70
    64
  0
VERTEX
  5
16B
  8
TEAM-NET
 10
-731.565516
 20
-115.0
 30
726.013444
 70
    64
  0
VERTEX
  5
16C
  8
TEAM-NET
 10
-746.704589
 20
-115.0
 30
728.113144
 70
    64
  0
VERTEX
  5
16D
  8
TEAM-NET
 10
-761.704975
 20
-115.0
 30
731.043787
 70
    64
  0
VERTEX
  5
16E
  8
TEAM-NET
 10
-776.521101
 20
-115.0
 30
734.796471
 70
    64
  0
VERTEX
  5
16F
  8
TEAM-NET
 10
-791.107956
 20
-115.0
 30
739.359793
 70
    64
  0
VERTEX
  5
170
  8
TEAM-NET
 10
-805.421223
 20
-115.0
 30
744.719891
 70
    64
  0
VERTEX
  5
171
  8
TEAM-NET
 10
-819.417415
 20
-115.0
 30
750.86048
 70
    64
  0
VERTEX
  5
172
  8
TEAM-NET
 10
-833.054013
 20
-115.0
 30
757.762904
 70
    64
  0
VERTEX
  5
173
  8
TEAM-NET
 10
-846.289586
 20
-115.0
 30
765.406192
 70
    64
  0
VERTEX
  5
174
  8
TEAM-NET
 10
-859.083923
 20
-115.0
 30
773.767125
 70
    64
  0
VERTEX
  5
175
  8
TEAM-NET
 10
-871.398154
 20
-115.0
 30
782.820299
 70
    64
  0
VERTEX
  5
176
  8
TEAM-NET
 10
-883.194866
 20
-115.0
 30
792.538211
 70
    64
  0
VERTEX
  5
177
  8
TEAM-NET
 10
-894.438221
 20
-115.0
 30
802.891337
 70
    64
  0
VERTEX
  5
178
  8
TEAM-NET
 10
-905.09406
 20
-115.0
 30
813.848223
 70
    64
  0
VERTEX
  5
179
  8
TEAM-NET
 10
-915.130009
 20
-115.0
 30
825.375581
 70
    64
  0
VERTEX
  5
17A
  8
TEAM-NET
 10
-924.515578
 20
-115.0
 30
837.438389
 70
    64
  0
VERTEX
  5
17B
  8
TEAM-NET
 10
-933.222252
 20
-115.0
 30
850.0
 70
    64
  0
VERTEX
  5
17C
  8
TEAM-NET
 10
-466.777748
 20
-115.0
 30
850.0
 70
    64
  0
VERTEX
  5
17D
  8
TEAM-NET
 10
-455.332644
 20
-141.958123
 30
850.0
 70
    64
  0
VERTEX
  5
17E
  8
TEAM-NET
 10
-446.991959
 20
-170.032377
 30
850.0
 70
    64
  0
VERTEX
  5
17F
  8
TEAM-NET
 10
-441.861522
 20
-198.866547
 30
850.0
 70
    64
  0
VERTEX
  5
180
  8
TEAM-NET
 10
-440.00643
 20
-228.094777
 30
850.0
 70
    64
  0
VERTEX
  5
181
  8
TEAM-NET
 10
-441.450222
 20
-257.346208
 30
850.0
 70
    64
  0
VERTEX
  5
182
  8
TEAM-NET
 10
-446.174576
 20
-286.24969
 30
850.0
 70
    64
  0
VERTEX
  5
183
  8
TEAM-NET
 10
-454.119551
 20
-314.438485
 30
850.0
 70
    64
  0
VERTEX
  5
184
  8
TEAM-NET
 10
-465.184336
 20
-341.554924
 30
850.0
 70
    64
  0
VERTEX
  5
185
  8
TEAM-NET
 10
-479.228539
 20
-367.254947
 30
850.0
 70
    64
  0
VERTEX
  5
186
  8
TEAM-NET
 10
-496.073962
 20
-391.212461
 30
850.0
 70
    64
  0
VERTEX
  5
187
  8
TEAM-NET
 10
-515.506864
 20
-413.123487
 30
850.0
 70
    64
  0
VERTEX
  5
188
  8
TEAM-NET
 10
-537.280676
 20
-432.710011
 30
850.0
 70
    64
  0
VERTEX
  5
189
  8
TEAM-NET
 10
-561.119123
 20
-449.723511
 30
850.0
 70
    64
  0
VERTEX
  5
18A
  8
TEAM-NET
 10
-586.719736
 20
-463.948116
 30
850.0
 70
    64
  0
VERTEX
  5
18B
  8
TEAM-NET
 10
-613.757686
 20
-475.203339
 30
850.0
 70
    64
  0
VERTEX
  5
18C
  8
TEAM-NET
 10
-641.889906
 20
-483.34637
 30
850.0
 70
    64
  0
VERTEX
  5
18D
  8
TEAM-NET
 10
-670.759446
 20
-488.273888
 30
850.0
 70
    64
  0
VERTEX
  5
18E
  8
TEAM-NET
 10
-700.0
 20
-489.92337
 30
850.0
 70
    64
  0
VERTEX
  5
18F
  8
TEAM-NET
 10
-729.240554
 20
-488.273888
 30
850.0
 70
    64
  0
VERTEX
  5
190
  8
TEAM-NET
 10
-758.110094
 20
-483.34637
 30
850.0
 70
    64
  0
VERTEX
  5
191
  8
TEAM-NET
 10
-786.242314
 20
-475.203339
 30
850.0
 70
    64
  0
VERTEX
  5
192
  8
TEAM-NET
 10
-813.280264
 20
-463.948116
 30
850.0
 70
    64
  0
VERTEX
  5
193
  8
TEAM-NET
 10
-838.880877
 20
-449.723511
 30
850.0
 70
    64
  0
VERTEX
  5
194
  8
TEAM-NET
 10
-862.719324
 20
-432.710011
 30
850.0
 70
    64
  0
VERTEX
  5
195
  8
TEAM-NET
 10
-884.493136
 20
-413.123487
 30
850.0
 70
    64
  0
VERTEX
  5
196
  8
TEAM-NET
 10
-903.926038
 20
-391.212461
 30
850.0
 70
    64
  0
VERTEX
  5
197
  8
TEAM-NET
 10
-920.771461
 20
-367.254947
 30
850.0
 70
    64
  0
VERTEX
  5
198
  8
TEAM-NET
 10
-934.815664
 20
-341.554924
 30
850.0
 70
    64
  0
VERTEX
  5
199
  8
TEAM-NET
 10
-945.880449
 20
-314.438485
 30
850.0
 70
    64
  0
VERTEX
  5
19A
  8
TEAM-NET
 10
-953.825424
 20
-286.24969
 30
850.0
 70
    64
  0
VERTEX
  5
19B
  8
TEAM-NET
 10
-958.549778
 20
-257.346208
 30
850.0
 70
    64
  0
VERTEX
  5
19C
  8
TEAM-NET
 10
-959.99357
 20
-228.094777
 30
850.0
 70
    64
  0
VERTEX
  5
19D
  8
TEAM-NET
 10
-958.138478
 20
-198.866547
 30
850.0
 70
    64
  0
VERTEX
  5
19E
  8
TEAM-NET
 10
-953.008041
 20
-170.032377
 30
850.0
 70
    64
  0
VERTEX
  5
19F
  8
TEAM-NET
 10
-944.667356
 20
-141.958123
 30
850.0
 70
    64
  0
VERTEX
  5
1A0
  8
TEAM-NET
 10
-933.222252
 20
-115.0
 30
850.0
 70
    64
  0
SEQEND
  5
1A1
  8
TEAM-NET
  0
ARC
  5
1A2
  8
TEAM-DET3
 10
-701.055571
 20
1001.620653
 30
115.0
 40
277.290805
210
0.0
220
-1.0
230
-0.0
 50
213.147272
 51
326.852728
  0
ARC
  5
1A4
  8
TEAM-DET3
 10
698.944429
 20
1001.620653
 30
115.0
 40
277.290805
210
0.0
220
-1.0
230
-0.0
 50
213.147272
 51
326.852728
  0
ARC
  5
1A5
  8
TEAM-DET3
 10
-1.055571
 20
1001.620653
 30
115.0
 40
277.290805
210
0.0
220
-1.0
230
-0.0
 50
213.147272
 51
326.852728
  0
ARC
  5
1A6
  8
TEAM-BODY
 10
0.0
 20
-185.0
 30
725.0
 40
20.0
 50
0.0
 51
55.407711
  0
ARC
  5
1A8
  8
TEAM-BODY
 10
0.0
 20
-185.0
 30
725.0
 40
20.0
 50
124.592289
 51
180.0
  0
ARC
  5
1A9
  8
TEAM-BODY
 10
0.0
 20
-185.0
 30
725.0
 40
20.0
 50
237.449997
 51
302.550003
  0
ARC
  5
1AA
  8
TEAM-BODY
 10
0.0
 20
-185.0
 30
725.0
 40
20.0
 50
180.0
 51
237.449997
  0
ARC
  5
1AB
  8
TEAM-BODY
 10
0.0
 20
-185.0
 30
725.0
 40
20.0
 50
55.407711
 51
124.592289
  0
ARC
  5
1AC
  8
TEAM-BODY
 10
0.0
 20
-185.0
 30
725.0
 40
20.0
 50
302.550003
 51
0.0
  0
LINE
  5
1AD
  8
TEAM-AXE
 10
0.0
 20
-225.0
 30
725.0
 11
0.0
 21
-145.0
 31
725.0
  0
LINE
  5
1B0
  8
TEAM-AXE
 10
-40.0
 20
-185.0
 30
725.0
 11
40.0
 21
-185.0
 31
725.0
  0
CIRCLE
  5
1B1
  8
TEAM-DET1
 10
0.0
 20
-185.0
 30
725.0
 40
30.0
  0
CIRCLE
  5
1B3
  8
TEAM-DET1
 10
-700.0
 20
-185.0
 30
725.0
 40
30.0
  0
LINE
  5
1B4
  8
TEAM-AXE
 10
-740.0
 20
-185.0
 30
725.0
 11
-660.0
 21
-185.0
 31
725.0
  0
LINE
  5
1B5
  8
TEAM-AXE
 10
-700.0
 20
-225.0
 30
725.0
 11
-700.0
 21
-145.0
 31
725.0
  0
ARC
  5
1B6
  8
TEAM-BODY
 10
-700.0
 20
-185.0
 30
725.0
 40
20.0
 50
302.550003
 51
0.0
  0
ARC
  5
1B7
  8
TEAM-BODY
 10
-700.0
 20
-185.0
 30
725.0
 40
20.0
 50
55.407711
 51
124.592289
  0
ARC
  5
1B8
  8
TEAM-BODY
 10
-700.0
 20
-185.0
 30
725.0
 40
20.0
 50
180.0
 51
237.449997
  0
ARC
  5
1B9
  8
TEAM-BODY
 10
-700.0
 20
-185.0
 30
725.0
 40
20.0
 50
237.449997
 51
302.550003
  0
ARC
  5
1BA
  8
TEAM-BODY
 10
-700.0
 20
-185.0
 30
725.0
 40
20.0
 50
124.592289
 51
180.0
  0
ARC
  5
1BB
  8
TEAM-BODY
 10
-700.0
 20
-185.0
 30
725.0
 40
20.0
 50
0.0
 51
55.407711
  0
CIRCLE
  5
1BC
  8
TEAM-DET1
 10
700.0
 20
-185.0
 30
725.0
 40
30.0
  0
LINE
  5
1BD
  8
TEAM-AXE
 10
660.0
 20
-185.0
 30
725.0
 11
740.0
 21
-185.0
 31
725.0
  0
LINE
  5
1BE
  8
TEAM-AXE
 10
700.0
 20
-225.0
 30
725.0
 11
700.0
 21
-145.0
 31
725.0
  0
ARC
  5
1BF
  8
TEAM-BODY
 10
700.0
 20
-185.0
 30
725.0
 40
20.0
 50
302.550003
 51
0.0
  0
ARC
  5
1C0
  8
TEAM-BODY
 10
700.0
 20
-185.0
 30
725.0
 40
20.0
 50
55.407711
 51
124.592289
  0
ARC
  5
1C1
  8
TEAM-BODY
 10
700.0
 20
-185.0
 30
725.0
 40
20.0
 50
180.0
 51
237.449997
  0
ARC
  5
1C2
  8
TEAM-BODY
 10
700.0
 20
-185.0
 30
725.0
 40
20.0
 50
237.449997
 51
302.550003
  0
ARC
  5
1C3
  8
TEAM-BODY
 10
700.0
 20
-185.0
 30
725.0
 40
20.0
 50
124.592289
 51
180.0
  0
ARC
  5
1C4
  8
TEAM-BODY
 10
700.0
 20
-185.0
 30
725.0
 40
20.0
 50
0.0
 51
55.407711
  0
POLYLINE
  5
1C5
  8
TEAM-BODY
 66
     1
 10
0.0
 20
0.0
 30
850.0
 39
-60.0
  0
VERTEX
  5
40F
  8
TEAM-BODY
 10
-1050.0
 20
0.0
 30
850.0
  0
VERTEX
  5
410
  8
TEAM-BODY
 10
-1050.0
 20
-530.0
 30
850.0
  0
VERTEX
  5
411
  8
TEAM-BODY
 10
1050.0
 20
-530.0
 30
850.0
  0
VERTEX
  5
412
  8
TEAM-BODY
 10
1050.0
 20
0.0
 30
850.0
  0
SEQEND
  5
413
  8
TEAM-BODY
  0
LINE
  5
1C6
  8
TEAM-BODY
 39
-60.0
 10
1050.0
 20
0.0
 30
850.0
 11
350.0
 21
0.0
 31
850.0
  0
LINE
  5
1C7
  8
TEAM-BODY
 39
-60.0
 10
350.0
 20
0.0
 30
850.0
 11
-350.0
 21
0.0
 31
850.0
  0
LINE
  5
1C8
  8
TEAM-BODY
 39
-60.0
 10
-350.0
 20
0.0
 30
850.0
 11
-1050.0
 21
0.0
 31
850.0
  0
LINE
  5
1C9
  8
TEAM-BODY
 10
933.222252
 20
-115.0
 30
850.0
 11
466.777748
 21
-115.0
 31
850.0
  0
POLYLINE
  5
1CA
  8
TEAM-DET3
 66
     1
 10
0.0
 20
0.0
 30
850.0
  0
VERTEX
  5
414
  8
TEAM-DET3
 10
1050.0
 20
0.0
 30
850.0
  0
VERTEX
  5
415
  8
TEAM-DET3
 10
1050.0
 20
-530.0
 30
850.0
  0
VERTEX
  5
416
  8
TEAM-DET3
 10
350.0
 20
-530.0
 30
850.0
  0
VERTEX
  5
417
  8
TEAM-DET3
 10
350.0
 20
0.0
 30
850.0
  0
SEQEND
  5
418
  8
TEAM-DET3
  0
POLYLINE
  5
1CB
  8
TEAM-NET
 66
     1
 10
0.0
 20
0.0
 30
0.0
 70
    16
 71
     2
 72
    25
  0
VERTEX
  5
1CC
  8
TEAM-NET
 10
466.777748
 20
-115.0
 30
850.0
 70
    64
  0
VERTEX
  5
1CD
  8
TEAM-NET
 10
486.212935
 20
-115.0
 30
850.0
 70
    64
  0
VERTEX
  5
1CE
  8
TEAM-NET
 10
505.648123
 20
-115.0
 30
850.0
 70
    64
  0
VERTEX
  5
1CF
  8
TEAM-NET
 10
525.083311
 20
-115.0
 30
850.0
 70
    64
  0
VERTEX
  5
1D0
  8
TEAM-NET
 10
544.518498
 20
-115.0
 30
850.0
 70
    64
  0
VERTEX
  5
1D1
  8
TEAM-NET
 10
563.953686
 20
-115.0
 30
850.0
 70
    64
  0
VERTEX
  5
1D2
  8
TEAM-NET
 10
583.388874
 20
-115.0
 30
850.0
 70
    64
  0
VERTEX
  5
1D3
  8
TEAM-NET
 10
602.824062
 20
-115.0
 30
850.0
 70
    64
  0
VERTEX
  5
1D4
  8
TEAM-NET
 10
622.259249
 20
-115.0
 30
850.0
 70
    64
  0
VERTEX
  5
1D5
  8
TEAM-NET
 10
641.694437
 20
-115.0
 30
850.0
 70
    64
  0
VERTEX
  5
1D6
  8
TEAM-NET
 10
661.129625
 20
-115.0
 30
850.0
 70
    64
  0
VERTEX
  5
1D7
  8
TEAM-NET
 10
680.564812
 20
-115.0
 30
850.0
 70
    64
  0
VERTEX
  5
1D8
  8
TEAM-NET
 10
700.0
 20
-115.0
 30
850.0
 70
    64
  0
VERTEX
  5
1D9
  8
TEAM-NET
 10
719.435188
 20
-115.0
 30
850.0
 70
    64
  0
VERTEX
  5
1DA
  8
TEAM-NET
 10
738.870375
 20
-115.0
 30
850.0
 70
    64
  0
VERTEX
  5
1DB
  8
TEAM-NET
 10
758.305563
 20
-115.0
 30
850.0
 70
    64
  0
VERTEX
  5
1DC
  8
TEAM-NET
 10
777.740751
 20
-115.0
 30
850.0
 70
    64
  0
VERTEX
  5
1DD
  8
TEAM-NET
 10
797.175938
 20
-115.0
 30
850.0
 70
    64
  0
VERTEX
  5
1DE
  8
TEAM-NET
 10
816.611126
 20
-115.0
 30
850.0
 70
    64
  0
VERTEX
  5
1DF
  8
TEAM-NET
 10
836.046314
 20
-115.0
 30
850.0
 70
    64
  0
VERTEX
  5
1E0
  8
TEAM-NET
 10
855.481502
 20
-115.0
 30
850.0
 70
    64
  0
VERTEX
  5
1E1
  8
TEAM-NET
 10
874.916689
 20
-115.0
 30
850.0
 70
    64
  0
VERTEX
  5
1E2
  8
TEAM-NET
 10
894.351877
 20
-115.0
 30
850.0
 70
    64
  0
VERTEX
  5
1E3
  8
TEAM-NET
 10
913.787065
 20
-115.0
 30
850.0
 70
    64
  0
VERTEX
  5
1E4
  8
TEAM-NET
 10
933.222252
 20
-115.0
 30
850.0
 70
    64
  0
VERTEX
  5
1E5
  8
TEAM-NET
 10
350.0
 20
0.0
 30
850.0
 70
    64
  0
VERTEX
  5
1E6
  8
TEAM-NET
 10
379.166667
 20
0.0
 30
850.0
 70
    64
  0
VERTEX
  5
1E7
  8
TEAM-NET
 10
408.333333
 20
0.0
 30
850.0
 70
    64
  0
VERTEX
  5
1E8
  8
TEAM-NET
 10
437.5
 20
0.0
 30
850.0
 70
    64
  0
VERTEX
  5
1E9
  8
TEAM-NET
 10
466.666667
 20
0.0
 30
850.0
 70
    64
  0
VERTEX
  5
1EA
  8
TEAM-NET
 10
495.833333
 20
0.0
 30
850.0
 70
    64
  0
VERTEX
  5
1EB
  8
TEAM-NET
 10
525.0
 20
0.0
 30
850.0
 70
    64
  0
VERTEX
  5
1EC
  8
TEAM-NET
 10
554.166667
 20
0.0
 30
850.0
 70
    64
  0
VERTEX
  5
1ED
  8
TEAM-NET
 10
583.333333
 20
0.0
 30
850.0
 70
    64
  0
VERTEX
  5
1EE
  8
TEAM-NET
 10
612.5
 20
0.0
 30
850.0
 70
    64
  0
VERTEX
  5
1EF
  8
TEAM-NET
 10
641.666667
 20
0.0
 30
850.0
 70
    64
  0
VERTEX
  5
1F0
  8
TEAM-NET
 10
670.833333
 20
0.0
 30
850.0
 70
    64
  0
VERTEX
  5
1F1
  8
TEAM-NET
 10
700.0
 20
0.0
 30
850.0
 70
    64
  0
VERTEX
  5
1F2
  8
TEAM-NET
 10
729.166667
 20
0.0
 30
850.0
 70
    64
  0
VERTEX
  5
1F3
  8
TEAM-NET
 10
758.333333
 20
0.0
 30
850.0
 70
    64
  0
VERTEX
  5
1F4
  8
TEAM-NET
 10
787.5
 20
0.0
 30
850.0
 70
    64
  0
VERTEX
  5
1F5
  8
TEAM-NET
 10
816.666667
 20
0.0
 30
850.0
 70
    64
  0
VERTEX
  5
1F6
  8
TEAM-NET
 10
845.833333
 20
0.0
 30
850.0
 70
    64
  0
VERTEX
  5
1F7
  8
TEAM-NET
 10
875.0
 20
0.0
 30
850.0
 70
    64
  0
VERTEX
  5
1F8
  8
TEAM-NET
 10
904.166667
 20
0.0
 30
850.0
 70
    64
  0
VERTEX
  5
1F9
  8
TEAM-NET
 10
933.333333
 20
0.0
 30
850.0
 70
    64
  0
VERTEX
  5
1FA
  8
TEAM-NET
 10
962.5
 20
0.0
 30
850.0
 70
    64
  0
VERTEX
  5
1FB
  8
TEAM-NET
 10
991.666667
 20
0.0
 30
850.0
 70
    64
  0
VERTEX
  5
1FC
  8
TEAM-NET
 10
1020.833333
 20
0.0
 30
850.0
 70
    64
  0
VERTEX
  5
1FD
  8
TEAM-NET
 10
1050.0
 20
0.0
 30
850.0
 70
    64
  0
SEQEND
  5
1FE
  8
TEAM-NET
  0
POLYLINE
  5
1FF
  8
TEAM-NET
 66
     1
 10
0.0
 20
0.0
 30
0.0
 70
    16
 71
     2
 72
    37
  0
VERTEX
  5
200
  8
TEAM-NET
 10
933.222252
 20
-115.0
 30
850.0
 70
    64
  0
VERTEX
  5
201
  8
TEAM-NET
 10
944.667356
 20
-141.958123
 30
850.0
 70
    64
  0
VERTEX
  5
202
  8
TEAM-NET
 10
953.008041
 20
-170.032377
 30
850.0
 70
    64
  0
VERTEX
  5
203
  8
TEAM-NET
 10
958.138478
 20
-198.866547
 30
850.0
 70
    64
  0
VERTEX
  5
204
  8
TEAM-NET
 10
959.99357
 20
-228.094777
 30
850.0
 70
    64
  0
VERTEX
  5
205
  8
TEAM-NET
 10
958.549778
 20
-257.346208
 30
850.0
 70
    64
  0
VERTEX
  5
206
  8
TEAM-NET
 10
953.825424
 20
-286.24969
 30
850.0
 70
    64
  0
VERTEX
  5
207
  8
TEAM-NET
 10
945.880449
 20
-314.438485
 30
850.0
 70
    64
  0
VERTEX
  5
208
  8
TEAM-NET
 10
934.815664
 20
-341.554924
 30
850.0
 70
    64
  0
VERTEX
  5
209
  8
TEAM-NET
 10
920.771461
 20
-367.254947
 30
850.0
 70
    64
  0
VERTEX
  5
20A
  8
TEAM-NET
 10
903.926038
 20
-391.212461
 30
850.0
 70
    64
  0
VERTEX
  5
20B
  8
TEAM-NET
 10
884.493136
 20
-413.123487
 30
850.0
 70
    64
  0
VERTEX
  5
20C
  8
TEAM-NET
 10
862.719324
 20
-432.710011
 30
850.0
 70
    64
  0
VERTEX
  5
20D
  8
TEAM-NET
 10
838.880877
 20
-449.723511
 30
850.0
 70
    64
  0
VERTEX
  5
20E
  8
TEAM-NET
 10
813.280264
 20
-463.948116
 30
850.0
 70
    64
  0
VERTEX
  5
20F
  8
TEAM-NET
 10
786.242314
 20
-475.203339
 30
850.0
 70
    64
  0
VERTEX
  5
210
  8
TEAM-NET
 10
758.110094
 20
-483.34637
 30
850.0
 70
    64
  0
VERTEX
  5
211
  8
TEAM-NET
 10
729.240554
 20
-488.273888
 30
850.0
 70
    64
  0
VERTEX
  5
212
  8
TEAM-NET
 10
700.0
 20
-489.92337
 30
850.0
 70
    64
  0
VERTEX
  5
213
  8
TEAM-NET
 10
670.759446
 20
-488.273888
 30
850.0
 70
    64
  0
VERTEX
  5
214
  8
TEAM-NET
 10
641.889906
 20
-483.34637
 30
850.0
 70
    64
  0
VERTEX
  5
215
  8
TEAM-NET
 10
613.757686
 20
-475.203339
 30
850.0
 70
    64
  0
VERTEX
  5
216
  8
TEAM-NET
 10
586.719736
 20
-463.948116
 30
850.0
 70
    64
  0
VERTEX
  5
217
  8
TEAM-NET
 10
561.119123
 20
-449.723511
 30
850.0
 70
    64
  0
VERTEX
  5
218
  8
TEAM-NET
 10
537.280676
 20
-432.710011
 30
850.0
 70
    64
  0
VERTEX
  5
219
  8
TEAM-NET
 10
515.506864
 20
-413.123487
 30
850.0
 70
    64
  0
VERTEX
  5
21A
  8
TEAM-NET
 10
496.073962
 20
-391.212461
 30
850.0
 70
    64
  0
VERTEX
  5
21B
  8
TEAM-NET
 10
479.228539
 20
-367.254947
 30
850.0
 70
    64
  0
VERTEX
  5
21C
  8
TEAM-NET
 10
465.184336
 20
-341.554924
 30
850.0
 70
    64
  0
VERTEX
  5
21D
  8
TEAM-NET
 10
454.119551
 20
-314.438485
 30
850.0
 70
    64
  0
VERTEX
  5
21E
  8
TEAM-NET
 10
446.174576
 20
-286.24969
 30
850.0
 70
    64
  0
VERTEX
  5
21F
  8
TEAM-NET
 10
441.450222
 20
-257.346208
 30
850.0
 70
    64
  0
VERTEX
  5
220
  8
TEAM-NET
 10
440.00643
 20
-228.094777
 30
850.0
 70
    64
  0
VERTEX
  5
221
  8
TEAM-NET
 10
441.861522
 20
-198.866547
 30
850.0
 70
    64
  0
VERTEX
  5
222
  8
TEAM-NET
 10
446.991959
 20
-170.032377
 30
850.0
 70
    64
  0
VERTEX
  5
223
  8
TEAM-NET
 10
455.332644
 20
-141.958123
 30
850.0
 70
    64
  0
VERTEX
  5
224
  8
TEAM-NET
 10
466.777748
 20
-115.0
 30
850.0
 70
    64
  0
VERTEX
  5
225
  8
TEAM-NET
 10
1050.0
 20
0.0
 30
850.0
 70
    64
  0
VERTEX
  5
226
  8
TEAM-NET
 10
1050.0
 20
-48.888889
 30
850.0
 70
    64
  0
VERTEX
  5
227
  8
TEAM-NET
 10
1050.0
 20
-97.777778
 30
850.0
 70
    64
  0
VERTEX
  5
228
  8
TEAM-NET
 10
1050.0
 20
-146.666667
 30
850.0
 70
    64
  0
VERTEX
  5
229
  8
TEAM-NET
 10
1050.0
 20
-195.555556
 30
850.0
 70
    64
  0
VERTEX
  5
22A
  8
TEAM-NET
 10
1050.0
 20
-244.444444
 30
850.0
 70
    64
  0
VERTEX
  5
22B
  8
TEAM-NET
 10
1050.0
 20
-293.333333
 30
850.0
 70
    64
  0
VERTEX
  5
22C
  8
TEAM-NET
 10
1050.0
 20
-342.222222
 30
850.0
 70
    64
  0
VERTEX
  5
22D
  8
TEAM-NET
 10
1050.0
 20
-391.111111
 30
850.0
 70
    64
  0
VERTEX
  5
22E
  8
TEAM-NET
 10
1050.0
 20
-440.0
 30
850.0
 70
    64
  0
VERTEX
  5
22F
  8
TEAM-NET
 10
1050.0
 20
-488.888889
 30
850.0
 70
    64
  0
VERTEX
  5
230
  8
TEAM-NET
 10
1042.222222
 20
-530.0
 30
850.0
 70
    64
  0
VERTEX
  5
231
  8
TEAM-NET
 10
993.333333
 20
-530.0
 30
850.0
 70
    64
  0
VERTEX
  5
232
  8
TEAM-NET
 10
944.444444
 20
-530.0
 30
850.0
 70
    64
  0
VERTEX
  5
233
  8
TEAM-NET
 10
895.555556
 20
-530.0
 30
850.0
 70
    64
  0
VERTEX
  5
234
  8
TEAM-NET
 10
846.666667
 20
-530.0
 30
850.0
 70
    64
  0
VERTEX
  5
235
  8
TEAM-NET
 10
797.777778
 20
-530.0
 30
850.0
 70
    64
  0
VERTEX
  5
236
  8
TEAM-NET
 10
748.888889
 20
-530.0
 30
850.0
 70
    64
  0
VERTEX
  5
237
  8
TEAM-NET
 10
700.0
 20
-530.0
 30
850.0
 70
    64
  0
VERTEX
  5
238
  8
TEAM-NET
 10
651.111111
 20
-530.0
 30
850.0
 70
    64
  0
VERTEX
  5
239
  8
TEAM-NET
 10
602.222222
 20
-530.0
 30
850.0
 70
    64
  0
VERTEX
  5
23A
  8
TEAM-NET
 10
553.333333
 20
-530.0
 30
850.0
 70
    64
  0
VERTEX
  5
23B
  8
TEAM-NET
 10
504.444444
 20
-530.0
 30
850.0
 70
    64
  0
VERTEX
  5
23C
  8
TEAM-NET
 10
455.555556
 20
-530.0
 30
850.0
 70
    64
  0
VERTEX
  5
23D
  8
TEAM-NET
 10
406.666667
 20
-530.0
 30
850.0
 70
    64
  0
VERTEX
  5
23E
  8
TEAM-NET
 10
357.777778
 20
-530.0
 30
850.0
 70
    64
  0
VERTEX
  5
23F
  8
TEAM-NET
 10
350.0
 20
-488.888889
 30
850.0
 70
    64
  0
VERTEX
  5
240
  8
TEAM-NET
 10
350.0
 20
-440.0
 30
850.0
 70
    64
  0
VERTEX
  5
241
  8
TEAM-NET
 10
350.0
 20
-391.111111
 30
850.0
 70
    64
  0
VERTEX
  5
242
  8
TEAM-NET
 10
350.0
 20
-342.222222
 30
850.0
 70
    64
  0
VERTEX
  5
243
  8
TEAM-NET
 10
350.0
 20
-293.333333
 30
850.0
 70
    64
  0
VERTEX
  5
244
  8
TEAM-NET
 10
350.0
 20
-244.444444
 30
850.0
 70
    64
  0
VERTEX
  5
245
  8
TEAM-NET
 10
350.0
 20
-195.555556
 30
850.0
 70
    64
  0
VERTEX
  5
246
  8
TEAM-NET
 10
350.0
 20
-146.666667
 30
850.0
 70
    64
  0
VERTEX
  5
247
  8
TEAM-NET
 10
350.0
 20
-97.777778
 30
850.0
 70
    64
  0
VERTEX
  5
248
  8
TEAM-NET
 10
350.0
 20
-48.888889
 30
850.0
 70
    64
  0
VERTEX
  5
249
  8
TEAM-NET
 10
350.0
 20
0.0
 30
850.0
 70
    64
  0
SEQEND
  5
24A
  8
TEAM-NET
  0
ARC
  5
24B
  8
TEAM-BODY
 10
700.0
 20
-229.92337
 30
850.0
 40
260.0
 50
153.767613
 51
26.232387
  0
LINE
  5
24C
  8
TEAM-DET1
 10
1050.0
 20
-10.0
 30
850.0
 11
350.0
 21
-10.0
 31
850.0
  0
POLYLINE
  5
24D
  8
TEAM-DET3
 66
     1
 10
0.0
 20
0.0
 30
850.0
  0
VERTEX
  5
419
  8
TEAM-DET3
 10
-350.0
 20
0.0
 30
850.0
  0
VERTEX
  5
41A
  8
TEAM-DET3
 10
-350.0
 20
-530.0
 30
850.0
  0
VERTEX
  5
41B
  8
TEAM-DET3
 10
-1050.0
 20
-530.0
 30
850.0
  0
VERTEX
  5
41C
  8
TEAM-DET3
 10
-1050.0
 20
0.0
 30
850.0
  0
SEQEND
  5
41D
  8
TEAM-DET3
  0
POLYLINE
  5
24E
  8
TEAM-NET
 66
     1
 10
0.0
 20
0.0
 30
0.0
 70
    16
 71
     2
 72
    25
  0
VERTEX
  5
24F
  8
TEAM-NET
 10
-933.222252
 20
-115.0
 30
850.0
 70
    64
  0
VERTEX
  5
250
  8
TEAM-NET
 10
-913.787065
 20
-115.0
 30
850.0
 70
    64
  0
VERTEX
  5
251
  8
TEAM-NET
 10
-894.351877
 20
-115.0
 30
850.0
 70
    64
  0
VERTEX
  5
252
  8
TEAM-NET
 10
-874.916689
 20
-115.0
 30
850.0
 70
    64
  0
VERTEX
  5
253
  8
TEAM-NET
 10
-855.481502
 20
-115.0
 30
850.0
 70
    64
  0
VERTEX
  5
254
  8
TEAM-NET
 10
-836.046314
 20
-115.0
 30
850.0
 70
    64
  0
VERTEX
  5
255
  8
TEAM-NET
 10
-816.611126
 20
-115.0
 30
850.0
 70
    64
  0
VERTEX
  5
256
  8
TEAM-NET
 10
-797.175938
 20
-115.0
 30
850.0
 70
    64
  0
VERTEX
  5
257
  8
TEAM-NET
 10
-777.740751
 20
-115.0
 30
850.0
 70
    64
  0
VERTEX
  5
258
  8
TEAM-NET
 10
-758.305563
 20
-115.0
 30
850.0
 70
    64
  0
VERTEX
  5
259
  8
TEAM-NET
 10
-738.870375
 20
-115.0
 30
850.0
 70
    64
  0
VERTEX
  5
25A
  8
TEAM-NET
 10
-719.435188
 20
-115.0
 30
850.0
 70
    64
  0
VERTEX
  5
25B
  8
TEAM-NET
 10
-700.0
 20
-115.0
 30
850.0
 70
    64
  0
VERTEX
  5
25C
  8
TEAM-NET
 10
-680.564812
 20
-115.0
 30
850.0
 70
    64
  0
VERTEX
  5
25D
  8
TEAM-NET
 10
-661.129625
 20
-115.0
 30
850.0
 70
    64
  0
VERTEX
  5
25E
  8
TEAM-NET
 10
-641.694437
 20
-115.0
 30
850.0
 70
    64
  0
VERTEX
  5
25F
  8
TEAM-NET
 10
-622.259249
 20
-115.0
 30
850.0
 70
    64
  0
VERTEX
  5
260
  8
TEAM-NET
 10
-602.824062
 20
-115.0
 30
850.0
 70
    64
  0
VERTEX
  5
261
  8
TEAM-NET
 10
-583.388874
 20
-115.0
 30
850.0
 70
    64
  0
VERTEX
  5
262
  8
TEAM-NET
 10
-563.953686
 20
-115.0
 30
850.0
 70
    64
  0
VERTEX
  5
263
  8
TEAM-NET
 10
-544.518498
 20
-115.0
 30
850.0
 70
    64
  0
VERTEX
  5
264
  8
TEAM-NET
 10
-525.083311
 20
-115.0
 30
850.0
 70
    64
  0
VERTEX
  5
265
  8
TEAM-NET
 10
-505.648123
 20
-115.0
 30
850.0
 70
    64
  0
VERTEX
  5
266
  8
TEAM-NET
 10
-486.212935
 20
-115.0
 30
850.0
 70
    64
  0
VERTEX
  5
267
  8
TEAM-NET
 10
-466.777748
 20
-115.0
 30
850.0
 70
    64
  0
VERTEX
  5
268
  8
TEAM-NET
 10
-1050.0
 20
0.0
 30
850.0
 70
    64
  0
VERTEX
  5
269
  8
TEAM-NET
 10
-1020.833333
 20
0.0
 30
850.0
 70
    64
  0
VERTEX
  5
26A
  8
TEAM-NET
 10
-991.666667
 20
0.0
 30
850.0
 70
    64
  0
VERTEX
  5
26B
  8
TEAM-NET
 10
-962.5
 20
0.0
 30
850.0
 70
    64
  0
VERTEX
  5
26C
  8
TEAM-NET
 10
-933.333333
 20
0.0
 30
850.0
 70
    64
  0
VERTEX
  5
26D
  8
TEAM-NET
 10
-904.166667
 20
0.0
 30
850.0
 70
    64
  0
VERTEX
  5
26E
  8
TEAM-NET
 10
-875.0
 20
0.0
 30
850.0
 70
    64
  0
VERTEX
  5
26F
  8
TEAM-NET
 10
-845.833333
 20
0.0
 30
850.0
 70
    64
  0
VERTEX
  5
270
  8
TEAM-NET
 10
-816.666667
 20
0.0
 30
850.0
 70
    64
  0
VERTEX
  5
271
  8
TEAM-NET
 10
-787.5
 20
0.0
 30
850.0
 70
    64
  0
VERTEX
  5
272
  8
TEAM-NET
 10
-758.333333
 20
0.0
 30
850.0
 70
    64
  0
VERTEX
  5
273
  8
TEAM-NET
 10
-729.166667
 20
0.0
 30
850.0
 70
    64
  0
VERTEX
  5
274
  8
TEAM-NET
 10
-700.0
 20
0.0
 30
850.0
 70
    64
  0
VERTEX
  5
275
  8
TEAM-NET
 10
-670.833333
 20
0.0
 30
850.0
 70
    64
  0
VERTEX
  5
276
  8
TEAM-NET
 10
-641.666667
 20
0.0
 30
850.0
 70
    64
  0
VERTEX
  5
277
  8
TEAM-NET
 10
-612.5
 20
0.0
 30
850.0
 70
    64
  0
VERTEX
  5
278
  8
TEAM-NET
 10
-583.333333
 20
0.0
 30
850.0
 70
    64
  0
VERTEX
  5
279
  8
TEAM-NET
 10
-554.166667
 20
0.0
 30
850.0
 70
    64
  0
VERTEX
  5
27A
  8
TEAM-NET
 10
-525.0
 20
0.0
 30
850.0
 70
    64
  0
VERTEX
  5
27B
  8
TEAM-NET
 10
-495.833333
 20
0.0
 30
850.0
 70
    64
  0
VERTEX
  5
27C
  8
TEAM-NET
 10
-466.666667
 20
0.0
 30
850.0
 70
    64
  0
VERTEX
  5
27D
  8
TEAM-NET
 10
-437.5
 20
0.0
 30
850.0
 70
    64
  0
VERTEX
  5
27E
  8
TEAM-NET
 10
-408.333333
 20
0.0
 30
850.0
 70
    64
  0
VERTEX
  5
27F
  8
TEAM-NET
 10
-379.166667
 20
0.0
 30
850.0
 70
    64
  0
VERTEX
  5
280
  8
TEAM-NET
 10
-350.0
 20
0.0
 30
850.0
 70
    64
  0
SEQEND
  5
281
  8
TEAM-NET
  0
POLYLINE
  5
282
  8
TEAM-NET
 66
     1
 10
0.0
 20
0.0
 30
0.0
 70
    16
 71
     2
 72
    37
  0
VERTEX
  5
283
  8
TEAM-NET
 10
-933.222252
 20
-115.0
 30
850.0
 70
    64
  0
VERTEX
  5
284
  8
TEAM-NET
 10
-944.667356
 20
-141.958123
 30
850.0
 70
    64
  0
VERTEX
  5
285
  8
TEAM-NET
 10
-953.008041
 20
-170.032377
 30
850.0
 70
    64
  0
VERTEX
  5
286
  8
TEAM-NET
 10
-958.138478
 20
-198.866547
 30
850.0
 70
    64
  0
VERTEX
  5
287
  8
TEAM-NET
 10
-959.99357
 20
-228.094777
 30
850.0
 70
    64
  0
VERTEX
  5
288
  8
TEAM-NET
 10
-958.549778
 20
-257.346208
 30
850.0
 70
    64
  0
VERTEX
  5
289
  8
TEAM-NET
 10
-953.825424
 20
-286.24969
 30
850.0
 70
    64
  0
VERTEX
  5
28A
  8
TEAM-NET
 10
-945.880449
 20
-314.438485
 30
850.0
 70
    64
  0
VERTEX
  5
28B
  8
TEAM-NET
 10
-934.815664
 20
-341.554924
 30
850.0
 70
    64
  0
VERTEX
  5
28C
  8
TEAM-NET
 10
-920.771461
 20
-367.254947
 30
850.0
 70
    64
  0
VERTEX
  5
28D
  8
TEAM-NET
 10
-903.926038
 20
-391.212461
 30
850.0
 70
    64
  0
VERTEX
  5
28E
  8
TEAM-NET
 10
-884.493136
 20
-413.123487
 30
850.0
 70
    64
  0
VERTEX
  5
28F
  8
TEAM-NET
 10
-862.719324
 20
-432.710011
 30
850.0
 70
    64
  0
VERTEX
  5
290
  8
TEAM-NET
 10
-838.880877
 20
-449.723511
 30
850.0
 70
    64
  0
VERTEX
  5
291
  8
TEAM-NET
 10
-813.280264
 20
-463.948116
 30
850.0
 70
    64
  0
VERTEX
  5
292
  8
TEAM-NET
 10
-786.242314
 20
-475.203339
 30
850.0
 70
    64
  0
VERTEX
  5
293
  8
TEAM-NET
 10
-758.110094
 20
-483.34637
 30
850.0
 70
    64
  0
VERTEX
  5
294
  8
TEAM-NET
 10
-729.240554
 20
-488.273888
 30
850.0
 70
    64
  0
VERTEX
  5
295
  8
TEAM-NET
 10
-700.0
 20
-489.92337
 30
850.0
 70
    64
  0
VERTEX
  5
296
  8
TEAM-NET
 10
-670.759446
 20
-488.273888
 30
850.0
 70
    64
  0
VERTEX
  5
297
  8
TEAM-NET
 10
-641.889906
 20
-483.34637
 30
850.0
 70
    64
  0
VERTEX
  5
298
  8
TEAM-NET
 10
-613.757686
 20
-475.203339
 30
850.0
 70
    64
  0
VERTEX
  5
299
  8
TEAM-NET
 10
-586.719736
 20
-463.948116
 30
850.0
 70
    64
  0
VERTEX
  5
29A
  8
TEAM-NET
 10
-561.119123
 20
-449.723511
 30
850.0
 70
    64
  0
VERTEX
  5
29B
  8
TEAM-NET
 10
-537.280676
 20
-432.710011
 30
850.0
 70
    64
  0
VERTEX
  5
29C
  8
TEAM-NET
 10
-515.506864
 20
-413.123487
 30
850.0
 70
    64
  0
VERTEX
  5
29D
  8
TEAM-NET
 10
-496.073962
 20
-391.212461
 30
850.0
 70
    64
  0
VERTEX
  5
29E
  8
TEAM-NET
 10
-479.228539
 20
-367.254947
 30
850.0
 70
    64
  0
VERTEX
  5
29F
  8
TEAM-NET
 10
-465.184336
 20
-341.554924
 30
850.0
 70
    64
  0
VERTEX
  5
2A0
  8
TEAM-NET
 10
-454.119551
 20
-314.438485
 30
850.0
 70
    64
  0
VERTEX
  5
2A1
  8
TEAM-NET
 10
-446.174576
 20
-286.24969
 30
850.0
 70
    64
  0
VERTEX
  5
2A2
  8
TEAM-NET
 10
-441.450222
 20
-257.346208
 30
850.0
 70
    64
  0
VERTEX
  5
2A3
  8
TEAM-NET
 10
-440.00643
 20
-228.094777
 30
850.0
 70
    64
  0
VERTEX
  5
2A4
  8
TEAM-NET
 10
-441.861522
 20
-198.866547
 30
850.0
 70
    64
  0
VERTEX
  5
2A5
  8
TEAM-NET
 10
-446.991959
 20
-170.032377
 30
850.0
 70
    64
  0
VERTEX
  5
2A6
  8
TEAM-NET
 10
-455.332644
 20
-141.958123
 30
850.0
 70
    64
  0
VERTEX
  5
2A7
  8
TEAM-NET
 10
-466.777748
 20
-115.0
 30
850.0
 70
    64
  0
VERTEX
  5
2A8
  8
TEAM-NET
 10
-1050.0
 20
0.0
 30
850.0
 70
    64
  0
VERTEX
  5
2A9
  8
TEAM-NET
 10
-1050.0
 20
-48.888889
 30
850.0
 70
    64
  0
VERTEX
  5
2AA
  8
TEAM-NET
 10
-1050.0
 20
-97.777778
 30
850.0
 70
    64
  0
VERTEX
  5
2AB
  8
TEAM-NET
 10
-1050.0
 20
-146.666667
 30
850.0
 70
    64
  0
VERTEX
  5
2AC
  8
TEAM-NET
 10
-1050.0
 20
-195.555556
 30
850.0
 70
    64
  0
VERTEX
  5
2AD
  8
TEAM-NET
 10
-1050.0
 20
-244.444444
 30
850.0
 70
    64
  0
VERTEX
  5
2AE
  8
TEAM-NET
 10
-1050.0
 20
-293.333333
 30
850.0
 70
    64
  0
VERTEX
  5
2AF
  8
TEAM-NET
 10
-1050.0
 20
-342.222222
 30
850.0
 70
    64
  0
VERTEX
  5
2B0
  8
TEAM-NET
 10
-1050.0
 20
-391.111111
 30
850.0
 70
    64
  0
VERTEX
  5
2B1
  8
TEAM-NET
 10
-1050.0
 20
-440.0
 30
850.0
 70
    64
  0
VERTEX
  5
2B2
  8
TEAM-NET
 10
-1050.0
 20
-488.888889
 30
850.0
 70
    64
  0
VERTEX
  5
2B3
  8
TEAM-NET
 10
-1042.222222
 20
-530.0
 30
850.0
 70
    64
  0
VERTEX
  5
2B4
  8
TEAM-NET
 10
-993.333333
 20
-530.0
 30
850.0
 70
    64
  0
VERTEX
  5
2B5
  8
TEAM-NET
 10
-944.444444
 20
-530.0
 30
850.0
 70
    64
  0
VERTEX
  5
2B6
  8
TEAM-NET
 10
-895.555556
 20
-530.0
 30
850.0
 70
    64
  0
VERTEX
  5
2B7
  8
TEAM-NET
 10
-846.666667
 20
-530.0
 30
850.0
 70
    64
  0
VERTEX
  5
2B8
  8
TEAM-NET
 10
-797.777778
 20
-530.0
 30
850.0
 70
    64
  0
VERTEX
  5
2B9
  8
TEAM-NET
 10
-748.888889
 20
-530.0
 30
850.0
 70
    64
  0
VERTEX
  5
2BA
  8
TEAM-NET
 10
-700.0
 20
-530.0
 30
850.0
 70
    64
  0
VERTEX
  5
2BB
  8
TEAM-NET
 10
-651.111111
 20
-530.0
 30
850.0
 70
    64
  0
VERTEX
  5
2BC
  8
TEAM-NET
 10
-602.222222
 20
-530.0
 30
850.0
 70
    64
  0
VERTEX
  5
2BD
  8
TEAM-NET
 10
-553.333333
 20
-530.0
 30
850.0
 70
    64
  0
VERTEX
  5
2BE
  8
TEAM-NET
 10
-504.444444
 20
-530.0
 30
850.0
 70
    64
  0
VERTEX
  5
2BF
  8
TEAM-NET
 10
-455.555556
 20
-530.0
 30
850.0
 70
    64
  0
VERTEX
  5
2C0
  8
TEAM-NET
 10
-406.666667
 20
-530.0
 30
850.0
 70
    64
  0
VERTEX
  5
2C1
  8
TEAM-NET
 10
-357.777778
 20
-530.0
 30
850.0
 70
    64
  0
VERTEX
  5
2C2
  8
TEAM-NET
 10
-350.0
 20
-488.888889
 30
850.0
 70
    64
  0
VERTEX
  5
2C3
  8
TEAM-NET
 10
-350.0
 20
-440.0
 30
850.0
 70
    64
  0
VERTEX
  5
2C4
  8
TEAM-NET
 10
-350.0
 20
-391.111111
 30
850.0
 70
    64
  0
VERTEX
  5
2C5
  8
TEAM-NET
 10
-350.0
 20
-342.222222
 30
850.0
 70
    64
  0
VERTEX
  5
2C6
  8
TEAM-NET
 10
-350.0
 20
-293.333333
 30
850.0
 70
    64
  0
VERTEX
  5
2C7
  8
TEAM-NET
 10
-350.0
 20
-244.444444
 30
850.0
 70
    64
  0
VERTEX
  5
2C8
  8
TEAM-NET
 10
-350.0
 20
-195.555556
 30
850.0
 70
    64
  0
VERTEX
  5
2C9
  8
TEAM-NET
 10
-350.0
 20
-146.666667
 30
850.0
 70
    64
  0
VERTEX
  5
2CA
  8
TEAM-NET
 10
-350.0
 20
-97.777778
 30
850.0
 70
    64
  0
VERTEX
  5
2CB
  8
TEAM-NET
 10
-350.0
 20
-48.888889
 30
850.0
 70
    64
  0
VERTEX
  5
2CC
  8
TEAM-NET
 10
-350.0
 20
0.0
 30
850.0
 70
    64
  0
SEQEND
  5
2CD
  8
TEAM-NET
  0
ARC
  5
2CE
  8
TEAM-BODY
 10
-700.0
 20
-229.92337
 30
850.0
 40
260.0
 50
153.767613
 51
26.232387
  0
LINE
  5
2CF
  8
TEAM-DET1
 10
-350.0
 20
-10.0
 30
850.0
 11
-1050.0
 21
-10.0
 31
850.0
  0
POLYLINE
  5
2D0
  8
TEAM-DET3
 66
     1
 10
0.0
 20
0.0
 30
850.0
  0
VERTEX
  5
41E
  8
TEAM-DET3
 10
350.0
 20
0.0
 30
850.0
  0
VERTEX
  5
41F
  8
TEAM-DET3
 10
350.0
 20
-530.0
 30
850.0
  0
VERTEX
  5
420
  8
TEAM-DET3
 10
-350.0
 20
-530.0
 30
850.0
  0
VERTEX
  5
421
  8
TEAM-DET3
 10
-350.0
 20
0.0
 30
850.0
  0
SEQEND
  5
422
  8
TEAM-DET3
  0
POLYLINE
  5
2D1
  8
TEAM-NET
 66
     1
 10
0.0
 20
0.0
 30
0.0
 70
    16
 71
     2
 72
    25
  0
VERTEX
  5
2D2
  8
TEAM-NET
 10
-233.222252
 20
-115.0
 30
850.0
 70
    64
  0
VERTEX
  5
2D3
  8
TEAM-NET
 10
-213.787065
 20
-115.0
 30
850.0
 70
    64
  0
VERTEX
  5
2D4
  8
TEAM-NET
 10
-194.351877
 20
-115.0
 30
850.0
 70
    64
  0
VERTEX
  5
2D5
  8
TEAM-NET
 10
-174.916689
 20
-115.0
 30
850.0
 70
    64
  0
VERTEX
  5
2D6
  8
TEAM-NET
 10
-155.481502
 20
-115.0
 30
850.0
 70
    64
  0
VERTEX
  5
2D7
  8
TEAM-NET
 10
-136.046314
 20
-115.0
 30
850.0
 70
    64
  0
VERTEX
  5
2D8
  8
TEAM-NET
 10
-116.611126
 20
-115.0
 30
850.0
 70
    64
  0
VERTEX
  5
2D9
  8
TEAM-NET
 10
-97.175938
 20
-115.0
 30
850.0
 70
    64
  0
VERTEX
  5
2DA
  8
TEAM-NET
 10
-77.740751
 20
-115.0
 30
850.0
 70
    64
  0
VERTEX
  5
2DB
  8
TEAM-NET
 10
-58.305563
 20
-115.0
 30
850.0
 70
    64
  0
VERTEX
  5
2DC
  8
TEAM-NET
 10
-38.870375
 20
-115.0
 30
850.0
 70
    64
  0
VERTEX
  5
2DD
  8
TEAM-NET
 10
-19.435188
 20
-115.0
 30
850.0
 70
    64
  0
VERTEX
  5
2DE
  8
TEAM-NET
 10
0.0
 20
-115.0
 30
850.0
 70
    64
  0
VERTEX
  5
2DF
  8
TEAM-NET
 10
19.435188
 20
-115.0
 30
850.0
 70
    64
  0
VERTEX
  5
2E0
  8
TEAM-NET
 10
38.870375
 20
-115.0
 30
850.0
 70
    64
  0
VERTEX
  5
2E1
  8
TEAM-NET
 10
58.305563
 20
-115.0
 30
850.0
 70
    64
  0
VERTEX
  5
2E2
  8
TEAM-NET
 10
77.740751
 20
-115.0
 30
850.0
 70
    64
  0
VERTEX
  5
2E3
  8
TEAM-NET
 10
97.175938
 20
-115.0
 30
850.0
 70
    64
  0
VERTEX
  5
2E4
  8
TEAM-NET
 10
116.611126
 20
-115.0
 30
850.0
 70
    64
  0
VERTEX
  5
2E5
  8
TEAM-NET
 10
136.046314
 20
-115.0
 30
850.0
 70
    64
  0
VERTEX
  5
2E6
  8
TEAM-NET
 10
155.481502
 20
-115.0
 30
850.0
 70
    64
  0
VERTEX
  5
2E7
  8
TEAM-NET
 10
174.916689
 20
-115.0
 30
850.0
 70
    64
  0
VERTEX
  5
2E8
  8
TEAM-NET
 10
194.351877
 20
-115.0
 30
850.0
 70
    64
  0
VERTEX
  5
2E9
  8
TEAM-NET
 10
213.787065
 20
-115.0
 30
850.0
 70
    64
  0
VERTEX
  5
2EA
  8
TEAM-NET
 10
233.222252
 20
-115.0
 30
850.0
 70
    64
  0
VERTEX
  5
2EB
  8
TEAM-NET
 10
-350.0
 20
0.0
 30
850.0
 70
    64
  0
VERTEX
  5
2EC
  8
TEAM-NET
 10
-320.833333
 20
0.0
 30
850.0
 70
    64
  0
VERTEX
  5
2ED
  8
TEAM-NET
 10
-291.666667
 20
0.0
 30
850.0
 70
    64
  0
VERTEX
  5
2EE
  8
TEAM-NET
 10
-262.5
 20
0.0
 30
850.0
 70
    64
  0
VERTEX
  5
2EF
  8
TEAM-NET
 10
-233.333333
 20
0.0
 30
850.0
 70
    64
  0
VERTEX
  5
2F0
  8
TEAM-NET
 10
-204.166667
 20
0.0
 30
850.0
 70
    64
  0
VERTEX
  5
2F1
  8
TEAM-NET
 10
-175.0
 20
0.0
 30
850.0
 70
    64
  0
VERTEX
  5
2F2
  8
TEAM-NET
 10
-145.833333
 20
0.0
 30
850.0
 70
    64
  0
VERTEX
  5
2F3
  8
TEAM-NET
 10
-116.666667
 20
0.0
 30
850.0
 70
    64
  0
VERTEX
  5
2F4
  8
TEAM-NET
 10
-87.5
 20
0.0
 30
850.0
 70
    64
  0
VERTEX
  5
2F5
  8
TEAM-NET
 10
-58.333333
 20
0.0
 30
850.0
 70
    64
  0
VERTEX
  5
2F6
  8
TEAM-NET
 10
-29.166667
 20
0.0
 30
850.0
 70
    64
  0
VERTEX
  5
2F7
  8
TEAM-NET
 10
0.0
 20
0.0
 30
850.0
 70
    64
  0
VERTEX
  5
2F8
  8
TEAM-NET
 10
29.166667
 20
0.0
 30
850.0
 70
    64
  0
VERTEX
  5
2F9
  8
TEAM-NET
 10
58.333333
 20
0.0
 30
850.0
 70
    64
  0
VERTEX
  5
2FA
  8
TEAM-NET
 10
87.5
 20
0.0
 30
850.0
 70
    64
  0
VERTEX
  5
2FB
  8
TEAM-NET
 10
116.666667
 20
0.0
 30
850.0
 70
    64
  0
VERTEX
  5
2FC
  8
TEAM-NET
 10
145.833333
 20
0.0
 30
850.0
 70
    64
  0
VERTEX
  5
2FD
  8
TEAM-NET
 10
175.0
 20
0.0
 30
850.0
 70
    64
  0
VERTEX
  5
2FE
  8
TEAM-NET
 10
204.166667
 20
0.0
 30
850.0
 70
    64
  0
VERTEX
  5
2FF
  8
TEAM-NET
 10
233.333333
 20
0.0
 30
850.0
 70
    64
  0
VERTEX
  5
300
  8
TEAM-NET
 10
262.5
 20
0.0
 30
850.0
 70
    64
  0
VERTEX
  5
301
  8
TEAM-NET
 10
291.666667
 20
0.0
 30
850.0
 70
    64
  0
VERTEX
  5
302
  8
TEAM-NET
 10
320.833333
 20
0.0
 30
850.0
 70
    64
  0
VERTEX
  5
303
  8
TEAM-NET
 10
350.0
 20
0.0
 30
850.0
 70
    64
  0
SEQEND
  5
304
  8
TEAM-NET
  0
POLYLINE
  5
305
  8
TEAM-NET
 66
     1
 10
0.0
 20
0.0
 30
0.0
 70
    16
 71
     2
 72
    37
  0
VERTEX
  5
306
  8
TEAM-NET
 10
-233.222252
 20
-115.0
 30
850.0
 70
    64
  0
VERTEX
  5
307
  8
TEAM-NET
 10
-244.667356
 20
-141.958123
 30
850.0
 70
    64
  0
VERTEX
  5
308
  8
TEAM-NET
 10
-253.008041
 20
-170.032377
 30
850.0
 70
    64
  0
VERTEX
  5
309
  8
TEAM-NET
 10
-258.138478
 20
-198.866547
 30
850.0
 70
    64
  0
VERTEX
  5
30A
  8
TEAM-NET
 10
-259.99357
 20
-228.094777
 30
850.0
 70
    64
  0
VERTEX
  5
30B
  8
TEAM-NET
 10
-258.549778
 20
-257.346208
 30
850.0
 70
    64
  0
VERTEX
  5
30C
  8
TEAM-NET
 10
-253.825424
 20
-286.24969
 30
850.0
 70
    64
  0
VERTEX
  5
30D
  8
TEAM-NET
 10
-245.880449
 20
-314.438485
 30
850.0
 70
    64
  0
VERTEX
  5
30E
  8
TEAM-NET
 10
-234.815664
 20
-341.554924
 30
850.0
 70
    64
  0
VERTEX
  5
30F
  8
TEAM-NET
 10
-220.771461
 20
-367.254947
 30
850.0
 70
    64
  0
VERTEX
  5
310
  8
TEAM-NET
 10
-203.926038
 20
-391.212461
 30
850.0
 70
    64
  0
VERTEX
  5
311
  8
TEAM-NET
 10
-184.493136
 20
-413.123487
 30
850.0
 70
    64
  0
VERTEX
  5
312
  8
TEAM-NET
 10
-162.719324
 20
-432.710011
 30
850.0
 70
    64
  0
VERTEX
  5
313
  8
TEAM-NET
 10
-138.880877
 20
-449.723511
 30
850.0
 70
    64
  0
VERTEX
  5
314
  8
TEAM-NET
 10
-113.280264
 20
-463.948116
 30
850.0
 70
    64
  0
VERTEX
  5
315
  8
TEAM-NET
 10
-86.242314
 20
-475.203339
 30
850.0
 70
    64
  0
VERTEX
  5
316
  8
TEAM-NET
 10
-58.110094
 20
-483.34637
 30
850.0
 70
    64
  0
VERTEX
  5
317
  8
TEAM-NET
 10
-29.240554
 20
-488.273888
 30
850.0
 70
    64
  0
VERTEX
  5
318
  8
TEAM-NET
 10
0.0
 20
-489.92337
 30
850.0
 70
    64
  0
VERTEX
  5
319
  8
TEAM-NET
 10
29.240554
 20
-488.273888
 30
850.0
 70
    64
  0
VERTEX
  5
31A
  8
TEAM-NET
 10
58.110094
 20
-483.34637
 30
850.0
 70
    64
  0
VERTEX
  5
31B
  8
TEAM-NET
 10
86.242314
 20
-475.203339
 30
850.0
 70
    64
  0
VERTEX
  5
31C
  8
TEAM-NET
 10
113.280264
 20
-463.948116
 30
850.0
 70
    64
  0
VERTEX
  5
31D
  8
TEAM-NET
 10
138.880877
 20
-449.723511
 30
850.0
 70
    64
  0
VERTEX
  5
31E
  8
TEAM-NET
 10
162.719324
 20
-432.710011
 30
850.0
 70
    64
  0
VERTEX
  5
31F
  8
TEAM-NET
 10
184.493136
 20
-413.123487
 30
850.0
 70
    64
  0
VERTEX
  5
320
  8
TEAM-NET
 10
203.926038
 20
-391.212461
 30
850.0
 70
    64
  0
VERTEX
  5
321
  8
TEAM-NET
 10
220.771461
 20
-367.254947
 30
850.0
 70
    64
  0
VERTEX
  5
322
  8
TEAM-NET
 10
234.815664
 20
-341.554924
 30
850.0
 70
    64
  0
VERTEX
  5
323
  8
TEAM-NET
 10
245.880449
 20
-314.438485
 30
850.0
 70
    64
  0
VERTEX
  5
324
  8
TEAM-NET
 10
253.825424
 20
-286.24969
 30
850.0
 70
    64
  0
VERTEX
  5
325
  8
TEAM-NET
 10
258.549778
 20
-257.346208
 30
850.0
 70
    64
  0
VERTEX
  5
326
  8
TEAM-NET
 10
259.99357
 20
-228.094777
 30
850.0
 70
    64
  0
VERTEX
  5
327
  8
TEAM-NET
 10
258.138478
 20
-198.866547
 30
850.0
 70
    64
  0
VERTEX
  5
328
  8
TEAM-NET
 10
253.008041
 20
-170.032377
 30
850.0
 70
    64
  0
VERTEX
  5
329
  8
TEAM-NET
 10
244.667356
 20
-141.958123
 30
850.0
 70
    64
  0
VERTEX
  5
32A
  8
TEAM-NET
 10
233.222252
 20
-115.0
 30
850.0
 70
    64
  0
VERTEX
  5
32B
  8
TEAM-NET
 10
-350.0
 20
0.0
 30
850.0
 70
    64
  0
VERTEX
  5
32C
  8
TEAM-NET
 10
-350.0
 20
-48.888889
 30
850.0
 70
    64
  0
VERTEX
  5
32D
  8
TEAM-NET
 10
-350.0
 20
-97.777778
 30
850.0
 70
    64
  0
VERTEX
  5
32E
  8
TEAM-NET
 10
-350.0
 20
-146.666667
 30
850.0
 70
    64
  0
VERTEX
  5
32F
  8
TEAM-NET
 10
-350.0
 20
-195.555556
 30
850.0
 70
    64
  0
VERTEX
  5
330
  8
TEAM-NET
 10
-350.0
 20
-244.444444
 30
850.0
 70
    64
  0
VERTEX
  5
331
  8
TEAM-NET
 10
-350.0
 20
-293.333333
 30
850.0
 70
    64
  0
VERTEX
  5
332
  8
TEAM-NET
 10
-350.0
 20
-342.222222
 30
850.0
 70
    64
  0
VERTEX
  5
333
  8
TEAM-NET
 10
-350.0
 20
-391.111111
 30
850.0
 70
    64
  0
VERTEX
  5
334
  8
TEAM-NET
 10
-350.0
 20
-440.0
 30
850.0
 70
    64
  0
VERTEX
  5
335
  8
TEAM-NET
 10
-350.0
 20
-488.888889
 30
850.0
 70
    64
  0
VERTEX
  5
336
  8
TEAM-NET
 10
-342.222222
 20
-530.0
 30
850.0
 70
    64
  0
VERTEX
  5
337
  8
TEAM-NET
 10
-293.333333
 20
-530.0
 30
850.0
 70
    64
  0
VERTEX
  5
338
  8
TEAM-NET
 10
-244.444444
 20
-530.0
 30
850.0
 70
    64
  0
VERTEX
  5
339
  8
TEAM-NET
 10
-195.555556
 20
-530.0
 30
850.0
 70
    64
  0
VERTEX
  5
33A
  8
TEAM-NET
 10
-146.666667
 20
-530.0
 30
850.0
 70
    64
  0
VERTEX
  5
33B
  8
TEAM-NET
 10
-97.777778
 20
-530.0
 30
850.0
 70
    64
  0
VERTEX
  5
33C
  8
TEAM-NET
 10
-48.888889
 20
-530.0
 30
850.0
 70
    64
  0
VERTEX
  5
33D
  8
TEAM-NET
 10
0.0
 20
-530.0
 30
850.0
 70
    64
  0
VERTEX
  5
33E
  8
TEAM-NET
 10
48.888889
 20
-530.0
 30
850.0
 70
    64
  0
VERTEX
  5
33F
  8
TEAM-NET
 10
97.777778
 20
-530.0
 30
850.0
 70
    64
  0
VERTEX
  5
340
  8
TEAM-NET
 10
146.666667
 20
-530.0
 30
850.0
 70
    64
  0
VERTEX
  5
341
  8
TEAM-NET
 10
195.555556
 20
-530.0
 30
850.0
 70
    64
  0
VERTEX
  5
342
  8
TEAM-NET
 10
244.444444
 20
-530.0
 30
850.0
 70
    64
  0
VERTEX
  5
343
  8
TEAM-NET
 10
293.333333
 20
-530.0
 30
850.0
 70
    64
  0
VERTEX
  5
344
  8
TEAM-NET
 10
342.222222
 20
-530.0
 30
850.0
 70
    64
  0
VERTEX
  5
345
  8
TEAM-NET
 10
350.0
 20
-488.888889
 30
850.0
 70
    64
  0
VERTEX
  5
346
  8
TEAM-NET
 10
350.0
 20
-440.0
 30
850.0
 70
    64
  0
VERTEX
  5
347
  8
TEAM-NET
 10
350.0
 20
-391.111111
 30
850.0
 70
    64
  0
VERTEX
  5
348
  8
TEAM-NET
 10
350.0
 20
-342.222222
 30
850.0
 70
    64
  0
VERTEX
  5
349
  8
TEAM-NET
 10
350.0
 20
-293.333333
 30
850.0
 70
    64
  0
VERTEX
  5
34A
  8
TEAM-NET
 10
350.0
 20
-244.444444
 30
850.0
 70
    64
  0
VERTEX
  5
34B
  8
TEAM-NET
 10
350.0
 20
-195.555556
 30
850.0
 70
    64
  0
VERTEX
  5
34C
  8
TEAM-NET
 10
350.0
 20
-146.666667
 30
850.0
 70
    64
  0
VERTEX
  5
34D
  8
TEAM-NET
 10
350.0
 20
-97.777778
 30
850.0
 70
    64
  0
VERTEX
  5
34E
  8
TEAM-NET
 10
350.0
 20
-48.888889
 30
850.0
 70
    64
  0
VERTEX
  5
34F
  8
TEAM-NET
 10
350.0
 20
0.0
 30
850.0
 70
    64
  0
SEQEND
  5
350
  8
TEAM-NET
  0
LINE
  5
351
  8
TEAM-BODY
 10
-466.777748
 20
-115.0
 30
850.0
 11
-933.222252
 21
-115.0
 31
850.0
  0
LINE
  5
352
  8
TEAM-BODY
 10
233.222252
 20
-115.0
 30
850.0
 11
-233.222252
 21
-115.0
 31
850.0
  0
TEXT
  5
353
  8
TEAM-TXT
 10
-808.836879
 20
-374.287499
 30
850.0
 40
30.0
  1
team 421423
 41
0.8
 51
15.0
  7
TEAM
  0
ARC
  5
356
  8
TEAM-BODY
 10
0.0
 20
-229.92337
 30
850.0
 40
260.0
 50
153.767613
 51
26.232387
  0
CIRCLE
  5
357
  8
TEAM-DET1
 10
0.0
 20
-60.815148
 30
850.0
 40
17.5
  0
CIRCLE
  5
358
  8
TEAM-DET1
 10
-700.0
 20
-60.815148
 30
850.0
 40
17.5
  0
LINE
  5
359
  8
TEAM-DET1
 10
350.0
 20
-10.0
 30
850.0
 11
-350.0
 21
-10.0
 31
850.0
  0
CIRCLE
  5
35A
  8
TEAM-DET1
 10
700.0
 20
-60.815148
 30
850.0
 40
17.5
  0
ENDSEC
  0
EOF
