  0
SECTION
  2
HEADER
  9
$ACADVER
  1
AC1009
  9
$INSBASE
 10
0.0
 20
0.0
 30
0.0
  9
$EXTMIN
 10
-353.697067
 20
-673.362362
 30
-0.00035
  9
$EXTMAX
 10
353.691393
 20
20.046497
 30
1100.047484
  9
$LIMMIN
 10
-353.697067
 20
-673.362362
  9
$LIMMAX
 10
353.691393
 20
20.046497
  9
$ORTHOMODE
 70
     0
  9
$REGENMODE
 70
     1
  9
$FILLMODE
 70
     1
  9
$QTEXTMODE
 70
     0
  9
$MIRRTEXT
 70
     0
  9
$DRAGMODE
 70
     2
  9
$LTSCALE
 40
25.0
  9
$OSMODE
 70
     0
  9
$ATTMODE
 70
     1
  9
$TEXTSIZE
 40
200.0
  9
$TRACEWID
 40
1.0
  9
$TEXTSTYLE
  7
STANDARD
  9
$CLAYER
  8
0
  9
$CELTYPE
  6
BYLAYER
  9
$CECOLOR
 62
   256
  9
$DIMSCALE
 40
0.0
  9
$DIMASZ
 40
20.0
  9
$DIMEXO
 40
10.0
  9
$DIMDLI
 40
1.0
  9
$DIMRND
 40
0.0
  9
$DIMDLE
 40
0.0
  9
$DIMEXE
 40
1.0
  9
$DIMTP
 40
0.0
  9
$DIMTM
 40
0.0
  9
$DIMTXT
 40
35.0
  9
$DIMCEN
 40
1.0
  9
$DIMTSZ
 40
0.0
  9
$DIMTOL
 70
     0
  9
$DIMLIM
 70
     0
  9
$DIMTIH
 70
     0
  9
$DIMTOH
 70
     0
  9
$DIMSE1
 70
     0
  9
$DIMSE2
 70
     0
  9
$DIMTAD
 70
     0
  9
$DIMZIN
 70
     0
  9
$DIMBLK
  1

  9
$DIMASO
 70
     1
  9
$DIMSHO
 70
     0
  9
$DIMPOST
  1

  9
$DIMAPOST
  1

  9
$DIMALT
 70
     0
  9
$DIMALTD
 70
     2
  9
$DIMALTF
 40
25.4
  9
$DIMLFAC
 40
1.0
  9
$DIMTOFL
 70
     0
  9
$DIMTVP
 40
0.0
  9
$DIMTIX
 70
     0
  9
$DIMSOXD
 70
     0
  9
$DIMSAH
 70
     0
  9
$DIMBLK1
  1

  9
$DIMBLK2
  1

  9
$DIMSTYLE
  2
TEAM
  9
$DIMCLRD
 70
     9
  9
$DIMCLRE
 70
     9
  9
$DIMCLRT
 70
    11
  9
$DIMTFAC
 40
1.0
  9
$DIMGAP
 40
15.0
  9
$LUNITS
 70
     2
  9
$LUPREC
 70
     1
  9
$SKETCHINC
 40
1.0
  9
$FILLETRAD
 40
50.0
  9
$AUNITS
 70
     0
  9
$AUPREC
 70
     0
  9
$MENU
  1
ROPLANS
  9
$ELEVATION
 40
0.0
  9
$PELEVATION
 40
0.0
  9
$THICKNESS
 40
0.0
  9
$LIMCHECK
 70
     0
  9
$BLIPMODE
 70
     1
  9
$CHAMFERA
 40
0.0
  9
$CHAMFERB
 40
0.0
  9
$SKPOLY
 70
     0
  9
$TDCREATE
 40
2450392.957851
  9
$TDUPDATE
 40
2455526.756388
  9
$TDINDWG
 40
1.964545
  9
$TDUSRTIMER
 40
1.964545
  9
$USRTIMER
 70
     1
  9
$ANGBASE
 50
0.0
  9
$ANGDIR
 70
     0
  9
$PDMODE
 70
     0
  9
$PDSIZE
 40
0.0
  9
$PLINEWID
 40
0.0
  9
$COORDS
 70
     2
  9
$SPLFRAME
 70
     0
  9
$SPLINETYPE
 70
     6
  9
$SPLINESEGS
 70
     8
  9
$ATTDIA
 70
     0
  9
$ATTREQ
 70
     0
  9
$HANDLING
 70
     1
  9
$HANDSEED
  5
35E
  9
$SURFTAB1
 70
    24
  9
$SURFTAB2
 70
    24
  9
$SURFTYPE
 70
     6
  9
$SURFU
 70
     6
  9
$SURFV
 70
     6
  9
$UCSNAME
  2

  9
$UCSORG
 10
0.0
 20
0.0
 30
0.0
  9
$UCSXDIR
 10
1.0
 20
0.0
 30
0.0
  9
$UCSYDIR
 10
0.0
 20
1.0
 30
0.0
  9
$PUCSNAME
  2

  9
$PUCSORG
 10
0.0
 20
0.0
 30
0.0
  9
$PUCSXDIR
 10
1.0
 20
0.0
 30
0.0
  9
$PUCSYDIR
 10
0.0
 20
1.0
 30
0.0
  9
$USERI1
 70
     0
  9
$USERI2
 70
     0
  9
$USERI3
 70
     0
  9
$USERI4
 70
     0
  9
$USERI5
 70
     0
  9
$USERR1
 40
0.0
  9
$USERR2
 40
0.0
  9
$USERR3
 40
0.0
  9
$USERR4
 40
0.0
  9
$USERR5
 40
0.0
  9
$WORLDVIEW
 70
     1
  9
$SHADEDGE
 70
     0
  9
$SHADEDIF
 70
    70
  9
$TILEMODE
 70
     1
  9
$MAXACTVP
 70
    16
  9
$PLIMCHECK
 70
     0
  9
$PEXTMIN
 10
-0.805942
 20
0.005011
 30
0.0
  9
$PEXTMAX
 10
20.392854
 20
13.725274
 30
0.0
  9
$PLIMMIN
 10
0.0
 20
0.0
  9
$PLIMMAX
 10
12.0
 20
9.0
  9
$UNITMODE
 70
     0
  9
$VISRETAIN
 70
     0
  9
$PLINEGEN
 70
     0
  9
$PSLTSCALE
 70
     0
  0
ENDSEC
  0
SECTION
  2
TABLES
  0
TABLE
  2
VPORT
 70
     2
  0
VPORT
  2
*ACTIVE
 70
     0
 10
0.0
 20
0.0
 11
1.0
 21
1.0
 12
-0.002837
 22
-326.657933
 13
0.0
 23
0.0
 14
1.0
 24
1.0
 15
50.0
 25
50.0
 16
0.0
 26
0.0
 36
1.0
 17
0.0
 27
0.0
 37
0.0
 40
697.667255
 41
1.865779
 42
50.0
 43
0.0
 44
0.0
 50
0.0
 51
0.0
 71
     0
 72
   100
 73
     1
 74
     1
 75
     0
 76
     0
 77
     0
 78
     0
  0
ENDTAB
  0
TABLE
  2
LTYPE
 70
     2
  0
LTYPE
  2
CONTINUOUS
 70
     0
  3
Solid Line
 72
    65
 73
     0
 40
0.0
  0
LTYPE
  2
31
 70
     0
  3

 72
    65
 73
     4
 40
2.1
 49
1.5
 49
-0.3
 49
0.0
 49
-0.3
  0
ENDTAB
  0
TABLE
  2
LAYER
 70
     9
  0
LAYER
  2
0
 70
     0
 62
     7
  6
CONTINUOUS
  0
LAYER
  2
TEAM-BODY
 70
     0
 62
     2
  6
CONTINUOUS
  0
LAYER
  2
TEAM-AXE
 70
     0
 62
    10
  6
31
  0
LAYER
  2
TEAM-TXT
 70
     0
 62
    11
  6
CONTINUOUS
  0
LAYER
  2
TEAM-DET1
 70
     0
 62
     4
  6
CONTINUOUS
  0
LAYER
  2
TEAM-COLD
 70
     0
 62
     3
  6
CONTINUOUS
  0
LAYER
  2
TEAM-WARM
 70
     0
 62
     1
  6
CONTINUOUS
  0
LAYER
  2
TEAM-NET
 70
     0
 62
    15
  6
CONTINUOUS
  0
LAYER
  2
TEAM-INSP
 70
     0
 62
     5
  6
CONTINUOUS
  0
ENDTAB
  0
TABLE
  2
STYLE
 70
     2
  0
STYLE
  2
STANDARD
 70
     0
 40
0.0
 41
1.0
 50
0.0
 71
     0
 42
200.0
  3
txt
  4

  0
STYLE
  2
TEAM
 70
     0
 40
0.0
 41
0.8
 50
15.0
 71
     0
 42
7.0
  3
ROMANS.shx
  4

  0
ENDTAB
  0
TABLE
  2
VIEW
 70
     0
  0
ENDTAB
  0
TABLE
  2
UCS
 70
     0
  0
ENDTAB
  0
TABLE
  2
APPID
 70
     1
  0
APPID
  2
ACAD
 70
     0
  0
ENDTAB
  0
TABLE
  2
DIMSTYLE
 70
     1
  0
DIMSTYLE
  2
TEAM
 70
     0
  3

  4

  5

  6

  7

 40
0.0
 41
20.0
 42
10.0
 43
1.0
 44
1.0
 45
0.0
 46
0.0
 47
0.0
 48
0.0
140
35.0
141
1.0
142
0.0
143
25.4
144
1.0
145
0.0
146
1.0
147
15.0
 71
     0
 72
     0
 73
     0
 74
     0
 75
     0
 76
     0
 77
     0
 78
     0
170
     0
171
     2
172
     0
173
     0
174
     0
175
     0
176
     9
177
     9
178
    11
  0
ENDTAB
  0
ENDSEC
  0
SECTION
  2
BLOCKS
  0
BLOCK
  8
0
  2
$MODEL_SPACE
 70
     0
 10
0.0
 20
0.0
 30
0.0
  3
$MODEL_SPACE
  1

  0
ENDBLK
  5
328
  8
0
  0
BLOCK
 67
     1
  8
0
  2
$PAPER_SPACE
 70
     0
 10
0.0
 20
0.0
 30
0.0
  3
$PAPER_SPACE
  1

  0
ENDBLK
  5
326
 67
     1
  8
0
  0
ENDSEC
  0
SECTION
  2
ENTITIES
  0
POLYLINE
  5
1F
  8
TEAM-NET
 66
     1
 10
0.0
 20
0.0
 30
0.0
 70
    16
 71
     2
 72
    37
  0
VERTEX
  5
20
  8
TEAM-NET
 10
315.0
 20
-427.690629
 30
800.0
 70
    64
  0
VERTEX
  5
21
  8
TEAM-NET
 10
315.0
 20
-396.174919
 30
800.0
 70
    64
  0
VERTEX
  5
22
  8
TEAM-NET
 10
316.112234
 20
-364.693471
 30
800.0
 70
    64
  0
VERTEX
  5
23
  8
TEAM-NET
 10
315.295731
 20
-333.201387
 30
800.0
 70
    64
  0
VERTEX
  5
24
  8
TEAM-NET
 10
311.349678
 20
-301.94684
 30
800.0
 70
    64
  0
VERTEX
  5
25
  8
TEAM-NET
 10
304.313244
 20
-271.240055
 30
800.0
 70
    64
  0
VERTEX
  5
26
  8
TEAM-NET
 10
294.256271
 20
-241.385821
 30
800.0
 70
    64
  0
VERTEX
  5
27
  8
TEAM-NET
 10
281.27858
 20
-212.680462
 30
800.0
 70
    64
  0
VERTEX
  5
28
  8
TEAM-NET
 10
265.508987
 20
-185.408902
 30
800.0
 70
    64
  0
VERTEX
  5
29
  8
TEAM-NET
 10
247.104017
 20
-159.841832
 30
800.0
 70
    64
  0
VERTEX
  5
2A
  8
TEAM-NET
 10
226.246351
 20
-136.233024
 30
800.0
 70
    64
  0
VERTEX
  5
2B
  8
TEAM-NET
 10
203.143019
 20
-114.816813
 30
800.0
 70
    64
  0
VERTEX
  5
2C
  8
TEAM-NET
 10
178.023339
 20
-95.805772
 30
800.0
 70
    64
  0
VERTEX
  5
2D
  8
TEAM-NET
 10
151.136642
 20
-79.388599
 30
800.0
 70
    64
  0
VERTEX
  5
2E
  8
TEAM-NET
 10
122.749799
 20
-65.728247
 30
800.0
 70
    64
  0
VERTEX
  5
2F
  8
TEAM-NET
 10
93.144572
 20
-54.960306
 30
800.0
 70
    64
  0
VERTEX
  5
30
  8
TEAM-NET
 10
62.614814
 20
-47.191656
 30
800.0
 70
    64
  0
VERTEX
  5
31
  8
TEAM-NET
 10
31.463557
 20
-42.499406
 30
800.0
 70
    64
  0
VERTEX
  5
32
  8
TEAM-NET
 10
0.0
 20
-40.93013
 30
800.0
 70
    64
  0
VERTEX
  5
33
  8
TEAM-NET
 10
-31.463557
 20
-42.499406
 30
800.0
 70
    64
  0
VERTEX
  5
34
  8
TEAM-NET
 10
-62.614814
 20
-47.191656
 30
800.0
 70
    64
  0
VERTEX
  5
35
  8
TEAM-NET
 10
-93.144572
 20
-54.960306
 30
800.0
 70
    64
  0
VERTEX
  5
36
  8
TEAM-NET
 10
-122.749799
 20
-65.728247
 30
800.0
 70
    64
  0
VERTEX
  5
37
  8
TEAM-NET
 10
-151.136642
 20
-79.388599
 30
800.0
 70
    64
  0
VERTEX
  5
38
  8
TEAM-NET
 10
-178.023339
 20
-95.805772
 30
800.0
 70
    64
  0
VERTEX
  5
39
  8
TEAM-NET
 10
-203.143019
 20
-114.816813
 30
800.0
 70
    64
  0
VERTEX
  5
3A
  8
TEAM-NET
 10
-226.246351
 20
-136.233024
 30
800.0
 70
    64
  0
VERTEX
  5
3B
  8
TEAM-NET
 10
-247.104017
 20
-159.841832
 30
800.0
 70
    64
  0
VERTEX
  5
3C
  8
TEAM-NET
 10
-265.508987
 20
-185.408902
 30
800.0
 70
    64
  0
VERTEX
  5
3D
  8
TEAM-NET
 10
-281.27858
 20
-212.680462
 30
800.0
 70
    64
  0
VERTEX
  5
3E
  8
TEAM-NET
 10
-294.256271
 20
-241.385821
 30
800.0
 70
    64
  0
VERTEX
  5
3F
  8
TEAM-NET
 10
-304.313244
 20
-271.240055
 30
800.0
 70
    64
  0
VERTEX
  5
40
  8
TEAM-NET
 10
-311.349678
 20
-301.94684
 30
800.0
 70
    64
  0
VERTEX
  5
41
  8
TEAM-NET
 10
-315.295731
 20
-333.201387
 30
800.0
 70
    64
  0
VERTEX
  5
42
  8
TEAM-NET
 10
-316.112234
 20
-364.693471
 30
800.0
 70
    64
  0
VERTEX
  5
43
  8
TEAM-NET
 10
-315.0
 20
-396.174919
 30
800.0
 70
    64
  0
VERTEX
  5
44
  8
TEAM-NET
 10
-315.0
 20
-427.690629
 30
800.0
 70
    64
  0
VERTEX
  5
45
  8
TEAM-NET
 10
315.0
 20
-427.690629
 30
590.0
 70
    64
  0
VERTEX
  5
46
  8
TEAM-NET
 10
315.0
 20
-396.174919
 30
590.0
 70
    64
  0
VERTEX
  5
47
  8
TEAM-NET
 10
316.112234
 20
-364.693471
 30
590.0
 70
    64
  0
VERTEX
  5
48
  8
TEAM-NET
 10
315.295731
 20
-333.201387
 30
590.0
 70
    64
  0
VERTEX
  5
49
  8
TEAM-NET
 10
311.349678
 20
-301.94684
 30
590.0
 70
    64
  0
VERTEX
  5
4A
  8
TEAM-NET
 10
304.313244
 20
-271.240055
 30
590.0
 70
    64
  0
VERTEX
  5
4B
  8
TEAM-NET
 10
294.256271
 20
-241.385821
 30
590.0
 70
    64
  0
VERTEX
  5
4C
  8
TEAM-NET
 10
281.27858
 20
-212.680462
 30
590.0
 70
    64
  0
VERTEX
  5
4D
  8
TEAM-NET
 10
265.508987
 20
-185.408902
 30
590.0
 70
    64
  0
VERTEX
  5
4E
  8
TEAM-NET
 10
247.104017
 20
-159.841832
 30
590.0
 70
    64
  0
VERTEX
  5
4F
  8
TEAM-NET
 10
226.246351
 20
-136.233024
 30
590.0
 70
    64
  0
VERTEX
  5
50
  8
TEAM-NET
 10
203.143019
 20
-114.816813
 30
590.0
 70
    64
  0
VERTEX
  5
51
  8
TEAM-NET
 10
178.023339
 20
-95.805772
 30
590.0
 70
    64
  0
VERTEX
  5
52
  8
TEAM-NET
 10
151.136642
 20
-79.388599
 30
590.0
 70
    64
  0
VERTEX
  5
53
  8
TEAM-NET
 10
122.749799
 20
-65.728247
 30
590.0
 70
    64
  0
VERTEX
  5
54
  8
TEAM-NET
 10
93.144572
 20
-54.960306
 30
590.0
 70
    64
  0
VERTEX
  5
55
  8
TEAM-NET
 10
62.614814
 20
-47.191656
 30
590.0
 70
    64
  0
VERTEX
  5
56
  8
TEAM-NET
 10
31.463557
 20
-42.499406
 30
590.0
 70
    64
  0
VERTEX
  5
57
  8
TEAM-NET
 10
0.0
 20
-40.93013
 30
590.0
 70
    64
  0
VERTEX
  5
58
  8
TEAM-NET
 10
-31.463557
 20
-42.499406
 30
590.0
 70
    64
  0
VERTEX
  5
59
  8
TEAM-NET
 10
-62.614814
 20
-47.191656
 30
590.0
 70
    64
  0
VERTEX
  5
5A
  8
TEAM-NET
 10
-93.144572
 20
-54.960306
 30
590.0
 70
    64
  0
VERTEX
  5
5B
  8
TEAM-NET
 10
-122.749799
 20
-65.728247
 30
590.0
 70
    64
  0
VERTEX
  5
5C
  8
TEAM-NET
 10
-151.136642
 20
-79.388599
 30
590.0
 70
    64
  0
VERTEX
  5
5D
  8
TEAM-NET
 10
-178.023339
 20
-95.805772
 30
590.0
 70
    64
  0
VERTEX
  5
5E
  8
TEAM-NET
 10
-203.143019
 20
-114.816813
 30
590.0
 70
    64
  0
VERTEX
  5
5F
  8
TEAM-NET
 10
-226.246351
 20
-136.233024
 30
590.0
 70
    64
  0
VERTEX
  5
60
  8
TEAM-NET
 10
-247.104017
 20
-159.841832
 30
590.0
 70
    64
  0
VERTEX
  5
61
  8
TEAM-NET
 10
-265.508987
 20
-185.408902
 30
590.0
 70
    64
  0
VERTEX
  5
62
  8
TEAM-NET
 10
-281.27858
 20
-212.680462
 30
590.0
 70
    64
  0
VERTEX
  5
63
  8
TEAM-NET
 10
-294.256271
 20
-241.385821
 30
590.0
 70
    64
  0
VERTEX
  5
64
  8
TEAM-NET
 10
-304.313244
 20
-271.240055
 30
590.0
 70
    64
  0
VERTEX
  5
65
  8
TEAM-NET
 10
-311.349678
 20
-301.94684
 30
590.0
 70
    64
  0
VERTEX
  5
66
  8
TEAM-NET
 10
-315.295731
 20
-333.201387
 30
590.0
 70
    64
  0
VERTEX
  5
67
  8
TEAM-NET
 10
-316.112234
 20
-364.693471
 30
590.0
 70
    64
  0
VERTEX
  5
68
  8
TEAM-NET
 10
-315.0
 20
-396.174919
 30
590.0
 70
    64
  0
VERTEX
  5
69
  8
TEAM-NET
 10
-315.0
 20
-427.690629
 30
590.0
 70
    64
  0
SEQEND
  5
6B
  8
TEAM-NET
  0
POLYLINE
  5
6C
  8
TEAM-NET
 66
     1
 10
0.0
 20
0.0
 30
0.0
 70
    16
 71
     2
 72
    37
  0
VERTEX
  5
6D
  8
TEAM-NET
 10
315.0
 20
-427.690629
 30
800.0
 70
    64
  0
VERTEX
  5
6E
  8
TEAM-NET
 10
307.229695
 20
-443.515753
 30
800.0
 70
    64
  0
VERTEX
  5
6F
  8
TEAM-NET
 10
290.046502
 20
-449.04902
 30
800.0
 70
    64
  0
VERTEX
  5
70
  8
TEAM-NET
 10
272.141923
 20
-452.619996
 30
800.0
 70
    64
  0
VERTEX
  5
71
  8
TEAM-NET
 10
254.237343
 20
-456.190971
 30
800.0
 70
    64
  0
VERTEX
  5
72
  8
TEAM-NET
 10
236.332764
 20
-459.761947
 30
800.0
 70
    64
  0
VERTEX
  5
73
  8
TEAM-NET
 10
218.428184
 20
-463.332922
 30
800.0
 70
    64
  0
VERTEX
  5
74
  8
TEAM-NET
 10
200.523605
 20
-466.903898
 30
800.0
 70
    64
  0
VERTEX
  5
75
  8
TEAM-NET
 10
182.572132
 20
-470.0
 30
800.0
 70
    64
  0
VERTEX
  5
76
  8
TEAM-NET
 10
164.314918
 20
-470.0
 30
800.0
 70
    64
  0
VERTEX
  5
77
  8
TEAM-NET
 10
146.057705
 20
-470.0
 30
800.0
 70
    64
  0
VERTEX
  5
78
  8
TEAM-NET
 10
127.800492
 20
-470.0
 30
800.0
 70
    64
  0
VERTEX
  5
79
  8
TEAM-NET
 10
109.543279
 20
-470.0
 30
800.0
 70
    64
  0
VERTEX
  5
7A
  8
TEAM-NET
 10
91.286066
 20
-470.0
 30
800.0
 70
    64
  0
VERTEX
  5
7B
  8
TEAM-NET
 10
73.028853
 20
-470.0
 30
800.0
 70
    64
  0
VERTEX
  5
7C
  8
TEAM-NET
 10
54.771639
 20
-470.0
 30
800.0
 70
    64
  0
VERTEX
  5
7D
  8
TEAM-NET
 10
36.514426
 20
-470.0
 30
800.0
 70
    64
  0
VERTEX
  5
7E
  8
TEAM-NET
 10
18.257213
 20
-470.0
 30
800.0
 70
    64
  0
VERTEX
  5
7F
  8
TEAM-NET
 10
0.0
 20
-470.0
 30
800.0
 70
    64
  0
VERTEX
  5
80
  8
TEAM-NET
 10
-18.257213
 20
-470.0
 30
800.0
 70
    64
  0
VERTEX
  5
81
  8
TEAM-NET
 10
-36.514426
 20
-470.0
 30
800.0
 70
    64
  0
VERTEX
  5
82
  8
TEAM-NET
 10
-54.771639
 20
-470.0
 30
800.0
 70
    64
  0
VERTEX
  5
83
  8
TEAM-NET
 10
-73.028853
 20
-470.0
 30
800.0
 70
    64
  0
VERTEX
  5
84
  8
TEAM-NET
 10
-91.286066
 20
-470.0
 30
800.0
 70
    64
  0
VERTEX
  5
85
  8
TEAM-NET
 10
-109.543279
 20
-470.0
 30
800.0
 70
    64
  0
VERTEX
  5
86
  8
TEAM-NET
 10
-127.800492
 20
-470.0
 30
800.0
 70
    64
  0
VERTEX
  5
87
  8
TEAM-NET
 10
-146.057705
 20
-470.0
 30
800.0
 70
    64
  0
VERTEX
  5
88
  8
TEAM-NET
 10
-164.314918
 20
-470.0
 30
800.0
 70
    64
  0
VERTEX
  5
89
  8
TEAM-NET
 10
-182.572132
 20
-470.0
 30
800.0
 70
    64
  0
VERTEX
  5
8A
  8
TEAM-NET
 10
-200.523605
 20
-466.903898
 30
800.0
 70
    64
  0
VERTEX
  5
8B
  8
TEAM-NET
 10
-218.428184
 20
-463.332922
 30
800.0
 70
    64
  0
VERTEX
  5
8C
  8
TEAM-NET
 10
-236.332764
 20
-459.761947
 30
800.0
 70
    64
  0
VERTEX
  5
8D
  8
TEAM-NET
 10
-254.237343
 20
-456.190971
 30
800.0
 70
    64
  0
VERTEX
  5
8E
  8
TEAM-NET
 10
-272.141923
 20
-452.619996
 30
800.0
 70
    64
  0
VERTEX
  5
8F
  8
TEAM-NET
 10
-290.046502
 20
-449.04902
 30
800.0
 70
    64
  0
VERTEX
  5
90
  8
TEAM-NET
 10
-307.229695
 20
-443.515753
 30
800.0
 70
    64
  0
VERTEX
  5
91
  8
TEAM-NET
 10
-315.0
 20
-427.690629
 30
800.0
 70
    64
  0
VERTEX
  5
92
  8
TEAM-NET
 10
315.0
 20
-427.690629
 30
590.0
 70
    64
  0
VERTEX
  5
93
  8
TEAM-NET
 10
307.229695
 20
-443.515753
 30
590.0
 70
    64
  0
VERTEX
  5
94
  8
TEAM-NET
 10
290.046502
 20
-449.04902
 30
590.0
 70
    64
  0
VERTEX
  5
95
  8
TEAM-NET
 10
272.141923
 20
-452.619996
 30
590.0
 70
    64
  0
VERTEX
  5
96
  8
TEAM-NET
 10
254.237343
 20
-456.190971
 30
590.0
 70
    64
  0
VERTEX
  5
97
  8
TEAM-NET
 10
236.332764
 20
-459.761947
 30
590.0
 70
    64
  0
VERTEX
  5
98
  8
TEAM-NET
 10
218.428184
 20
-463.332922
 30
590.0
 70
    64
  0
VERTEX
  5
99
  8
TEAM-NET
 10
200.523605
 20
-466.903898
 30
590.0
 70
    64
  0
VERTEX
  5
9A
  8
TEAM-NET
 10
182.572132
 20
-470.0
 30
590.0
 70
    64
  0
VERTEX
  5
9B
  8
TEAM-NET
 10
164.314918
 20
-470.0
 30
590.0
 70
    64
  0
VERTEX
  5
9C
  8
TEAM-NET
 10
146.057705
 20
-470.0
 30
590.0
 70
    64
  0
VERTEX
  5
9D
  8
TEAM-NET
 10
127.800492
 20
-470.0
 30
590.0
 70
    64
  0
VERTEX
  5
9E
  8
TEAM-NET
 10
109.543279
 20
-470.0
 30
590.0
 70
    64
  0
VERTEX
  5
9F
  8
TEAM-NET
 10
91.286066
 20
-470.0
 30
590.0
 70
    64
  0
VERTEX
  5
A0
  8
TEAM-NET
 10
73.028853
 20
-470.0
 30
590.0
 70
    64
  0
VERTEX
  5
A1
  8
TEAM-NET
 10
54.771639
 20
-470.0
 30
590.0
 70
    64
  0
VERTEX
  5
A2
  8
TEAM-NET
 10
36.514426
 20
-470.0
 30
590.0
 70
    64
  0
VERTEX
  5
A3
  8
TEAM-NET
 10
18.257213
 20
-470.0
 30
590.0
 70
    64
  0
VERTEX
  5
A4
  8
TEAM-NET
 10
0.0
 20
-470.0
 30
590.0
 70
    64
  0
VERTEX
  5
A5
  8
TEAM-NET
 10
-18.257213
 20
-470.0
 30
590.0
 70
    64
  0
VERTEX
  5
A6
  8
TEAM-NET
 10
-36.514426
 20
-470.0
 30
590.0
 70
    64
  0
VERTEX
  5
A7
  8
TEAM-NET
 10
-54.771639
 20
-470.0
 30
590.0
 70
    64
  0
VERTEX
  5
A8
  8
TEAM-NET
 10
-73.028853
 20
-470.0
 30
590.0
 70
    64
  0
VERTEX
  5
A9
  8
TEAM-NET
 10
-91.286066
 20
-470.0
 30
590.0
 70
    64
  0
VERTEX
  5
AA
  8
TEAM-NET
 10
-109.543279
 20
-470.0
 30
590.0
 70
    64
  0
VERTEX
  5
AB
  8
TEAM-NET
 10
-127.800492
 20
-470.0
 30
590.0
 70
    64
  0
VERTEX
  5
AC
  8
TEAM-NET
 10
-146.057705
 20
-470.0
 30
590.0
 70
    64
  0
VERTEX
  5
AD
  8
TEAM-NET
 10
-164.314918
 20
-470.0
 30
590.0
 70
    64
  0
VERTEX
  5
AE
  8
TEAM-NET
 10
-182.572132
 20
-470.0
 30
590.0
 70
    64
  0
VERTEX
  5
AF
  8
TEAM-NET
 10
-200.523605
 20
-466.903898
 30
590.0
 70
    64
  0
VERTEX
  5
B0
  8
TEAM-NET
 10
-218.428184
 20
-463.332922
 30
590.0
 70
    64
  0
VERTEX
  5
B1
  8
TEAM-NET
 10
-236.332764
 20
-459.761947
 30
590.0
 70
    64
  0
VERTEX
  5
B2
  8
TEAM-NET
 10
-254.237343
 20
-456.190971
 30
590.0
 70
    64
  0
VERTEX
  5
B3
  8
TEAM-NET
 10
-272.141923
 20
-452.619996
 30
590.0
 70
    64
  0
VERTEX
  5
B4
  8
TEAM-NET
 10
-290.046502
 20
-449.04902
 30
590.0
 70
    64
  0
VERTEX
  5
B5
  8
TEAM-NET
 10
-307.229695
 20
-443.515753
 30
590.0
 70
    64
  0
VERTEX
  5
B6
  8
TEAM-NET
 10
-315.0
 20
-427.690629
 30
590.0
 70
    64
  0
SEQEND
  5
B7
  8
TEAM-NET
  0
CIRCLE
  5
B8
  8
TEAM-INSP
 10
0.0
 20
0.0
 30
0.0
 40
10.0
  0
CIRCLE
  5
BA
  8
TEAM-BODY
 39
-40.0
 10
0.0
 20
-100.0
 30
580.0
 40
26.0
  0
CIRCLE
  5
BC
  8
TEAM-DET1
 39
-40.0
 10
0.0
 20
-100.0
 30
580.0
 40
21.0
  0
POLYLINE
  5
BE
  8
TEAM-BODY
 66
     1
 10
0.0
 20
0.0
 30
590.0
  0
VERTEX
  5
32E
  8
TEAM-BODY
 10
315.0
 20
-427.690629
 30
590.0
  0
VERTEX
  5
32F
  8
TEAM-BODY
 10
315.0
 20
-384.684701
 30
590.0
 42
1.091284
  0
VERTEX
  5
330
  8
TEAM-BODY
 10
-315.0
 20
-384.684701
 30
590.0
  0
VERTEX
  5
331
  8
TEAM-BODY
 10
-315.0
 20
-427.690629
 30
590.0
  0
SEQEND
  5
332
  8
TEAM-BODY
  0
POLYLINE
  5
BF
  8
TEAM-DET1
 66
     1
 10
0.0
 20
0.0
 30
590.0
  0
VERTEX
  5
333
  8
TEAM-DET1
 10
297.966809
 20
-445.711396
 30
590.0
  0
VERTEX
  5
334
  8
TEAM-DET1
 10
300.597442
 20
-384.684701
 30
590.0
 42
1.076692
  0
VERTEX
  5
335
  8
TEAM-DET1
 10
-300.840904
 20
-384.684701
 30
590.0
  0
VERTEX
  5
336
  8
TEAM-DET1
 10
-297.966809
 20
-445.740519
 30
590.0
  0
SEQEND
  5
337
  8
TEAM-DET1
  0
POLYLINE
  5
C0
  8
TEAM-BODY
 66
     1
 10
0.0
 20
0.0
 30
590.0
  0
VERTEX
  5
338
  8
TEAM-BODY
 10
-315.0
 20
-427.690629
 30
590.0
 42
0.371247
  0
VERTEX
  5
339
  8
TEAM-BODY
 10
-297.966809
 20
-447.469356
 30
590.0
  0
VERTEX
  5
33A
  8
TEAM-BODY
 10
-185.0
 20
-470.0
 30
590.0
  0
VERTEX
  5
33B
  8
TEAM-BODY
 10
185.0
 20
-470.0
 30
590.0
  0
VERTEX
  5
33C
  8
TEAM-BODY
 10
297.966809
 20
-447.469356
 30
590.0
 42
0.371247
  0
VERTEX
  5
33D
  8
TEAM-BODY
 10
315.0
 20
-427.690629
 30
590.0
  0
SEQEND
  5
33E
  8
TEAM-BODY
  0
POLYLINE
  5
C1
  8
TEAM-NET
 66
     1
 10
0.0
 20
0.0
 30
0.0
 70
    16
 71
     2
 72
    37
  0
VERTEX
  5
C2
  8
TEAM-NET
 10
315.0
 20
-427.690629
 30
590.0
 70
    64
  0
VERTEX
  5
C3
  8
TEAM-NET
 10
307.229695
 20
-443.515753
 30
590.0
 70
    64
  0
VERTEX
  5
C4
  8
TEAM-NET
 10
290.046502
 20
-449.04902
 30
590.0
 70
    64
  0
VERTEX
  5
C5
  8
TEAM-NET
 10
272.141923
 20
-452.619996
 30
590.0
 70
    64
  0
VERTEX
  5
C6
  8
TEAM-NET
 10
254.237343
 20
-456.190971
 30
590.0
 70
    64
  0
VERTEX
  5
C7
  8
TEAM-NET
 10
236.332764
 20
-459.761947
 30
590.0
 70
    64
  0
VERTEX
  5
C8
  8
TEAM-NET
 10
218.428184
 20
-463.332922
 30
590.0
 70
    64
  0
VERTEX
  5
C9
  8
TEAM-NET
 10
200.523605
 20
-466.903898
 30
590.0
 70
    64
  0
VERTEX
  5
CA
  8
TEAM-NET
 10
182.572132
 20
-470.0
 30
590.0
 70
    64
  0
VERTEX
  5
CB
  8
TEAM-NET
 10
164.314918
 20
-470.0
 30
590.0
 70
    64
  0
VERTEX
  5
CC
  8
TEAM-NET
 10
146.057705
 20
-470.0
 30
590.0
 70
    64
  0
VERTEX
  5
CD
  8
TEAM-NET
 10
127.800492
 20
-470.0
 30
590.0
 70
    64
  0
VERTEX
  5
CE
  8
TEAM-NET
 10
109.543279
 20
-470.0
 30
590.0
 70
    64
  0
VERTEX
  5
CF
  8
TEAM-NET
 10
91.286066
 20
-470.0
 30
590.0
 70
    64
  0
VERTEX
  5
D0
  8
TEAM-NET
 10
73.028853
 20
-470.0
 30
590.0
 70
    64
  0
VERTEX
  5
D1
  8
TEAM-NET
 10
54.771639
 20
-470.0
 30
590.0
 70
    64
  0
VERTEX
  5
D2
  8
TEAM-NET
 10
36.514426
 20
-470.0
 30
590.0
 70
    64
  0
VERTEX
  5
D3
  8
TEAM-NET
 10
18.257213
 20
-470.0
 30
590.0
 70
    64
  0
VERTEX
  5
D4
  8
TEAM-NET
 10
0.0
 20
-470.0
 30
590.0
 70
    64
  0
VERTEX
  5
D5
  8
TEAM-NET
 10
-18.257213
 20
-470.0
 30
590.0
 70
    64
  0
VERTEX
  5
D6
  8
TEAM-NET
 10
-36.514426
 20
-470.0
 30
590.0
 70
    64
  0
VERTEX
  5
D7
  8
TEAM-NET
 10
-54.771639
 20
-470.0
 30
590.0
 70
    64
  0
VERTEX
  5
D8
  8
TEAM-NET
 10
-73.028853
 20
-470.0
 30
590.0
 70
    64
  0
VERTEX
  5
D9
  8
TEAM-NET
 10
-91.286066
 20
-470.0
 30
590.0
 70
    64
  0
VERTEX
  5
DA
  8
TEAM-NET
 10
-109.543279
 20
-470.0
 30
590.0
 70
    64
  0
VERTEX
  5
DB
  8
TEAM-NET
 10
-127.800492
 20
-470.0
 30
590.0
 70
    64
  0
VERTEX
  5
DC
  8
TEAM-NET
 10
-146.057705
 20
-470.0
 30
590.0
 70
    64
  0
VERTEX
  5
DD
  8
TEAM-NET
 10
-164.314918
 20
-470.0
 30
590.0
 70
    64
  0
VERTEX
  5
DE
  8
TEAM-NET
 10
-182.572132
 20
-470.0
 30
590.0
 70
    64
  0
VERTEX
  5
DF
  8
TEAM-NET
 10
-200.523605
 20
-466.903898
 30
590.0
 70
    64
  0
VERTEX
  5
E0
  8
TEAM-NET
 10
-218.428184
 20
-463.332922
 30
590.0
 70
    64
  0
VERTEX
  5
E1
  8
TEAM-NET
 10
-236.332764
 20
-459.761947
 30
590.0
 70
    64
  0
VERTEX
  5
E2
  8
TEAM-NET
 10
-254.237343
 20
-456.190971
 30
590.0
 70
    64
  0
VERTEX
  5
E3
  8
TEAM-NET
 10
-272.141923
 20
-452.619996
 30
590.0
 70
    64
  0
VERTEX
  5
E4
  8
TEAM-NET
 10
-290.046502
 20
-449.04902
 30
590.0
 70
    64
  0
VERTEX
  5
E5
  8
TEAM-NET
 10
-307.229695
 20
-443.515753
 30
590.0
 70
    64
  0
VERTEX
  5
E6
  8
TEAM-NET
 10
-315.0
 20
-427.690629
 30
590.0
 70
    64
  0
VERTEX
  5
E7
  8
TEAM-NET
 10
315.0
 20
-427.690629
 30
590.0
 70
    64
  0
VERTEX
  5
E8
  8
TEAM-NET
 10
315.0
 20
-396.174919
 30
590.0
 70
    64
  0
VERTEX
  5
E9
  8
TEAM-NET
 10
316.112234
 20
-364.693471
 30
590.0
 70
    64
  0
VERTEX
  5
EA
  8
TEAM-NET
 10
315.295731
 20
-333.201387
 30
590.0
 70
    64
  0
VERTEX
  5
EB
  8
TEAM-NET
 10
311.349678
 20
-301.94684
 30
590.0
 70
    64
  0
VERTEX
  5
EC
  8
TEAM-NET
 10
304.313244
 20
-271.240055
 30
590.0
 70
    64
  0
VERTEX
  5
ED
  8
TEAM-NET
 10
294.256271
 20
-241.385821
 30
590.0
 70
    64
  0
VERTEX
  5
EE
  8
TEAM-NET
 10
281.27858
 20
-212.680462
 30
590.0
 70
    64
  0
VERTEX
  5
EF
  8
TEAM-NET
 10
265.508987
 20
-185.408902
 30
590.0
 70
    64
  0
VERTEX
  5
F0
  8
TEAM-NET
 10
247.104017
 20
-159.841832
 30
590.0
 70
    64
  0
VERTEX
  5
F1
  8
TEAM-NET
 10
226.246351
 20
-136.233024
 30
590.0
 70
    64
  0
VERTEX
  5
F2
  8
TEAM-NET
 10
203.143019
 20
-114.816813
 30
590.0
 70
    64
  0
VERTEX
  5
F3
  8
TEAM-NET
 10
178.023339
 20
-95.805772
 30
590.0
 70
    64
  0
VERTEX
  5
F4
  8
TEAM-NET
 10
151.136642
 20
-79.388599
 30
590.0
 70
    64
  0
VERTEX
  5
F5
  8
TEAM-NET
 10
122.749799
 20
-65.728247
 30
590.0
 70
    64
  0
VERTEX
  5
F6
  8
TEAM-NET
 10
93.144572
 20
-54.960306
 30
590.0
 70
    64
  0
VERTEX
  5
F7
  8
TEAM-NET
 10
62.614814
 20
-47.191656
 30
590.0
 70
    64
  0
VERTEX
  5
F8
  8
TEAM-NET
 10
31.463557
 20
-42.499406
 30
590.0
 70
    64
  0
VERTEX
  5
F9
  8
TEAM-NET
 10
0.0
 20
-40.93013
 30
590.0
 70
    64
  0
VERTEX
  5
FA
  8
TEAM-NET
 10
-31.463557
 20
-42.499406
 30
590.0
 70
    64
  0
VERTEX
  5
FB
  8
TEAM-NET
 10
-62.614814
 20
-47.191656
 30
590.0
 70
    64
  0
VERTEX
  5
FC
  8
TEAM-NET
 10
-93.144572
 20
-54.960306
 30
590.0
 70
    64
  0
VERTEX
  5
FD
  8
TEAM-NET
 10
-122.749799
 20
-65.728247
 30
590.0
 70
    64
  0
VERTEX
  5
FE
  8
TEAM-NET
 10
-151.136642
 20
-79.388599
 30
590.0
 70
    64
  0
VERTEX
  5
FF
  8
TEAM-NET
 10
-178.023339
 20
-95.805772
 30
590.0
 70
    64
  0
VERTEX
  5
100
  8
TEAM-NET
 10
-203.143019
 20
-114.816813
 30
590.0
 70
    64
  0
VERTEX
  5
101
  8
TEAM-NET
 10
-226.246351
 20
-136.233024
 30
590.0
 70
    64
  0
VERTEX
  5
102
  8
TEAM-NET
 10
-247.104017
 20
-159.841832
 30
590.0
 70
    64
  0
VERTEX
  5
103
  8
TEAM-NET
 10
-265.508987
 20
-185.408902
 30
590.0
 70
    64
  0
VERTEX
  5
104
  8
TEAM-NET
 10
-281.27858
 20
-212.680462
 30
590.0
 70
    64
  0
VERTEX
  5
105
  8
TEAM-NET
 10
-294.256271
 20
-241.385821
 30
590.0
 70
    64
  0
VERTEX
  5
106
  8
TEAM-NET
 10
-304.313244
 20
-271.240055
 30
590.0
 70
    64
  0
VERTEX
  5
107
  8
TEAM-NET
 10
-311.349678
 20
-301.94684
 30
590.0
 70
    64
  0
VERTEX
  5
108
  8
TEAM-NET
 10
-315.295731
 20
-333.201387
 30
590.0
 70
    64
  0
VERTEX
  5
109
  8
TEAM-NET
 10
-316.112234
 20
-364.693471
 30
590.0
 70
    64
  0
VERTEX
  5
10A
  8
TEAM-NET
 10
-315.0
 20
-396.174919
 30
590.0
 70
    64
  0
VERTEX
  5
10B
  8
TEAM-NET
 10
-315.0
 20
-427.690629
 30
590.0
 70
    64
  0
SEQEND
  5
10C
  8
TEAM-NET
  0
POLYLINE
  5
10D
  8
TEAM-BODY
 66
     1
 10
0.0
 20
0.0
 30
800.0
 39
-50.0
  0
VERTEX
  5
33F
  8
TEAM-BODY
 10
-350.0
 20
-452.776252
 30
800.0
 42
0.371247
  0
VERTEX
  5
340
  8
TEAM-BODY
 10
-332.966809
 20
-472.554979
 30
800.0
  0
VERTEX
  5
341
  8
TEAM-BODY
 10
-185.0
 20
-500.0
 30
800.0
  0
VERTEX
  5
342
  8
TEAM-BODY
 10
185.0
 20
-500.0
 30
800.0
  0
VERTEX
  5
343
  8
TEAM-BODY
 10
332.966809
 20
-472.554979
 30
800.0
 42
0.371247
  0
VERTEX
  5
344
  8
TEAM-BODY
 10
350.0
 20
-452.776252
 30
800.0
  0
SEQEND
  5
345
  8
TEAM-BODY
  0
POLYLINE
  5
10E
  8
TEAM-BODY
 66
     1
 10
0.0
 20
0.0
 30
800.0
 39
-50.0
  0
VERTEX
  5
346
  8
TEAM-BODY
 10
350.0
 20
-452.776252
 30
800.0
  0
VERTEX
  5
347
  8
TEAM-BODY
 10
350.0
 20
-38.173242
 30
800.0
 42
0.182676
  0
VERTEX
  5
348
  8
TEAM-BODY
 10
345.0
 20
-24.944485
 30
800.0
 42
-0.182676
  0
VERTEX
  5
349
  8
TEAM-BODY
 10
340.0
 20
-11.715729
 30
800.0
  0
VERTEX
  5
34A
  8
TEAM-BODY
 10
340.0
 20
0.0
 30
800.0
  0
VERTEX
  5
34B
  8
TEAM-BODY
 10
-340.0
 20
0.0
 30
800.0
  0
VERTEX
  5
34C
  8
TEAM-BODY
 10
-340.0
 20
-11.715729
 30
800.0
 42
-0.182676
  0
VERTEX
  5
34D
  8
TEAM-BODY
 10
-345.0
 20
-24.944485
 30
800.0
 42
0.182676
  0
VERTEX
  5
34E
  8
TEAM-BODY
 10
-350.0
 20
-38.173242
 30
800.0
  0
VERTEX
  5
34F
  8
TEAM-BODY
 10
-350.0
 20
-452.776252
 30
800.0
  0
SEQEND
  5
350
  8
TEAM-BODY
  0
LINE
  5
10F
  8
TEAM-BODY
 39
-60.0
 10
324.238113
 20
0.0
 30
860.0
 11
-324.238113
 21
0.0
 31
860.0
  0
LINE
  5
110
  8
TEAM-BODY
 39
-60.0
 10
324.238113
 20
-20.0
 30
860.0
 11
-324.238113
 21
-20.0
 31
860.0
  0
LINE
  5
111
  8
TEAM-BODY
 39
-60.0
 10
332.238113
 20
0.0
 30
860.0
 11
332.238113
 21
-12.0
 31
860.0
  0
ARC
  5
112
  8
TEAM-BODY
 39
-60.0
 10
324.238113
 20
-12.0
 30
860.0
 40
8.0
 50
270.0
 51
0.0
  0
LINE
  5
113
  8
TEAM-BODY
 39
-60.0
 10
-332.238113
 20
0.0
 30
860.0
 11
-332.238113
 21
-12.0
 31
860.0
  0
ARC
  5
114
  8
TEAM-BODY
 39
-60.0
 10
-324.238113
 20
-12.0
 30
860.0
 40
8.0
 50
180.0
 51
270.0
  0
TEXT
  5
115
  8
TEAM-TXT
 10
-120.389284
 20
-401.412921
 30
800.0
 40
30.0
  1
team 431002
 41
0.8
 51
15.0
  7
TEAM
  0
POLYLINE
  5
118
  8
TEAM-BODY
 66
     1
 10
0.0
 20
0.0
 30
800.0
  0
VERTEX
  5
351
  8
TEAM-BODY
 10
-315.0
 20
-427.690629
 30
800.0
 42
0.371247
  0
VERTEX
  5
352
  8
TEAM-BODY
 10
-297.966809
 20
-447.469356
 30
800.0
  0
VERTEX
  5
353
  8
TEAM-BODY
 10
-185.0
 20
-470.0
 30
800.0
  0
VERTEX
  5
354
  8
TEAM-BODY
 10
185.0
 20
-470.0
 30
800.0
  0
VERTEX
  5
355
  8
TEAM-BODY
 10
297.966809
 20
-447.469356
 30
800.0
 42
0.371247
  0
VERTEX
  5
356
  8
TEAM-BODY
 10
315.0
 20
-427.690629
 30
800.0
  0
SEQEND
  5
357
  8
TEAM-BODY
  0
POLYLINE
  5
119
  8
TEAM-BODY
 66
     1
 10
0.0
 20
0.0
 30
800.0
  0
VERTEX
  5
358
  8
TEAM-BODY
 10
315.0
 20
-427.690629
 30
800.0
  0
VERTEX
  5
359
  8
TEAM-BODY
 10
315.0
 20
-384.684701
 30
800.0
 42
1.091284
  0
VERTEX
  5
35A
  8
TEAM-BODY
 10
-315.0
 20
-384.684701
 30
800.0
  0
VERTEX
  5
35B
  8
TEAM-BODY
 10
-315.0
 20
-427.690629
 30
800.0
  0
SEQEND
  5
35C
  8
TEAM-BODY
  0
POLYLINE
  5
11A
  8
TEAM-NET
 66
     1
 10
0.0
 20
0.0
 30
0.0
 70
    16
 71
     2
 72
    37
  0
VERTEX
  5
11B
  8
TEAM-NET
 10
350.0
 20
-452.776252
 30
800.0
 70
    64
  0
VERTEX
  5
11C
  8
TEAM-NET
 10
350.0
 20
-408.596912
 30
800.0
 70
    64
  0
VERTEX
  5
11D
  8
TEAM-NET
 10
350.0
 20
-364.417573
 30
800.0
 70
    64
  0
VERTEX
  5
11E
  8
TEAM-NET
 10
350.0
 20
-320.238234
 30
800.0
 70
    64
  0
VERTEX
  5
11F
  8
TEAM-NET
 10
350.0
 20
-276.058894
 30
800.0
 70
    64
  0
VERTEX
  5
120
  8
TEAM-NET
 10
350.0
 20
-231.879555
 30
800.0
 70
    64
  0
VERTEX
  5
121
  8
TEAM-NET
 10
350.0
 20
-187.700215
 30
800.0
 70
    64
  0
VERTEX
  5
122
  8
TEAM-NET
 10
350.0
 20
-143.520876
 30
800.0
 70
    64
  0
VERTEX
  5
123
  8
TEAM-NET
 10
350.0
 20
-99.341537
 30
800.0
 70
    64
  0
VERTEX
  5
124
  8
TEAM-NET
 10
350.0
 20
-55.162197
 30
800.0
 70
    64
  0
VERTEX
  5
125
  8
TEAM-NET
 10
340.073827
 20
-13.432599
 30
800.0
 70
    64
  0
VERTEX
  5
126
  8
TEAM-NET
 10
309.255375
 20
0.0
 30
800.0
 70
    64
  0
VERTEX
  5
127
  8
TEAM-NET
 10
265.076036
 20
0.0
 30
800.0
 70
    64
  0
VERTEX
  5
128
  8
TEAM-NET
 10
220.896697
 20
0.0
 30
800.0
 70
    64
  0
VERTEX
  5
129
  8
TEAM-NET
 10
176.717357
 20
0.0
 30
800.0
 70
    64
  0
VERTEX
  5
12A
  8
TEAM-NET
 10
132.538018
 20
0.0
 30
800.0
 70
    64
  0
VERTEX
  5
12B
  8
TEAM-NET
 10
88.358679
 20
0.0
 30
800.0
 70
    64
  0
VERTEX
  5
12C
  8
TEAM-NET
 10
44.179339
 20
0.0
 30
800.0
 70
    64
  0
VERTEX
  5
12D
  8
TEAM-NET
 10
0.0
 20
0.0
 30
800.0
 70
    64
  0
VERTEX
  5
12E
  8
TEAM-NET
 10
-44.179339
 20
0.0
 30
800.0
 70
    64
  0
VERTEX
  5
12F
  8
TEAM-NET
 10
-88.358679
 20
0.0
 30
800.0
 70
    64
  0
VERTEX
  5
130
  8
TEAM-NET
 10
-132.538018
 20
0.0
 30
800.0
 70
    64
  0
VERTEX
  5
131
  8
TEAM-NET
 10
-176.717357
 20
0.0
 30
800.0
 70
    64
  0
VERTEX
  5
132
  8
TEAM-NET
 10
-220.896697
 20
0.0
 30
800.0
 70
    64
  0
VERTEX
  5
133
  8
TEAM-NET
 10
-265.076036
 20
0.0
 30
800.0
 70
    64
  0
VERTEX
  5
134
  8
TEAM-NET
 10
-309.255375
 20
0.0
 30
800.0
 70
    64
  0
VERTEX
  5
135
  8
TEAM-NET
 10
-340.073827
 20
-13.432599
 30
800.0
 70
    64
  0
VERTEX
  5
136
  8
TEAM-NET
 10
-350.0
 20
-55.162197
 30
800.0
 70
    64
  0
VERTEX
  5
137
  8
TEAM-NET
 10
-350.0
 20
-99.341537
 30
800.0
 70
    64
  0
VERTEX
  5
138
  8
TEAM-NET
 10
-350.0
 20
-143.520876
 30
800.0
 70
    64
  0
VERTEX
  5
139
  8
TEAM-NET
 10
-350.0
 20
-187.700215
 30
800.0
 70
    64
  0
VERTEX
  5
13A
  8
TEAM-NET
 10
-350.0
 20
-231.879555
 30
800.0
 70
    64
  0
VERTEX
  5
13B
  8
TEAM-NET
 10
-350.0
 20
-276.058894
 30
800.0
 70
    64
  0
VERTEX
  5
13C
  8
TEAM-NET
 10
-350.0
 20
-320.238234
 30
800.0
 70
    64
  0
VERTEX
  5
13D
  8
TEAM-NET
 10
-350.0
 20
-364.417573
 30
800.0
 70
    64
  0
VERTEX
  5
13E
  8
TEAM-NET
 10
-350.0
 20
-408.596912
 30
800.0
 70
    64
  0
VERTEX
  5
13F
  8
TEAM-NET
 10
-350.0
 20
-452.776252
 30
800.0
 70
    64
  0
VERTEX
  5
140
  8
TEAM-NET
 10
315.0
 20
-427.690629
 30
800.0
 70
    64
  0
VERTEX
  5
141
  8
TEAM-NET
 10
315.0
 20
-396.174919
 30
800.0
 70
    64
  0
VERTEX
  5
142
  8
TEAM-NET
 10
316.112234
 20
-364.693471
 30
800.0
 70
    64
  0
VERTEX
  5
143
  8
TEAM-NET
 10
315.295731
 20
-333.201387
 30
800.0
 70
    64
  0
VERTEX
  5
144
  8
TEAM-NET
 10
311.349678
 20
-301.94684
 30
800.0
 70
    64
  0
VERTEX
  5
145
  8
TEAM-NET
 10
304.313244
 20
-271.240055
 30
800.0
 70
    64
  0
VERTEX
  5
146
  8
TEAM-NET
 10
294.256271
 20
-241.385821
 30
800.0
 70
    64
  0
VERTEX
  5
147
  8
TEAM-NET
 10
281.27858
 20
-212.680462
 30
800.0
 70
    64
  0
VERTEX
  5
148
  8
TEAM-NET
 10
265.508987
 20
-185.408902
 30
800.0
 70
    64
  0
VERTEX
  5
149
  8
TEAM-NET
 10
247.104017
 20
-159.841832
 30
800.0
 70
    64
  0
VERTEX
  5
14A
  8
TEAM-NET
 10
226.246351
 20
-136.233024
 30
800.0
 70
    64
  0
VERTEX
  5
14B
  8
TEAM-NET
 10
203.143019
 20
-114.816813
 30
800.0
 70
    64
  0
VERTEX
  5
14C
  8
TEAM-NET
 10
178.023339
 20
-95.805772
 30
800.0
 70
    64
  0
VERTEX
  5
14D
  8
TEAM-NET
 10
151.136642
 20
-79.388599
 30
800.0
 70
    64
  0
VERTEX
  5
14E
  8
TEAM-NET
 10
122.749799
 20
-65.728247
 30
800.0
 70
    64
  0
VERTEX
  5
14F
  8
TEAM-NET
 10
93.144572
 20
-54.960306
 30
800.0
 70
    64
  0
VERTEX
  5
150
  8
TEAM-NET
 10
62.614814
 20
-47.191656
 30
800.0
 70
    64
  0
VERTEX
  5
151
  8
TEAM-NET
 10
31.463557
 20
-42.499406
 30
800.0
 70
    64
  0
VERTEX
  5
152
  8
TEAM-NET
 10
0.0
 20
-40.93013
 30
800.0
 70
    64
  0
VERTEX
  5
153
  8
TEAM-NET
 10
-31.463557
 20
-42.499406
 30
800.0
 70
    64
  0
VERTEX
  5
154
  8
TEAM-NET
 10
-62.614814
 20
-47.191656
 30
800.0
 70
    64
  0
VERTEX
  5
155
  8
TEAM-NET
 10
-93.144572
 20
-54.960306
 30
800.0
 70
    64
  0
VERTEX
  5
156
  8
TEAM-NET
 10
-122.749799
 20
-65.728247
 30
800.0
 70
    64
  0
VERTEX
  5
157
  8
TEAM-NET
 10
-151.136642
 20
-79.388599
 30
800.0
 70
    64
  0
VERTEX
  5
158
  8
TEAM-NET
 10
-178.023339
 20
-95.805772
 30
800.0
 70
    64
  0
VERTEX
  5
159
  8
TEAM-NET
 10
-203.143019
 20
-114.816813
 30
800.0
 70
    64
  0
VERTEX
  5
15A
  8
TEAM-NET
 10
-226.246351
 20
-136.233024
 30
800.0
 70
    64
  0
VERTEX
  5
15B
  8
TEAM-NET
 10
-247.104017
 20
-159.841832
 30
800.0
 70
    64
  0
VERTEX
  5
15C
  8
TEAM-NET
 10
-265.508987
 20
-185.408902
 30
800.0
 70
    64
  0
VERTEX
  5
15D
  8
TEAM-NET
 10
-281.27858
 20
-212.680462
 30
800.0
 70
    64
  0
VERTEX
  5
15E
  8
TEAM-NET
 10
-294.256271
 20
-241.385821
 30
800.0
 70
    64
  0
VERTEX
  5
15F
  8
TEAM-NET
 10
-304.313244
 20
-271.240055
 30
800.0
 70
    64
  0
VERTEX
  5
160
  8
TEAM-NET
 10
-311.349678
 20
-301.94684
 30
800.0
 70
    64
  0
VERTEX
  5
161
  8
TEAM-NET
 10
-315.295731
 20
-333.201387
 30
800.0
 70
    64
  0
VERTEX
  5
162
  8
TEAM-NET
 10
-316.112234
 20
-364.693471
 30
800.0
 70
    64
  0
VERTEX
  5
163
  8
TEAM-NET
 10
-315.0
 20
-396.174919
 30
800.0
 70
    64
  0
VERTEX
  5
164
  8
TEAM-NET
 10
-315.0
 20
-427.690629
 30
800.0
 70
    64
  0
SEQEND
  5
165
  8
TEAM-NET
  0
POLYLINE
  5
166
  8
TEAM-NET
 66
     1
 10
0.0
 20
0.0
 30
0.0
 70
    16
 71
     2
 72
    37
  0
VERTEX
  5
167
  8
TEAM-NET
 10
350.0
 20
-452.776252
 30
800.0
 70
    64
  0
VERTEX
  5
168
  8
TEAM-NET
 10
340.621747
 20
-469.722593
 30
800.0
 70
    64
  0
VERTEX
  5
169
  8
TEAM-NET
 10
321.169631
 20
-474.74313
 30
800.0
 70
    64
  0
VERTEX
  5
16A
  8
TEAM-NET
 10
301.290433
 20
-478.430342
 30
800.0
 70
    64
  0
VERTEX
  5
16B
  8
TEAM-NET
 10
281.411236
 20
-482.117554
 30
800.0
 70
    64
  0
VERTEX
  5
16C
  8
TEAM-NET
 10
261.532038
 20
-485.804766
 30
800.0
 70
    64
  0
VERTEX
  5
16D
  8
TEAM-NET
 10
241.65284
 20
-489.491978
 30
800.0
 70
    64
  0
VERTEX
  5
16E
  8
TEAM-NET
 10
221.773643
 20
-493.179191
 30
800.0
 70
    64
  0
VERTEX
  5
16F
  8
TEAM-NET
 10
201.894445
 20
-496.866403
 30
800.0
 70
    64
  0
VERTEX
  5
170
  8
TEAM-NET
 10
181.964339
 20
-500.0
 30
800.0
 70
    64
  0
VERTEX
  5
171
  8
TEAM-NET
 10
161.746079
 20
-500.0
 30
800.0
 70
    64
  0
VERTEX
  5
172
  8
TEAM-NET
 10
141.527819
 20
-500.0
 30
800.0
 70
    64
  0
VERTEX
  5
173
  8
TEAM-NET
 10
121.309559
 20
-500.0
 30
800.0
 70
    64
  0
VERTEX
  5
174
  8
TEAM-NET
 10
101.091299
 20
-500.0
 30
800.0
 70
    64
  0
VERTEX
  5
175
  8
TEAM-NET
 10
80.87304
 20
-500.0
 30
800.0
 70
    64
  0
VERTEX
  5
176
  8
TEAM-NET
 10
60.65478
 20
-500.0
 30
800.0
 70
    64
  0
VERTEX
  5
177
  8
TEAM-NET
 10
40.43652
 20
-500.0
 30
800.0
 70
    64
  0
VERTEX
  5
178
  8
TEAM-NET
 10
20.21826
 20
-500.0
 30
800.0
 70
    64
  0
VERTEX
  5
179
  8
TEAM-NET
 10
0.0
 20
-500.0
 30
800.0
 70
    64
  0
VERTEX
  5
17A
  8
TEAM-NET
 10
-20.21826
 20
-500.0
 30
800.0
 70
    64
  0
VERTEX
  5
17B
  8
TEAM-NET
 10
-40.43652
 20
-500.0
 30
800.0
 70
    64
  0
VERTEX
  5
17C
  8
TEAM-NET
 10
-60.65478
 20
-500.0
 30
800.0
 70
    64
  0
VERTEX
  5
17D
  8
TEAM-NET
 10
-80.87304
 20
-500.0
 30
800.0
 70
    64
  0
VERTEX
  5
17E
  8
TEAM-NET
 10
-101.091299
 20
-500.0
 30
800.0
 70
    64
  0
VERTEX
  5
17F
  8
TEAM-NET
 10
-121.309559
 20
-500.0
 30
800.0
 70
    64
  0
VERTEX
  5
180
  8
TEAM-NET
 10
-141.527819
 20
-500.0
 30
800.0
 70
    64
  0
VERTEX
  5
181
  8
TEAM-NET
 10
-161.746079
 20
-500.0
 30
800.0
 70
    64
  0
VERTEX
  5
182
  8
TEAM-NET
 10
-181.964339
 20
-500.0
 30
800.0
 70
    64
  0
VERTEX
  5
183
  8
TEAM-NET
 10
-201.894445
 20
-496.866403
 30
800.0
 70
    64
  0
VERTEX
  5
184
  8
TEAM-NET
 10
-221.773643
 20
-493.179191
 30
800.0
 70
    64
  0
VERTEX
  5
185
  8
TEAM-NET
 10
-241.65284
 20
-489.491978
 30
800.0
 70
    64
  0
VERTEX
  5
186
  8
TEAM-NET
 10
-261.532038
 20
-485.804766
 30
800.0
 70
    64
  0
VERTEX
  5
187
  8
TEAM-NET
 10
-281.411236
 20
-482.117554
 30
800.0
 70
    64
  0
VERTEX
  5
188
  8
TEAM-NET
 10
-301.290433
 20
-478.430342
 30
800.0
 70
    64
  0
VERTEX
  5
189
  8
TEAM-NET
 10
-321.169631
 20
-474.74313
 30
800.0
 70
    64
  0
VERTEX
  5
18A
  8
TEAM-NET
 10
-340.621747
 20
-469.722593
 30
800.0
 70
    64
  0
VERTEX
  5
18B
  8
TEAM-NET
 10
-350.0
 20
-452.776252
 30
800.0
 70
    64
  0
VERTEX
  5
18C
  8
TEAM-NET
 10
315.0
 20
-427.690629
 30
800.0
 70
    64
  0
VERTEX
  5
18D
  8
TEAM-NET
 10
307.229695
 20
-443.515753
 30
800.0
 70
    64
  0
VERTEX
  5
18E
  8
TEAM-NET
 10
290.046502
 20
-449.04902
 30
800.0
 70
    64
  0
VERTEX
  5
18F
  8
TEAM-NET
 10
272.141923
 20
-452.619996
 30
800.0
 70
    64
  0
VERTEX
  5
190
  8
TEAM-NET
 10
254.237343
 20
-456.190971
 30
800.0
 70
    64
  0
VERTEX
  5
191
  8
TEAM-NET
 10
236.332764
 20
-459.761947
 30
800.0
 70
    64
  0
VERTEX
  5
192
  8
TEAM-NET
 10
218.428184
 20
-463.332922
 30
800.0
 70
    64
  0
VERTEX
  5
193
  8
TEAM-NET
 10
200.523605
 20
-466.903898
 30
800.0
 70
    64
  0
VERTEX
  5
194
  8
TEAM-NET
 10
182.572132
 20
-470.0
 30
800.0
 70
    64
  0
VERTEX
  5
195
  8
TEAM-NET
 10
164.314918
 20
-470.0
 30
800.0
 70
    64
  0
VERTEX
  5
196
  8
TEAM-NET
 10
146.057705
 20
-470.0
 30
800.0
 70
    64
  0
VERTEX
  5
197
  8
TEAM-NET
 10
127.800492
 20
-470.0
 30
800.0
 70
    64
  0
VERTEX
  5
198
  8
TEAM-NET
 10
109.543279
 20
-470.0
 30
800.0
 70
    64
  0
VERTEX
  5
199
  8
TEAM-NET
 10
91.286066
 20
-470.0
 30
800.0
 70
    64
  0
VERTEX
  5
19A
  8
TEAM-NET
 10
73.028853
 20
-470.0
 30
800.0
 70
    64
  0
VERTEX
  5
19B
  8
TEAM-NET
 10
54.771639
 20
-470.0
 30
800.0
 70
    64
  0
VERTEX
  5
19C
  8
TEAM-NET
 10
36.514426
 20
-470.0
 30
800.0
 70
    64
  0
VERTEX
  5
19D
  8
TEAM-NET
 10
18.257213
 20
-470.0
 30
800.0
 70
    64
  0
VERTEX
  5
19E
  8
TEAM-NET
 10
0.0
 20
-470.0
 30
800.0
 70
    64
  0
VERTEX
  5
19F
  8
TEAM-NET
 10
-18.257213
 20
-470.0
 30
800.0
 70
    64
  0
VERTEX
  5
1A0
  8
TEAM-NET
 10
-36.514426
 20
-470.0
 30
800.0
 70
    64
  0
VERTEX
  5
1A1
  8
TEAM-NET
 10
-54.771639
 20
-470.0
 30
800.0
 70
    64
  0
VERTEX
  5
1A2
  8
TEAM-NET
 10
-73.028853
 20
-470.0
 30
800.0
 70
    64
  0
VERTEX
  5
1A3
  8
TEAM-NET
 10
-91.286066
 20
-470.0
 30
800.0
 70
    64
  0
VERTEX
  5
1A4
  8
TEAM-NET
 10
-109.543279
 20
-470.0
 30
800.0
 70
    64
  0
VERTEX
  5
1A5
  8
TEAM-NET
 10
-127.800492
 20
-470.0
 30
800.0
 70
    64
  0
VERTEX
  5
1A6
  8
TEAM-NET
 10
-146.057705
 20
-470.0
 30
800.0
 70
    64
  0
VERTEX
  5
1A7
  8
TEAM-NET
 10
-164.314918
 20
-470.0
 30
800.0
 70
    64
  0
VERTEX
  5
1A8
  8
TEAM-NET
 10
-182.572132
 20
-470.0
 30
800.0
 70
    64
  0
VERTEX
  5
1A9
  8
TEAM-NET
 10
-200.523605
 20
-466.903898
 30
800.0
 70
    64
  0
VERTEX
  5
1AA
  8
TEAM-NET
 10
-218.428184
 20
-463.332922
 30
800.0
 70
    64
  0
VERTEX
  5
1AB
  8
TEAM-NET
 10
-236.332764
 20
-459.761947
 30
800.0
 70
    64
  0
VERTEX
  5
1AC
  8
TEAM-NET
 10
-254.237343
 20
-456.190971
 30
800.0
 70
    64
  0
VERTEX
  5
1AD
  8
TEAM-NET
 10
-272.141923
 20
-452.619996
 30
800.0
 70
    64
  0
VERTEX
  5
1AE
  8
TEAM-NET
 10
-290.046502
 20
-449.04902
 30
800.0
 70
    64
  0
VERTEX
  5
1AF
  8
TEAM-NET
 10
-307.229695
 20
-443.515753
 30
800.0
 70
    64
  0
VERTEX
  5
1B0
  8
TEAM-NET
 10
-315.0
 20
-427.690629
 30
800.0
 70
    64
  0
SEQEND
  5
1B1
  8
TEAM-NET
  0
LINE
  5
1B2
  8
TEAM-DET1
 10
305.0
 20
-25.0
 30
800.0
 11
197.628434
 21
-25.0
 31
800.0
  0
LINE
  5
1B3
  8
TEAM-DET1
 10
335.0
 20
-146.416497
 30
800.0
 11
335.0
 21
-55.0
 31
800.0
  0
ARC
  5
1B4
  8
TEAM-DET1
 10
0.0
 20
-357.132769
 30
800.0
 40
321.202639
 50
27.911848
 51
64.256007
  0
ARC
  5
1B5
  8
TEAM-DET1
 10
305.0
 20
-55.0
 30
800.0
 40
30.0
 50
360.0
 51
90.0
  0
LINE
  5
1B6
  8
TEAM-DET1
 10
283.836767
 20
-206.773783
 30
800.0
 11
325.346897
 21
-168.46199
 31
800.0
  0
LINE
  5
1B7
  8
TEAM-DET1
 10
273.65521
 20
-188.954408
 30
800.0
 11
335.0
 21
-132.336208
 31
800.0
  0
LINE
  5
1B8
  8
TEAM-DET1
 10
268.198532
 20
-180.382429
 30
800.0
 11
335.0
 21
-118.727984
 31
800.0
  0
LINE
  5
1B9
  8
TEAM-DET1
 10
256.574027
 20
-163.894823
 30
800.0
 11
335.0
 21
-91.511537
 31
800.0
  0
LINE
  5
1BA
  8
TEAM-DET1
 10
250.41206
 20
-155.973789
 30
800.0
 11
335.0
 21
-77.903314
 31
800.0
  0
LINE
  5
1BB
  8
TEAM-DET1
 10
237.397889
 20
-140.768777
 30
800.0
 11
334.724197
 21
-50.941418
 31
800.0
  0
LINE
  5
1BC
  8
TEAM-DET1
 10
230.547295
 20
-133.483312
 30
800.0
 11
331.273189
 21
-40.518304
 31
800.0
  0
LINE
  5
1BD
  8
TEAM-DET1
 10
237.397889
 20
-140.768777
 30
800.0
 11
334.724197
 21
-50.941418
 31
800.0
  0
LINE
  5
1BE
  8
TEAM-DET1
 10
216.158092
 20
-119.547386
 30
800.0
 11
316.233619
 21
-27.182635
 31
800.0
  0
LINE
  5
1BF
  8
TEAM-DET1
 10
208.617062
 20
-112.899159
 30
800.0
 11
303.854201
 21
-25.0
 31
800.0
  0
LINE
  5
1C0
  8
TEAM-DET1
 10
192.830825
 20
-100.252626
 30
800.0
 11
274.365676
 21
-25.0
 31
800.0
  0
LINE
  5
1C1
  8
TEAM-DET1
 10
184.578836
 20
-94.260579
 30
800.0
 11
259.621413
 21
-25.0
 31
800.0
  0
LINE
  5
1C2
  8
TEAM-DET1
 10
167.333885
 20
-82.960367
 30
800.0
 11
230.132888
 21
-25.0
 31
800.0
  0
LINE
  5
1C3
  8
TEAM-DET1
 10
167.333885
 20
-82.960367
 30
800.0
 11
230.132888
 21
-25.0
 31
800.0
  0
LINE
  5
1C4
  8
TEAM-DET1
 10
158.328791
 20
-77.663399
 30
800.0
 11
215.388625
 21
-25.0
 31
800.0
  0
LINE
  5
1C5
  8
TEAM-DET1
 10
139.514631
 20
-67.811489
 30
800.0
 11
177.281537
 21
-32.954507
 31
800.0
  0
ARC
  5
1C6
  8
TEAM-DET1
 10
197.628434
 20
-55.0
 30
800.0
 40
30.0
 50
90.0
 51
132.705477
  0
ARC
  5
1C7
  8
TEAM-DET1
 10
305.0
 20
-146.416497
 30
800.0
 40
30.0
 50
312.705477
 51
360.0
  0
LINE
  5
1C8
  8
TEAM-DET1
 10
270.956878
 20
-184.640724
 30
800.0
 11
335.0
 21
-125.532096
 31
800.0
  0
LINE
  5
1C9
  8
TEAM-DET1
 10
253.521949
 20
-159.907628
 30
800.0
 11
335.0
 21
-84.707425
 31
800.0
  0
LINE
  5
1CA
  8
TEAM-DET1
 10
234.001195
 20
-137.099645
 30
800.0
 11
333.406705
 21
-45.353286
 31
800.0
  0
LINE
  5
1CB
  8
TEAM-DET1
 10
212.416635
 20
-116.196453
 30
800.0
 11
310.645587
 21
-25.535999
 31
800.0
  0
LINE
  5
1CC
  8
TEAM-DET1
 10
188.735163
 20
-97.228607
 30
800.0
 11
266.993545
 21
-25.0
 31
800.0
  0
LINE
  5
1CD
  8
TEAM-DET1
 10
162.863951
 20
-80.281783
 30
800.0
 11
222.760757
 21
-25.0
 31
800.0
  0
POLYLINE
  5
1CE
  8
TEAM-NET
 66
     1
 10
0.0
 20
0.0
 30
0.0
 70
    16
 71
     2
 72
    25
  0
VERTEX
  5
1CF
  8
TEAM-NET
 10
324.238113
 20
-20.0
 30
860.0
 70
    64
  0
VERTEX
  5
1D0
  8
TEAM-NET
 10
297.21827
 20
-20.0
 30
860.0
 70
    64
  0
VERTEX
  5
1D1
  8
TEAM-NET
 10
270.198427
 20
-20.0
 30
860.0
 70
    64
  0
VERTEX
  5
1D2
  8
TEAM-NET
 10
243.178585
 20
-20.0
 30
860.0
 70
    64
  0
VERTEX
  5
1D3
  8
TEAM-NET
 10
216.158742
 20
-20.0
 30
860.0
 70
    64
  0
VERTEX
  5
1D4
  8
TEAM-NET
 10
189.138899
 20
-20.0
 30
860.0
 70
    64
  0
VERTEX
  5
1D5
  8
TEAM-NET
 10
162.119056
 20
-20.0
 30
860.0
 70
    64
  0
VERTEX
  5
1D6
  8
TEAM-NET
 10
135.099214
 20
-20.0
 30
860.0
 70
    64
  0
VERTEX
  5
1D7
  8
TEAM-NET
 10
108.079371
 20
-20.0
 30
860.0
 70
    64
  0
VERTEX
  5
1D8
  8
TEAM-NET
 10
81.059528
 20
-20.0
 30
860.0
 70
    64
  0
VERTEX
  5
1D9
  8
TEAM-NET
 10
54.039685
 20
-20.0
 30
860.0
 70
    64
  0
VERTEX
  5
1DA
  8
TEAM-NET
 10
27.019843
 20
-20.0
 30
860.0
 70
    64
  0
VERTEX
  5
1DB
  8
TEAM-NET
 10
0.0
 20
-20.0
 30
860.0
 70
    64
  0
VERTEX
  5
1DC
  8
TEAM-NET
 10
-27.019843
 20
-20.0
 30
860.0
 70
    64
  0
VERTEX
  5
1DD
  8
TEAM-NET
 10
-54.039685
 20
-20.0
 30
860.0
 70
    64
  0
VERTEX
  5
1DE
  8
TEAM-NET
 10
-81.059528
 20
-20.0
 30
860.0
 70
    64
  0
VERTEX
  5
1DF
  8
TEAM-NET
 10
-108.079371
 20
-20.0
 30
860.0
 70
    64
  0
VERTEX
  5
1E0
  8
TEAM-NET
 10
-135.099214
 20
-20.0
 30
860.0
 70
    64
  0
VERTEX
  5
1E1
  8
TEAM-NET
 10
-162.119056
 20
-20.0
 30
860.0
 70
    64
  0
VERTEX
  5
1E2
  8
TEAM-NET
 10
-189.138899
 20
-20.0
 30
860.0
 70
    64
  0
VERTEX
  5
1E3
  8
TEAM-NET
 10
-216.158742
 20
-20.0
 30
860.0
 70
    64
  0
VERTEX
  5
1E4
  8
TEAM-NET
 10
-243.178585
 20
-20.0
 30
860.0
 70
    64
  0
VERTEX
  5
1E5
  8
TEAM-NET
 10
-270.198427
 20
-20.0
 30
860.0
 70
    64
  0
VERTEX
  5
1E6
  8
TEAM-NET
 10
-297.21827
 20
-20.0
 30
860.0
 70
    64
  0
VERTEX
  5
1E7
  8
TEAM-NET
 10
-324.238113
 20
-20.0
 30
860.0
 70
    64
  0
VERTEX
  5
1E8
  8
TEAM-NET
 10
324.238113
 20
0.0
 30
860.0
 70
    64
  0
VERTEX
  5
1E9
  8
TEAM-NET
 10
297.21827
 20
0.0
 30
860.0
 70
    64
  0
VERTEX
  5
1EA
  8
TEAM-NET
 10
270.198427
 20
0.0
 30
860.0
 70
    64
  0
VERTEX
  5
1EB
  8
TEAM-NET
 10
243.178585
 20
0.0
 30
860.0
 70
    64
  0
VERTEX
  5
1EC
  8
TEAM-NET
 10
216.158742
 20
0.0
 30
860.0
 70
    64
  0
VERTEX
  5
1ED
  8
TEAM-NET
 10
189.138899
 20
0.0
 30
860.0
 70
    64
  0
VERTEX
  5
1EE
  8
TEAM-NET
 10
162.119056
 20
0.0
 30
860.0
 70
    64
  0
VERTEX
  5
1EF
  8
TEAM-NET
 10
135.099214
 20
0.0
 30
860.0
 70
    64
  0
VERTEX
  5
1F0
  8
TEAM-NET
 10
108.079371
 20
0.0
 30
860.0
 70
    64
  0
VERTEX
  5
1F1
  8
TEAM-NET
 10
81.059528
 20
0.0
 30
860.0
 70
    64
  0
VERTEX
  5
1F2
  8
TEAM-NET
 10
54.039685
 20
0.0
 30
860.0
 70
    64
  0
VERTEX
  5
1F3
  8
TEAM-NET
 10
27.019843
 20
0.0
 30
860.0
 70
    64
  0
VERTEX
  5
1F4
  8
TEAM-NET
 10
0.0
 20
0.0
 30
860.0
 70
    64
  0
VERTEX
  5
1F5
  8
TEAM-NET
 10
-27.019843
 20
0.0
 30
860.0
 70
    64
  0
VERTEX
  5
1F6
  8
TEAM-NET
 10
-54.039685
 20
0.0
 30
860.0
 70
    64
  0
VERTEX
  5
1F7
  8
TEAM-NET
 10
-81.059528
 20
0.0
 30
860.0
 70
    64
  0
VERTEX
  5
1F8
  8
TEAM-NET
 10
-108.079371
 20
0.0
 30
860.0
 70
    64
  0
VERTEX
  5
1F9
  8
TEAM-NET
 10
-135.099214
 20
0.0
 30
860.0
 70
    64
  0
VERTEX
  5
1FA
  8
TEAM-NET
 10
-162.119056
 20
0.0
 30
860.0
 70
    64
  0
VERTEX
  5
1FB
  8
TEAM-NET
 10
-189.138899
 20
0.0
 30
860.0
 70
    64
  0
VERTEX
  5
1FC
  8
TEAM-NET
 10
-216.158742
 20
0.0
 30
860.0
 70
    64
  0
VERTEX
  5
1FD
  8
TEAM-NET
 10
-243.178585
 20
0.0
 30
860.0
 70
    64
  0
VERTEX
  5
1FE
  8
TEAM-NET
 10
-270.198427
 20
0.0
 30
860.0
 70
    64
  0
VERTEX
  5
1FF
  8
TEAM-NET
 10
-297.21827
 20
0.0
 30
860.0
 70
    64
  0
VERTEX
  5
200
  8
TEAM-NET
 10
-324.238113
 20
0.0
 30
860.0
 70
    64
  0
SEQEND
  5
201
  8
TEAM-NET
  0
LINE
  5
202
  8
TEAM-AXE
 10
56.5
 20
0.0
 30
1100.0
 11
96.5
 21
0.0
 31
1100.0
  0
CIRCLE
  5
205
  8
TEAM-WARM
 10
-76.5
 20
0.0
 30
1100.0
 40
15.0
  0
LINE
  5
207
  8
TEAM-AXE
 10
-96.5
 20
0.0
 30
1100.0
 11
-56.5
 21
0.0
 31
1100.0
  0
LINE
  5
208
  8
TEAM-AXE
 10
-76.5
 20
-20.0
 30
1100.0
 11
-76.5
 21
20.0
 31
1100.0
  0
CIRCLE
  5
209
  8
TEAM-COLD
 10
76.5
 20
0.0
 30
1100.0
 40
15.0
  0
LINE
  5
20B
  8
TEAM-AXE
 10
76.5
 20
-20.0
 30
1100.0
 11
76.5
 21
20.0
 31
1100.0
  0
ENDSEC
  0
EOF
