  0
SECTION
  2
HEADER
  9
$ACADVER
  1
AC1009
  9
$INSBASE
 10
0.0
 20
0.0
 30
0.0
  9
$EXTMIN
 10
-277.121403
 20
-510.018756
 30
-0.00035
  9
$EXTMAX
 10
462.248021
 20
20.036635
 30
1100.047484
  9
$LIMMIN
 10
-277.121403
 20
-510.018756
  9
$LIMMAX
 10
462.248021
 20
20.036635
  9
$ORTHOMODE
 70
     0
  9
$REGENMODE
 70
     1
  9
$FILLMODE
 70
     1
  9
$QTEXTMODE
 70
     0
  9
$MIRRTEXT
 70
     0
  9
$DRAGMODE
 70
     2
  9
$LTSCALE
 40
25.0
  9
$OSMODE
 70
     0
  9
$ATTMODE
 70
     1
  9
$TEXTSIZE
 40
200.0
  9
$TRACEWID
 40
1.0
  9
$TEXTSTYLE
  7
STANDARD
  9
$CLAYER
  8
0
  9
$CELTYPE
  6
BYLAYER
  9
$CECOLOR
 62
   256
  9
$DIMSCALE
 40
0.0
  9
$DIMASZ
 40
20.0
  9
$DIMEXO
 40
10.0
  9
$DIMDLI
 40
1.0
  9
$DIMRND
 40
0.0
  9
$DIMDLE
 40
0.0
  9
$DIMEXE
 40
1.0
  9
$DIMTP
 40
0.0
  9
$DIMTM
 40
0.0
  9
$DIMTXT
 40
35.0
  9
$DIMCEN
 40
1.0
  9
$DIMTSZ
 40
0.0
  9
$DIMTOL
 70
     0
  9
$DIMLIM
 70
     0
  9
$DIMTIH
 70
     0
  9
$DIMTOH
 70
     0
  9
$DIMSE1
 70
     0
  9
$DIMSE2
 70
     0
  9
$DIMTAD
 70
     0
  9
$DIMZIN
 70
     0
  9
$DIMBLK
  1

  9
$DIMASO
 70
     1
  9
$DIMSHO
 70
     0
  9
$DIMPOST
  1

  9
$DIMAPOST
  1

  9
$DIMALT
 70
     0
  9
$DIMALTD
 70
     2
  9
$DIMALTF
 40
25.4
  9
$DIMLFAC
 40
1.0
  9
$DIMTOFL
 70
     0
  9
$DIMTVP
 40
0.0
  9
$DIMTIX
 70
     0
  9
$DIMSOXD
 70
     0
  9
$DIMSAH
 70
     0
  9
$DIMBLK1
  1

  9
$DIMBLK2
  1

  9
$DIMSTYLE
  2
TEAM
  9
$DIMCLRD
 70
     9
  9
$DIMCLRE
 70
     9
  9
$DIMCLRT
 70
    11
  9
$DIMTFAC
 40
1.0
  9
$DIMGAP
 40
15.0
  9
$LUNITS
 70
     2
  9
$LUPREC
 70
     1
  9
$SKETCHINC
 40
1.0
  9
$FILLETRAD
 40
50.0
  9
$AUNITS
 70
     0
  9
$AUPREC
 70
     0
  9
$MENU
  1
ROPLANS
  9
$ELEVATION
 40
0.0
  9
$PELEVATION
 40
0.0
  9
$THICKNESS
 40
0.0
  9
$LIMCHECK
 70
     0
  9
$BLIPMODE
 70
     1
  9
$CHAMFERA
 40
0.0
  9
$CHAMFERB
 40
0.0
  9
$SKPOLY
 70
     0
  9
$TDCREATE
 40
2450392.957851
  9
$TDUPDATE
 40
2455526.756388
  9
$TDINDWG
 40
1.964545
  9
$TDUSRTIMER
 40
1.964545
  9
$USRTIMER
 70
     1
  9
$ANGBASE
 50
0.0
  9
$ANGDIR
 70
     0
  9
$PDMODE
 70
     0
  9
$PDSIZE
 40
0.0
  9
$PLINEWID
 40
0.0
  9
$COORDS
 70
     2
  9
$SPLFRAME
 70
     0
  9
$SPLINETYPE
 70
     6
  9
$SPLINESEGS
 70
     8
  9
$ATTDIA
 70
     0
  9
$ATTREQ
 70
     0
  9
$HANDLING
 70
     1
  9
$HANDSEED
  5
356
  9
$SURFTAB1
 70
    24
  9
$SURFTAB2
 70
    24
  9
$SURFTYPE
 70
     6
  9
$SURFU
 70
     6
  9
$SURFV
 70
     6
  9
$UCSNAME
  2

  9
$UCSORG
 10
0.0
 20
0.0
 30
0.0
  9
$UCSXDIR
 10
1.0
 20
0.0
 30
0.0
  9
$UCSYDIR
 10
0.0
 20
1.0
 30
0.0
  9
$PUCSNAME
  2

  9
$PUCSORG
 10
0.0
 20
0.0
 30
0.0
  9
$PUCSXDIR
 10
1.0
 20
0.0
 30
0.0
  9
$PUCSYDIR
 10
0.0
 20
1.0
 30
0.0
  9
$USERI1
 70
     0
  9
$USERI2
 70
     0
  9
$USERI3
 70
     0
  9
$USERI4
 70
     0
  9
$USERI5
 70
     0
  9
$USERR1
 40
0.0
  9
$USERR2
 40
0.0
  9
$USERR3
 40
0.0
  9
$USERR4
 40
0.0
  9
$USERR5
 40
0.0
  9
$WORLDVIEW
 70
     1
  9
$SHADEDGE
 70
     0
  9
$SHADEDIF
 70
    70
  9
$TILEMODE
 70
     1
  9
$MAXACTVP
 70
    16
  9
$PLIMCHECK
 70
     0
  9
$PEXTMIN
 10
-0.805942
 20
0.005011
 30
0.0
  9
$PEXTMAX
 10
20.392854
 20
13.725274
 30
0.0
  9
$PLIMMIN
 10
0.0
 20
0.0
  9
$PLIMMAX
 10
12.0
 20
9.0
  9
$UNITMODE
 70
     0
  9
$VISRETAIN
 70
     0
  9
$PLINEGEN
 70
     0
  9
$PSLTSCALE
 70
     0
  0
ENDSEC
  0
SECTION
  2
TABLES
  0
TABLE
  2
VPORT
 70
     2
  0
VPORT
  2
*ACTIVE
 70
     0
 10
0.0
 20
0.0
 11
1.0
 21
1.0
 12
92.563309
 22
-244.991061
 13
0.0
 23
0.0
 14
1.0
 24
1.0
 15
50.0
 25
50.0
 16
0.0
 26
0.0
 36
1.0
 17
0.0
 27
0.0
 37
0.0
 40
533.310593
 41
1.865779
 42
50.0
 43
0.0
 44
0.0
 50
0.0
 51
0.0
 71
     0
 72
   100
 73
     1
 74
     1
 75
     0
 76
     0
 77
     0
 78
     0
  0
ENDTAB
  0
TABLE
  2
LTYPE
 70
     2
  0
LTYPE
  2
CONTINUOUS
 70
     0
  3
Solid Line
 72
    65
 73
     0
 40
0.0
  0
LTYPE
  2
31
 70
     0
  3

 72
    65
 73
     4
 40
2.1
 49
1.5
 49
-0.3
 49
0.0
 49
-0.3
  0
ENDTAB
  0
TABLE
  2
LAYER
 70
    10
  0
LAYER
  2
0
 70
     0
 62
     7
  6
CONTINUOUS
  0
LAYER
  2
TEAM-NET2
 70
     0
 62
    13
  6
CONTINUOUS
  0
LAYER
  2
TEAM-BODY
 70
     0
 62
     2
  6
CONTINUOUS
  0
LAYER
  2
TEAM-AXE
 70
     0
 62
    10
  6
31
  0
LAYER
  2
TEAM-TXT
 70
     0
 62
    11
  6
CONTINUOUS
  0
LAYER
  2
TEAM-DET1
 70
     0
 62
     4
  6
CONTINUOUS
  0
LAYER
  2
TEAM-COLD
 70
     0
 62
     3
  6
CONTINUOUS
  0
LAYER
  2
TEAM-WARM
 70
     0
 62
     1
  6
CONTINUOUS
  0
LAYER
  2
TEAM-NET
 70
     0
 62
    15
  6
CONTINUOUS
  0
LAYER
  2
TEAM-INSP
 70
     0
 62
     5
  6
CONTINUOUS
  0
ENDTAB
  0
TABLE
  2
STYLE
 70
     2
  0
STYLE
  2
STANDARD
 70
     0
 40
0.0
 41
1.0
 50
0.0
 71
     0
 42
200.0
  3
txt
  4

  0
STYLE
  2
TEAM
 70
     0
 40
0.0
 41
0.8
 50
15.0
 71
     0
 42
7.0
  3
ROMANS.shx
  4

  0
ENDTAB
  0
TABLE
  2
VIEW
 70
     0
  0
ENDTAB
  0
TABLE
  2
UCS
 70
     0
  0
ENDTAB
  0
TABLE
  2
APPID
 70
     1
  0
APPID
  2
ACAD
 70
     0
  0
ENDTAB
  0
TABLE
  2
DIMSTYLE
 70
     1
  0
DIMSTYLE
  2
TEAM
 70
     0
  3

  4

  5

  6

  7

 40
0.0
 41
20.0
 42
10.0
 43
1.0
 44
1.0
 45
0.0
 46
0.0
 47
0.0
 48
0.0
140
35.0
141
1.0
142
0.0
143
25.4
144
1.0
145
0.0
146
1.0
147
15.0
 71
     0
 72
     0
 73
     0
 74
     0
 75
     0
 76
     0
 77
     0
 78
     0
170
     0
171
     2
172
     0
173
     0
174
     0
175
     0
176
     9
177
     9
178
    11
  0
ENDTAB
  0
ENDSEC
  0
SECTION
  2
BLOCKS
  0
BLOCK
  8
0
  2
$MODEL_SPACE
 70
     0
 10
0.0
 20
0.0
 30
0.0
  3
$MODEL_SPACE
  1

  0
ENDBLK
  5
31D
  8
0
  0
BLOCK
 67
     1
  8
0
  2
$PAPER_SPACE
 70
     0
 10
0.0
 20
0.0
 30
0.0
  3
$PAPER_SPACE
  1

  0
ENDBLK
  5
31B
 67
     1
  8
0
  0
ENDSEC
  0
SECTION
  2
ENTITIES
  0
POLYLINE
  5
1F
  8
TEAM-NET
 66
     1
 10
0.0
 20
0.0
 30
0.0
 70
    16
 71
     2
 72
    25
  0
VERTEX
  5
20
  8
TEAM-NET
 10
-228.0
 20
-422.596179
 30
800.0
 70
    64
  0
VERTEX
  5
21
  8
TEAM-NET
 10
-221.276111
 20
-441.522949
 30
800.0
 70
    64
  0
VERTEX
  5
22
  8
TEAM-NET
 10
-204.11849
 20
-451.96562
 30
800.0
 70
    64
  0
VERTEX
  5
23
  8
TEAM-NET
 10
-183.925442
 20
-455.385234
 30
800.0
 70
    64
  0
VERTEX
  5
24
  8
TEAM-NET
 10
-163.670075
 20
-458.41555
 30
800.0
 70
    64
  0
VERTEX
  5
25
  8
TEAM-NET
 10
-143.361801
 20
-461.068224
 30
800.0
 70
    64
  0
VERTEX
  5
26
  8
TEAM-NET
 10
-123.007659
 20
-463.342336
 30
800.0
 70
    64
  0
VERTEX
  5
27
  8
TEAM-NET
 10
-102.614705
 20
-465.237099
 30
800.0
 70
    64
  0
VERTEX
  5
28
  8
TEAM-NET
 10
-82.190009
 20
-466.751856
 30
800.0
 70
    64
  0
VERTEX
  5
29
  8
TEAM-NET
 10
-61.740652
 20
-467.886082
 30
800.0
 70
    64
  0
VERTEX
  5
2A
  8
TEAM-NET
 10
-41.273722
 20
-468.639383
 30
800.0
 70
    64
  0
VERTEX
  5
2B
  8
TEAM-NET
 10
-20.796314
 20
-469.011498
 30
800.0
 70
    64
  0
VERTEX
  5
2C
  8
TEAM-NET
 10
-0.315528
 20
-469.002298
 30
800.0
 70
    64
  0
VERTEX
  5
2D
  8
TEAM-NET
 10
20.161537
 20
-468.611787
 30
800.0
 70
    64
  0
VERTEX
  5
2E
  8
TEAM-NET
 10
40.627782
 20
-467.8401
 30
800.0
 70
    64
  0
VERTEX
  5
2F
  8
TEAM-NET
 10
61.076113
 20
-466.687504
 30
800.0
 70
    64
  0
VERTEX
  5
30
  8
TEAM-NET
 10
81.49944
 20
-465.154399
 30
800.0
 70
    64
  0
VERTEX
  5
31
  8
TEAM-NET
 10
101.890683
 20
-463.241316
 30
800.0
 70
    64
  0
VERTEX
  5
32
  8
TEAM-NET
 10
122.242774
 20
-460.948919
 30
800.0
 70
    64
  0
VERTEX
  5
33
  8
TEAM-NET
 10
142.548657
 20
-458.278002
 30
800.0
 70
    64
  0
VERTEX
  5
34
  8
TEAM-NET
 10
162.801293
 20
-455.229491
 30
800.0
 70
    64
  0
VERTEX
  5
35
  8
TEAM-NET
 10
182.993662
 20
-451.804443
 30
800.0
 70
    64
  0
VERTEX
  5
36
  8
TEAM-NET
 10
203.11849
 20
-448.002698
 30
800.0
 70
    64
  0
VERTEX
  5
37
  8
TEAM-NET
 10
220.276111
 20
-437.560028
 30
800.0
 70
    64
  0
VERTEX
  5
38
  8
TEAM-NET
 10
227.0
 20
-418.633257
 30
800.0
 70
    64
  0
VERTEX
  5
39
  8
TEAM-NET
 10
-208.0
 20
-395.949987
 30
555.0
 70
    64
  0
VERTEX
  5
3A
  8
TEAM-NET
 10
-202.30658
 20
-413.533791
 30
555.0
 70
    64
  0
VERTEX
  5
3B
  8
TEAM-NET
 10
-187.387322
 20
-424.443463
 30
555.0
 70
    64
  0
VERTEX
  5
3C
  8
TEAM-NET
 10
-168.897698
 20
-427.670359
 30
555.0
 70
    64
  0
VERTEX
  5
3D
  8
TEAM-NET
 10
-150.281921
 20
-430.207494
 30
555.0
 70
    64
  0
VERTEX
  5
3E
  8
TEAM-NET
 10
-131.625526
 20
-432.426316
 30
555.0
 70
    64
  0
VERTEX
  5
3F
  8
TEAM-NET
 10
-112.933957
 20
-434.326177
 30
555.0
 70
    64
  0
VERTEX
  5
40
  8
TEAM-NET
 10
-94.212666
 20
-435.906522
 30
555.0
 70
    64
  0
VERTEX
  5
41
  8
TEAM-NET
 10
-75.467114
 20
-437.166891
 30
555.0
 70
    64
  0
VERTEX
  5
42
  8
TEAM-NET
 10
-56.702771
 20
-438.106916
 30
555.0
 70
    64
  0
VERTEX
  5
43
  8
TEAM-NET
 10
-37.92511
 20
-438.726322
 30
555.0
 70
    64
  0
VERTEX
  5
44
  8
TEAM-NET
 10
-19.139609
 20
-439.02493
 30
555.0
 70
    64
  0
VERTEX
  5
45
  8
TEAM-NET
 10
-0.351747
 20
-439.002651
 30
555.0
 70
    64
  0
VERTEX
  5
46
  8
TEAM-NET
 10
18.432993
 20
-438.659493
 30
555.0
 70
    64
  0
VERTEX
  5
47
  8
TEAM-NET
 10
37.209132
 20
-437.995556
 30
555.0
 70
    64
  0
VERTEX
  5
48
  8
TEAM-NET
 10
55.971194
 20
-437.011032
 30
555.0
 70
    64
  0
VERTEX
  5
49
  8
TEAM-NET
 10
74.713703
 20
-435.70621
 30
555.0
 70
    64
  0
VERTEX
  5
4A
  8
TEAM-NET
 10
93.431194
 20
-434.081471
 30
555.0
 70
    64
  0
VERTEX
  5
4B
  8
TEAM-NET
 10
112.118205
 20
-432.137287
 30
555.0
 70
    64
  0
VERTEX
  5
4C
  8
TEAM-NET
 10
130.769285
 20
-429.874226
 30
555.0
 70
    64
  0
VERTEX
  5
4D
  8
TEAM-NET
 10
149.378993
 20
-427.292949
 30
555.0
 70
    64
  0
VERTEX
  5
4E
  8
TEAM-NET
 10
167.9419
 20
-424.394208
 30
555.0
 70
    64
  0
VERTEX
  5
4F
  8
TEAM-NET
 10
186.387322
 20
-420.893868
 30
555.0
 70
    64
  0
VERTEX
  5
50
  8
TEAM-NET
 10
201.30658
 20
-409.984196
 30
555.0
 70
    64
  0
VERTEX
  5
51
  8
TEAM-NET
 10
207.0
 20
-392.400392
 30
555.0
 70
    64
  0
SEQEND
  5
53
  8
TEAM-NET
  0
POLYLINE
  5
54
  8
TEAM-NET
 66
     1
 10
0.0
 20
0.0
 30
0.0
 70
    16
 71
     2
 72
    37
  0
VERTEX
  5
55
  8
TEAM-NET
 10
227.0
 20
-418.633257
 30
800.0
 70
    64
  0
VERTEX
  5
56
  8
TEAM-NET
 10
227.0
 20
-387.195591
 30
800.0
 70
    64
  0
VERTEX
  5
57
  8
TEAM-NET
 10
227.0
 20
-355.757925
 30
800.0
 70
    64
  0
VERTEX
  5
58
  8
TEAM-NET
 10
227.0
 20
-324.320259
 30
800.0
 70
    64
  0
VERTEX
  5
59
  8
TEAM-NET
 10
227.0
 20
-292.882593
 30
800.0
 70
    64
  0
VERTEX
  5
5A
  8
TEAM-NET
 10
227.0
 20
-261.444927
 30
800.0
 70
    64
  0
VERTEX
  5
5B
  8
TEAM-NET
 10
227.0
 20
-230.007261
 30
800.0
 70
    64
  0
VERTEX
  5
5C
  8
TEAM-NET
 10
227.0
 20
-198.569595
 30
800.0
 70
    64
  0
VERTEX
  5
5D
  8
TEAM-NET
 10
227.0
 20
-167.131929
 30
800.0
 70
    64
  0
VERTEX
  5
5E
  8
TEAM-NET
 10
227.0
 20
-135.694263
 30
800.0
 70
    64
  0
VERTEX
  5
5F
  8
TEAM-NET
 10
216.615981
 20
-107.301689
 30
800.0
 70
    64
  0
VERTEX
  5
60
  8
TEAM-NET
 10
186.942821
 20
-100.0
 30
800.0
 70
    64
  0
VERTEX
  5
61
  8
TEAM-NET
 10
155.505155
 20
-100.0
 30
800.0
 70
    64
  0
VERTEX
  5
62
  8
TEAM-NET
 10
124.067489
 20
-100.0
 30
800.0
 70
    64
  0
VERTEX
  5
63
  8
TEAM-NET
 10
92.629823
 20
-100.0
 30
800.0
 70
    64
  0
VERTEX
  5
64
  8
TEAM-NET
 10
62.046145
 20
-96.902314
 30
800.0
 70
    64
  0
VERTEX
  5
65
  8
TEAM-NET
 10
50.699979
 20
-67.913989
 30
800.0
 70
    64
  0
VERTEX
  5
66
  8
TEAM-NET
 10
27.84521
 20
-46.852617
 30
800.0
 70
    64
  0
VERTEX
  5
67
  8
TEAM-NET
 10
-2.480753
 20
-40.051306
 30
800.0
 70
    64
  0
VERTEX
  5
68
  8
TEAM-NET
 10
-32.141102
 20
-49.334927
 30
800.0
 70
    64
  0
VERTEX
  5
69
  8
TEAM-NET
 10
-53.177618
 20
-72.212577
 30
800.0
 70
    64
  0
VERTEX
  5
6A
  8
TEAM-NET
 10
-66.205788
 20
-99.515079
 30
800.0
 70
    64
  0
VERTEX
  5
6B
  8
TEAM-NET
 10
-97.592744
 20
-100.0
 30
800.0
 70
    64
  0
VERTEX
  5
6C
  8
TEAM-NET
 10
-129.03041
 20
-100.0
 30
800.0
 70
    64
  0
VERTEX
  5
6D
  8
TEAM-NET
 10
-160.468076
 20
-100.0
 30
800.0
 70
    64
  0
VERTEX
  5
6E
  8
TEAM-NET
 10
-191.905742
 20
-100.0
 30
800.0
 70
    64
  0
VERTEX
  5
6F
  8
TEAM-NET
 10
-220.434758
 20
-110.083132
 30
800.0
 70
    64
  0
VERTEX
  5
70
  8
TEAM-NET
 10
-228.0
 20
-139.657185
 30
800.0
 70
    64
  0
VERTEX
  5
71
  8
TEAM-NET
 10
-228.0
 20
-171.094851
 30
800.0
 70
    64
  0
VERTEX
  5
72
  8
TEAM-NET
 10
-228.0
 20
-202.532517
 30
800.0
 70
    64
  0
VERTEX
  5
73
  8
TEAM-NET
 10
-228.0
 20
-233.970183
 30
800.0
 70
    64
  0
VERTEX
  5
74
  8
TEAM-NET
 10
-228.0
 20
-265.407849
 30
800.0
 70
    64
  0
VERTEX
  5
75
  8
TEAM-NET
 10
-228.0
 20
-296.845515
 30
800.0
 70
    64
  0
VERTEX
  5
76
  8
TEAM-NET
 10
-228.0
 20
-328.283181
 30
800.0
 70
    64
  0
VERTEX
  5
77
  8
TEAM-NET
 10
-228.0
 20
-359.720847
 30
800.0
 70
    64
  0
VERTEX
  5
78
  8
TEAM-NET
 10
-228.0
 20
-391.158513
 30
800.0
 70
    64
  0
VERTEX
  5
79
  8
TEAM-NET
 10
-228.0
 20
-422.596179
 30
800.0
 70
    64
  0
VERTEX
  5
7A
  8
TEAM-NET
 10
207.0
 20
-392.400392
 30
555.0
 70
    64
  0
VERTEX
  5
7B
  8
TEAM-NET
 10
207.0
 20
-364.043307
 30
555.0
 70
    64
  0
VERTEX
  5
7C
  8
TEAM-NET
 10
207.0
 20
-335.686222
 30
555.0
 70
    64
  0
VERTEX
  5
7D
  8
TEAM-NET
 10
207.0
 20
-307.329137
 30
555.0
 70
    64
  0
VERTEX
  5
7E
  8
TEAM-NET
 10
207.0
 20
-278.972051
 30
555.0
 70
    64
  0
VERTEX
  5
7F
  8
TEAM-NET
 10
207.0
 20
-250.614966
 30
555.0
 70
    64
  0
VERTEX
  5
80
  8
TEAM-NET
 10
207.0
 20
-222.257881
 30
555.0
 70
    64
  0
VERTEX
  5
81
  8
TEAM-NET
 10
207.0
 20
-193.900796
 30
555.0
 70
    64
  0
VERTEX
  5
82
  8
TEAM-NET
 10
207.0
 20
-165.54371
 30
555.0
 70
    64
  0
VERTEX
  5
83
  8
TEAM-NET
 10
205.988258
 20
-137.274659
 30
555.0
 70
    64
  0
VERTEX
  5
84
  8
TEAM-NET
 10
187.711683
 20
-116.977512
 30
555.0
 70
    64
  0
VERTEX
  5
85
  8
TEAM-NET
 10
159.596344
 20
-115.0
 30
555.0
 70
    64
  0
VERTEX
  5
86
  8
TEAM-NET
 10
131.239259
 20
-115.0
 30
555.0
 70
    64
  0
VERTEX
  5
87
  8
TEAM-NET
 10
102.882174
 20
-115.0
 30
555.0
 70
    64
  0
VERTEX
  5
88
  8
TEAM-NET
 10
74.525089
 20
-115.0
 30
555.0
 70
    64
  0
VERTEX
  5
89
  8
TEAM-NET
 10
47.191056
 20
-111.521152
 30
555.0
 70
    64
  0
VERTEX
  5
8A
  8
TEAM-NET
 10
42.098967
 20
-84.104185
 30
555.0
 70
    64
  0
VERTEX
  5
8B
  8
TEAM-NET
 10
24.64626
 20
-62.349477
 30
555.0
 70
    64
  0
VERTEX
  5
8C
  8
TEAM-NET
 10
-2.273829
 20
-55.057484
 30
555.0
 70
    64
  0
VERTEX
  5
8D
  8
TEAM-NET
 10
-28.32047
 20
-65.029284
 30
555.0
 70
    64
  0
VERTEX
  5
8E
  8
TEAM-NET
 10
-43.488354
 20
-88.434403
 30
555.0
 70
    64
  0
VERTEX
  5
8F
  8
TEAM-NET
 10
-50.827788
 20
-114.189188
 30
555.0
 70
    64
  0
VERTEX
  5
90
  8
TEAM-NET
 10
-79.074683
 20
-115.0
 30
555.0
 70
    64
  0
VERTEX
  5
91
  8
TEAM-NET
 10
-107.431768
 20
-115.0
 30
555.0
 70
    64
  0
VERTEX
  5
92
  8
TEAM-NET
 10
-135.788854
 20
-115.0
 30
555.0
 70
    64
  0
VERTEX
  5
93
  8
TEAM-NET
 10
-164.145939
 20
-115.0
 30
555.0
 70
    64
  0
VERTEX
  5
94
  8
TEAM-NET
 10
-191.944675
 20
-118.437884
 30
555.0
 70
    64
  0
VERTEX
  5
95
  8
TEAM-NET
 10
-207.697513
 20
-140.75056
 30
555.0
 70
    64
  0
VERTEX
  5
96
  8
TEAM-NET
 10
-208.0
 20
-169.093305
 30
555.0
 70
    64
  0
VERTEX
  5
97
  8
TEAM-NET
 10
-208.0
 20
-197.45039
 30
555.0
 70
    64
  0
VERTEX
  5
98
  8
TEAM-NET
 10
-208.0
 20
-225.807475
 30
555.0
 70
    64
  0
VERTEX
  5
99
  8
TEAM-NET
 10
-208.0
 20
-254.164561
 30
555.0
 70
    64
  0
VERTEX
  5
9A
  8
TEAM-NET
 10
-208.0
 20
-282.521646
 30
555.0
 70
    64
  0
VERTEX
  5
9B
  8
TEAM-NET
 10
-208.0
 20
-310.878731
 30
555.0
 70
    64
  0
VERTEX
  5
9C
  8
TEAM-NET
 10
-208.0
 20
-339.235816
 30
555.0
 70
    64
  0
VERTEX
  5
9D
  8
TEAM-NET
 10
-208.0
 20
-367.592902
 30
555.0
 70
    64
  0
VERTEX
  5
9E
  8
TEAM-NET
 10
-208.0
 20
-395.949987
 30
555.0
 70
    64
  0
SEQEND
  5
9F
  8
TEAM-NET
  0
CIRCLE
  5
A0
  8
TEAM-INSP
 10
0.0
 20
0.0
 30
0.0
 40
10.0
  0
CIRCLE
  5
A2
  8
TEAM-BODY
 39
-40.0
 10
0.0
 20
-100.0
 30
550.0
 40
26.0
  0
CIRCLE
  5
A4
  8
TEAM-DET1
 39
-40.0
 10
0.0
 20
-100.0
 30
550.0
 40
21.0
  0
POLYLINE
  5
A6
  8
TEAM-DET1
 66
     1
 10
0.0
 20
0.0
 30
555.0
  0
VERTEX
  5
323
  8
TEAM-DET1
 10
207.0
 20
-392.400392
 30
555.0
  0
VERTEX
  5
324
  8
TEAM-DET1
 10
207.0
 20
-145.0
 30
555.0
 42
0.414214
  0
VERTEX
  5
325
  8
TEAM-DET1
 10
177.0
 20
-115.0
 30
555.0
  0
VERTEX
  5
326
  8
TEAM-DET1
 10
54.772256
 20
-115.0
 30
555.0
 42
-0.441135
  0
VERTEX
  5
327
  8
TEAM-DET1
 10
44.813664
 20
-104.090909
 30
555.0
 42
1.095445
  0
VERTEX
  5
328
  8
TEAM-DET1
 10
-44.813664
 20
-104.090909
 30
555.0
 42
-0.441135
  0
VERTEX
  5
329
  8
TEAM-DET1
 10
-54.772256
 20
-115.0
 30
555.0
  0
VERTEX
  5
32A
  8
TEAM-DET1
 10
-178.0
 20
-115.0
 30
555.0
 42
0.414214
  0
VERTEX
  5
32B
  8
TEAM-DET1
 10
-208.0
 20
-145.0
 30
555.0
  0
VERTEX
  5
32C
  8
TEAM-DET1
 10
-208.0
 20
-395.949987
 30
555.0
  0
SEQEND
  5
32D
  8
TEAM-DET1
  0
POLYLINE
  5
A7
  8
TEAM-DET1
 66
     1
 10
0.0
 20
0.0
 30
555.0
  0
VERTEX
  5
32E
  8
TEAM-DET1
 10
-208.0
 20
-395.949987
 30
555.0
 42
0.369036
  0
VERTEX
  5
32F
  8
TEAM-DET1
 10
-182.680841
 20
-425.582566
 30
555.0
 42
0.083527
  0
VERTEX
  5
330
  8
TEAM-DET1
 10
182.27243
 20
-421.93345
 30
555.0
 42
0.363367
  0
VERTEX
  5
331
  8
TEAM-DET1
 10
207.0
 20
-392.400392
 30
555.0
  0
SEQEND
  5
332
  8
TEAM-DET1
  0
POLYLINE
  5
A8
  8
TEAM-NET
 66
     1
 10
0.0
 20
0.0
 30
0.0
 70
    16
 71
     2
 72
    37
  0
VERTEX
  5
A9
  8
TEAM-NET
 10
207.0
 20
-392.400392
 30
555.0
 70
    64
  0
VERTEX
  5
AA
  8
TEAM-NET
 10
207.0
 20
-364.043307
 30
555.0
 70
    64
  0
VERTEX
  5
AB
  8
TEAM-NET
 10
207.0
 20
-335.686222
 30
555.0
 70
    64
  0
VERTEX
  5
AC
  8
TEAM-NET
 10
207.0
 20
-307.329137
 30
555.0
 70
    64
  0
VERTEX
  5
AD
  8
TEAM-NET
 10
207.0
 20
-278.972051
 30
555.0
 70
    64
  0
VERTEX
  5
AE
  8
TEAM-NET
 10
207.0
 20
-250.614966
 30
555.0
 70
    64
  0
VERTEX
  5
AF
  8
TEAM-NET
 10
207.0
 20
-222.257881
 30
555.0
 70
    64
  0
VERTEX
  5
B0
  8
TEAM-NET
 10
207.0
 20
-193.900796
 30
555.0
 70
    64
  0
VERTEX
  5
B1
  8
TEAM-NET
 10
207.0
 20
-165.54371
 30
555.0
 70
    64
  0
VERTEX
  5
B2
  8
TEAM-NET
 10
205.988258
 20
-137.274659
 30
555.0
 70
    64
  0
VERTEX
  5
B3
  8
TEAM-NET
 10
187.711683
 20
-116.977512
 30
555.0
 70
    64
  0
VERTEX
  5
B4
  8
TEAM-NET
 10
159.596344
 20
-115.0
 30
555.0
 70
    64
  0
VERTEX
  5
B5
  8
TEAM-NET
 10
131.239259
 20
-115.0
 30
555.0
 70
    64
  0
VERTEX
  5
B6
  8
TEAM-NET
 10
102.882174
 20
-115.0
 30
555.0
 70
    64
  0
VERTEX
  5
B7
  8
TEAM-NET
 10
74.525089
 20
-115.0
 30
555.0
 70
    64
  0
VERTEX
  5
B8
  8
TEAM-NET
 10
47.191056
 20
-111.521152
 30
555.0
 70
    64
  0
VERTEX
  5
B9
  8
TEAM-NET
 10
42.098967
 20
-84.104185
 30
555.0
 70
    64
  0
VERTEX
  5
BA
  8
TEAM-NET
 10
24.64626
 20
-62.349477
 30
555.0
 70
    64
  0
VERTEX
  5
BB
  8
TEAM-NET
 10
-2.273829
 20
-55.057484
 30
555.0
 70
    64
  0
VERTEX
  5
BC
  8
TEAM-NET
 10
-28.32047
 20
-65.029284
 30
555.0
 70
    64
  0
VERTEX
  5
BD
  8
TEAM-NET
 10
-43.488354
 20
-88.434403
 30
555.0
 70
    64
  0
VERTEX
  5
BE
  8
TEAM-NET
 10
-50.827788
 20
-114.189188
 30
555.0
 70
    64
  0
VERTEX
  5
BF
  8
TEAM-NET
 10
-79.074683
 20
-115.0
 30
555.0
 70
    64
  0
VERTEX
  5
C0
  8
TEAM-NET
 10
-107.431768
 20
-115.0
 30
555.0
 70
    64
  0
VERTEX
  5
C1
  8
TEAM-NET
 10
-135.788854
 20
-115.0
 30
555.0
 70
    64
  0
VERTEX
  5
C2
  8
TEAM-NET
 10
-164.145939
 20
-115.0
 30
555.0
 70
    64
  0
VERTEX
  5
C3
  8
TEAM-NET
 10
-191.944675
 20
-118.437884
 30
555.0
 70
    64
  0
VERTEX
  5
C4
  8
TEAM-NET
 10
-207.697513
 20
-140.75056
 30
555.0
 70
    64
  0
VERTEX
  5
C5
  8
TEAM-NET
 10
-208.0
 20
-169.093305
 30
555.0
 70
    64
  0
VERTEX
  5
C6
  8
TEAM-NET
 10
-208.0
 20
-197.45039
 30
555.0
 70
    64
  0
VERTEX
  5
C7
  8
TEAM-NET
 10
-208.0
 20
-225.807475
 30
555.0
 70
    64
  0
VERTEX
  5
C8
  8
TEAM-NET
 10
-208.0
 20
-254.164561
 30
555.0
 70
    64
  0
VERTEX
  5
C9
  8
TEAM-NET
 10
-208.0
 20
-282.521646
 30
555.0
 70
    64
  0
VERTEX
  5
CA
  8
TEAM-NET
 10
-208.0
 20
-310.878731
 30
555.0
 70
    64
  0
VERTEX
  5
CB
  8
TEAM-NET
 10
-208.0
 20
-339.235816
 30
555.0
 70
    64
  0
VERTEX
  5
CC
  8
TEAM-NET
 10
-208.0
 20
-367.592902
 30
555.0
 70
    64
  0
VERTEX
  5
CD
  8
TEAM-NET
 10
-208.0
 20
-395.949987
 30
555.0
 70
    64
  0
VERTEX
  5
CE
  8
TEAM-NET
 10
207.0
 20
-392.400392
 30
555.0
 70
    64
  0
VERTEX
  5
CF
  8
TEAM-NET
 10
204.423002
 20
-404.565054
 30
555.0
 70
    64
  0
VERTEX
  5
D0
  8
TEAM-NET
 10
197.134735
 20
-414.639827
 30
555.0
 70
    64
  0
VERTEX
  5
D1
  8
TEAM-NET
 10
186.387322
 20
-420.893868
 30
555.0
 70
    64
  0
VERTEX
  5
D2
  8
TEAM-NET
 10
174.118199
 20
-423.357557
 30
555.0
 70
    64
  0
VERTEX
  5
D3
  8
TEAM-NET
 10
161.759799
 20
-425.395679
 30
555.0
 70
    64
  0
VERTEX
  5
D4
  8
TEAM-NET
 10
149.378993
 20
-427.292949
 30
555.0
 70
    64
  0
VERTEX
  5
D5
  8
TEAM-NET
 10
136.977386
 20
-429.049123
 30
555.0
 70
    64
  0
VERTEX
  5
D6
  8
TEAM-NET
 10
124.556586
 20
-430.663972
 30
555.0
 70
    64
  0
VERTEX
  5
D7
  8
TEAM-NET
 10
112.118205
 20
-432.137287
 30
555.0
 70
    64
  0
VERTEX
  5
D8
  8
TEAM-NET
 10
99.663853
 20
-433.468877
 30
555.0
 70
    64
  0
VERTEX
  5
D9
  8
TEAM-NET
 10
87.195147
 20
-434.65857
 30
555.0
 70
    64
  0
VERTEX
  5
DA
  8
TEAM-NET
 10
74.713703
 20
-435.70621
 30
555.0
 70
    64
  0
VERTEX
  5
DB
  8
TEAM-NET
 10
62.221139
 20
-436.611664
 30
555.0
 70
    64
  0
VERTEX
  5
DC
  8
TEAM-NET
 10
49.719076
 20
-437.374812
 30
555.0
 70
    64
  0
VERTEX
  5
DD
  8
TEAM-NET
 10
37.209132
 20
-437.995556
 30
555.0
 70
    64
  0
VERTEX
  5
DE
  8
TEAM-NET
 10
24.692932
 20
-438.473815
 30
555.0
 70
    64
  0
VERTEX
  5
DF
  8
TEAM-NET
 10
12.172098
 20
-438.809528
 30
555.0
 70
    64
  0
VERTEX
  5
E0
  8
TEAM-NET
 10
-0.351747
 20
-439.002651
 30
555.0
 70
    64
  0
VERTEX
  5
E1
  8
TEAM-NET
 10
-12.87698
 20
-439.053159
 30
555.0
 70
    64
  0
VERTEX
  5
E2
  8
TEAM-NET
 10
-25.401975
 20
-438.961045
 30
555.0
 70
    64
  0
VERTEX
  5
E3
  8
TEAM-NET
 10
-37.92511
 20
-438.726322
 30
555.0
 70
    64
  0
VERTEX
  5
E4
  8
TEAM-NET
 10
-50.44476
 20
-438.349019
 30
555.0
 70
    64
  0
VERTEX
  5
E5
  8
TEAM-NET
 10
-62.959302
 20
-437.829187
 30
555.0
 70
    64
  0
VERTEX
  5
E6
  8
TEAM-NET
 10
-75.467114
 20
-437.166891
 30
555.0
 70
    64
  0
VERTEX
  5
E7
  8
TEAM-NET
 10
-87.966574
 20
-436.362218
 30
555.0
 70
    64
  0
VERTEX
  5
E8
  8
TEAM-NET
 10
-100.456062
 20
-435.415272
 30
555.0
 70
    64
  0
VERTEX
  5
E9
  8
TEAM-NET
 10
-112.933957
 20
-434.326177
 30
555.0
 70
    64
  0
VERTEX
  5
EA
  8
TEAM-NET
 10
-125.398642
 20
-433.095072
 30
555.0
 70
    64
  0
VERTEX
  5
EB
  8
TEAM-NET
 10
-137.848501
 20
-431.722119
 30
555.0
 70
    64
  0
VERTEX
  5
EC
  8
TEAM-NET
 10
-150.281921
 20
-430.207494
 30
555.0
 70
    64
  0
VERTEX
  5
ED
  8
TEAM-NET
 10
-162.697287
 20
-428.551395
 30
555.0
 70
    64
  0
VERTEX
  5
EE
  8
TEAM-NET
 10
-175.092992
 20
-426.754036
 30
555.0
 70
    64
  0
VERTEX
  5
EF
  8
TEAM-NET
 10
-187.387322
 20
-424.443463
 30
555.0
 70
    64
  0
VERTEX
  5
F0
  8
TEAM-NET
 10
-198.134735
 20
-418.189422
 30
555.0
 70
    64
  0
VERTEX
  5
F1
  8
TEAM-NET
 10
-205.423002
 20
-408.114648
 30
555.0
 70
    64
  0
VERTEX
  5
F2
  8
TEAM-NET
 10
-208.0
 20
-395.949987
 30
555.0
 70
    64
  0
SEQEND
  5
F3
  8
TEAM-NET
  0
POLYLINE
  5
F4
  8
TEAM-BODY
 66
     1
 10
0.0
 20
0.0
 30
800.0
 39
-50.0
  0
VERTEX
  5
333
  8
TEAM-BODY
 10
-273.0
 20
-446.054706
 30
800.0
 42
0.276785
  0
VERTEX
  5
334
  8
TEAM-BODY
 10
-234.017964
 20
-475.44491
 30
800.0
 42
0.103608
  0
VERTEX
  5
335
  8
TEAM-BODY
 10
433.017964
 20
-475.44491
 30
800.0
 42
0.356222
  0
VERTEX
  5
336
  8
TEAM-BODY
 10
457.0
 20
-446.054706
 30
800.0
  0
SEQEND
  5
337
  8
TEAM-BODY
  0
POLYLINE
  5
F5
  8
TEAM-BODY
 66
     1
 10
0.0
 20
0.0
 30
800.0
 39
-50.0
  0
VERTEX
  5
338
  8
TEAM-BODY
 10
-273.0
 20
-446.054706
 30
800.0
  0
VERTEX
  5
339
  8
TEAM-BODY
 10
-273.0
 20
0.0
 30
800.0
  0
VERTEX
  5
33A
  8
TEAM-BODY
 10
457.0
 20
0.0
 30
800.0
  0
VERTEX
  5
33B
  8
TEAM-BODY
 10
457.0
 20
-446.054706
 30
800.0
  0
SEQEND
  5
33C
  8
TEAM-BODY
  0
LINE
  5
F6
  8
TEAM-BODY
 39
-50.0
 10
457.0
 20
-10.0
 30
850.0
 11
-273.0
 21
-10.0
 31
850.0
  0
LINE
  5
F7
  8
TEAM-BODY
 39
-50.0
 10
457.0
 20
0.0
 30
850.0
 11
-273.0
 21
0.0
 31
850.0
  0
TEXT
  5
F8
  8
TEAM-TXT
 10
-93.814939
 20
-404.543638
 30
800.0
 40
30.0
  1
team 431005
 41
0.8
 51
15.0
  7
TEAM
  0
POLYLINE
  5
FB
  8
TEAM-BODY
 66
     1
 10
0.0
 20
0.0
 30
800.0
  0
VERTEX
  5
33D
  8
TEAM-BODY
 10
-228.0
 20
-422.596179
 30
800.0
 42
0.363662
  0
VERTEX
  5
33E
  8
TEAM-BODY
 10
-203.241589
 20
-452.134726
 30
800.0
 42
0.093094
  0
VERTEX
  5
33F
  8
TEAM-BODY
 10
202.833178
 20
-448.060694
 30
800.0
 42
0.357993
  0
VERTEX
  5
340
  8
TEAM-BODY
 10
227.0
 20
-418.633257
 30
800.0
  0
SEQEND
  5
341
  8
TEAM-BODY
  0
POLYLINE
  5
FC
  8
TEAM-BODY
 66
     1
 10
0.0
 20
0.0
 30
800.0
  0
VERTEX
  5
342
  8
TEAM-BODY
 10
-228.0
 20
-422.596179
 30
800.0
  0
VERTEX
  5
343
  8
TEAM-BODY
 10
-228.0
 20
-130.0
 30
800.0
 42
-0.414214
  0
VERTEX
  5
344
  8
TEAM-BODY
 10
-198.0
 20
-100.0
 30
800.0
  0
VERTEX
  5
345
  8
TEAM-BODY
 10
-69.282032
 20
-100.0
 30
800.0
 42
0.372825
  0
VERTEX
  5
346
  8
TEAM-BODY
 10
-59.384599
 20
-91.428571
 30
800.0
 42
-0.866025
  0
VERTEX
  5
347
  8
TEAM-BODY
 10
59.384599
 20
-91.428571
 30
800.0
 42
0.372825
  0
VERTEX
  5
348
  8
TEAM-BODY
 10
69.282032
 20
-100.0
 30
800.0
  0
VERTEX
  5
349
  8
TEAM-BODY
 10
197.0
 20
-100.0
 30
800.0
 42
-0.414214
  0
VERTEX
  5
34A
  8
TEAM-BODY
 10
227.0
 20
-130.0
 30
800.0
  0
VERTEX
  5
34B
  8
TEAM-BODY
 10
227.0
 20
-418.633257
 30
800.0
  0
SEQEND
  5
34C
  8
TEAM-BODY
  0
POLYLINE
  5
FD
  8
TEAM-NET
 66
     1
 10
0.0
 20
0.0
 30
0.0
 70
    16
 71
     2
 72
    37
  0
VERTEX
  5
FE
  8
TEAM-NET
 10
-228.0
 20
-422.596179
 30
800.0
 70
    64
  0
VERTEX
  5
FF
  8
TEAM-NET
 10
-228.0
 20
-391.158513
 30
800.0
 70
    64
  0
VERTEX
  5
100
  8
TEAM-NET
 10
-228.0
 20
-359.720847
 30
800.0
 70
    64
  0
VERTEX
  5
101
  8
TEAM-NET
 10
-228.0
 20
-328.283181
 30
800.0
 70
    64
  0
VERTEX
  5
102
  8
TEAM-NET
 10
-228.0
 20
-296.845515
 30
800.0
 70
    64
  0
VERTEX
  5
103
  8
TEAM-NET
 10
-228.0
 20
-265.407849
 30
800.0
 70
    64
  0
VERTEX
  5
104
  8
TEAM-NET
 10
-228.0
 20
-233.970183
 30
800.0
 70
    64
  0
VERTEX
  5
105
  8
TEAM-NET
 10
-228.0
 20
-202.532517
 30
800.0
 70
    64
  0
VERTEX
  5
106
  8
TEAM-NET
 10
-228.0
 20
-171.094851
 30
800.0
 70
    64
  0
VERTEX
  5
107
  8
TEAM-NET
 10
-228.0
 20
-139.657185
 30
800.0
 70
    64
  0
VERTEX
  5
108
  8
TEAM-NET
 10
-220.434758
 20
-110.083132
 30
800.0
 70
    64
  0
VERTEX
  5
109
  8
TEAM-NET
 10
-191.905742
 20
-100.0
 30
800.0
 70
    64
  0
VERTEX
  5
10A
  8
TEAM-NET
 10
-160.468076
 20
-100.0
 30
800.0
 70
    64
  0
VERTEX
  5
10B
  8
TEAM-NET
 10
-129.03041
 20
-100.0
 30
800.0
 70
    64
  0
VERTEX
  5
10C
  8
TEAM-NET
 10
-97.592744
 20
-100.0
 30
800.0
 70
    64
  0
VERTEX
  5
10D
  8
TEAM-NET
 10
-66.205788
 20
-99.515079
 30
800.0
 70
    64
  0
VERTEX
  5
10E
  8
TEAM-NET
 10
-53.177618
 20
-72.212577
 30
800.0
 70
    64
  0
VERTEX
  5
10F
  8
TEAM-NET
 10
-32.141102
 20
-49.334927
 30
800.0
 70
    64
  0
VERTEX
  5
110
  8
TEAM-NET
 10
-2.480753
 20
-40.051306
 30
800.0
 70
    64
  0
VERTEX
  5
111
  8
TEAM-NET
 10
27.84521
 20
-46.852617
 30
800.0
 70
    64
  0
VERTEX
  5
112
  8
TEAM-NET
 10
50.699979
 20
-67.913989
 30
800.0
 70
    64
  0
VERTEX
  5
113
  8
TEAM-NET
 10
62.046145
 20
-96.902314
 30
800.0
 70
    64
  0
VERTEX
  5
114
  8
TEAM-NET
 10
92.629823
 20
-100.0
 30
800.0
 70
    64
  0
VERTEX
  5
115
  8
TEAM-NET
 10
124.067489
 20
-100.0
 30
800.0
 70
    64
  0
VERTEX
  5
116
  8
TEAM-NET
 10
155.505155
 20
-100.0
 30
800.0
 70
    64
  0
VERTEX
  5
117
  8
TEAM-NET
 10
186.942821
 20
-100.0
 30
800.0
 70
    64
  0
VERTEX
  5
118
  8
TEAM-NET
 10
216.615981
 20
-107.301689
 30
800.0
 70
    64
  0
VERTEX
  5
119
  8
TEAM-NET
 10
227.0
 20
-135.694263
 30
800.0
 70
    64
  0
VERTEX
  5
11A
  8
TEAM-NET
 10
227.0
 20
-167.131929
 30
800.0
 70
    64
  0
VERTEX
  5
11B
  8
TEAM-NET
 10
227.0
 20
-198.569595
 30
800.0
 70
    64
  0
VERTEX
  5
11C
  8
TEAM-NET
 10
227.0
 20
-230.007261
 30
800.0
 70
    64
  0
VERTEX
  5
11D
  8
TEAM-NET
 10
227.0
 20
-261.444927
 30
800.0
 70
    64
  0
VERTEX
  5
11E
  8
TEAM-NET
 10
227.0
 20
-292.882593
 30
800.0
 70
    64
  0
VERTEX
  5
11F
  8
TEAM-NET
 10
227.0
 20
-324.320259
 30
800.0
 70
    64
  0
VERTEX
  5
120
  8
TEAM-NET
 10
227.0
 20
-355.757925
 30
800.0
 70
    64
  0
VERTEX
  5
121
  8
TEAM-NET
 10
227.0
 20
-387.195591
 30
800.0
 70
    64
  0
VERTEX
  5
122
  8
TEAM-NET
 10
227.0
 20
-418.633257
 30
800.0
 70
    64
  0
VERTEX
  5
123
  8
TEAM-NET
 10
-273.0
 20
-446.054706
 30
800.0
 70
    64
  0
VERTEX
  5
124
  8
TEAM-NET
 10
-273.0
 20
-400.996111
 30
800.0
 70
    64
  0
VERTEX
  5
125
  8
TEAM-NET
 10
-273.0
 20
-355.937516
 30
800.0
 70
    64
  0
VERTEX
  5
126
  8
TEAM-NET
 10
-273.0
 20
-310.878921
 30
800.0
 70
    64
  0
VERTEX
  5
127
  8
TEAM-NET
 10
-273.0
 20
-265.820327
 30
800.0
 70
    64
  0
VERTEX
  5
128
  8
TEAM-NET
 10
-273.0
 20
-220.761732
 30
800.0
 70
    64
  0
VERTEX
  5
129
  8
TEAM-NET
 10
-273.0
 20
-175.703137
 30
800.0
 70
    64
  0
VERTEX
  5
12A
  8
TEAM-NET
 10
-273.0
 20
-130.644542
 30
800.0
 70
    64
  0
VERTEX
  5
12B
  8
TEAM-NET
 10
-273.0
 20
-85.585948
 30
800.0
 70
    64
  0
VERTEX
  5
12C
  8
TEAM-NET
 10
-273.0
 20
-40.527353
 30
800.0
 70
    64
  0
VERTEX
  5
12D
  8
TEAM-NET
 10
-268.468758
 20
0.0
 30
800.0
 70
    64
  0
VERTEX
  5
12E
  8
TEAM-NET
 10
-223.410163
 20
0.0
 30
800.0
 70
    64
  0
VERTEX
  5
12F
  8
TEAM-NET
 10
-178.351569
 20
0.0
 30
800.0
 70
    64
  0
VERTEX
  5
130
  8
TEAM-NET
 10
-133.292974
 20
0.0
 30
800.0
 70
    64
  0
VERTEX
  5
131
  8
TEAM-NET
 10
-88.234379
 20
0.0
 30
800.0
 70
    64
  0
VERTEX
  5
132
  8
TEAM-NET
 10
-43.175784
 20
0.0
 30
800.0
 70
    64
  0
VERTEX
  5
133
  8
TEAM-NET
 10
1.88281
 20
0.0
 30
800.0
 70
    64
  0
VERTEX
  5
134
  8
TEAM-NET
 10
46.941405
 20
0.0
 30
800.0
 70
    64
  0
VERTEX
  5
135
  8
TEAM-NET
 10
92.0
 20
0.0
 30
800.0
 70
    64
  0
VERTEX
  5
136
  8
TEAM-NET
 10
137.058595
 20
0.0
 30
800.0
 70
    64
  0
VERTEX
  5
137
  8
TEAM-NET
 10
182.11719
 20
0.0
 30
800.0
 70
    64
  0
VERTEX
  5
138
  8
TEAM-NET
 10
227.175784
 20
0.0
 30
800.0
 70
    64
  0
VERTEX
  5
139
  8
TEAM-NET
 10
272.234379
 20
0.0
 30
800.0
 70
    64
  0
VERTEX
  5
13A
  8
TEAM-NET
 10
317.292974
 20
0.0
 30
800.0
 70
    64
  0
VERTEX
  5
13B
  8
TEAM-NET
 10
362.351569
 20
0.0
 30
800.0
 70
    64
  0
VERTEX
  5
13C
  8
TEAM-NET
 10
407.410163
 20
0.0
 30
800.0
 70
    64
  0
VERTEX
  5
13D
  8
TEAM-NET
 10
452.468758
 20
0.0
 30
800.0
 70
    64
  0
VERTEX
  5
13E
  8
TEAM-NET
 10
457.0
 20
-40.527353
 30
800.0
 70
    64
  0
VERTEX
  5
13F
  8
TEAM-NET
 10
457.0
 20
-85.585948
 30
800.0
 70
    64
  0
VERTEX
  5
140
  8
TEAM-NET
 10
457.0
 20
-130.644542
 30
800.0
 70
    64
  0
VERTEX
  5
141
  8
TEAM-NET
 10
457.0
 20
-175.703137
 30
800.0
 70
    64
  0
VERTEX
  5
142
  8
TEAM-NET
 10
457.0
 20
-220.761732
 30
800.0
 70
    64
  0
VERTEX
  5
143
  8
TEAM-NET
 10
457.0
 20
-265.820327
 30
800.0
 70
    64
  0
VERTEX
  5
144
  8
TEAM-NET
 10
457.0
 20
-310.878921
 30
800.0
 70
    64
  0
VERTEX
  5
145
  8
TEAM-NET
 10
457.0
 20
-355.937516
 30
800.0
 70
    64
  0
VERTEX
  5
146
  8
TEAM-NET
 10
457.0
 20
-400.996111
 30
800.0
 70
    64
  0
VERTEX
  5
147
  8
TEAM-NET
 10
457.0
 20
-446.054706
 30
800.0
 70
    64
  0
SEQEND
  5
148
  8
TEAM-NET
  0
POLYLINE
  5
149
  8
TEAM-NET
 66
     1
 10
0.0
 20
0.0
 30
0.0
 70
    16
 71
     2
 72
    25
  0
VERTEX
  5
14A
  8
TEAM-NET
 10
-273.0
 20
-446.054706
 30
800.0
 70
    64
  0
VERTEX
  5
14B
  8
TEAM-NET
 10
-252.395523
 20
-469.5442
 30
800.0
 70
    64
  0
VERTEX
  5
14C
  8
TEAM-NET
 10
-221.869751
 20
-477.941227
 30
800.0
 70
    64
  0
VERTEX
  5
14D
  8
TEAM-NET
 10
-190.598456
 20
-483.925151
 30
800.0
 70
    64
  0
VERTEX
  5
14E
  8
TEAM-NET
 10
-159.216042
 20
-489.295937
 30
800.0
 70
    64
  0
VERTEX
  5
14F
  8
TEAM-NET
 10
-127.734529
 20
-494.051526
 30
800.0
 70
    64
  0
VERTEX
  5
150
  8
TEAM-NET
 10
-96.165977
 20
-498.190097
 30
800.0
 70
    64
  0
VERTEX
  5
151
  8
TEAM-NET
 10
-64.522477
 20
-501.710065
 30
800.0
 70
    64
  0
VERTEX
  5
152
  8
TEAM-NET
 10
-32.81615
 20
-504.610081
 30
800.0
 70
    64
  0
VERTEX
  5
153
  8
TEAM-NET
 10
-1.059141
 20
-506.889036
 30
800.0
 70
    64
  0
VERTEX
  5
154
  8
TEAM-NET
 10
30.736386
 20
-508.546055
 30
800.0
 70
    64
  0
VERTEX
  5
155
  8
TEAM-NET
 10
62.558253
 20
-509.580505
 30
800.0
 70
    64
  0
VERTEX
  5
156
  8
TEAM-NET
 10
94.394269
 20
-509.991988
 30
800.0
 70
    64
  0
VERTEX
  5
157
  8
TEAM-NET
 10
126.232241
 20
-509.780347
 30
800.0
 70
    64
  0
VERTEX
  5
158
  8
TEAM-NET
 10
158.059974
 20
-508.945664
 30
800.0
 70
    64
  0
VERTEX
  5
159
  8
TEAM-NET
 10
189.865276
 20
-507.488258
 30
800.0
 70
    64
  0
VERTEX
  5
15A
  8
TEAM-NET
 10
221.635965
 20
-505.408687
 30
800.0
 70
    64
  0
VERTEX
  5
15B
  8
TEAM-NET
 10
253.35987
 20
-502.707749
 30
800.0
 70
    64
  0
VERTEX
  5
15C
  8
TEAM-NET
 10
285.024842
 20
-499.386476
 30
800.0
 70
    64
  0
VERTEX
  5
15D
  8
TEAM-NET
 10
316.61875
 20
-495.446142
 30
800.0
 70
    64
  0
VERTEX
  5
15E
  8
TEAM-NET
 10
348.129493
 20
-490.888256
 30
800.0
 70
    64
  0
VERTEX
  5
15F
  8
TEAM-NET
 10
379.545002
 20
-485.714564
 30
800.0
 70
    64
  0
VERTEX
  5
160
  8
TEAM-NET
 10
410.853242
 20
-479.927048
 30
800.0
 70
    64
  0
VERTEX
  5
161
  8
TEAM-NET
 10
441.631968
 20
-472.244504
 30
800.0
 70
    64
  0
VERTEX
  5
162
  8
TEAM-NET
 10
457.0
 20
-446.054706
 30
800.0
 70
    64
  0
VERTEX
  5
163
  8
TEAM-NET
 10
-228.0
 20
-422.596179
 30
800.0
 70
    64
  0
VERTEX
  5
164
  8
TEAM-NET
 10
-221.276111
 20
-441.522949
 30
800.0
 70
    64
  0
VERTEX
  5
165
  8
TEAM-NET
 10
-204.11849
 20
-451.96562
 30
800.0
 70
    64
  0
VERTEX
  5
166
  8
TEAM-NET
 10
-183.925442
 20
-455.385234
 30
800.0
 70
    64
  0
VERTEX
  5
167
  8
TEAM-NET
 10
-163.670075
 20
-458.41555
 30
800.0
 70
    64
  0
VERTEX
  5
168
  8
TEAM-NET
 10
-143.361801
 20
-461.068224
 30
800.0
 70
    64
  0
VERTEX
  5
169
  8
TEAM-NET
 10
-123.007659
 20
-463.342336
 30
800.0
 70
    64
  0
VERTEX
  5
16A
  8
TEAM-NET
 10
-102.614705
 20
-465.237099
 30
800.0
 70
    64
  0
VERTEX
  5
16B
  8
TEAM-NET
 10
-82.190009
 20
-466.751856
 30
800.0
 70
    64
  0
VERTEX
  5
16C
  8
TEAM-NET
 10
-61.740652
 20
-467.886082
 30
800.0
 70
    64
  0
VERTEX
  5
16D
  8
TEAM-NET
 10
-41.273722
 20
-468.639383
 30
800.0
 70
    64
  0
VERTEX
  5
16E
  8
TEAM-NET
 10
-20.796314
 20
-469.011498
 30
800.0
 70
    64
  0
VERTEX
  5
16F
  8
TEAM-NET
 10
-0.315528
 20
-469.002298
 30
800.0
 70
    64
  0
VERTEX
  5
170
  8
TEAM-NET
 10
20.161537
 20
-468.611787
 30
800.0
 70
    64
  0
VERTEX
  5
171
  8
TEAM-NET
 10
40.627782
 20
-467.8401
 30
800.0
 70
    64
  0
VERTEX
  5
172
  8
TEAM-NET
 10
61.076113
 20
-466.687504
 30
800.0
 70
    64
  0
VERTEX
  5
173
  8
TEAM-NET
 10
81.49944
 20
-465.154399
 30
800.0
 70
    64
  0
VERTEX
  5
174
  8
TEAM-NET
 10
101.890683
 20
-463.241316
 30
800.0
 70
    64
  0
VERTEX
  5
175
  8
TEAM-NET
 10
122.242774
 20
-460.948919
 30
800.0
 70
    64
  0
VERTEX
  5
176
  8
TEAM-NET
 10
142.548657
 20
-458.278002
 30
800.0
 70
    64
  0
VERTEX
  5
177
  8
TEAM-NET
 10
162.801293
 20
-455.229491
 30
800.0
 70
    64
  0
VERTEX
  5
178
  8
TEAM-NET
 10
182.993662
 20
-451.804443
 30
800.0
 70
    64
  0
VERTEX
  5
179
  8
TEAM-NET
 10
203.11849
 20
-448.002698
 30
800.0
 70
    64
  0
VERTEX
  5
17A
  8
TEAM-NET
 10
220.276111
 20
-437.560028
 30
800.0
 70
    64
  0
VERTEX
  5
17B
  8
TEAM-NET
 10
227.0
 20
-418.633257
 30
800.0
 70
    64
  0
SEQEND
  5
17C
  8
TEAM-NET
  0
LINE
  5
17D
  8
TEAM-DET1
 10
442.0
 20
-65.374379
 30
800.0
 11
442.0
 21
-429.864753
 31
800.0
  0
POLYLINE
  5
17E
  8
TEAM-DET1
 66
     1
 10
0.0
 20
0.0
 30
800.0
  0
VERTEX
  5
34D
  8
TEAM-DET1
 10
227.0
 20
-130.0
 30
800.0
  0
VERTEX
  5
34E
  8
TEAM-DET1
 10
403.195242
 20
-36.695532
 30
800.0
 42
-0.504409
  0
VERTEX
  5
34F
  8
TEAM-DET1
 10
442.0
 20
-65.374379
 30
800.0
  0
SEQEND
  5
350
  8
TEAM-DET1
  0
POLYLINE
  5
17F
  8
TEAM-DET1
 66
     1
 10
0.0
 20
0.0
 30
800.0
  0
VERTEX
  5
351
  8
TEAM-DET1
 10
227.0
 20
-418.633257
 30
800.0
  0
VERTEX
  5
352
  8
TEAM-DET1
 10
410.302809
 20
-459.816707
 30
800.0
 42
0.430891
  0
VERTEX
  5
353
  8
TEAM-DET1
 10
442.0
 20
-429.864753
 30
800.0
  0
SEQEND
  5
354
  8
TEAM-DET1
  0
POLYLINE
  5
180
  8
TEAM-NET2
 66
     1
 10
0.0
 20
0.0
 30
0.0
 70
    16
 71
     2
 72
    25
  0
VERTEX
  5
181
  8
TEAM-NET2
 10
227.0
 20
-418.633257
 30
800.0
 70
    64
  0
VERTEX
  5
182
  8
TEAM-NET2
 10
236.622389
 20
-420.795162
 30
800.0
 70
    64
  0
VERTEX
  5
183
  8
TEAM-NET2
 10
246.244778
 20
-422.957066
 30
800.0
 70
    64
  0
VERTEX
  5
184
  8
TEAM-NET2
 10
255.867167
 20
-425.118971
 30
800.0
 70
    64
  0
VERTEX
  5
185
  8
TEAM-NET2
 10
265.489556
 20
-427.280875
 30
800.0
 70
    64
  0
VERTEX
  5
186
  8
TEAM-NET2
 10
275.111945
 20
-429.44278
 30
800.0
 70
    64
  0
VERTEX
  5
187
  8
TEAM-NET2
 10
284.734334
 20
-431.604684
 30
800.0
 70
    64
  0
VERTEX
  5
188
  8
TEAM-NET2
 10
294.356723
 20
-433.766589
 30
800.0
 70
    64
  0
VERTEX
  5
189
  8
TEAM-NET2
 10
303.979112
 20
-435.928494
 30
800.0
 70
    64
  0
VERTEX
  5
18A
  8
TEAM-NET2
 10
313.601501
 20
-438.090398
 30
800.0
 70
    64
  0
VERTEX
  5
18B
  8
TEAM-NET2
 10
323.22389
 20
-440.252303
 30
800.0
 70
    64
  0
VERTEX
  5
18C
  8
TEAM-NET2
 10
332.846279
 20
-442.414207
 30
800.0
 70
    64
  0
VERTEX
  5
18D
  8
TEAM-NET2
 10
342.468668
 20
-444.576112
 30
800.0
 70
    64
  0
VERTEX
  5
18E
  8
TEAM-NET2
 10
352.091057
 20
-446.738016
 30
800.0
 70
    64
  0
VERTEX
  5
18F
  8
TEAM-NET2
 10
361.713446
 20
-448.899921
 30
800.0
 70
    64
  0
VERTEX
  5
190
  8
TEAM-NET2
 10
371.335835
 20
-451.061825
 30
800.0
 70
    64
  0
VERTEX
  5
191
  8
TEAM-NET2
 10
380.958224
 20
-453.22373
 30
800.0
 70
    64
  0
VERTEX
  5
192
  8
TEAM-NET2
 10
390.580613
 20
-455.385634
 30
800.0
 70
    64
  0
VERTEX
  5
193
  8
TEAM-NET2
 10
400.203002
 20
-457.547539
 30
800.0
 70
    64
  0
VERTEX
  5
194
  8
TEAM-NET2
 10
409.825391
 20
-459.709443
 30
800.0
 70
    64
  0
VERTEX
  5
195
  8
TEAM-NET2
 10
419.5914
 20
-458.888375
 30
800.0
 70
    64
  0
VERTEX
  5
196
  8
TEAM-NET2
 10
428.55523
 20
-454.883234
 30
800.0
 70
    64
  0
VERTEX
  5
197
  8
TEAM-NET2
 10
435.745968
 20
-448.198574
 30
800.0
 70
    64
  0
VERTEX
  5
198
  8
TEAM-NET2
 10
440.393477
 20
-439.550334
 30
800.0
 70
    64
  0
VERTEX
  5
199
  8
TEAM-NET2
 10
442.0
 20
-429.864753
 30
800.0
 70
    64
  0
VERTEX
  5
19A
  8
TEAM-NET2
 10
227.0
 20
-130.0
 30
800.0
 70
    64
  0
VERTEX
  5
19B
  8
TEAM-NET2
 10
236.405738
 20
-125.019176
 30
800.0
 70
    64
  0
VERTEX
  5
19C
  8
TEAM-NET2
 10
245.811477
 20
-120.038353
 30
800.0
 70
    64
  0
VERTEX
  5
19D
  8
TEAM-NET2
 10
255.217215
 20
-115.057529
 30
800.0
 70
    64
  0
VERTEX
  5
19E
  8
TEAM-NET2
 10
264.622953
 20
-110.076706
 30
800.0
 70
    64
  0
VERTEX
  5
19F
  8
TEAM-NET2
 10
274.028692
 20
-105.095882
 30
800.0
 70
    64
  0
VERTEX
  5
1A0
  8
TEAM-NET2
 10
283.43443
 20
-100.115059
 30
800.0
 70
    64
  0
VERTEX
  5
1A1
  8
TEAM-NET2
 10
292.840168
 20
-95.134235
 30
800.0
 70
    64
  0
VERTEX
  5
1A2
  8
TEAM-NET2
 10
302.245907
 20
-90.153412
 30
800.0
 70
    64
  0
VERTEX
  5
1A3
  8
TEAM-NET2
 10
311.651645
 20
-85.172588
 30
800.0
 70
    64
  0
VERTEX
  5
1A4
  8
TEAM-NET2
 10
321.057384
 20
-80.191765
 30
800.0
 70
    64
  0
VERTEX
  5
1A5
  8
TEAM-NET2
 10
330.463122
 20
-75.210941
 30
800.0
 70
    64
  0
VERTEX
  5
1A6
  8
TEAM-NET2
 10
339.86886
 20
-70.230118
 30
800.0
 70
    64
  0
VERTEX
  5
1A7
  8
TEAM-NET2
 10
349.274599
 20
-65.249294
 30
800.0
 70
    64
  0
VERTEX
  5
1A8
  8
TEAM-NET2
 10
358.680337
 20
-60.26847
 30
800.0
 70
    64
  0
VERTEX
  5
1A9
  8
TEAM-NET2
 10
368.086075
 20
-55.287647
 30
800.0
 70
    64
  0
VERTEX
  5
1AA
  8
TEAM-NET2
 10
377.491814
 20
-50.306823
 30
800.0
 70
    64
  0
VERTEX
  5
1AB
  8
TEAM-NET2
 10
386.897552
 20
-45.326
 30
800.0
 70
    64
  0
VERTEX
  5
1AC
  8
TEAM-NET2
 10
396.30329
 20
-40.345176
 30
800.0
 70
    64
  0
VERTEX
  5
1AD
  8
TEAM-NET2
 10
405.949948
 20
-35.990763
 30
800.0
 70
    64
  0
VERTEX
  5
1AE
  8
TEAM-NET2
 10
416.533874
 20
-35.718958
 30
800.0
 70
    64
  0
VERTEX
  5
1AF
  8
TEAM-NET2
 10
426.553115
 20
-39.140682
 30
800.0
 70
    64
  0
VERTEX
  5
1B0
  8
TEAM-NET2
 10
434.759792
 20
-45.829766
 30
800.0
 70
    64
  0
VERTEX
  5
1B1
  8
TEAM-NET2
 10
440.131777
 20
-54.953097
 30
800.0
 70
    64
  0
VERTEX
  5
1B2
  8
TEAM-NET2
 10
442.0
 20
-65.374379
 30
800.0
 70
    64
  0
SEQEND
  5
1B4
  8
TEAM-NET2
  0
POLYLINE
  5
1B5
  8
TEAM-NET
 66
     1
 10
0.0
 20
0.0
 30
0.0
 70
    16
 71
     2
 72
    25
  0
VERTEX
  5
1B6
  8
TEAM-NET
 10
-273.0
 20
-10.0
 30
850.0
 70
    64
  0
VERTEX
  5
1B7
  8
TEAM-NET
 10
-242.583333
 20
-10.0
 30
850.0
 70
    64
  0
VERTEX
  5
1B8
  8
TEAM-NET
 10
-212.166667
 20
-10.0
 30
850.0
 70
    64
  0
VERTEX
  5
1B9
  8
TEAM-NET
 10
-181.75
 20
-10.0
 30
850.0
 70
    64
  0
VERTEX
  5
1BA
  8
TEAM-NET
 10
-151.333333
 20
-10.0
 30
850.0
 70
    64
  0
VERTEX
  5
1BB
  8
TEAM-NET
 10
-120.916667
 20
-10.0
 30
850.0
 70
    64
  0
VERTEX
  5
1BC
  8
TEAM-NET
 10
-90.5
 20
-10.0
 30
850.0
 70
    64
  0
VERTEX
  5
1BD
  8
TEAM-NET
 10
-60.083333
 20
-10.0
 30
850.0
 70
    64
  0
VERTEX
  5
1BE
  8
TEAM-NET
 10
-29.666667
 20
-10.0
 30
850.0
 70
    64
  0
VERTEX
  5
1BF
  8
TEAM-NET
 10
0.75
 20
-10.0
 30
850.0
 70
    64
  0
VERTEX
  5
1C0
  8
TEAM-NET
 10
31.166667
 20
-10.0
 30
850.0
 70
    64
  0
VERTEX
  5
1C1
  8
TEAM-NET
 10
61.583333
 20
-10.0
 30
850.0
 70
    64
  0
VERTEX
  5
1C2
  8
TEAM-NET
 10
92.0
 20
-10.0
 30
850.0
 70
    64
  0
VERTEX
  5
1C3
  8
TEAM-NET
 10
122.416667
 20
-10.0
 30
850.0
 70
    64
  0
VERTEX
  5
1C4
  8
TEAM-NET
 10
152.833333
 20
-10.0
 30
850.0
 70
    64
  0
VERTEX
  5
1C5
  8
TEAM-NET
 10
183.25
 20
-10.0
 30
850.0
 70
    64
  0
VERTEX
  5
1C6
  8
TEAM-NET
 10
213.666667
 20
-10.0
 30
850.0
 70
    64
  0
VERTEX
  5
1C7
  8
TEAM-NET
 10
244.083333
 20
-10.0
 30
850.0
 70
    64
  0
VERTEX
  5
1C8
  8
TEAM-NET
 10
274.5
 20
-10.0
 30
850.0
 70
    64
  0
VERTEX
  5
1C9
  8
TEAM-NET
 10
304.916667
 20
-10.0
 30
850.0
 70
    64
  0
VERTEX
  5
1CA
  8
TEAM-NET
 10
335.333333
 20
-10.0
 30
850.0
 70
    64
  0
VERTEX
  5
1CB
  8
TEAM-NET
 10
365.75
 20
-10.0
 30
850.0
 70
    64
  0
VERTEX
  5
1CC
  8
TEAM-NET
 10
396.166667
 20
-10.0
 30
850.0
 70
    64
  0
VERTEX
  5
1CD
  8
TEAM-NET
 10
426.583333
 20
-10.0
 30
850.0
 70
    64
  0
VERTEX
  5
1CE
  8
TEAM-NET
 10
457.0
 20
-10.0
 30
850.0
 70
    64
  0
VERTEX
  5
1CF
  8
TEAM-NET
 10
-273.0
 20
0.0
 30
850.0
 70
    64
  0
VERTEX
  5
1D0
  8
TEAM-NET
 10
-242.583333
 20
0.0
 30
850.0
 70
    64
  0
VERTEX
  5
1D1
  8
TEAM-NET
 10
-212.166667
 20
0.0
 30
850.0
 70
    64
  0
VERTEX
  5
1D2
  8
TEAM-NET
 10
-181.75
 20
0.0
 30
850.0
 70
    64
  0
VERTEX
  5
1D3
  8
TEAM-NET
 10
-151.333333
 20
0.0
 30
850.0
 70
    64
  0
VERTEX
  5
1D4
  8
TEAM-NET
 10
-120.916667
 20
0.0
 30
850.0
 70
    64
  0
VERTEX
  5
1D5
  8
TEAM-NET
 10
-90.5
 20
0.0
 30
850.0
 70
    64
  0
VERTEX
  5
1D6
  8
TEAM-NET
 10
-60.083333
 20
0.0
 30
850.0
 70
    64
  0
VERTEX
  5
1D7
  8
TEAM-NET
 10
-29.666667
 20
0.0
 30
850.0
 70
    64
  0
VERTEX
  5
1D8
  8
TEAM-NET
 10
0.75
 20
0.0
 30
850.0
 70
    64
  0
VERTEX
  5
1D9
  8
TEAM-NET
 10
31.166667
 20
0.0
 30
850.0
 70
    64
  0
VERTEX
  5
1DA
  8
TEAM-NET
 10
61.583333
 20
0.0
 30
850.0
 70
    64
  0
VERTEX
  5
1DB
  8
TEAM-NET
 10
92.0
 20
0.0
 30
850.0
 70
    64
  0
VERTEX
  5
1DC
  8
TEAM-NET
 10
122.416667
 20
0.0
 30
850.0
 70
    64
  0
VERTEX
  5
1DD
  8
TEAM-NET
 10
152.833333
 20
0.0
 30
850.0
 70
    64
  0
VERTEX
  5
1DE
  8
TEAM-NET
 10
183.25
 20
0.0
 30
850.0
 70
    64
  0
VERTEX
  5
1DF
  8
TEAM-NET
 10
213.666667
 20
0.0
 30
850.0
 70
    64
  0
VERTEX
  5
1E0
  8
TEAM-NET
 10
244.083333
 20
0.0
 30
850.0
 70
    64
  0
VERTEX
  5
1E1
  8
TEAM-NET
 10
274.5
 20
0.0
 30
850.0
 70
    64
  0
VERTEX
  5
1E2
  8
TEAM-NET
 10
304.916667
 20
0.0
 30
850.0
 70
    64
  0
VERTEX
  5
1E3
  8
TEAM-NET
 10
335.333333
 20
0.0
 30
850.0
 70
    64
  0
VERTEX
  5
1E4
  8
TEAM-NET
 10
365.75
 20
0.0
 30
850.0
 70
    64
  0
VERTEX
  5
1E5
  8
TEAM-NET
 10
396.166667
 20
0.0
 30
850.0
 70
    64
  0
VERTEX
  5
1E6
  8
TEAM-NET
 10
426.583333
 20
0.0
 30
850.0
 70
    64
  0
VERTEX
  5
1E7
  8
TEAM-NET
 10
457.0
 20
0.0
 30
850.0
 70
    64
  0
SEQEND
  5
1E8
  8
TEAM-NET
  0
LINE
  5
1E9
  8
TEAM-AXE
 10
96.5
 20
0.0
 30
1100.0
 11
56.5
 21
0.0
 31
1100.0
  0
LINE
  5
1EC
  8
TEAM-AXE
 10
-76.5
 20
-20.0
 30
1100.0
 11
-76.5
 21
20.0
 31
1100.0
  0
LINE
  5
1ED
  8
TEAM-AXE
 10
-56.5
 20
0.0
 30
1100.0
 11
-96.5
 21
0.0
 31
1100.0
  0
CIRCLE
  5
1EE
  8
TEAM-WARM
 10
-76.5
 20
0.0
 30
1100.0
 40
15.0
  0
CIRCLE
  5
1F0
  8
TEAM-COLD
 10
76.5
 20
0.0
 30
1100.0
 40
15.0
  0
LINE
  5
1F2
  8
TEAM-AXE
 10
76.5
 20
-20.0
 30
1100.0
 11
76.5
 21
20.0
 31
1100.0
  0
ENDSEC
  0
EOF
