  0
SECTION
  2
HEADER
  9
$ACADVER
  1
AC1009
  9
$INSBASE
 10
0.0
 20
0.0
 30
0.0
  9
$EXTMIN
 10
-356.220123
 20
-456.235525
 30
-10.057261
  9
$EXTMAX
 10
356.264205
 20
20.017108
 30
1070.064188
  9
$LIMMIN
 10
-356.220123
 20
-456.235525
  9
$LIMMAX
 10
356.264205
 20
20.017108
  9
$ORTHOMODE
 70
     0
  9
$REGENMODE
 70
     1
  9
$FILLMODE
 70
     1
  9
$QTEXTMODE
 70
     0
  9
$MIRRTEXT
 70
     0
  9
$DRAGMODE
 70
     2
  9
$LTSCALE
 40
25.0
  9
$OSMODE
 70
     0
  9
$ATTMODE
 70
     1
  9
$TEXTSIZE
 40
200.0
  9
$TRACEWID
 40
1.0
  9
$TEXTSTYLE
  7
STANDARD
  9
$CLAYER
  8
0
  9
$CELTYPE
  6
BYLAYER
  9
$CECOLOR
 62
   256
  9
$DIMSCALE
 40
0.0
  9
$DIMASZ
 40
20.0
  9
$DIMEXO
 40
10.0
  9
$DIMDLI
 40
1.0
  9
$DIMRND
 40
0.0
  9
$DIMDLE
 40
0.0
  9
$DIMEXE
 40
1.0
  9
$DIMTP
 40
0.0
  9
$DIMTM
 40
0.0
  9
$DIMTXT
 40
35.0
  9
$DIMCEN
 40
1.0
  9
$DIMTSZ
 40
0.0
  9
$DIMTOL
 70
     0
  9
$DIMLIM
 70
     0
  9
$DIMTIH
 70
     0
  9
$DIMTOH
 70
     0
  9
$DIMSE1
 70
     0
  9
$DIMSE2
 70
     0
  9
$DIMTAD
 70
     0
  9
$DIMZIN
 70
     0
  9
$DIMBLK
  1

  9
$DIMASO
 70
     1
  9
$DIMSHO
 70
     0
  9
$DIMPOST
  1

  9
$DIMAPOST
  1

  9
$DIMALT
 70
     0
  9
$DIMALTD
 70
     2
  9
$DIMALTF
 40
25.4
  9
$DIMLFAC
 40
1.0
  9
$DIMTOFL
 70
     0
  9
$DIMTVP
 40
0.0
  9
$DIMTIX
 70
     0
  9
$DIMSOXD
 70
     0
  9
$DIMSAH
 70
     0
  9
$DIMBLK1
  1

  9
$DIMBLK2
  1

  9
$DIMSTYLE
  2
TEAM
  9
$DIMCLRD
 70
     9
  9
$DIMCLRE
 70
     9
  9
$DIMCLRT
 70
    11
  9
$DIMTFAC
 40
1.0
  9
$DIMGAP
 40
15.0
  9
$LUNITS
 70
     2
  9
$LUPREC
 70
     1
  9
$SKETCHINC
 40
1.0
  9
$FILLETRAD
 40
50.0
  9
$AUNITS
 70
     0
  9
$AUPREC
 70
     0
  9
$MENU
  1
ROPLANS
  9
$ELEVATION
 40
0.0
  9
$PELEVATION
 40
0.0
  9
$THICKNESS
 40
0.0
  9
$LIMCHECK
 70
     0
  9
$BLIPMODE
 70
     1
  9
$CHAMFERA
 40
0.0
  9
$CHAMFERB
 40
0.0
  9
$SKPOLY
 70
     0
  9
$TDCREATE
 40
2450392.957851
  9
$TDUPDATE
 40
2455526.756388
  9
$TDINDWG
 40
1.964545
  9
$TDUSRTIMER
 40
1.964545
  9
$USRTIMER
 70
     1
  9
$ANGBASE
 50
0.0
  9
$ANGDIR
 70
     0
  9
$PDMODE
 70
     0
  9
$PDSIZE
 40
0.0
  9
$PLINEWID
 40
0.0
  9
$COORDS
 70
     2
  9
$SPLFRAME
 70
     0
  9
$SPLINETYPE
 70
     6
  9
$SPLINESEGS
 70
     8
  9
$ATTDIA
 70
     0
  9
$ATTREQ
 70
     0
  9
$HANDLING
 70
     1
  9
$HANDSEED
  5
2D7
  9
$SURFTAB1
 70
    24
  9
$SURFTAB2
 70
    24
  9
$SURFTYPE
 70
     6
  9
$SURFU
 70
     6
  9
$SURFV
 70
     6
  9
$UCSNAME
  2

  9
$UCSORG
 10
0.0
 20
0.0
 30
0.0
  9
$UCSXDIR
 10
1.0
 20
0.0
 30
0.0
  9
$UCSYDIR
 10
0.0
 20
1.0
 30
0.0
  9
$PUCSNAME
  2

  9
$PUCSORG
 10
0.0
 20
0.0
 30
0.0
  9
$PUCSXDIR
 10
1.0
 20
0.0
 30
0.0
  9
$PUCSYDIR
 10
0.0
 20
1.0
 30
0.0
  9
$USERI1
 70
     0
  9
$USERI2
 70
     0
  9
$USERI3
 70
     0
  9
$USERI4
 70
     0
  9
$USERI5
 70
     0
  9
$USERR1
 40
0.0
  9
$USERR2
 40
0.0
  9
$USERR3
 40
0.0
  9
$USERR4
 40
0.0
  9
$USERR5
 40
0.0
  9
$WORLDVIEW
 70
     1
  9
$SHADEDGE
 70
     0
  9
$SHADEDIF
 70
    70
  9
$TILEMODE
 70
     1
  9
$MAXACTVP
 70
    16
  9
$PLIMCHECK
 70
     0
  9
$PEXTMIN
 10
-0.805942
 20
0.005011
 30
0.0
  9
$PEXTMAX
 10
20.392854
 20
13.725274
 30
0.0
  9
$PLIMMIN
 10
0.0
 20
0.0
  9
$PLIMMAX
 10
12.0
 20
9.0
  9
$UNITMODE
 70
     0
  9
$VISRETAIN
 70
     0
  9
$PLINEGEN
 70
     0
  9
$PSLTSCALE
 70
     0
  0
ENDSEC
  0
SECTION
  2
TABLES
  0
TABLE
  2
VPORT
 70
     2
  0
VPORT
  2
*ACTIVE
 70
     0
 10
0.0
 20
0.0
 11
1.0
 21
1.0
 12
0.022041
 22
-218.109208
 13
0.0
 23
0.0
 14
1.0
 24
1.0
 15
50.0
 25
50.0
 16
0.0
 26
0.0
 36
1.0
 17
0.0
 27
0.0
 37
0.0
 40
479.177418
 41
1.865779
 42
50.0
 43
0.0
 44
0.0
 50
0.0
 51
0.0
 71
     0
 72
   100
 73
     1
 74
     1
 75
     0
 76
     0
 77
     0
 78
     0
  0
ENDTAB
  0
TABLE
  2
LTYPE
 70
     2
  0
LTYPE
  2
CONTINUOUS
 70
     0
  3
Solid Line
 72
    65
 73
     0
 40
0.0
  0
LTYPE
  2
31
 70
     0
  3

 72
    65
 73
     4
 40
2.1
 49
1.5
 49
-0.3
 49
0.0
 49
-0.3
  0
ENDTAB
  0
TABLE
  2
LAYER
 70
    10
  0
LAYER
  2
0
 70
     0
 62
     7
  6
CONTINUOUS
  0
LAYER
  2
TEAM-BODY
 70
     0
 62
     2
  6
CONTINUOUS
  0
LAYER
  2
TEAM-AXE
 70
     0
 62
    10
  6
31
  0
LAYER
  2
TEAM-TXT
 70
     0
 62
    11
  6
CONTINUOUS
  0
LAYER
  2
TEAM-DET1
 70
     0
 62
     4
  6
CONTINUOUS
  0
LAYER
  2
TEAM-DET2
 70
     0
 62
     5
  6
CONTINUOUS
  0
LAYER
  2
TEAM-COLD
 70
     0
 62
     3
  6
CONTINUOUS
  0
LAYER
  2
TEAM-WARM
 70
     0
 62
     1
  6
CONTINUOUS
  0
LAYER
  2
TEAM-NET
 70
     0
 62
    15
  6
CONTINUOUS
  0
LAYER
  2
TEAM-INSP
 70
     0
 62
     5
  6
CONTINUOUS
  0
ENDTAB
  0
TABLE
  2
STYLE
 70
     2
  0
STYLE
  2
STANDARD
 70
     0
 40
0.0
 41
1.0
 50
0.0
 71
     0
 42
200.0
  3
txt
  4

  0
STYLE
  2
TEAM
 70
     0
 40
0.0
 41
0.8
 50
15.0
 71
     0
 42
7.0
  3
ROMANS.shx
  4

  0
ENDTAB
  0
TABLE
  2
VIEW
 70
     0
  0
ENDTAB
  0
TABLE
  2
UCS
 70
     0
  0
ENDTAB
  0
TABLE
  2
APPID
 70
     1
  0
APPID
  2
ACAD
 70
     0
  0
ENDTAB
  0
TABLE
  2
DIMSTYLE
 70
     1
  0
DIMSTYLE
  2
TEAM
 70
     0
  3

  4

  5

  6

  7

 40
0.0
 41
20.0
 42
10.0
 43
1.0
 44
1.0
 45
0.0
 46
0.0
 47
0.0
 48
0.0
140
35.0
141
1.0
142
0.0
143
25.4
144
1.0
145
0.0
146
1.0
147
15.0
 71
     0
 72
     0
 73
     0
 74
     0
 75
     0
 76
     0
 77
     0
 78
     0
170
     0
171
     2
172
     0
173
     0
174
     0
175
     0
176
     9
177
     9
178
    11
  0
ENDTAB
  0
ENDSEC
  0
SECTION
  2
BLOCKS
  0
BLOCK
  8
0
  2
$MODEL_SPACE
 70
     0
 10
0.0
 20
0.0
 30
0.0
  3
$MODEL_SPACE
  1

  0
ENDBLK
  5
2AA
  8
0
  0
BLOCK
 67
     1
  8
0
  2
$PAPER_SPACE
 70
     0
 10
0.0
 20
0.0
 30
0.0
  3
$PAPER_SPACE
  1

  0
ENDBLK
  5
2A8
 67
     1
  8
0
  0
ENDSEC
  0
SECTION
  2
ENTITIES
  0
CIRCLE
  5
1F
  8
TEAM-DET1
 39
-20.0
 10
118.0
 20
-210.0
 30
600.0
 40
21.0
  0
CIRCLE
  5
21
  8
TEAM-BODY
 39
-20.0
 10
118.0
 20
-210.0
 30
600.0
 40
26.0
  0
POLYLINE
  5
23
  8
TEAM-DET2
 66
     1
 10
0.0
 20
0.0
 30
0.0
 70
     1
 40
10.0
 41
10.0
210
0.0
220
-1.0
230
0.0
  0
VERTEX
  5
2B0
  8
TEAM-DET2
 10
-5.0
 20
0.0
 30
0.0
 42
1.0
  0
VERTEX
  5
2B1
  8
TEAM-DET2
 10
5.0
 20
0.0
 30
0.0
 42
1.0
  0
SEQEND
  5
2B2
  8
TEAM-DET2
  0
POLYLINE
  5
25
  8
TEAM-DET2
 66
     1
 10
0.0
 20
0.0
 30
0.0
 70
     1
 40
10.0
 41
10.0
210
0.0
220
-1.0
230
0.0
  0
VERTEX
  5
2B3
  8
TEAM-DET2
 10
-5.0
 20
0.0
 30
0.0
 42
1.0
  0
VERTEX
  5
2B4
  8
TEAM-DET2
 10
5.0
 20
0.0
 30
0.0
 42
1.0
  0
SEQEND
  5
2B5
  8
TEAM-DET2
  0
POLYLINE
  5
26
  8
TEAM-DET2
 66
     1
 10
0.0
 20
0.0
 30
0.0
 70
     1
 40
10.0
 41
10.0
210
-1.0
220
0.0
230
0.0
  0
VERTEX
  5
2B6
  8
TEAM-DET2
 10
-5.0
 20
0.0
 30
0.0
 42
1.0
  0
VERTEX
  5
2B7
  8
TEAM-DET2
 10
5.0
 20
0.0
 30
0.0
 42
1.0
  0
SEQEND
  5
2B8
  8
TEAM-DET2
  0
CIRCLE
  5
27
  8
TEAM-INSP
 10
0.0
 20
0.0
 30
0.0
 40
10.0
  0
POLYLINE
  5
29
  8
TEAM-NET
 66
     1
 10
0.0
 20
0.0
 30
0.0
 70
    16
 71
     2
 72
    25
  0
VERTEX
  5
2A
  8
TEAM-NET
 10
-320.0
 20
-50.0
 30
850.0
 70
    64
  0
VERTEX
  5
2B
  8
TEAM-NET
 10
-306.718314
 20
-31.162159
 30
850.0
 70
    64
  0
VERTEX
  5
2C
  8
TEAM-NET
 10
-282.287163
 20
-30.0
 30
850.0
 70
    64
  0
VERTEX
  5
2D
  8
TEAM-NET
 10
-257.722781
 20
-30.0
 30
850.0
 70
    64
  0
VERTEX
  5
2E
  8
TEAM-NET
 10
-233.1584
 20
-30.0
 30
850.0
 70
    64
  0
VERTEX
  5
2F
  8
TEAM-NET
 10
-208.594018
 20
-30.0
 30
850.0
 70
    64
  0
VERTEX
  5
30
  8
TEAM-NET
 10
-184.029636
 20
-30.0
 30
850.0
 70
    64
  0
VERTEX
  5
31
  8
TEAM-NET
 10
-159.465254
 20
-30.0
 30
850.0
 70
    64
  0
VERTEX
  5
32
  8
TEAM-NET
 10
-134.900873
 20
-30.0
 30
850.0
 70
    64
  0
VERTEX
  5
33
  8
TEAM-NET
 10
-110.336491
 20
-30.0
 30
850.0
 70
    64
  0
VERTEX
  5
34
  8
TEAM-NET
 10
-85.772109
 20
-30.0
 30
850.0
 70
    64
  0
VERTEX
  5
35
  8
TEAM-NET
 10
-61.207727
 20
-30.0
 30
850.0
 70
    64
  0
VERTEX
  5
36
  8
TEAM-NET
 10
-36.643346
 20
-30.0
 30
850.0
 70
    64
  0
VERTEX
  5
37
  8
TEAM-NET
 10
-12.078964
 20
-30.0
 30
850.0
 70
    64
  0
VERTEX
  5
38
  8
TEAM-NET
 10
12.485418
 20
-30.0
 30
850.0
 70
    64
  0
VERTEX
  5
39
  8
TEAM-NET
 10
37.0498
 20
-30.0
 30
850.0
 70
    64
  0
VERTEX
  5
3A
  8
TEAM-NET
 10
61.614181
 20
-30.0
 30
850.0
 70
    64
  0
VERTEX
  5
3B
  8
TEAM-NET
 10
86.178563
 20
-30.0
 30
850.0
 70
    64
  0
VERTEX
  5
3C
  8
TEAM-NET
 10
110.727772
 20
-30.469437
 30
850.0
 70
    64
  0
VERTEX
  5
3D
  8
TEAM-NET
 10
134.641171
 20
-35.810794
 30
850.0
 70
    64
  0
VERTEX
  5
3E
  8
TEAM-NET
 10
156.537797
 20
-46.80709
 30
850.0
 70
    64
  0
VERTEX
  5
3F
  8
TEAM-NET
 10
175.103019
 20
-62.798129
 30
850.0
 70
    64
  0
VERTEX
  5
40
  8
TEAM-NET
 10
189.222216
 20
-82.823838
 30
850.0
 70
    64
  0
VERTEX
  5
41
  8
TEAM-NET
 10
198.047699
 20
-105.681913
 30
850.0
 70
    64
  0
VERTEX
  5
42
  8
TEAM-NET
 10
201.049602
 20
-130.0
 30
850.0
 70
    64
  0
VERTEX
  5
43
  8
TEAM-NET
 10
-300.0
 20
-50.0
 30
600.0
 70
    64
  0
VERTEX
  5
44
  8
TEAM-NET
 10
-278.053612
 20
-50.0
 30
600.0
 70
    64
  0
VERTEX
  5
45
  8
TEAM-NET
 10
-256.107224
 20
-50.0
 30
600.0
 70
    64
  0
VERTEX
  5
46
  8
TEAM-NET
 10
-234.160836
 20
-50.0
 30
600.0
 70
    64
  0
VERTEX
  5
47
  8
TEAM-NET
 10
-212.214449
 20
-50.0
 30
600.0
 70
    64
  0
VERTEX
  5
48
  8
TEAM-NET
 10
-190.268061
 20
-50.0
 30
600.0
 70
    64
  0
VERTEX
  5
49
  8
TEAM-NET
 10
-168.321673
 20
-50.0
 30
600.0
 70
    64
  0
VERTEX
  5
4A
  8
TEAM-NET
 10
-146.375285
 20
-50.0
 30
600.0
 70
    64
  0
VERTEX
  5
4B
  8
TEAM-NET
 10
-124.428897
 20
-50.0
 30
600.0
 70
    64
  0
VERTEX
  5
4C
  8
TEAM-NET
 10
-102.482509
 20
-50.0
 30
600.0
 70
    64
  0
VERTEX
  5
4D
  8
TEAM-NET
 10
-80.536121
 20
-50.0
 30
600.0
 70
    64
  0
VERTEX
  5
4E
  8
TEAM-NET
 10
-58.589734
 20
-50.0
 30
600.0
 70
    64
  0
VERTEX
  5
4F
  8
TEAM-NET
 10
-36.643346
 20
-50.0
 30
600.0
 70
    64
  0
VERTEX
  5
50
  8
TEAM-NET
 10
-14.696958
 20
-50.0
 30
600.0
 70
    64
  0
VERTEX
  5
51
  8
TEAM-NET
 10
7.24943
 20
-50.0
 30
600.0
 70
    64
  0
VERTEX
  5
52
  8
TEAM-NET
 10
29.195818
 20
-50.0
 30
600.0
 70
    64
  0
VERTEX
  5
53
  8
TEAM-NET
 10
51.142206
 20
-50.0
 30
600.0
 70
    64
  0
VERTEX
  5
54
  8
TEAM-NET
 10
73.088594
 20
-50.0
 30
600.0
 70
    64
  0
VERTEX
  5
55
  8
TEAM-NET
 10
95.034981
 20
-50.0
 30
600.0
 70
    64
  0
VERTEX
  5
56
  8
TEAM-NET
 10
116.87627
 20
-51.581146
 30
600.0
 70
    64
  0
VERTEX
  5
57
  8
TEAM-NET
 10
137.52828
 20
-58.80094
 30
600.0
 70
    64
  0
VERTEX
  5
58
  8
TEAM-NET
 10
155.452192
 20
-71.345433
 30
600.0
 70
    64
  0
VERTEX
  5
59
  8
TEAM-NET
 10
169.307548
 20
-88.276471
 30
600.0
 70
    64
  0
VERTEX
  5
5A
  8
TEAM-NET
 10
178.058159
 20
-108.327848
 30
600.0
 70
    64
  0
VERTEX
  5
5B
  8
TEAM-NET
 10
181.049602
 20
-130.0
 30
600.0
 70
    64
  0
SEQEND
  5
5D
  8
TEAM-NET
  0
POLYLINE
  5
5E
  8
TEAM-NET
 66
     1
 10
0.0
 20
0.0
 30
0.0
 70
    16
 71
     2
 72
    37
  0
VERTEX
  5
5F
  8
TEAM-NET
 10
-320.0
 20
-50.0
 30
850.0
 70
    64
  0
VERTEX
  5
60
  8
TEAM-NET
 10
-320.0
 20
-81.376254
 30
850.0
 70
    64
  0
VERTEX
  5
61
  8
TEAM-NET
 10
-320.0
 20
-112.752509
 30
850.0
 70
    64
  0
VERTEX
  5
62
  8
TEAM-NET
 10
-320.0
 20
-144.128763
 30
850.0
 70
    64
  0
VERTEX
  5
63
  8
TEAM-NET
 10
-320.0
 20
-175.505018
 30
850.0
 70
    64
  0
VERTEX
  5
64
  8
TEAM-NET
 10
-320.0
 20
-206.881272
 30
850.0
 70
    64
  0
VERTEX
  5
65
  8
TEAM-NET
 10
-320.0
 20
-238.257527
 30
850.0
 70
    64
  0
VERTEX
  5
66
  8
TEAM-NET
 10
-320.0
 20
-269.633781
 30
850.0
 70
    64
  0
VERTEX
  5
67
  8
TEAM-NET
 10
-320.0
 20
-301.010036
 30
850.0
 70
    64
  0
VERTEX
  5
68
  8
TEAM-NET
 10
-320.0
 20
-332.38629
 30
850.0
 70
    64
  0
VERTEX
  5
69
  8
TEAM-NET
 10
-320.0
 20
-363.762545
 30
850.0
 70
    64
  0
VERTEX
  5
6A
  8
TEAM-NET
 10
-320.0
 20
-395.138799
 30
850.0
 70
    64
  0
VERTEX
  5
6B
  8
TEAM-NET
 10
-304.851973
 20
-419.402535
 30
850.0
 70
    64
  0
VERTEX
  5
6C
  8
TEAM-NET
 10
-273.524618
 20
-420.0
 30
850.0
 70
    64
  0
VERTEX
  5
6D
  8
TEAM-NET
 10
-242.148364
 20
-420.0
 30
850.0
 70
    64
  0
VERTEX
  5
6E
  8
TEAM-NET
 10
-210.772109
 20
-420.0
 30
850.0
 70
    64
  0
VERTEX
  5
6F
  8
TEAM-NET
 10
-179.395855
 20
-420.0
 30
850.0
 70
    64
  0
VERTEX
  5
70
  8
TEAM-NET
 10
-148.0196
 20
-420.0
 30
850.0
 70
    64
  0
VERTEX
  5
71
  8
TEAM-NET
 10
-116.643346
 20
-420.0
 30
850.0
 70
    64
  0
VERTEX
  5
72
  8
TEAM-NET
 10
-85.267091
 20
-420.0
 30
850.0
 70
    64
  0
VERTEX
  5
73
  8
TEAM-NET
 10
-53.890837
 20
-420.0
 30
850.0
 70
    64
  0
VERTEX
  5
74
  8
TEAM-NET
 10
-22.514582
 20
-420.0
 30
850.0
 70
    64
  0
VERTEX
  5
75
  8
TEAM-NET
 10
8.861672
 20
-420.0
 30
850.0
 70
    64
  0
VERTEX
  5
76
  8
TEAM-NET
 10
40.237927
 20
-420.0
 30
850.0
 70
    64
  0
VERTEX
  5
77
  8
TEAM-NET
 10
71.614181
 20
-420.0
 30
850.0
 70
    64
  0
VERTEX
  5
78
  8
TEAM-NET
 10
102.990314
 20
-419.981166
 30
850.0
 70
    64
  0
VERTEX
  5
79
  8
TEAM-NET
 10
133.75372
 20
-414.501009
 30
850.0
 70
    64
  0
VERTEX
  5
7A
  8
TEAM-NET
 10
161.323834
 20
-399.79359
 30
850.0
 70
    64
  0
VERTEX
  5
7B
  8
TEAM-NET
 10
183.008655
 20
-377.294972
 30
850.0
 70
    64
  0
VERTEX
  5
7C
  8
TEAM-NET
 10
196.690836
 20
-349.201961
 30
850.0
 70
    64
  0
VERTEX
  5
7D
  8
TEAM-NET
 10
201.049602
 20
-318.257527
 30
850.0
 70
    64
  0
VERTEX
  5
7E
  8
TEAM-NET
 10
201.049602
 20
-286.881272
 30
850.0
 70
    64
  0
VERTEX
  5
7F
  8
TEAM-NET
 10
201.049602
 20
-255.505018
 30
850.0
 70
    64
  0
VERTEX
  5
80
  8
TEAM-NET
 10
201.049602
 20
-224.128763
 30
850.0
 70
    64
  0
VERTEX
  5
81
  8
TEAM-NET
 10
201.049602
 20
-192.752509
 30
850.0
 70
    64
  0
VERTEX
  5
82
  8
TEAM-NET
 10
201.049602
 20
-161.376254
 30
850.0
 70
    64
  0
VERTEX
  5
83
  8
TEAM-NET
 10
201.049602
 20
-130.0
 30
850.0
 70
    64
  0
VERTEX
  5
84
  8
TEAM-NET
 10
-300.0
 20
-50.0
 30
600.0
 70
    64
  0
VERTEX
  5
85
  8
TEAM-NET
 10
-300.0
 20
-79.630925
 30
600.0
 70
    64
  0
VERTEX
  5
86
  8
TEAM-NET
 10
-300.0
 20
-109.26185
 30
600.0
 70
    64
  0
VERTEX
  5
87
  8
TEAM-NET
 10
-300.0
 20
-138.892776
 30
600.0
 70
    64
  0
VERTEX
  5
88
  8
TEAM-NET
 10
-300.0
 20
-168.523701
 30
600.0
 70
    64
  0
VERTEX
  5
89
  8
TEAM-NET
 10
-300.0
 20
-198.154626
 30
600.0
 70
    64
  0
VERTEX
  5
8A
  8
TEAM-NET
 10
-300.0
 20
-227.785551
 30
600.0
 70
    64
  0
VERTEX
  5
8B
  8
TEAM-NET
 10
-300.0
 20
-257.416477
 30
600.0
 70
    64
  0
VERTEX
  5
8C
  8
TEAM-NET
 10
-300.0
 20
-287.047402
 30
600.0
 70
    64
  0
VERTEX
  5
8D
  8
TEAM-NET
 10
-300.0
 20
-316.678327
 30
600.0
 70
    64
  0
VERTEX
  5
8E
  8
TEAM-NET
 10
-300.0
 20
-346.309252
 30
600.0
 70
    64
  0
VERTEX
  5
8F
  8
TEAM-NET
 10
-300.0
 20
-375.940178
 30
600.0
 70
    64
  0
VERTEX
  5
90
  8
TEAM-NET
 10
-294.428897
 20
-400.0
 30
600.0
 70
    64
  0
VERTEX
  5
91
  8
TEAM-NET
 10
-264.797972
 20
-400.0
 30
600.0
 70
    64
  0
VERTEX
  5
92
  8
TEAM-NET
 10
-235.167047
 20
-400.0
 30
600.0
 70
    64
  0
VERTEX
  5
93
  8
TEAM-NET
 10
-205.536121
 20
-400.0
 30
600.0
 70
    64
  0
VERTEX
  5
94
  8
TEAM-NET
 10
-175.905196
 20
-400.0
 30
600.0
 70
    64
  0
VERTEX
  5
95
  8
TEAM-NET
 10
-146.274271
 20
-400.0
 30
600.0
 70
    64
  0
VERTEX
  5
96
  8
TEAM-NET
 10
-116.643346
 20
-400.0
 30
600.0
 70
    64
  0
VERTEX
  5
97
  8
TEAM-NET
 10
-87.01242
 20
-400.0
 30
600.0
 70
    64
  0
VERTEX
  5
98
  8
TEAM-NET
 10
-57.381495
 20
-400.0
 30
600.0
 70
    64
  0
VERTEX
  5
99
  8
TEAM-NET
 10
-27.75057
 20
-400.0
 30
600.0
 70
    64
  0
VERTEX
  5
9A
  8
TEAM-NET
 10
1.880355
 20
-400.0
 30
600.0
 70
    64
  0
VERTEX
  5
9B
  8
TEAM-NET
 10
31.511281
 20
-400.0
 30
600.0
 70
    64
  0
VERTEX
  5
9C
  8
TEAM-NET
 10
61.142206
 20
-400.0
 30
600.0
 70
    64
  0
VERTEX
  5
9D
  8
TEAM-NET
 10
90.773131
 20
-400.0
 30
600.0
 70
    64
  0
VERTEX
  5
9E
  8
TEAM-NET
 10
120.215804
 20
-397.670179
 30
600.0
 70
    64
  0
VERTEX
  5
9F
  8
TEAM-NET
 10
147.030822
 20
-385.465468
 30
600.0
 70
    64
  0
VERTEX
  5
A0
  8
TEAM-NET
 10
167.609635
 20
-364.382001
 30
600.0
 70
    64
  0
VERTEX
  5
A1
  8
TEAM-NET
 10
179.161243
 20
-337.279224
 30
600.0
 70
    64
  0
VERTEX
  5
A2
  8
TEAM-NET
 10
181.049602
 20
-307.785551
 30
600.0
 70
    64
  0
VERTEX
  5
A3
  8
TEAM-NET
 10
181.049602
 20
-278.154626
 30
600.0
 70
    64
  0
VERTEX
  5
A4
  8
TEAM-NET
 10
181.049602
 20
-248.523701
 30
600.0
 70
    64
  0
VERTEX
  5
A5
  8
TEAM-NET
 10
181.049602
 20
-218.892776
 30
600.0
 70
    64
  0
VERTEX
  5
A6
  8
TEAM-NET
 10
181.049602
 20
-189.26185
 30
600.0
 70
    64
  0
VERTEX
  5
A7
  8
TEAM-NET
 10
181.049602
 20
-159.630925
 30
600.0
 70
    64
  0
VERTEX
  5
A8
  8
TEAM-NET
 10
181.049602
 20
-130.0
 30
600.0
 70
    64
  0
SEQEND
  5
A9
  8
TEAM-NET
  0
POLYLINE
  5
AA
  8
TEAM-BODY
 66
     1
 10
0.0
 20
0.0
 30
600.0
  0
VERTEX
  5
2B9
  8
TEAM-BODY
 10
181.049602
 20
-130.0
 30
600.0
 42
0.414214
  0
VERTEX
  5
2BA
  8
TEAM-BODY
 10
101.049602
 20
-50.0
 30
600.0
  0
VERTEX
  5
2BB
  8
TEAM-BODY
 10
-300.0
 20
-50.0
 30
600.0
  0
SEQEND
  5
2BC
  8
TEAM-BODY
  0
POLYLINE
  5
AB
  8
TEAM-BODY
 66
     1
 10
0.0
 20
0.0
 30
600.0
  0
VERTEX
  5
2BD
  8
TEAM-BODY
 10
181.049602
 20
-130.0
 30
600.0
  0
VERTEX
  5
2BE
  8
TEAM-BODY
 10
181.049602
 20
-320.0
 30
600.0
 42
-0.414214
  0
VERTEX
  5
2BF
  8
TEAM-BODY
 10
101.049602
 20
-400.0
 30
600.0
  0
VERTEX
  5
2C0
  8
TEAM-BODY
 10
-300.0
 20
-400.0
 30
600.0
  0
VERTEX
  5
2C1
  8
TEAM-BODY
 10
-300.0
 20
-50.0
 30
600.0
  0
SEQEND
  5
2C2
  8
TEAM-BODY
  0
POLYLINE
  5
AC
  8
TEAM-NET
 66
     1
 10
0.0
 20
0.0
 30
0.0
 70
    16
 71
     2
 72
    37
  0
VERTEX
  5
AD
  8
TEAM-NET
 10
-300.0
 20
-50.0
 30
600.0
 70
    64
  0
VERTEX
  5
AE
  8
TEAM-NET
 10
-300.0
 20
-79.630925
 30
600.0
 70
    64
  0
VERTEX
  5
AF
  8
TEAM-NET
 10
-300.0
 20
-109.26185
 30
600.0
 70
    64
  0
VERTEX
  5
B0
  8
TEAM-NET
 10
-300.0
 20
-138.892776
 30
600.0
 70
    64
  0
VERTEX
  5
B1
  8
TEAM-NET
 10
-300.0
 20
-168.523701
 30
600.0
 70
    64
  0
VERTEX
  5
B2
  8
TEAM-NET
 10
-300.0
 20
-198.154626
 30
600.0
 70
    64
  0
VERTEX
  5
B3
  8
TEAM-NET
 10
-300.0
 20
-227.785551
 30
600.0
 70
    64
  0
VERTEX
  5
B4
  8
TEAM-NET
 10
-300.0
 20
-257.416477
 30
600.0
 70
    64
  0
VERTEX
  5
B5
  8
TEAM-NET
 10
-300.0
 20
-287.047402
 30
600.0
 70
    64
  0
VERTEX
  5
B6
  8
TEAM-NET
 10
-300.0
 20
-316.678327
 30
600.0
 70
    64
  0
VERTEX
  5
B7
  8
TEAM-NET
 10
-300.0
 20
-346.309252
 30
600.0
 70
    64
  0
VERTEX
  5
B8
  8
TEAM-NET
 10
-300.0
 20
-375.940178
 30
600.0
 70
    64
  0
VERTEX
  5
B9
  8
TEAM-NET
 10
-294.428897
 20
-400.0
 30
600.0
 70
    64
  0
VERTEX
  5
BA
  8
TEAM-NET
 10
-264.797972
 20
-400.0
 30
600.0
 70
    64
  0
VERTEX
  5
BB
  8
TEAM-NET
 10
-235.167047
 20
-400.0
 30
600.0
 70
    64
  0
VERTEX
  5
BC
  8
TEAM-NET
 10
-205.536121
 20
-400.0
 30
600.0
 70
    64
  0
VERTEX
  5
BD
  8
TEAM-NET
 10
-175.905196
 20
-400.0
 30
600.0
 70
    64
  0
VERTEX
  5
BE
  8
TEAM-NET
 10
-146.274271
 20
-400.0
 30
600.0
 70
    64
  0
VERTEX
  5
BF
  8
TEAM-NET
 10
-116.643346
 20
-400.0
 30
600.0
 70
    64
  0
VERTEX
  5
C0
  8
TEAM-NET
 10
-87.01242
 20
-400.0
 30
600.0
 70
    64
  0
VERTEX
  5
C1
  8
TEAM-NET
 10
-57.381495
 20
-400.0
 30
600.0
 70
    64
  0
VERTEX
  5
C2
  8
TEAM-NET
 10
-27.75057
 20
-400.0
 30
600.0
 70
    64
  0
VERTEX
  5
C3
  8
TEAM-NET
 10
1.880355
 20
-400.0
 30
600.0
 70
    64
  0
VERTEX
  5
C4
  8
TEAM-NET
 10
31.511281
 20
-400.0
 30
600.0
 70
    64
  0
VERTEX
  5
C5
  8
TEAM-NET
 10
61.142206
 20
-400.0
 30
600.0
 70
    64
  0
VERTEX
  5
C6
  8
TEAM-NET
 10
90.773131
 20
-400.0
 30
600.0
 70
    64
  0
VERTEX
  5
C7
  8
TEAM-NET
 10
120.215804
 20
-397.670179
 30
600.0
 70
    64
  0
VERTEX
  5
C8
  8
TEAM-NET
 10
147.030822
 20
-385.465468
 30
600.0
 70
    64
  0
VERTEX
  5
C9
  8
TEAM-NET
 10
167.609635
 20
-364.382001
 30
600.0
 70
    64
  0
VERTEX
  5
CA
  8
TEAM-NET
 10
179.161243
 20
-337.279224
 30
600.0
 70
    64
  0
VERTEX
  5
CB
  8
TEAM-NET
 10
181.049602
 20
-307.785551
 30
600.0
 70
    64
  0
VERTEX
  5
CC
  8
TEAM-NET
 10
181.049602
 20
-278.154626
 30
600.0
 70
    64
  0
VERTEX
  5
CD
  8
TEAM-NET
 10
181.049602
 20
-248.523701
 30
600.0
 70
    64
  0
VERTEX
  5
CE
  8
TEAM-NET
 10
181.049602
 20
-218.892776
 30
600.0
 70
    64
  0
VERTEX
  5
CF
  8
TEAM-NET
 10
181.049602
 20
-189.26185
 30
600.0
 70
    64
  0
VERTEX
  5
D0
  8
TEAM-NET
 10
181.049602
 20
-159.630925
 30
600.0
 70
    64
  0
VERTEX
  5
D1
  8
TEAM-NET
 10
181.049602
 20
-130.0
 30
600.0
 70
    64
  0
VERTEX
  5
D2
  8
TEAM-NET
 10
-300.0
 20
-50.0
 30
600.0
 70
    64
  0
VERTEX
  5
D3
  8
TEAM-NET
 10
-285.369075
 20
-50.0
 30
600.0
 70
    64
  0
VERTEX
  5
D4
  8
TEAM-NET
 10
-270.73815
 20
-50.0
 30
600.0
 70
    64
  0
VERTEX
  5
D5
  8
TEAM-NET
 10
-256.107224
 20
-50.0
 30
600.0
 70
    64
  0
VERTEX
  5
D6
  8
TEAM-NET
 10
-241.476299
 20
-50.0
 30
600.0
 70
    64
  0
VERTEX
  5
D7
  8
TEAM-NET
 10
-226.845374
 20
-50.0
 30
600.0
 70
    64
  0
VERTEX
  5
D8
  8
TEAM-NET
 10
-212.214449
 20
-50.0
 30
600.0
 70
    64
  0
VERTEX
  5
D9
  8
TEAM-NET
 10
-197.583523
 20
-50.0
 30
600.0
 70
    64
  0
VERTEX
  5
DA
  8
TEAM-NET
 10
-182.952598
 20
-50.0
 30
600.0
 70
    64
  0
VERTEX
  5
DB
  8
TEAM-NET
 10
-168.321673
 20
-50.0
 30
600.0
 70
    64
  0
VERTEX
  5
DC
  8
TEAM-NET
 10
-153.690748
 20
-50.0
 30
600.0
 70
    64
  0
VERTEX
  5
DD
  8
TEAM-NET
 10
-139.059822
 20
-50.0
 30
600.0
 70
    64
  0
VERTEX
  5
DE
  8
TEAM-NET
 10
-124.428897
 20
-50.0
 30
600.0
 70
    64
  0
VERTEX
  5
DF
  8
TEAM-NET
 10
-109.797972
 20
-50.0
 30
600.0
 70
    64
  0
VERTEX
  5
E0
  8
TEAM-NET
 10
-95.167047
 20
-50.0
 30
600.0
 70
    64
  0
VERTEX
  5
E1
  8
TEAM-NET
 10
-80.536121
 20
-50.0
 30
600.0
 70
    64
  0
VERTEX
  5
E2
  8
TEAM-NET
 10
-65.905196
 20
-50.0
 30
600.0
 70
    64
  0
VERTEX
  5
E3
  8
TEAM-NET
 10
-51.274271
 20
-50.0
 30
600.0
 70
    64
  0
VERTEX
  5
E4
  8
TEAM-NET
 10
-36.643346
 20
-50.0
 30
600.0
 70
    64
  0
VERTEX
  5
E5
  8
TEAM-NET
 10
-22.01242
 20
-50.0
 30
600.0
 70
    64
  0
VERTEX
  5
E6
  8
TEAM-NET
 10
-7.381495
 20
-50.0
 30
600.0
 70
    64
  0
VERTEX
  5
E7
  8
TEAM-NET
 10
7.24943
 20
-50.0
 30
600.0
 70
    64
  0
VERTEX
  5
E8
  8
TEAM-NET
 10
21.880355
 20
-50.0
 30
600.0
 70
    64
  0
VERTEX
  5
E9
  8
TEAM-NET
 10
36.511281
 20
-50.0
 30
600.0
 70
    64
  0
VERTEX
  5
EA
  8
TEAM-NET
 10
51.142206
 20
-50.0
 30
600.0
 70
    64
  0
VERTEX
  5
EB
  8
TEAM-NET
 10
65.773131
 20
-50.0
 30
600.0
 70
    64
  0
VERTEX
  5
EC
  8
TEAM-NET
 10
80.404056
 20
-50.0
 30
600.0
 70
    64
  0
VERTEX
  5
ED
  8
TEAM-NET
 10
95.034981
 20
-50.0
 30
600.0
 70
    64
  0
VERTEX
  5
EE
  8
TEAM-NET
 10
109.649258
 20
-50.463556
 30
600.0
 70
    64
  0
VERTEX
  5
EF
  8
TEAM-NET
 10
123.971034
 20
-53.354009
 30
600.0
 70
    64
  0
VERTEX
  5
F0
  8
TEAM-NET
 10
137.52828
 20
-58.80094
 30
600.0
 70
    64
  0
VERTEX
  5
F1
  8
TEAM-NET
 10
149.868802
 20
-66.622672
 30
600.0
 70
    64
  0
VERTEX
  5
F2
  8
TEAM-NET
 10
160.580991
 20
-76.558314
 30
600.0
 70
    64
  0
VERTEX
  5
F3
  8
TEAM-NET
 10
169.307548
 20
-88.276471
 30
600.0
 70
    64
  0
VERTEX
  5
F4
  8
TEAM-NET
 10
175.757404
 20
-101.386289
 30
600.0
 70
    64
  0
VERTEX
  5
F5
  8
TEAM-NET
 10
179.715428
 20
-115.4505
 30
600.0
 70
    64
  0
VERTEX
  5
F6
  8
TEAM-NET
 10
181.049602
 20
-130.0
 30
600.0
 70
    64
  0
SEQEND
  5
F7
  8
TEAM-NET
  0
LINE
  5
F8
  8
TEAM-AXE
 10
87.0
 20
-210.0
 30
600.0
 11
149.0
 21
-210.0
 31
600.0
  0
LINE
  5
FB
  8
TEAM-AXE
 10
118.0
 20
-241.0
 30
600.0
 11
118.0
 21
-179.0
 31
600.0
  0
POLYLINE
  5
FC
  8
TEAM-BODY
 66
     1
 10
0.0
 20
0.0
 30
850.0
  0
VERTEX
  5
2C3
  8
TEAM-BODY
 10
201.049602
 20
-130.0
 30
850.0
  0
VERTEX
  5
2C4
  8
TEAM-BODY
 10
201.049602
 20
-320.0
 30
850.0
 42
-0.414214
  0
VERTEX
  5
2C5
  8
TEAM-BODY
 10
101.049602
 20
-420.0
 30
850.0
  0
VERTEX
  5
2C6
  8
TEAM-BODY
 10
-300.0
 20
-420.0
 30
850.0
 42
-0.414214
  0
VERTEX
  5
2C7
  8
TEAM-BODY
 10
-320.0
 20
-400.0
 30
850.0
  0
VERTEX
  5
2C8
  8
TEAM-BODY
 10
-320.0
 20
-50.0
 30
850.0
  0
SEQEND
  5
2C9
  8
TEAM-BODY
  0
POLYLINE
  5
FD
  8
TEAM-BODY
 66
     1
 10
0.0
 20
0.0
 30
850.0
  0
VERTEX
  5
2CA
  8
TEAM-BODY
 10
201.049602
 20
-130.0
 30
850.0
 42
0.414214
  0
VERTEX
  5
2CB
  8
TEAM-BODY
 10
101.049602
 20
-30.0
 30
850.0
  0
VERTEX
  5
2CC
  8
TEAM-BODY
 10
-300.0
 20
-30.0
 30
850.0
 42
0.414214
  0
VERTEX
  5
2CD
  8
TEAM-BODY
 10
-320.0
 20
-50.0
 30
850.0
  0
SEQEND
  5
2CE
  8
TEAM-BODY
  0
POLYLINE
  5
FE
  8
TEAM-NET
 66
     1
 10
0.0
 20
0.0
 30
0.0
 70
    16
 71
     2
 72
    25
  0
VERTEX
  5
FF
  8
TEAM-NET
 10
-320.0
 20
-50.0
 30
850.0
 70
    64
  0
VERTEX
  5
100
  8
TEAM-NET
 10
-306.718314
 20
-31.162159
 30
850.0
 70
    64
  0
VERTEX
  5
101
  8
TEAM-NET
 10
-282.287163
 20
-30.0
 30
850.0
 70
    64
  0
VERTEX
  5
102
  8
TEAM-NET
 10
-257.722781
 20
-30.0
 30
850.0
 70
    64
  0
VERTEX
  5
103
  8
TEAM-NET
 10
-233.1584
 20
-30.0
 30
850.0
 70
    64
  0
VERTEX
  5
104
  8
TEAM-NET
 10
-208.594018
 20
-30.0
 30
850.0
 70
    64
  0
VERTEX
  5
105
  8
TEAM-NET
 10
-184.029636
 20
-30.0
 30
850.0
 70
    64
  0
VERTEX
  5
106
  8
TEAM-NET
 10
-159.465254
 20
-30.0
 30
850.0
 70
    64
  0
VERTEX
  5
107
  8
TEAM-NET
 10
-134.900873
 20
-30.0
 30
850.0
 70
    64
  0
VERTEX
  5
108
  8
TEAM-NET
 10
-110.336491
 20
-30.0
 30
850.0
 70
    64
  0
VERTEX
  5
109
  8
TEAM-NET
 10
-85.772109
 20
-30.0
 30
850.0
 70
    64
  0
VERTEX
  5
10A
  8
TEAM-NET
 10
-61.207727
 20
-30.0
 30
850.0
 70
    64
  0
VERTEX
  5
10B
  8
TEAM-NET
 10
-36.643346
 20
-30.0
 30
850.0
 70
    64
  0
VERTEX
  5
10C
  8
TEAM-NET
 10
-12.078964
 20
-30.0
 30
850.0
 70
    64
  0
VERTEX
  5
10D
  8
TEAM-NET
 10
12.485418
 20
-30.0
 30
850.0
 70
    64
  0
VERTEX
  5
10E
  8
TEAM-NET
 10
37.0498
 20
-30.0
 30
850.0
 70
    64
  0
VERTEX
  5
10F
  8
TEAM-NET
 10
61.614181
 20
-30.0
 30
850.0
 70
    64
  0
VERTEX
  5
110
  8
TEAM-NET
 10
86.178563
 20
-30.0
 30
850.0
 70
    64
  0
VERTEX
  5
111
  8
TEAM-NET
 10
110.727772
 20
-30.469437
 30
850.0
 70
    64
  0
VERTEX
  5
112
  8
TEAM-NET
 10
134.641171
 20
-35.810794
 30
850.0
 70
    64
  0
VERTEX
  5
113
  8
TEAM-NET
 10
156.537797
 20
-46.80709
 30
850.0
 70
    64
  0
VERTEX
  5
114
  8
TEAM-NET
 10
175.103019
 20
-62.798129
 30
850.0
 70
    64
  0
VERTEX
  5
115
  8
TEAM-NET
 10
189.222216
 20
-82.823838
 30
850.0
 70
    64
  0
VERTEX
  5
116
  8
TEAM-NET
 10
198.047699
 20
-105.681913
 30
850.0
 70
    64
  0
VERTEX
  5
117
  8
TEAM-NET
 10
201.049602
 20
-130.0
 30
850.0
 70
    64
  0
VERTEX
  5
118
  8
TEAM-NET
 10
-350.0
 20
0.0
 30
850.0
 70
    64
  0
VERTEX
  5
119
  8
TEAM-NET
 10
-320.833333
 20
0.0
 30
850.0
 70
    64
  0
VERTEX
  5
11A
  8
TEAM-NET
 10
-291.666667
 20
0.0
 30
850.0
 70
    64
  0
VERTEX
  5
11B
  8
TEAM-NET
 10
-262.5
 20
0.0
 30
850.0
 70
    64
  0
VERTEX
  5
11C
  8
TEAM-NET
 10
-233.333333
 20
0.0
 30
850.0
 70
    64
  0
VERTEX
  5
11D
  8
TEAM-NET
 10
-204.166667
 20
0.0
 30
850.0
 70
    64
  0
VERTEX
  5
11E
  8
TEAM-NET
 10
-175.0
 20
0.0
 30
850.0
 70
    64
  0
VERTEX
  5
11F
  8
TEAM-NET
 10
-145.833333
 20
0.0
 30
850.0
 70
    64
  0
VERTEX
  5
120
  8
TEAM-NET
 10
-116.666667
 20
0.0
 30
850.0
 70
    64
  0
VERTEX
  5
121
  8
TEAM-NET
 10
-87.5
 20
0.0
 30
850.0
 70
    64
  0
VERTEX
  5
122
  8
TEAM-NET
 10
-58.333333
 20
0.0
 30
850.0
 70
    64
  0
VERTEX
  5
123
  8
TEAM-NET
 10
-29.166667
 20
0.0
 30
850.0
 70
    64
  0
VERTEX
  5
124
  8
TEAM-NET
 10
0.0
 20
0.0
 30
850.0
 70
    64
  0
VERTEX
  5
125
  8
TEAM-NET
 10
29.166667
 20
0.0
 30
850.0
 70
    64
  0
VERTEX
  5
126
  8
TEAM-NET
 10
58.333333
 20
0.0
 30
850.0
 70
    64
  0
VERTEX
  5
127
  8
TEAM-NET
 10
87.5
 20
0.0
 30
850.0
 70
    64
  0
VERTEX
  5
128
  8
TEAM-NET
 10
116.666667
 20
0.0
 30
850.0
 70
    64
  0
VERTEX
  5
129
  8
TEAM-NET
 10
145.833333
 20
0.0
 30
850.0
 70
    64
  0
VERTEX
  5
12A
  8
TEAM-NET
 10
175.0
 20
0.0
 30
850.0
 70
    64
  0
VERTEX
  5
12B
  8
TEAM-NET
 10
204.166667
 20
0.0
 30
850.0
 70
    64
  0
VERTEX
  5
12C
  8
TEAM-NET
 10
233.333333
 20
0.0
 30
850.0
 70
    64
  0
VERTEX
  5
12D
  8
TEAM-NET
 10
262.5
 20
0.0
 30
850.0
 70
    64
  0
VERTEX
  5
12E
  8
TEAM-NET
 10
291.666667
 20
0.0
 30
850.0
 70
    64
  0
VERTEX
  5
12F
  8
TEAM-NET
 10
320.833333
 20
0.0
 30
850.0
 70
    64
  0
VERTEX
  5
130
  8
TEAM-NET
 10
350.0
 20
0.0
 30
850.0
 70
    64
  0
SEQEND
  5
131
  8
TEAM-NET
  0
POLYLINE
  5
132
  8
TEAM-NET
 66
     1
 10
0.0
 20
0.0
 30
0.0
 70
    16
 71
     2
 72
    37
  0
VERTEX
  5
133
  8
TEAM-NET
 10
-320.0
 20
-50.0
 30
850.0
 70
    64
  0
VERTEX
  5
134
  8
TEAM-NET
 10
-320.0
 20
-81.376254
 30
850.0
 70
    64
  0
VERTEX
  5
135
  8
TEAM-NET
 10
-320.0
 20
-112.752509
 30
850.0
 70
    64
  0
VERTEX
  5
136
  8
TEAM-NET
 10
-320.0
 20
-144.128763
 30
850.0
 70
    64
  0
VERTEX
  5
137
  8
TEAM-NET
 10
-320.0
 20
-175.505018
 30
850.0
 70
    64
  0
VERTEX
  5
138
  8
TEAM-NET
 10
-320.0
 20
-206.881272
 30
850.0
 70
    64
  0
VERTEX
  5
139
  8
TEAM-NET
 10
-320.0
 20
-238.257527
 30
850.0
 70
    64
  0
VERTEX
  5
13A
  8
TEAM-NET
 10
-320.0
 20
-269.633781
 30
850.0
 70
    64
  0
VERTEX
  5
13B
  8
TEAM-NET
 10
-320.0
 20
-301.010036
 30
850.0
 70
    64
  0
VERTEX
  5
13C
  8
TEAM-NET
 10
-320.0
 20
-332.38629
 30
850.0
 70
    64
  0
VERTEX
  5
13D
  8
TEAM-NET
 10
-320.0
 20
-363.762545
 30
850.0
 70
    64
  0
VERTEX
  5
13E
  8
TEAM-NET
 10
-320.0
 20
-395.138799
 30
850.0
 70
    64
  0
VERTEX
  5
13F
  8
TEAM-NET
 10
-304.851973
 20
-419.402535
 30
850.0
 70
    64
  0
VERTEX
  5
140
  8
TEAM-NET
 10
-273.524618
 20
-420.0
 30
850.0
 70
    64
  0
VERTEX
  5
141
  8
TEAM-NET
 10
-242.148364
 20
-420.0
 30
850.0
 70
    64
  0
VERTEX
  5
142
  8
TEAM-NET
 10
-210.772109
 20
-420.0
 30
850.0
 70
    64
  0
VERTEX
  5
143
  8
TEAM-NET
 10
-179.395855
 20
-420.0
 30
850.0
 70
    64
  0
VERTEX
  5
144
  8
TEAM-NET
 10
-148.0196
 20
-420.0
 30
850.0
 70
    64
  0
VERTEX
  5
145
  8
TEAM-NET
 10
-116.643346
 20
-420.0
 30
850.0
 70
    64
  0
VERTEX
  5
146
  8
TEAM-NET
 10
-85.267091
 20
-420.0
 30
850.0
 70
    64
  0
VERTEX
  5
147
  8
TEAM-NET
 10
-53.890837
 20
-420.0
 30
850.0
 70
    64
  0
VERTEX
  5
148
  8
TEAM-NET
 10
-22.514582
 20
-420.0
 30
850.0
 70
    64
  0
VERTEX
  5
149
  8
TEAM-NET
 10
8.861672
 20
-420.0
 30
850.0
 70
    64
  0
VERTEX
  5
14A
  8
TEAM-NET
 10
40.237927
 20
-420.0
 30
850.0
 70
    64
  0
VERTEX
  5
14B
  8
TEAM-NET
 10
71.614181
 20
-420.0
 30
850.0
 70
    64
  0
VERTEX
  5
14C
  8
TEAM-NET
 10
102.990314
 20
-419.981166
 30
850.0
 70
    64
  0
VERTEX
  5
14D
  8
TEAM-NET
 10
133.75372
 20
-414.501009
 30
850.0
 70
    64
  0
VERTEX
  5
14E
  8
TEAM-NET
 10
161.323834
 20
-399.79359
 30
850.0
 70
    64
  0
VERTEX
  5
14F
  8
TEAM-NET
 10
183.008655
 20
-377.294972
 30
850.0
 70
    64
  0
VERTEX
  5
150
  8
TEAM-NET
 10
196.690836
 20
-349.201961
 30
850.0
 70
    64
  0
VERTEX
  5
151
  8
TEAM-NET
 10
201.049602
 20
-318.257527
 30
850.0
 70
    64
  0
VERTEX
  5
152
  8
TEAM-NET
 10
201.049602
 20
-286.881272
 30
850.0
 70
    64
  0
VERTEX
  5
153
  8
TEAM-NET
 10
201.049602
 20
-255.505018
 30
850.0
 70
    64
  0
VERTEX
  5
154
  8
TEAM-NET
 10
201.049602
 20
-224.128763
 30
850.0
 70
    64
  0
VERTEX
  5
155
  8
TEAM-NET
 10
201.049602
 20
-192.752509
 30
850.0
 70
    64
  0
VERTEX
  5
156
  8
TEAM-NET
 10
201.049602
 20
-161.376254
 30
850.0
 70
    64
  0
VERTEX
  5
157
  8
TEAM-NET
 10
201.049602
 20
-130.0
 30
850.0
 70
    64
  0
VERTEX
  5
158
  8
TEAM-NET
 10
-350.0
 20
0.0
 30
850.0
 70
    64
  0
VERTEX
  5
159
  8
TEAM-NET
 10
-350.0
 20
-43.729105
 30
850.0
 70
    64
  0
VERTEX
  5
15A
  8
TEAM-NET
 10
-350.0
 20
-87.45821
 30
850.0
 70
    64
  0
VERTEX
  5
15B
  8
TEAM-NET
 10
-350.0
 20
-131.187315
 30
850.0
 70
    64
  0
VERTEX
  5
15C
  8
TEAM-NET
 10
-350.0
 20
-174.91642
 30
850.0
 70
    64
  0
VERTEX
  5
15D
  8
TEAM-NET
 10
-350.0
 20
-218.645525
 30
850.0
 70
    64
  0
VERTEX
  5
15E
  8
TEAM-NET
 10
-350.0
 20
-262.37463
 30
850.0
 70
    64
  0
VERTEX
  5
15F
  8
TEAM-NET
 10
-350.0
 20
-306.103735
 30
850.0
 70
    64
  0
VERTEX
  5
160
  8
TEAM-NET
 10
-350.0
 20
-349.83284
 30
850.0
 70
    64
  0
VERTEX
  5
161
  8
TEAM-NET
 10
-350.0
 20
-393.561945
 30
850.0
 70
    64
  0
VERTEX
  5
162
  8
TEAM-NET
 10
-345.153421
 20
-436.349477
 30
850.0
 70
    64
  0
VERTEX
  5
163
  8
TEAM-NET
 10
-306.103735
 20
-450.0
 30
850.0
 70
    64
  0
VERTEX
  5
164
  8
TEAM-NET
 10
-262.37463
 20
-450.0
 30
850.0
 70
    64
  0
VERTEX
  5
165
  8
TEAM-NET
 10
-218.645525
 20
-450.0
 30
850.0
 70
    64
  0
VERTEX
  5
166
  8
TEAM-NET
 10
-174.91642
 20
-450.0
 30
850.0
 70
    64
  0
VERTEX
  5
167
  8
TEAM-NET
 10
-131.187315
 20
-450.0
 30
850.0
 70
    64
  0
VERTEX
  5
168
  8
TEAM-NET
 10
-87.45821
 20
-450.0
 30
850.0
 70
    64
  0
VERTEX
  5
169
  8
TEAM-NET
 10
-43.729105
 20
-450.0
 30
850.0
 70
    64
  0
VERTEX
  5
16A
  8
TEAM-NET
 10
0.0
 20
-450.0
 30
850.0
 70
    64
  0
VERTEX
  5
16B
  8
TEAM-NET
 10
43.729105
 20
-450.0
 30
850.0
 70
    64
  0
VERTEX
  5
16C
  8
TEAM-NET
 10
87.45821
 20
-450.0
 30
850.0
 70
    64
  0
VERTEX
  5
16D
  8
TEAM-NET
 10
131.187315
 20
-450.0
 30
850.0
 70
    64
  0
VERTEX
  5
16E
  8
TEAM-NET
 10
174.91642
 20
-450.0
 30
850.0
 70
    64
  0
VERTEX
  5
16F
  8
TEAM-NET
 10
218.645525
 20
-450.0
 30
850.0
 70
    64
  0
VERTEX
  5
170
  8
TEAM-NET
 10
262.37463
 20
-450.0
 30
850.0
 70
    64
  0
VERTEX
  5
171
  8
TEAM-NET
 10
306.103735
 20
-450.0
 30
850.0
 70
    64
  0
VERTEX
  5
172
  8
TEAM-NET
 10
345.153421
 20
-436.349477
 30
850.0
 70
    64
  0
VERTEX
  5
173
  8
TEAM-NET
 10
350.0
 20
-393.561945
 30
850.0
 70
    64
  0
VERTEX
  5
174
  8
TEAM-NET
 10
350.0
 20
-349.83284
 30
850.0
 70
    64
  0
VERTEX
  5
175
  8
TEAM-NET
 10
350.0
 20
-306.103735
 30
850.0
 70
    64
  0
VERTEX
  5
176
  8
TEAM-NET
 10
350.0
 20
-262.37463
 30
850.0
 70
    64
  0
VERTEX
  5
177
  8
TEAM-NET
 10
350.0
 20
-218.645525
 30
850.0
 70
    64
  0
VERTEX
  5
178
  8
TEAM-NET
 10
350.0
 20
-174.91642
 30
850.0
 70
    64
  0
VERTEX
  5
179
  8
TEAM-NET
 10
350.0
 20
-131.187315
 30
850.0
 70
    64
  0
VERTEX
  5
17A
  8
TEAM-NET
 10
350.0
 20
-87.45821
 30
850.0
 70
    64
  0
VERTEX
  5
17B
  8
TEAM-NET
 10
350.0
 20
-43.729105
 30
850.0
 70
    64
  0
VERTEX
  5
17C
  8
TEAM-NET
 10
350.0
 20
0.0
 30
850.0
 70
    64
  0
SEQEND
  5
17D
  8
TEAM-NET
  0
LINE
  5
17E
  8
TEAM-BODY
 39
-20.0
 10
-350.0
 20
0.0
 30
850.0
 11
350.0
 21
0.0
 31
850.0
  0
POLYLINE
  5
17F
  8
TEAM-BODY
 66
     1
 10
0.0
 20
0.0
 30
850.0
 39
-20.0
  0
VERTEX
  5
2CF
  8
TEAM-BODY
 10
350.0
 20
0.0
 30
850.0
  0
VERTEX
  5
2D0
  8
TEAM-BODY
 10
350.0
 20
-420.0
 30
850.0
 42
-0.414214
  0
VERTEX
  5
2D1
  8
TEAM-BODY
 10
320.0
 20
-450.0
 30
850.0
  0
VERTEX
  5
2D2
  8
TEAM-BODY
 10
-320.0
 20
-450.0
 30
850.0
 42
-0.414214
  0
VERTEX
  5
2D3
  8
TEAM-BODY
 10
-350.0
 20
-420.0
 30
850.0
  0
VERTEX
  5
2D4
  8
TEAM-BODY
 10
-350.0
 20
0.0
 30
850.0
  0
SEQEND
  5
2D5
  8
TEAM-BODY
  0
TEXT
  5
180
  8
TEAM-TXT
 10
-204.671662
 20
-370.543302
 30
850.0
 40
30.0
  1
team 431007
 41
0.8
 51
15.0
  7
TEAM
  0
LINE
  5
183
  8
TEAM-DET1
 10
332.728451
 20
-85.682479
 30
850.0
 11
332.728451
 21
-365.682479
 31
850.0
  0
LINE
  5
184
  8
TEAM-DET1
 10
201.049602
 20
-315.682479
 30
850.0
 11
201.049602
 21
-135.682479
 31
850.0
  0
LINE
  5
185
  8
TEAM-DET1
 10
332.728451
 20
-165.682479
 30
850.0
 11
201.049602
 21
-165.682479
 31
850.0
  0
LINE
  5
186
  8
TEAM-DET1
 10
332.728451
 20
-155.682479
 30
850.0
 11
201.049602
 21
-155.682479
 31
850.0
  0
LINE
  5
187
  8
TEAM-DET1
 10
332.728451
 20
-145.682479
 30
850.0
 11
201.049602
 21
-145.682479
 31
850.0
  0
LINE
  5
188
  8
TEAM-DET1
 10
332.728451
 20
-135.682479
 30
850.0
 11
201.049602
 21
-135.682479
 31
850.0
  0
LINE
  5
189
  8
TEAM-DET1
 10
332.728451
 20
-125.682479
 30
850.0
 11
201.049602
 21
-125.682479
 31
850.0
  0
LINE
  5
18A
  8
TEAM-DET1
 10
332.728451
 20
-175.682479
 30
850.0
 11
201.049602
 21
-175.682479
 31
850.0
  0
LINE
  5
18B
  8
TEAM-DET1
 10
332.728451
 20
-185.682479
 30
850.0
 11
201.049602
 21
-185.682479
 31
850.0
  0
LINE
  5
18C
  8
TEAM-DET1
 10
332.728451
 20
-195.682479
 30
850.0
 11
201.049602
 21
-195.682479
 31
850.0
  0
LINE
  5
18D
  8
TEAM-DET1
 10
332.728451
 20
-205.682479
 30
850.0
 11
201.049602
 21
-205.682479
 31
850.0
  0
LINE
  5
18E
  8
TEAM-DET1
 10
332.728451
 20
-215.682479
 30
850.0
 11
201.049602
 21
-215.682479
 31
850.0
  0
LINE
  5
18F
  8
TEAM-DET1
 10
332.728451
 20
-225.682479
 30
850.0
 11
201.049602
 21
-225.682479
 31
850.0
  0
LINE
  5
190
  8
TEAM-DET1
 10
332.728451
 20
-235.682479
 30
850.0
 11
201.049602
 21
-235.682479
 31
850.0
  0
LINE
  5
191
  8
TEAM-DET1
 10
332.728451
 20
-245.682479
 30
850.0
 11
201.049602
 21
-245.682479
 31
850.0
  0
LINE
  5
192
  8
TEAM-DET1
 10
332.728451
 20
-255.682479
 30
850.0
 11
201.049602
 21
-255.682479
 31
850.0
  0
LINE
  5
193
  8
TEAM-DET1
 10
332.728451
 20
-265.682479
 30
850.0
 11
201.049602
 21
-265.682479
 31
850.0
  0
LINE
  5
194
  8
TEAM-DET1
 10
332.728451
 20
-275.682479
 30
850.0
 11
201.049602
 21
-275.682479
 31
850.0
  0
LINE
  5
195
  8
TEAM-DET1
 10
332.728451
 20
-285.682479
 30
850.0
 11
201.049602
 21
-285.682479
 31
850.0
  0
LINE
  5
196
  8
TEAM-DET1
 10
332.728451
 20
-295.682479
 30
850.0
 11
201.049602
 21
-295.682479
 31
850.0
  0
LINE
  5
197
  8
TEAM-DET1
 10
332.728451
 20
-305.682479
 30
850.0
 11
201.049602
 21
-305.682479
 31
850.0
  0
LINE
  5
198
  8
TEAM-DET1
 10
332.728451
 20
-315.682479
 30
850.0
 11
201.049602
 21
-315.682479
 31
850.0
  0
LINE
  5
199
  8
TEAM-DET1
 10
332.728451
 20
-325.682479
 30
850.0
 11
201.049602
 21
-325.682479
 31
850.0
  0
LINE
  5
19A
  8
TEAM-DET1
 10
332.728451
 20
-85.682479
 30
850.0
 11
190.693104
 21
-85.682479
 31
850.0
  0
LINE
  5
19B
  8
TEAM-DET1
 10
332.728451
 20
-95.682479
 30
850.0
 11
194.976743
 21
-95.682479
 31
850.0
  0
LINE
  5
19C
  8
TEAM-DET1
 10
332.728451
 20
-105.682479
 30
850.0
 11
198.047841
 21
-105.682479
 31
850.0
  0
LINE
  5
19D
  8
TEAM-DET1
 10
332.728451
 20
-115.682479
 30
850.0
 11
200.019338
 21
-115.682479
 31
850.0
  0
LINE
  5
19E
  8
TEAM-DET1
 10
332.728451
 20
-365.682479
 30
850.0
 11
190.005272
 21
-365.682479
 31
850.0
  0
LINE
  5
19F
  8
TEAM-DET1
 10
332.728451
 20
-355.682479
 30
850.0
 11
194.466735
 21
-355.682479
 31
850.0
  0
LINE
  5
1A0
  8
TEAM-DET1
 10
332.728451
 20
-345.682479
 30
850.0
 11
197.6954
 21
-345.682479
 31
850.0
  0
LINE
  5
1A1
  8
TEAM-DET1
 10
332.728451
 20
-335.682479
 30
850.0
 11
199.812246
 21
-335.682479
 31
850.0
  0
LINE
  5
1A2
  8
TEAM-AXE
 10
76.5
 20
0.0
 30
1030.0
 11
76.5
 21
0.0
 31
1070.0
210
0.0
220
-1.0
230
0.0
  0
LINE
  5
1A3
  8
TEAM-AXE
 10
-76.5
 20
0.0
 30
1030.0
 11
-76.5
 21
0.0
 31
1070.0
210
0.0
220
-1.0
230
0.0
  0
LINE
  5
1A4
  8
TEAM-AXE
 10
96.5
 20
0.0
 30
1050.0
 11
56.5
 21
0.0
 31
1050.0
210
0.0
220
-1.0
230
0.0
  0
LINE
  5
1A5
  8
TEAM-AXE
 10
96.5
 20
0.0
 30
1050.0
 11
56.5
 21
0.0
 31
1050.0
  0
CIRCLE
  5
1A6
  8
TEAM-WARM
 10
-76.5
 20
1050.0
 30
0.0
 40
15.0
210
0.0
220
-1.0
230
0.0
  0
CIRCLE
  5
1A8
  8
TEAM-WARM
 10
-76.5
 20
0.0
 30
1050.0
 40
15.0
  0
LINE
  5
1A9
  8
TEAM-AXE
 10
-56.5
 20
0.0
 30
1050.0
 11
-96.5
 21
0.0
 31
1050.0
210
0.0
220
-1.0
230
0.0
  0
LINE
  5
1AA
  8
TEAM-AXE
 10
-76.5
 20
-20.0
 30
1050.0
 11
-76.5
 21
20.0
 31
1050.0
  0
LINE
  5
1AB
  8
TEAM-AXE
 10
-56.5
 20
0.0
 30
1050.0
 11
-96.5
 21
0.0
 31
1050.0
  0
CIRCLE
  5
1AC
  8
TEAM-COLD
 10
76.5
 20
1050.0
 30
0.0
 40
15.0
210
0.0
220
-1.0
230
0.0
  0
CIRCLE
  5
1AE
  8
TEAM-COLD
 10
76.5
 20
0.0
 30
1050.0
 40
15.0
  0
LINE
  5
1AF
  8
TEAM-AXE
 10
76.5
 20
-20.0
 30
1050.0
 11
76.5
 21
20.0
 31
1050.0
  0
ENDSEC
  0
EOF
