  0
SECTION
  2
HEADER
  9
$ACADVER
  1
AC1009
  9
$INSBASE
 10
0.0
 20
0.0
 30
0.0
  9
$EXTMIN
 10
-440.037384
 20
-550.017351
 30
-10.057261
  9
$EXTMAX
 10
660.055308
 20
20.036637
 30
1070.064188
  9
$LIMMIN
 10
-440.037384
 20
-550.017351
  9
$LIMMAX
 10
660.055308
 20
20.036637
  9
$ORTHOMODE
 70
     0
  9
$REGENMODE
 70
     1
  9
$FILLMODE
 70
     1
  9
$QTEXTMODE
 70
     0
  9
$MIRRTEXT
 70
     0
  9
$DRAGMODE
 70
     2
  9
$LTSCALE
 40
25.0
  9
$OSMODE
 70
     0
  9
$ATTMODE
 70
     1
  9
$TEXTSIZE
 40
200.0
  9
$TRACEWID
 40
1.0
  9
$TEXTSTYLE
  7
STANDARD
  9
$CLAYER
  8
0
  9
$CELTYPE
  6
BYLAYER
  9
$CECOLOR
 62
   256
  9
$DIMSCALE
 40
0.0
  9
$DIMASZ
 40
20.0
  9
$DIMEXO
 40
10.0
  9
$DIMDLI
 40
1.0
  9
$DIMRND
 40
0.0
  9
$DIMDLE
 40
0.0
  9
$DIMEXE
 40
1.0
  9
$DIMTP
 40
0.0
  9
$DIMTM
 40
0.0
  9
$DIMTXT
 40
35.0
  9
$DIMCEN
 40
1.0
  9
$DIMTSZ
 40
0.0
  9
$DIMTOL
 70
     0
  9
$DIMLIM
 70
     0
  9
$DIMTIH
 70
     0
  9
$DIMTOH
 70
     0
  9
$DIMSE1
 70
     0
  9
$DIMSE2
 70
     0
  9
$DIMTAD
 70
     0
  9
$DIMZIN
 70
     0
  9
$DIMBLK
  1

  9
$DIMASO
 70
     1
  9
$DIMSHO
 70
     0
  9
$DIMPOST
  1

  9
$DIMAPOST
  1

  9
$DIMALT
 70
     0
  9
$DIMALTD
 70
     2
  9
$DIMALTF
 40
25.4
  9
$DIMLFAC
 40
1.0
  9
$DIMTOFL
 70
     0
  9
$DIMTVP
 40
0.0
  9
$DIMTIX
 70
     0
  9
$DIMSOXD
 70
     0
  9
$DIMSAH
 70
     0
  9
$DIMBLK1
  1

  9
$DIMBLK2
  1

  9
$DIMSTYLE
  2
TEAM
  9
$DIMCLRD
 70
     9
  9
$DIMCLRE
 70
     9
  9
$DIMCLRT
 70
    11
  9
$DIMTFAC
 40
1.0
  9
$DIMGAP
 40
15.0
  9
$LUNITS
 70
     2
  9
$LUPREC
 70
     1
  9
$SKETCHINC
 40
1.0
  9
$FILLETRAD
 40
50.0
  9
$AUNITS
 70
     0
  9
$AUPREC
 70
     0
  9
$MENU
  1
ROPLANS
  9
$ELEVATION
 40
0.0
  9
$PELEVATION
 40
0.0
  9
$THICKNESS
 40
0.0
  9
$LIMCHECK
 70
     0
  9
$BLIPMODE
 70
     1
  9
$CHAMFERA
 40
0.0
  9
$CHAMFERB
 40
0.0
  9
$SKPOLY
 70
     0
  9
$TDCREATE
 40
2450392.957851
  9
$TDUPDATE
 40
2455526.756388
  9
$TDINDWG
 40
1.964545
  9
$TDUSRTIMER
 40
1.964545
  9
$USRTIMER
 70
     1
  9
$ANGBASE
 50
0.0
  9
$ANGDIR
 70
     0
  9
$PDMODE
 70
     0
  9
$PDSIZE
 40
0.0
  9
$PLINEWID
 40
0.0
  9
$COORDS
 70
     2
  9
$SPLFRAME
 70
     0
  9
$SPLINETYPE
 70
     6
  9
$SPLINESEGS
 70
     8
  9
$ATTDIA
 70
     0
  9
$ATTREQ
 70
     0
  9
$HANDLING
 70
     1
  9
$HANDSEED
  5
5C8
  9
$SURFTAB1
 70
    24
  9
$SURFTAB2
 70
    24
  9
$SURFTYPE
 70
     6
  9
$SURFU
 70
     6
  9
$SURFV
 70
     6
  9
$UCSNAME
  2

  9
$UCSORG
 10
0.0
 20
0.0
 30
0.0
  9
$UCSXDIR
 10
1.0
 20
0.0
 30
0.0
  9
$UCSYDIR
 10
0.0
 20
1.0
 30
0.0
  9
$PUCSNAME
  2

  9
$PUCSORG
 10
0.0
 20
0.0
 30
0.0
  9
$PUCSXDIR
 10
1.0
 20
0.0
 30
0.0
  9
$PUCSYDIR
 10
0.0
 20
1.0
 30
0.0
  9
$USERI1
 70
     0
  9
$USERI2
 70
     0
  9
$USERI3
 70
     0
  9
$USERI4
 70
     0
  9
$USERI5
 70
     0
  9
$USERR1
 40
0.0
  9
$USERR2
 40
0.0
  9
$USERR3
 40
0.0
  9
$USERR4
 40
0.0
  9
$USERR5
 40
0.0
  9
$WORLDVIEW
 70
     1
  9
$SHADEDGE
 70
     0
  9
$SHADEDIF
 70
    70
  9
$TILEMODE
 70
     1
  9
$MAXACTVP
 70
    16
  9
$PLIMCHECK
 70
     0
  9
$PEXTMIN
 10
-0.805942
 20
0.005011
 30
0.0
  9
$PEXTMAX
 10
20.392854
 20
13.725274
 30
0.0
  9
$PLIMMIN
 10
0.0
 20
0.0
  9
$PLIMMAX
 10
12.0
 20
9.0
  9
$UNITMODE
 70
     0
  9
$VISRETAIN
 70
     0
  9
$PLINEGEN
 70
     0
  9
$PSLTSCALE
 70
     0
  0
ENDSEC
  0
SECTION
  2
TABLES
  0
TABLE
  2
VPORT
 70
     2
  0
VPORT
  2
*ACTIVE
 70
     0
 10
0.0
 20
0.0
 11
1.0
 21
1.0
 12
110.008962
 22
-264.990357
 13
0.0
 23
0.0
 14
1.0
 24
1.0
 15
50.0
 25
50.0
 16
0.0
 26
0.0
 36
1.0
 17
0.0
 27
0.0
 37
0.0
 40
591.556585
 41
1.865779
 42
50.0
 43
0.0
 44
0.0
 50
0.0
 51
0.0
 71
     0
 72
   100
 73
     1
 74
     1
 75
     0
 76
     0
 77
     0
 78
     0
  0
ENDTAB
  0
TABLE
  2
LTYPE
 70
     2
  0
LTYPE
  2
CONTINUOUS
 70
     0
  3
Solid Line
 72
    65
 73
     0
 40
0.0
  0
LTYPE
  2
31
 70
     0
  3

 72
    65
 73
     4
 40
2.1
 49
1.5
 49
-0.3
 49
0.0
 49
-0.3
  0
ENDTAB
  0
TABLE
  2
LAYER
 70
     9
  0
LAYER
  2
0
 70
     0
 62
     7
  6
CONTINUOUS
  0
LAYER
  2
TEAM-NET1
 70
     0
 62
    12
  6
CONTINUOUS
  0
LAYER
  2
TEAM-BODY
 70
     0
 62
     2
  6
CONTINUOUS
  0
LAYER
  2
TEAM-AXE
 70
     0
 62
    10
  6
31
  0
LAYER
  2
TEAM-TXT
 70
     0
 62
    11
  6
CONTINUOUS
  0
LAYER
  2
TEAM-DET1
 70
     0
 62
     4
  6
CONTINUOUS
  0
LAYER
  2
TEAM-DET2
 70
     0
 62
     5
  6
CONTINUOUS
  0
LAYER
  2
TEAM-COLD
 70
     0
 62
     3
  6
CONTINUOUS
  0
LAYER
  2
TEAM-WARM
 70
     0
 62
     1
  6
CONTINUOUS
  0
ENDTAB
  0
TABLE
  2
STYLE
 70
     2
  0
STYLE
  2
STANDARD
 70
     0
 40
0.0
 41
1.0
 50
0.0
 71
     0
 42
200.0
  3
txt
  4

  0
STYLE
  2
TEAM
 70
     0
 40
0.0
 41
0.8
 50
15.0
 71
     0
 42
7.0
  3
ROMANS.shx
  4

  0
ENDTAB
  0
TABLE
  2
VIEW
 70
     0
  0
ENDTAB
  0
TABLE
  2
UCS
 70
     0
  0
ENDTAB
  0
TABLE
  2
APPID
 70
     1
  0
APPID
  2
ACAD
 70
     0
  0
ENDTAB
  0
TABLE
  2
DIMSTYLE
 70
     1
  0
DIMSTYLE
  2
TEAM
 70
     0
  3

  4

  5

  6

  7

 40
0.0
 41
20.0
 42
10.0
 43
1.0
 44
1.0
 45
0.0
 46
0.0
 47
0.0
 48
0.0
140
35.0
141
1.0
142
0.0
143
25.4
144
1.0
145
0.0
146
1.0
147
15.0
 71
     0
 72
     0
 73
     0
 74
     0
 75
     0
 76
     0
 77
     0
 78
     0
170
     0
171
     2
172
     0
173
     0
174
     0
175
     0
176
     9
177
     9
178
    11
  0
ENDTAB
  0
ENDSEC
  0
SECTION
  2
BLOCKS
  0
BLOCK
  8
0
  2
$MODEL_SPACE
 70
     0
 10
0.0
 20
0.0
 30
0.0
  3
$MODEL_SPACE
  1

  0
ENDBLK
  5
597
  8
0
  0
BLOCK
 67
     1
  8
0
  2
$PAPER_SPACE
 70
     0
 10
0.0
 20
0.0
 30
0.0
  3
$PAPER_SPACE
  1

  0
ENDBLK
  5
595
 67
     1
  8
0
  0
ENDSEC
  0
SECTION
  2
ENTITIES
  0
POLYLINE
  5
1F
  8
TEAM-NET1
 66
     1
 10
0.0
 20
0.0
 30
0.0
 70
    16
 71
     2
 72
    37
  0
VERTEX
  5
20
  8
TEAM-NET1
 10
69.601602
 20
-50.0
 30
500.0
 70
    64
  0
VERTEX
  5
21
  8
TEAM-NET1
 10
69.601602
 20
-58.096265
 30
500.0
 70
    64
  0
VERTEX
  5
22
  8
TEAM-NET1
 10
69.601602
 20
-66.19253
 30
500.0
 70
    64
  0
VERTEX
  5
23
  8
TEAM-NET1
 10
69.601602
 20
-74.288795
 30
500.0
 70
    64
  0
VERTEX
  5
24
  8
TEAM-NET1
 10
69.601602
 20
-82.38506
 30
500.0
 70
    64
  0
VERTEX
  5
25
  8
TEAM-NET1
 10
69.601602
 20
-90.481325
 30
500.0
 70
    64
  0
VERTEX
  5
26
  8
TEAM-NET1
 10
69.601602
 20
-98.577591
 30
500.0
 70
    64
  0
VERTEX
  5
27
  8
TEAM-NET1
 10
69.601602
 20
-106.673856
 30
500.0
 70
    64
  0
VERTEX
  5
28
  8
TEAM-NET1
 10
69.601602
 20
-114.770121
 30
500.0
 70
    64
  0
VERTEX
  5
29
  8
TEAM-NET1
 10
69.601602
 20
-122.866386
 30
500.0
 70
    64
  0
VERTEX
  5
2A
  8
TEAM-NET1
 10
69.601602
 20
-130.962651
 30
500.0
 70
    64
  0
VERTEX
  5
2B
  8
TEAM-NET1
 10
69.601602
 20
-139.058916
 30
500.0
 70
    64
  0
VERTEX
  5
2C
  8
TEAM-NET1
 10
69.601602
 20
-147.155181
 30
500.0
 70
    64
  0
VERTEX
  5
2D
  8
TEAM-NET1
 10
69.116444
 20
-155.230855
 30
500.0
 70
    64
  0
VERTEX
  5
2E
  8
TEAM-NET1
 10
67.551042
 20
-163.168086
 30
500.0
 70
    64
  0
VERTEX
  5
2F
  8
TEAM-NET1
 10
64.932086
 20
-170.822573
 30
500.0
 70
    64
  0
VERTEX
  5
30
  8
TEAM-NET1
 10
61.307189
 20
-178.055154
 30
500.0
 70
    64
  0
VERTEX
  5
31
  8
TEAM-NET1
 10
56.742254
 20
-184.734336
 30
500.0
 70
    64
  0
VERTEX
  5
32
  8
TEAM-NET1
 10
51.320275
 20
-190.738689
 30
500.0
 70
    64
  0
VERTEX
  5
33
  8
TEAM-NET1
 10
45.139825
 20
-195.959048
 30
500.0
 70
    64
  0
VERTEX
  5
34
  8
TEAM-NET1
 10
38.31327
 20
-200.300506
 30
500.0
 70
    64
  0
VERTEX
  5
35
  8
TEAM-NET1
 10
30.96472
 20
-203.684131
 30
500.0
 70
    64
  0
VERTEX
  5
36
  8
TEAM-NET1
 10
23.227776
 20
-206.048408
 30
500.0
 70
    64
  0
VERTEX
  5
37
  8
TEAM-NET1
 10
15.2431
 20
-207.350352
 30
500.0
 70
    64
  0
VERTEX
  5
38
  8
TEAM-NET1
 10
7.155181
 20
-207.616162
 30
500.0
 70
    64
  0
VERTEX
  5
39
  8
TEAM-NET1
 10
-0.941084
 20
-207.616162
 30
500.0
 70
    64
  0
VERTEX
  5
3A
  8
TEAM-NET1
 10
-9.037349
 20
-207.616162
 30
500.0
 70
    64
  0
VERTEX
  5
3B
  8
TEAM-NET1
 10
-17.133614
 20
-207.616162
 30
500.0
 70
    64
  0
VERTEX
  5
3C
  8
TEAM-NET1
 10
-25.229879
 20
-207.616162
 30
500.0
 70
    64
  0
VERTEX
  5
3D
  8
TEAM-NET1
 10
-33.326144
 20
-207.616162
 30
500.0
 70
    64
  0
VERTEX
  5
3E
  8
TEAM-NET1
 10
-41.422409
 20
-207.616162
 30
500.0
 70
    64
  0
VERTEX
  5
3F
  8
TEAM-NET1
 10
-49.518675
 20
-207.616162
 30
500.0
 70
    64
  0
VERTEX
  5
40
  8
TEAM-NET1
 10
-57.61494
 20
-207.616162
 30
500.0
 70
    64
  0
VERTEX
  5
41
  8
TEAM-NET1
 10
-65.711205
 20
-207.616162
 30
500.0
 70
    64
  0
VERTEX
  5
42
  8
TEAM-NET1
 10
-73.80747
 20
-207.616162
 30
500.0
 70
    64
  0
VERTEX
  5
43
  8
TEAM-NET1
 10
-81.903735
 20
-207.616162
 30
500.0
 70
    64
  0
VERTEX
  5
44
  8
TEAM-NET1
 10
-90.0
 20
-207.616162
 30
500.0
 70
    64
  0
VERTEX
  5
45
  8
TEAM-NET1
 10
69.601602
 20
-50.0
 30
800.0
 70
    64
  0
VERTEX
  5
46
  8
TEAM-NET1
 10
69.601602
 20
-58.096265
 30
800.0
 70
    64
  0
VERTEX
  5
47
  8
TEAM-NET1
 10
69.601602
 20
-66.19253
 30
800.0
 70
    64
  0
VERTEX
  5
48
  8
TEAM-NET1
 10
69.601602
 20
-74.288795
 30
800.0
 70
    64
  0
VERTEX
  5
49
  8
TEAM-NET1
 10
69.601602
 20
-82.38506
 30
800.0
 70
    64
  0
VERTEX
  5
4A
  8
TEAM-NET1
 10
69.601602
 20
-90.481325
 30
800.0
 70
    64
  0
VERTEX
  5
4B
  8
TEAM-NET1
 10
69.601602
 20
-98.577591
 30
800.0
 70
    64
  0
VERTEX
  5
4C
  8
TEAM-NET1
 10
69.601602
 20
-106.673856
 30
800.0
 70
    64
  0
VERTEX
  5
4D
  8
TEAM-NET1
 10
69.601602
 20
-114.770121
 30
800.0
 70
    64
  0
VERTEX
  5
4E
  8
TEAM-NET1
 10
69.601602
 20
-122.866386
 30
800.0
 70
    64
  0
VERTEX
  5
4F
  8
TEAM-NET1
 10
69.601602
 20
-130.962651
 30
800.0
 70
    64
  0
VERTEX
  5
50
  8
TEAM-NET1
 10
69.601602
 20
-139.058916
 30
800.0
 70
    64
  0
VERTEX
  5
51
  8
TEAM-NET1
 10
69.601602
 20
-147.155181
 30
800.0
 70
    64
  0
VERTEX
  5
52
  8
TEAM-NET1
 10
69.116444
 20
-155.230855
 30
800.0
 70
    64
  0
VERTEX
  5
53
  8
TEAM-NET1
 10
67.551042
 20
-163.168086
 30
800.0
 70
    64
  0
VERTEX
  5
54
  8
TEAM-NET1
 10
64.932086
 20
-170.822573
 30
800.0
 70
    64
  0
VERTEX
  5
55
  8
TEAM-NET1
 10
61.307189
 20
-178.055154
 30
800.0
 70
    64
  0
VERTEX
  5
56
  8
TEAM-NET1
 10
56.742254
 20
-184.734336
 30
800.0
 70
    64
  0
VERTEX
  5
57
  8
TEAM-NET1
 10
51.320275
 20
-190.738689
 30
800.0
 70
    64
  0
VERTEX
  5
58
  8
TEAM-NET1
 10
45.139825
 20
-195.959048
 30
800.0
 70
    64
  0
VERTEX
  5
59
  8
TEAM-NET1
 10
38.31327
 20
-200.300506
 30
800.0
 70
    64
  0
VERTEX
  5
5A
  8
TEAM-NET1
 10
30.96472
 20
-203.684131
 30
800.0
 70
    64
  0
VERTEX
  5
5B
  8
TEAM-NET1
 10
23.227776
 20
-206.048408
 30
800.0
 70
    64
  0
VERTEX
  5
5C
  8
TEAM-NET1
 10
15.2431
 20
-207.350352
 30
800.0
 70
    64
  0
VERTEX
  5
5D
  8
TEAM-NET1
 10
7.155181
 20
-207.616162
 30
800.0
 70
    64
  0
VERTEX
  5
5E
  8
TEAM-NET1
 10
-0.941084
 20
-207.616162
 30
800.0
 70
    64
  0
VERTEX
  5
5F
  8
TEAM-NET1
 10
-9.037349
 20
-207.616162
 30
800.0
 70
    64
  0
VERTEX
  5
60
  8
TEAM-NET1
 10
-17.133614
 20
-207.616162
 30
800.0
 70
    64
  0
VERTEX
  5
61
  8
TEAM-NET1
 10
-25.229879
 20
-207.616162
 30
800.0
 70
    64
  0
VERTEX
  5
62
  8
TEAM-NET1
 10
-33.326144
 20
-207.616162
 30
800.0
 70
    64
  0
VERTEX
  5
63
  8
TEAM-NET1
 10
-41.422409
 20
-207.616162
 30
800.0
 70
    64
  0
VERTEX
  5
64
  8
TEAM-NET1
 10
-49.518675
 20
-207.616162
 30
800.0
 70
    64
  0
VERTEX
  5
65
  8
TEAM-NET1
 10
-57.61494
 20
-207.616162
 30
800.0
 70
    64
  0
VERTEX
  5
66
  8
TEAM-NET1
 10
-65.711205
 20
-207.616162
 30
800.0
 70
    64
  0
VERTEX
  5
67
  8
TEAM-NET1
 10
-73.80747
 20
-207.616162
 30
800.0
 70
    64
  0
VERTEX
  5
68
  8
TEAM-NET1
 10
-81.903735
 20
-207.616162
 30
800.0
 70
    64
  0
VERTEX
  5
69
  8
TEAM-NET1
 10
-90.0
 20
-207.616162
 30
800.0
 70
    64
  0
SEQEND
  5
6B
  8
TEAM-NET1
  0
POLYLINE
  5
6C
  8
TEAM-NET1
 66
     1
 10
0.0
 20
0.0
 30
0.0
 70
    16
 71
     2
 72
    37
  0
VERTEX
  5
6D
  8
TEAM-NET1
 10
530.0
 20
-500.0
 30
500.0
 70
    64
  0
VERTEX
  5
6E
  8
TEAM-NET1
 10
515.0
 20
-500.0
 30
500.0
 70
    64
  0
VERTEX
  5
6F
  8
TEAM-NET1
 10
500.0
 20
-500.0
 30
500.0
 70
    64
  0
VERTEX
  5
70
  8
TEAM-NET1
 10
485.0
 20
-500.0
 30
500.0
 70
    64
  0
VERTEX
  5
71
  8
TEAM-NET1
 10
470.0
 20
-500.0
 30
500.0
 70
    64
  0
VERTEX
  5
72
  8
TEAM-NET1
 10
455.0
 20
-500.0
 30
500.0
 70
    64
  0
VERTEX
  5
73
  8
TEAM-NET1
 10
440.0
 20
-500.0
 30
500.0
 70
    64
  0
VERTEX
  5
74
  8
TEAM-NET1
 10
425.0
 20
-500.0
 30
500.0
 70
    64
  0
VERTEX
  5
75
  8
TEAM-NET1
 10
410.0
 20
-500.0
 30
500.0
 70
    64
  0
VERTEX
  5
76
  8
TEAM-NET1
 10
395.0
 20
-500.0
 30
500.0
 70
    64
  0
VERTEX
  5
77
  8
TEAM-NET1
 10
380.0
 20
-500.0
 30
500.0
 70
    64
  0
VERTEX
  5
78
  8
TEAM-NET1
 10
365.0
 20
-500.0
 30
500.0
 70
    64
  0
VERTEX
  5
79
  8
TEAM-NET1
 10
350.0
 20
-500.0
 30
500.0
 70
    64
  0
VERTEX
  5
7A
  8
TEAM-NET1
 10
335.0
 20
-500.0
 30
500.0
 70
    64
  0
VERTEX
  5
7B
  8
TEAM-NET1
 10
320.0
 20
-500.0
 30
500.0
 70
    64
  0
VERTEX
  5
7C
  8
TEAM-NET1
 10
305.0
 20
-500.0
 30
500.0
 70
    64
  0
VERTEX
  5
7D
  8
TEAM-NET1
 10
290.0
 20
-500.0
 30
500.0
 70
    64
  0
VERTEX
  5
7E
  8
TEAM-NET1
 10
275.0
 20
-500.0
 30
500.0
 70
    64
  0
VERTEX
  5
7F
  8
TEAM-NET1
 10
260.0
 20
-500.0
 30
500.0
 70
    64
  0
VERTEX
  5
80
  8
TEAM-NET1
 10
245.0
 20
-500.0
 30
500.0
 70
    64
  0
VERTEX
  5
81
  8
TEAM-NET1
 10
230.0
 20
-500.0
 30
500.0
 70
    64
  0
VERTEX
  5
82
  8
TEAM-NET1
 10
215.0
 20
-500.0
 30
500.0
 70
    64
  0
VERTEX
  5
83
  8
TEAM-NET1
 10
200.0
 20
-500.0
 30
500.0
 70
    64
  0
VERTEX
  5
84
  8
TEAM-NET1
 10
185.0
 20
-500.0
 30
500.0
 70
    64
  0
VERTEX
  5
85
  8
TEAM-NET1
 10
170.0
 20
-500.0
 30
500.0
 70
    64
  0
VERTEX
  5
86
  8
TEAM-NET1
 10
155.0
 20
-500.0
 30
500.0
 70
    64
  0
VERTEX
  5
87
  8
TEAM-NET1
 10
140.0
 20
-500.0
 30
500.0
 70
    64
  0
VERTEX
  5
88
  8
TEAM-NET1
 10
125.0
 20
-500.0
 30
500.0
 70
    64
  0
VERTEX
  5
89
  8
TEAM-NET1
 10
110.0
 20
-500.0
 30
500.0
 70
    64
  0
VERTEX
  5
8A
  8
TEAM-NET1
 10
95.0
 20
-500.0
 30
500.0
 70
    64
  0
VERTEX
  5
8B
  8
TEAM-NET1
 10
80.0
 20
-500.0
 30
500.0
 70
    64
  0
VERTEX
  5
8C
  8
TEAM-NET1
 10
65.0
 20
-500.0
 30
500.0
 70
    64
  0
VERTEX
  5
8D
  8
TEAM-NET1
 10
50.0
 20
-500.0
 30
500.0
 70
    64
  0
VERTEX
  5
8E
  8
TEAM-NET1
 10
35.0
 20
-500.0
 30
500.0
 70
    64
  0
VERTEX
  5
8F
  8
TEAM-NET1
 10
20.0
 20
-500.0
 30
500.0
 70
    64
  0
VERTEX
  5
90
  8
TEAM-NET1
 10
5.0
 20
-500.0
 30
500.0
 70
    64
  0
VERTEX
  5
91
  8
TEAM-NET1
 10
-10.0
 20
-500.0
 30
500.0
 70
    64
  0
VERTEX
  5
92
  8
TEAM-NET1
 10
530.0
 20
-500.0
 30
800.0
 70
    64
  0
VERTEX
  5
93
  8
TEAM-NET1
 10
515.0
 20
-500.0
 30
800.0
 70
    64
  0
VERTEX
  5
94
  8
TEAM-NET1
 10
500.0
 20
-500.0
 30
800.0
 70
    64
  0
VERTEX
  5
95
  8
TEAM-NET1
 10
485.0
 20
-500.0
 30
800.0
 70
    64
  0
VERTEX
  5
96
  8
TEAM-NET1
 10
470.0
 20
-500.0
 30
800.0
 70
    64
  0
VERTEX
  5
97
  8
TEAM-NET1
 10
455.0
 20
-500.0
 30
800.0
 70
    64
  0
VERTEX
  5
98
  8
TEAM-NET1
 10
440.0
 20
-500.0
 30
800.0
 70
    64
  0
VERTEX
  5
99
  8
TEAM-NET1
 10
425.0
 20
-500.0
 30
800.0
 70
    64
  0
VERTEX
  5
9A
  8
TEAM-NET1
 10
410.0
 20
-500.0
 30
800.0
 70
    64
  0
VERTEX
  5
9B
  8
TEAM-NET1
 10
395.0
 20
-500.0
 30
800.0
 70
    64
  0
VERTEX
  5
9C
  8
TEAM-NET1
 10
380.0
 20
-500.0
 30
800.0
 70
    64
  0
VERTEX
  5
9D
  8
TEAM-NET1
 10
365.0
 20
-500.0
 30
800.0
 70
    64
  0
VERTEX
  5
9E
  8
TEAM-NET1
 10
350.0
 20
-500.0
 30
800.0
 70
    64
  0
VERTEX
  5
9F
  8
TEAM-NET1
 10
335.0
 20
-500.0
 30
800.0
 70
    64
  0
VERTEX
  5
A0
  8
TEAM-NET1
 10
320.0
 20
-500.0
 30
800.0
 70
    64
  0
VERTEX
  5
A1
  8
TEAM-NET1
 10
305.0
 20
-500.0
 30
800.0
 70
    64
  0
VERTEX
  5
A2
  8
TEAM-NET1
 10
290.0
 20
-500.0
 30
800.0
 70
    64
  0
VERTEX
  5
A3
  8
TEAM-NET1
 10
275.0
 20
-500.0
 30
800.0
 70
    64
  0
VERTEX
  5
A4
  8
TEAM-NET1
 10
260.0
 20
-500.0
 30
800.0
 70
    64
  0
VERTEX
  5
A5
  8
TEAM-NET1
 10
245.0
 20
-500.0
 30
800.0
 70
    64
  0
VERTEX
  5
A6
  8
TEAM-NET1
 10
230.0
 20
-500.0
 30
800.0
 70
    64
  0
VERTEX
  5
A7
  8
TEAM-NET1
 10
215.0
 20
-500.0
 30
800.0
 70
    64
  0
VERTEX
  5
A8
  8
TEAM-NET1
 10
200.0
 20
-500.0
 30
800.0
 70
    64
  0
VERTEX
  5
A9
  8
TEAM-NET1
 10
185.0
 20
-500.0
 30
800.0
 70
    64
  0
VERTEX
  5
AA
  8
TEAM-NET1
 10
170.0
 20
-500.0
 30
800.0
 70
    64
  0
VERTEX
  5
AB
  8
TEAM-NET1
 10
155.0
 20
-500.0
 30
800.0
 70
    64
  0
VERTEX
  5
AC
  8
TEAM-NET1
 10
140.0
 20
-500.0
 30
800.0
 70
    64
  0
VERTEX
  5
AD
  8
TEAM-NET1
 10
125.0
 20
-500.0
 30
800.0
 70
    64
  0
VERTEX
  5
AE
  8
TEAM-NET1
 10
110.0
 20
-500.0
 30
800.0
 70
    64
  0
VERTEX
  5
AF
  8
TEAM-NET1
 10
95.0
 20
-500.0
 30
800.0
 70
    64
  0
VERTEX
  5
B0
  8
TEAM-NET1
 10
80.0
 20
-500.0
 30
800.0
 70
    64
  0
VERTEX
  5
B1
  8
TEAM-NET1
 10
65.0
 20
-500.0
 30
800.0
 70
    64
  0
VERTEX
  5
B2
  8
TEAM-NET1
 10
50.0
 20
-500.0
 30
800.0
 70
    64
  0
VERTEX
  5
B3
  8
TEAM-NET1
 10
35.0
 20
-500.0
 30
800.0
 70
    64
  0
VERTEX
  5
B4
  8
TEAM-NET1
 10
20.0
 20
-500.0
 30
800.0
 70
    64
  0
VERTEX
  5
B5
  8
TEAM-NET1
 10
5.0
 20
-500.0
 30
800.0
 70
    64
  0
VERTEX
  5
B6
  8
TEAM-NET1
 10
-10.0
 20
-500.0
 30
800.0
 70
    64
  0
SEQEND
  5
B7
  8
TEAM-NET1
  0
POLYLINE
  5
B8
  8
TEAM-NET1
 66
     1
 10
0.0
 20
0.0
 30
0.0
 70
    16
 71
     2
 72
    37
  0
VERTEX
  5
B9
  8
TEAM-NET1
 10
-10.0
 20
-500.0
 30
800.0
 70
    64
  0
VERTEX
  5
BA
  8
TEAM-NET1
 10
-24.948488
 20
-498.590984
 30
800.0
 70
    64
  0
VERTEX
  5
BB
  8
TEAM-NET1
 10
-39.37041
 20
-494.413567
 30
800.0
 70
    64
  0
VERTEX
  5
BC
  8
TEAM-NET1
 10
-52.757747
 20
-487.614903
 30
800.0
 70
    64
  0
VERTEX
  5
BD
  8
TEAM-NET1
 10
-64.638925
 20
-478.434475
 30
800.0
 70
    64
  0
VERTEX
  5
BE
  8
TEAM-NET1
 10
-74.595424
 20
-467.195669
 30
800.0
 70
    64
  0
VERTEX
  5
BF
  8
TEAM-NET1
 10
-82.276523
 20
-454.294376
 30
800.0
 70
    64
  0
VERTEX
  5
C0
  8
TEAM-NET1
 10
-87.411651
 20
-440.18505
 30
800.0
 70
    64
  0
VERTEX
  5
C1
  8
TEAM-NET1
 10
-89.819923
 20
-425.364697
 30
800.0
 70
    64
  0
VERTEX
  5
C2
  8
TEAM-NET1
 10
-90.0
 20
-410.331853
 30
800.0
 70
    64
  0
VERTEX
  5
C3
  8
TEAM-NET1
 10
-90.0
 20
-395.294981
 30
800.0
 70
    64
  0
VERTEX
  5
C4
  8
TEAM-NET1
 10
-90.0
 20
-380.258108
 30
800.0
 70
    64
  0
VERTEX
  5
C5
  8
TEAM-NET1
 10
-90.0
 20
-365.221235
 30
800.0
 70
    64
  0
VERTEX
  5
C6
  8
TEAM-NET1
 10
-90.0
 20
-350.184363
 30
800.0
 70
    64
  0
VERTEX
  5
C7
  8
TEAM-NET1
 10
-90.0
 20
-335.14749
 30
800.0
 70
    64
  0
VERTEX
  5
C8
  8
TEAM-NET1
 10
-90.0
 20
-320.110618
 30
800.0
 70
    64
  0
VERTEX
  5
C9
  8
TEAM-NET1
 10
-90.0
 20
-305.073745
 30
800.0
 70
    64
  0
VERTEX
  5
CA
  8
TEAM-NET1
 10
-90.0
 20
-290.036873
 30
800.0
 70
    64
  0
VERTEX
  5
CB
  8
TEAM-NET1
 10
-90.0
 20
-275.0
 30
800.0
 70
    64
  0
VERTEX
  5
CC
  8
TEAM-NET1
 10
-90.0
 20
-259.963127
 30
800.0
 70
    64
  0
VERTEX
  5
CD
  8
TEAM-NET1
 10
-90.0
 20
-244.926255
 30
800.0
 70
    64
  0
VERTEX
  5
CE
  8
TEAM-NET1
 10
-90.0
 20
-229.889382
 30
800.0
 70
    64
  0
VERTEX
  5
CF
  8
TEAM-NET1
 10
-90.0
 20
-214.85251
 30
800.0
 70
    64
  0
VERTEX
  5
D0
  8
TEAM-NET1
 10
-90.0
 20
-199.815637
 30
800.0
 70
    64
  0
VERTEX
  5
D1
  8
TEAM-NET1
 10
-90.0
 20
-184.778765
 30
800.0
 70
    64
  0
VERTEX
  5
D2
  8
TEAM-NET1
 10
-90.0
 20
-169.741892
 30
800.0
 70
    64
  0
VERTEX
  5
D3
  8
TEAM-NET1
 10
-90.0
 20
-154.705019
 30
800.0
 70
    64
  0
VERTEX
  5
D4
  8
TEAM-NET1
 10
-90.0
 20
-139.668147
 30
800.0
 70
    64
  0
VERTEX
  5
D5
  8
TEAM-NET1
 10
-89.819923
 20
-124.635303
 30
800.0
 70
    64
  0
VERTEX
  5
D6
  8
TEAM-NET1
 10
-87.411651
 20
-109.81495
 30
800.0
 70
    64
  0
VERTEX
  5
D7
  8
TEAM-NET1
 10
-82.276523
 20
-95.705624
 30
800.0
 70
    64
  0
VERTEX
  5
D8
  8
TEAM-NET1
 10
-74.595424
 20
-82.804331
 30
800.0
 70
    64
  0
VERTEX
  5
D9
  8
TEAM-NET1
 10
-64.638925
 20
-71.565525
 30
800.0
 70
    64
  0
VERTEX
  5
DA
  8
TEAM-NET1
 10
-52.757747
 20
-62.385097
 30
800.0
 70
    64
  0
VERTEX
  5
DB
  8
TEAM-NET1
 10
-39.37041
 20
-55.586433
 30
800.0
 70
    64
  0
VERTEX
  5
DC
  8
TEAM-NET1
 10
-24.948488
 20
-51.409016
 30
800.0
 70
    64
  0
VERTEX
  5
DD
  8
TEAM-NET1
 10
-10.0
 20
-50.0
 30
800.0
 70
    64
  0
VERTEX
  5
DE
  8
TEAM-NET1
 10
-10.0
 20
-500.0
 30
500.0
 70
    64
  0
VERTEX
  5
DF
  8
TEAM-NET1
 10
-24.948488
 20
-498.590984
 30
500.0
 70
    64
  0
VERTEX
  5
E0
  8
TEAM-NET1
 10
-39.37041
 20
-494.413567
 30
500.0
 70
    64
  0
VERTEX
  5
E1
  8
TEAM-NET1
 10
-52.757747
 20
-487.614903
 30
500.0
 70
    64
  0
VERTEX
  5
E2
  8
TEAM-NET1
 10
-64.638925
 20
-478.434475
 30
500.0
 70
    64
  0
VERTEX
  5
E3
  8
TEAM-NET1
 10
-74.595424
 20
-467.195669
 30
500.0
 70
    64
  0
VERTEX
  5
E4
  8
TEAM-NET1
 10
-82.276523
 20
-454.294376
 30
500.0
 70
    64
  0
VERTEX
  5
E5
  8
TEAM-NET1
 10
-87.411651
 20
-440.18505
 30
500.0
 70
    64
  0
VERTEX
  5
E6
  8
TEAM-NET1
 10
-89.819923
 20
-425.364697
 30
500.0
 70
    64
  0
VERTEX
  5
E7
  8
TEAM-NET1
 10
-90.0
 20
-410.331853
 30
500.0
 70
    64
  0
VERTEX
  5
E8
  8
TEAM-NET1
 10
-90.0
 20
-395.294981
 30
500.0
 70
    64
  0
VERTEX
  5
E9
  8
TEAM-NET1
 10
-90.0
 20
-380.258108
 30
500.0
 70
    64
  0
VERTEX
  5
EA
  8
TEAM-NET1
 10
-90.0
 20
-365.221235
 30
500.0
 70
    64
  0
VERTEX
  5
EB
  8
TEAM-NET1
 10
-90.0
 20
-350.184363
 30
500.0
 70
    64
  0
VERTEX
  5
EC
  8
TEAM-NET1
 10
-90.0
 20
-335.14749
 30
500.0
 70
    64
  0
VERTEX
  5
ED
  8
TEAM-NET1
 10
-90.0
 20
-320.110618
 30
500.0
 70
    64
  0
VERTEX
  5
EE
  8
TEAM-NET1
 10
-90.0
 20
-305.073745
 30
500.0
 70
    64
  0
VERTEX
  5
EF
  8
TEAM-NET1
 10
-90.0
 20
-290.036873
 30
500.0
 70
    64
  0
VERTEX
  5
F0
  8
TEAM-NET1
 10
-90.0
 20
-275.0
 30
500.0
 70
    64
  0
VERTEX
  5
F1
  8
TEAM-NET1
 10
-90.0
 20
-259.963127
 30
500.0
 70
    64
  0
VERTEX
  5
F2
  8
TEAM-NET1
 10
-90.0
 20
-244.926255
 30
500.0
 70
    64
  0
VERTEX
  5
F3
  8
TEAM-NET1
 10
-90.0
 20
-229.889382
 30
500.0
 70
    64
  0
VERTEX
  5
F4
  8
TEAM-NET1
 10
-90.0
 20
-214.85251
 30
500.0
 70
    64
  0
VERTEX
  5
F5
  8
TEAM-NET1
 10
-90.0
 20
-199.815637
 30
500.0
 70
    64
  0
VERTEX
  5
F6
  8
TEAM-NET1
 10
-90.0
 20
-184.778765
 30
500.0
 70
    64
  0
VERTEX
  5
F7
  8
TEAM-NET1
 10
-90.0
 20
-169.741892
 30
500.0
 70
    64
  0
VERTEX
  5
F8
  8
TEAM-NET1
 10
-90.0
 20
-154.705019
 30
500.0
 70
    64
  0
VERTEX
  5
F9
  8
TEAM-NET1
 10
-90.0
 20
-139.668147
 30
500.0
 70
    64
  0
VERTEX
  5
FA
  8
TEAM-NET1
 10
-89.819923
 20
-124.635303
 30
500.0
 70
    64
  0
VERTEX
  5
FB
  8
TEAM-NET1
 10
-87.411651
 20
-109.81495
 30
500.0
 70
    64
  0
VERTEX
  5
FC
  8
TEAM-NET1
 10
-82.276523
 20
-95.705624
 30
500.0
 70
    64
  0
VERTEX
  5
FD
  8
TEAM-NET1
 10
-74.595424
 20
-82.804331
 30
500.0
 70
    64
  0
VERTEX
  5
FE
  8
TEAM-NET1
 10
-64.638925
 20
-71.565525
 30
500.0
 70
    64
  0
VERTEX
  5
FF
  8
TEAM-NET1
 10
-52.757747
 20
-62.385097
 30
500.0
 70
    64
  0
VERTEX
  5
100
  8
TEAM-NET1
 10
-39.37041
 20
-55.586433
 30
500.0
 70
    64
  0
VERTEX
  5
101
  8
TEAM-NET1
 10
-24.948488
 20
-51.409016
 30
500.0
 70
    64
  0
VERTEX
  5
102
  8
TEAM-NET1
 10
-10.0
 20
-50.0
 30
500.0
 70
    64
  0
SEQEND
  5
103
  8
TEAM-NET1
  0
POLYLINE
  5
104
  8
TEAM-NET1
 66
     1
 10
0.0
 20
0.0
 30
0.0
 70
    16
 71
     2
 72
    37
  0
VERTEX
  5
105
  8
TEAM-NET1
 10
530.0
 20
-50.0
 30
500.0
 70
    64
  0
VERTEX
  5
106
  8
TEAM-NET1
 10
515.0
 20
-50.0
 30
500.0
 70
    64
  0
VERTEX
  5
107
  8
TEAM-NET1
 10
500.0
 20
-50.0
 30
500.0
 70
    64
  0
VERTEX
  5
108
  8
TEAM-NET1
 10
485.0
 20
-50.0
 30
500.0
 70
    64
  0
VERTEX
  5
109
  8
TEAM-NET1
 10
470.0
 20
-50.0
 30
500.0
 70
    64
  0
VERTEX
  5
10A
  8
TEAM-NET1
 10
455.0
 20
-50.0
 30
500.0
 70
    64
  0
VERTEX
  5
10B
  8
TEAM-NET1
 10
440.0
 20
-50.0
 30
500.0
 70
    64
  0
VERTEX
  5
10C
  8
TEAM-NET1
 10
425.0
 20
-50.0
 30
500.0
 70
    64
  0
VERTEX
  5
10D
  8
TEAM-NET1
 10
410.0
 20
-50.0
 30
500.0
 70
    64
  0
VERTEX
  5
10E
  8
TEAM-NET1
 10
395.0
 20
-50.0
 30
500.0
 70
    64
  0
VERTEX
  5
10F
  8
TEAM-NET1
 10
380.0
 20
-50.0
 30
500.0
 70
    64
  0
VERTEX
  5
110
  8
TEAM-NET1
 10
365.0
 20
-50.0
 30
500.0
 70
    64
  0
VERTEX
  5
111
  8
TEAM-NET1
 10
350.0
 20
-50.0
 30
500.0
 70
    64
  0
VERTEX
  5
112
  8
TEAM-NET1
 10
335.0
 20
-50.0
 30
500.0
 70
    64
  0
VERTEX
  5
113
  8
TEAM-NET1
 10
320.0
 20
-50.0
 30
500.0
 70
    64
  0
VERTEX
  5
114
  8
TEAM-NET1
 10
305.0
 20
-50.0
 30
500.0
 70
    64
  0
VERTEX
  5
115
  8
TEAM-NET1
 10
290.0
 20
-50.0
 30
500.0
 70
    64
  0
VERTEX
  5
116
  8
TEAM-NET1
 10
275.0
 20
-50.0
 30
500.0
 70
    64
  0
VERTEX
  5
117
  8
TEAM-NET1
 10
260.0
 20
-50.0
 30
500.0
 70
    64
  0
VERTEX
  5
118
  8
TEAM-NET1
 10
245.0
 20
-50.0
 30
500.0
 70
    64
  0
VERTEX
  5
119
  8
TEAM-NET1
 10
230.0
 20
-50.0
 30
500.0
 70
    64
  0
VERTEX
  5
11A
  8
TEAM-NET1
 10
215.0
 20
-50.0
 30
500.0
 70
    64
  0
VERTEX
  5
11B
  8
TEAM-NET1
 10
200.0
 20
-50.0
 30
500.0
 70
    64
  0
VERTEX
  5
11C
  8
TEAM-NET1
 10
185.0
 20
-50.0
 30
500.0
 70
    64
  0
VERTEX
  5
11D
  8
TEAM-NET1
 10
170.0
 20
-50.0
 30
500.0
 70
    64
  0
VERTEX
  5
11E
  8
TEAM-NET1
 10
155.0
 20
-50.0
 30
500.0
 70
    64
  0
VERTEX
  5
11F
  8
TEAM-NET1
 10
140.0
 20
-50.0
 30
500.0
 70
    64
  0
VERTEX
  5
120
  8
TEAM-NET1
 10
125.0
 20
-50.0
 30
500.0
 70
    64
  0
VERTEX
  5
121
  8
TEAM-NET1
 10
110.0
 20
-50.0
 30
500.0
 70
    64
  0
VERTEX
  5
122
  8
TEAM-NET1
 10
95.0
 20
-50.0
 30
500.0
 70
    64
  0
VERTEX
  5
123
  8
TEAM-NET1
 10
80.0
 20
-50.0
 30
500.0
 70
    64
  0
VERTEX
  5
124
  8
TEAM-NET1
 10
65.0
 20
-50.0
 30
500.0
 70
    64
  0
VERTEX
  5
125
  8
TEAM-NET1
 10
50.0
 20
-50.0
 30
500.0
 70
    64
  0
VERTEX
  5
126
  8
TEAM-NET1
 10
35.0
 20
-50.0
 30
500.0
 70
    64
  0
VERTEX
  5
127
  8
TEAM-NET1
 10
20.0
 20
-50.0
 30
500.0
 70
    64
  0
VERTEX
  5
128
  8
TEAM-NET1
 10
5.0
 20
-50.0
 30
500.0
 70
    64
  0
VERTEX
  5
129
  8
TEAM-NET1
 10
-10.0
 20
-50.0
 30
500.0
 70
    64
  0
VERTEX
  5
12A
  8
TEAM-NET1
 10
530.0
 20
-50.0
 30
800.0
 70
    64
  0
VERTEX
  5
12B
  8
TEAM-NET1
 10
515.0
 20
-50.0
 30
800.0
 70
    64
  0
VERTEX
  5
12C
  8
TEAM-NET1
 10
500.0
 20
-50.0
 30
800.0
 70
    64
  0
VERTEX
  5
12D
  8
TEAM-NET1
 10
485.0
 20
-50.0
 30
800.0
 70
    64
  0
VERTEX
  5
12E
  8
TEAM-NET1
 10
470.0
 20
-50.0
 30
800.0
 70
    64
  0
VERTEX
  5
12F
  8
TEAM-NET1
 10
455.0
 20
-50.0
 30
800.0
 70
    64
  0
VERTEX
  5
130
  8
TEAM-NET1
 10
440.0
 20
-50.0
 30
800.0
 70
    64
  0
VERTEX
  5
131
  8
TEAM-NET1
 10
425.0
 20
-50.0
 30
800.0
 70
    64
  0
VERTEX
  5
132
  8
TEAM-NET1
 10
410.0
 20
-50.0
 30
800.0
 70
    64
  0
VERTEX
  5
133
  8
TEAM-NET1
 10
395.0
 20
-50.0
 30
800.0
 70
    64
  0
VERTEX
  5
134
  8
TEAM-NET1
 10
380.0
 20
-50.0
 30
800.0
 70
    64
  0
VERTEX
  5
135
  8
TEAM-NET1
 10
365.0
 20
-50.0
 30
800.0
 70
    64
  0
VERTEX
  5
136
  8
TEAM-NET1
 10
350.0
 20
-50.0
 30
800.0
 70
    64
  0
VERTEX
  5
137
  8
TEAM-NET1
 10
335.0
 20
-50.0
 30
800.0
 70
    64
  0
VERTEX
  5
138
  8
TEAM-NET1
 10
320.0
 20
-50.0
 30
800.0
 70
    64
  0
VERTEX
  5
139
  8
TEAM-NET1
 10
305.0
 20
-50.0
 30
800.0
 70
    64
  0
VERTEX
  5
13A
  8
TEAM-NET1
 10
290.0
 20
-50.0
 30
800.0
 70
    64
  0
VERTEX
  5
13B
  8
TEAM-NET1
 10
275.0
 20
-50.0
 30
800.0
 70
    64
  0
VERTEX
  5
13C
  8
TEAM-NET1
 10
260.0
 20
-50.0
 30
800.0
 70
    64
  0
VERTEX
  5
13D
  8
TEAM-NET1
 10
245.0
 20
-50.0
 30
800.0
 70
    64
  0
VERTEX
  5
13E
  8
TEAM-NET1
 10
230.0
 20
-50.0
 30
800.0
 70
    64
  0
VERTEX
  5
13F
  8
TEAM-NET1
 10
215.0
 20
-50.0
 30
800.0
 70
    64
  0
VERTEX
  5
140
  8
TEAM-NET1
 10
200.0
 20
-50.0
 30
800.0
 70
    64
  0
VERTEX
  5
141
  8
TEAM-NET1
 10
185.0
 20
-50.0
 30
800.0
 70
    64
  0
VERTEX
  5
142
  8
TEAM-NET1
 10
170.0
 20
-50.0
 30
800.0
 70
    64
  0
VERTEX
  5
143
  8
TEAM-NET1
 10
155.0
 20
-50.0
 30
800.0
 70
    64
  0
VERTEX
  5
144
  8
TEAM-NET1
 10
140.0
 20
-50.0
 30
800.0
 70
    64
  0
VERTEX
  5
145
  8
TEAM-NET1
 10
125.0
 20
-50.0
 30
800.0
 70
    64
  0
VERTEX
  5
146
  8
TEAM-NET1
 10
110.0
 20
-50.0
 30
800.0
 70
    64
  0
VERTEX
  5
147
  8
TEAM-NET1
 10
95.0
 20
-50.0
 30
800.0
 70
    64
  0
VERTEX
  5
148
  8
TEAM-NET1
 10
80.0
 20
-50.0
 30
800.0
 70
    64
  0
VERTEX
  5
149
  8
TEAM-NET1
 10
65.0
 20
-50.0
 30
800.0
 70
    64
  0
VERTEX
  5
14A
  8
TEAM-NET1
 10
50.0
 20
-50.0
 30
800.0
 70
    64
  0
VERTEX
  5
14B
  8
TEAM-NET1
 10
35.0
 20
-50.0
 30
800.0
 70
    64
  0
VERTEX
  5
14C
  8
TEAM-NET1
 10
20.0
 20
-50.0
 30
800.0
 70
    64
  0
VERTEX
  5
14D
  8
TEAM-NET1
 10
5.0
 20
-50.0
 30
800.0
 70
    64
  0
VERTEX
  5
14E
  8
TEAM-NET1
 10
-10.0
 20
-50.0
 30
800.0
 70
    64
  0
SEQEND
  5
14F
  8
TEAM-NET1
  0
POLYLINE
  5
150
  8
TEAM-NET1
 66
     1
 10
0.0
 20
0.0
 30
0.0
 70
    16
 71
     2
 72
    37
  0
VERTEX
  5
151
  8
TEAM-NET1
 10
530.0
 20
-50.0
 30
800.0
 70
    64
  0
VERTEX
  5
152
  8
TEAM-NET1
 10
544.948488
 20
-51.409016
 30
800.0
 70
    64
  0
VERTEX
  5
153
  8
TEAM-NET1
 10
559.37041
 20
-55.586433
 30
800.0
 70
    64
  0
VERTEX
  5
154
  8
TEAM-NET1
 10
572.757747
 20
-62.385097
 30
800.0
 70
    64
  0
VERTEX
  5
155
  8
TEAM-NET1
 10
584.638925
 20
-71.565525
 30
800.0
 70
    64
  0
VERTEX
  5
156
  8
TEAM-NET1
 10
594.595424
 20
-82.804331
 30
800.0
 70
    64
  0
VERTEX
  5
157
  8
TEAM-NET1
 10
602.276523
 20
-95.705624
 30
800.0
 70
    64
  0
VERTEX
  5
158
  8
TEAM-NET1
 10
607.411651
 20
-109.81495
 30
800.0
 70
    64
  0
VERTEX
  5
159
  8
TEAM-NET1
 10
609.819923
 20
-124.635303
 30
800.0
 70
    64
  0
VERTEX
  5
15A
  8
TEAM-NET1
 10
610.0
 20
-139.668147
 30
800.0
 70
    64
  0
VERTEX
  5
15B
  8
TEAM-NET1
 10
610.0
 20
-154.705019
 30
800.0
 70
    64
  0
VERTEX
  5
15C
  8
TEAM-NET1
 10
610.0
 20
-169.741892
 30
800.0
 70
    64
  0
VERTEX
  5
15D
  8
TEAM-NET1
 10
610.0
 20
-184.778765
 30
800.0
 70
    64
  0
VERTEX
  5
15E
  8
TEAM-NET1
 10
610.0
 20
-199.815637
 30
800.0
 70
    64
  0
VERTEX
  5
15F
  8
TEAM-NET1
 10
610.0
 20
-214.85251
 30
800.0
 70
    64
  0
VERTEX
  5
160
  8
TEAM-NET1
 10
610.0
 20
-229.889382
 30
800.0
 70
    64
  0
VERTEX
  5
161
  8
TEAM-NET1
 10
610.0
 20
-244.926255
 30
800.0
 70
    64
  0
VERTEX
  5
162
  8
TEAM-NET1
 10
610.0
 20
-259.963127
 30
800.0
 70
    64
  0
VERTEX
  5
163
  8
TEAM-NET1
 10
610.0
 20
-275.0
 30
800.0
 70
    64
  0
VERTEX
  5
164
  8
TEAM-NET1
 10
610.0
 20
-290.036873
 30
800.0
 70
    64
  0
VERTEX
  5
165
  8
TEAM-NET1
 10
610.0
 20
-305.073745
 30
800.0
 70
    64
  0
VERTEX
  5
166
  8
TEAM-NET1
 10
610.0
 20
-320.110618
 30
800.0
 70
    64
  0
VERTEX
  5
167
  8
TEAM-NET1
 10
610.0
 20
-335.14749
 30
800.0
 70
    64
  0
VERTEX
  5
168
  8
TEAM-NET1
 10
610.0
 20
-350.184363
 30
800.0
 70
    64
  0
VERTEX
  5
169
  8
TEAM-NET1
 10
610.0
 20
-365.221235
 30
800.0
 70
    64
  0
VERTEX
  5
16A
  8
TEAM-NET1
 10
610.0
 20
-380.258108
 30
800.0
 70
    64
  0
VERTEX
  5
16B
  8
TEAM-NET1
 10
610.0
 20
-395.294981
 30
800.0
 70
    64
  0
VERTEX
  5
16C
  8
TEAM-NET1
 10
610.0
 20
-410.331853
 30
800.0
 70
    64
  0
VERTEX
  5
16D
  8
TEAM-NET1
 10
609.819923
 20
-425.364697
 30
800.0
 70
    64
  0
VERTEX
  5
16E
  8
TEAM-NET1
 10
607.411651
 20
-440.18505
 30
800.0
 70
    64
  0
VERTEX
  5
16F
  8
TEAM-NET1
 10
602.276523
 20
-454.294376
 30
800.0
 70
    64
  0
VERTEX
  5
170
  8
TEAM-NET1
 10
594.595424
 20
-467.195669
 30
800.0
 70
    64
  0
VERTEX
  5
171
  8
TEAM-NET1
 10
584.638925
 20
-478.434475
 30
800.0
 70
    64
  0
VERTEX
  5
172
  8
TEAM-NET1
 10
572.757747
 20
-487.614903
 30
800.0
 70
    64
  0
VERTEX
  5
173
  8
TEAM-NET1
 10
559.37041
 20
-494.413567
 30
800.0
 70
    64
  0
VERTEX
  5
174
  8
TEAM-NET1
 10
544.948488
 20
-498.590984
 30
800.0
 70
    64
  0
VERTEX
  5
175
  8
TEAM-NET1
 10
530.0
 20
-500.0
 30
800.0
 70
    64
  0
VERTEX
  5
176
  8
TEAM-NET1
 10
530.0
 20
-50.0
 30
500.0
 70
    64
  0
VERTEX
  5
177
  8
TEAM-NET1
 10
544.948488
 20
-51.409016
 30
500.0
 70
    64
  0
VERTEX
  5
178
  8
TEAM-NET1
 10
559.37041
 20
-55.586433
 30
500.0
 70
    64
  0
VERTEX
  5
179
  8
TEAM-NET1
 10
572.757747
 20
-62.385097
 30
500.0
 70
    64
  0
VERTEX
  5
17A
  8
TEAM-NET1
 10
584.638925
 20
-71.565525
 30
500.0
 70
    64
  0
VERTEX
  5
17B
  8
TEAM-NET1
 10
594.595424
 20
-82.804331
 30
500.0
 70
    64
  0
VERTEX
  5
17C
  8
TEAM-NET1
 10
602.276523
 20
-95.705624
 30
500.0
 70
    64
  0
VERTEX
  5
17D
  8
TEAM-NET1
 10
607.411651
 20
-109.81495
 30
500.0
 70
    64
  0
VERTEX
  5
17E
  8
TEAM-NET1
 10
609.819923
 20
-124.635303
 30
500.0
 70
    64
  0
VERTEX
  5
17F
  8
TEAM-NET1
 10
610.0
 20
-139.668147
 30
500.0
 70
    64
  0
VERTEX
  5
180
  8
TEAM-NET1
 10
610.0
 20
-154.705019
 30
500.0
 70
    64
  0
VERTEX
  5
181
  8
TEAM-NET1
 10
610.0
 20
-169.741892
 30
500.0
 70
    64
  0
VERTEX
  5
182
  8
TEAM-NET1
 10
610.0
 20
-184.778765
 30
500.0
 70
    64
  0
VERTEX
  5
183
  8
TEAM-NET1
 10
610.0
 20
-199.815637
 30
500.0
 70
    64
  0
VERTEX
  5
184
  8
TEAM-NET1
 10
610.0
 20
-214.85251
 30
500.0
 70
    64
  0
VERTEX
  5
185
  8
TEAM-NET1
 10
610.0
 20
-229.889382
 30
500.0
 70
    64
  0
VERTEX
  5
186
  8
TEAM-NET1
 10
610.0
 20
-244.926255
 30
500.0
 70
    64
  0
VERTEX
  5
187
  8
TEAM-NET1
 10
610.0
 20
-259.963127
 30
500.0
 70
    64
  0
VERTEX
  5
188
  8
TEAM-NET1
 10
610.0
 20
-275.0
 30
500.0
 70
    64
  0
VERTEX
  5
189
  8
TEAM-NET1
 10
610.0
 20
-290.036873
 30
500.0
 70
    64
  0
VERTEX
  5
18A
  8
TEAM-NET1
 10
610.0
 20
-305.073745
 30
500.0
 70
    64
  0
VERTEX
  5
18B
  8
TEAM-NET1
 10
610.0
 20
-320.110618
 30
500.0
 70
    64
  0
VERTEX
  5
18C
  8
TEAM-NET1
 10
610.0
 20
-335.14749
 30
500.0
 70
    64
  0
VERTEX
  5
18D
  8
TEAM-NET1
 10
610.0
 20
-350.184363
 30
500.0
 70
    64
  0
VERTEX
  5
18E
  8
TEAM-NET1
 10
610.0
 20
-365.221235
 30
500.0
 70
    64
  0
VERTEX
  5
18F
  8
TEAM-NET1
 10
610.0
 20
-380.258108
 30
500.0
 70
    64
  0
VERTEX
  5
190
  8
TEAM-NET1
 10
610.0
 20
-395.294981
 30
500.0
 70
    64
  0
VERTEX
  5
191
  8
TEAM-NET1
 10
610.0
 20
-410.331853
 30
500.0
 70
    64
  0
VERTEX
  5
192
  8
TEAM-NET1
 10
609.819923
 20
-425.364697
 30
500.0
 70
    64
  0
VERTEX
  5
193
  8
TEAM-NET1
 10
607.411651
 20
-440.18505
 30
500.0
 70
    64
  0
VERTEX
  5
194
  8
TEAM-NET1
 10
602.276523
 20
-454.294376
 30
500.0
 70
    64
  0
VERTEX
  5
195
  8
TEAM-NET1
 10
594.595424
 20
-467.195669
 30
500.0
 70
    64
  0
VERTEX
  5
196
  8
TEAM-NET1
 10
584.638925
 20
-478.434475
 30
500.0
 70
    64
  0
VERTEX
  5
197
  8
TEAM-NET1
 10
572.757747
 20
-487.614903
 30
500.0
 70
    64
  0
VERTEX
  5
198
  8
TEAM-NET1
 10
559.37041
 20
-494.413567
 30
500.0
 70
    64
  0
VERTEX
  5
199
  8
TEAM-NET1
 10
544.948488
 20
-498.590984
 30
500.0
 70
    64
  0
VERTEX
  5
19A
  8
TEAM-NET1
 10
530.0
 20
-500.0
 30
500.0
 70
    64
  0
SEQEND
  5
19B
  8
TEAM-NET1
  0
POLYLINE
  5
19C
  8
TEAM-DET2
 66
     1
 10
0.0
 20
0.0
 30
0.0
 70
     1
 40
10.0
 41
10.0
210
-1.0
220
0.0
230
0.0
  0
VERTEX
  5
59D
  8
TEAM-DET2
 10
-5.0
 20
0.0
 30
0.0
 42
1.0
  0
VERTEX
  5
59E
  8
TEAM-DET2
 10
5.0
 20
0.0
 30
0.0
 42
1.0
  0
SEQEND
  5
59F
  8
TEAM-DET2
  0
POLYLINE
  5
19E
  8
TEAM-DET2
 66
     1
 10
0.0
 20
0.0
 30
0.0
 70
     1
 40
10.0
 41
10.0
210
0.0
220
-1.0
230
0.0
  0
VERTEX
  5
5A0
  8
TEAM-DET2
 10
-25.0
 20
0.0
 30
0.0
 42
1.0
  0
VERTEX
  5
5A1
  8
TEAM-DET2
 10
-15.0
 20
0.0
 30
0.0
 42
1.0
  0
SEQEND
  5
5A2
  8
TEAM-DET2
  0
POLYLINE
  5
19F
  8
TEAM-DET2
 66
     1
 10
0.0
 20
0.0
 30
0.0
 70
     1
 40
10.0
 41
10.0
210
0.0
220
-1.0
230
0.0
  0
VERTEX
  5
5A3
  8
TEAM-DET2
 10
-25.0
 20
0.0
 30
0.0
 42
1.0
  0
VERTEX
  5
5A4
  8
TEAM-DET2
 10
-15.0
 20
0.0
 30
0.0
 42
1.0
  0
SEQEND
  5
5A5
  8
TEAM-DET2
  0
POLYLINE
  5
1A0
  8
TEAM-DET2
 66
     1
 10
0.0
 20
0.0
 30
0.0
 70
     1
 40
10.0
 41
10.0
  0
VERTEX
  5
5A6
  8
TEAM-DET2
 10
-5.0
 20
0.0
 30
0.0
 42
1.0
  0
VERTEX
  5
5A7
  8
TEAM-DET2
 10
5.0
 20
0.0
 30
0.0
 42
1.0
  0
SEQEND
  5
5A8
  8
TEAM-DET2
  0
LINE
  5
1A1
  8
TEAM-AXE
 10
31.0
 20
-139.992181
 30
460.0
 11
-31.0
 21
-139.992181
 31
460.0
  0
CIRCLE
  5
1A4
  8
TEAM-DET1
 10
0.0
 20
-139.992181
 30
460.0
 40
21.0
  0
CIRCLE
  5
1A6
  8
TEAM-BODY
 10
0.0
 20
-139.992181
 30
460.0
 40
26.0
  0
LINE
  5
1A8
  8
TEAM-AXE
 10
0.0
 20
-170.992181
 30
460.0
 11
0.0
 21
-108.992181
 31
460.0
  0
POLYLINE
  5
1A9
  8
TEAM-DET1
 66
     1
 10
0.0
 20
0.0
 30
500.0
  0
VERTEX
  5
5A9
  8
TEAM-DET1
 10
69.601602
 20
-50.0
 30
500.0
  0
VERTEX
  5
5AA
  8
TEAM-DET1
 10
69.601602
 20
-147.616162
 30
500.0
 42
-0.414214
  0
VERTEX
  5
5AB
  8
TEAM-DET1
 10
9.601602
 20
-207.616162
 30
500.0
  0
VERTEX
  5
5AC
  8
TEAM-DET1
 10
-90.0
 20
-207.616162
 30
500.0
  0
SEQEND
  5
5AD
  8
TEAM-DET1
  0
LINE
  5
1AA
  8
TEAM-BODY
 10
-10.0
 20
-50.0
 30
500.0
 11
530.0
 21
-50.0
 31
500.0
  0
LINE
  5
1AB
  8
TEAM-BODY
 10
530.0
 20
-500.0
 30
500.0
 11
-10.0
 21
-500.0
 31
500.0
  0
POLYLINE
  5
1AC
  8
TEAM-NET1
 66
     1
 10
0.0
 20
0.0
 30
0.0
 70
    16
 71
     2
 72
    37
  0
VERTEX
  5
1AD
  8
TEAM-NET1
 10
-10.0
 20
-500.0
 30
500.0
 70
    64
  0
VERTEX
  5
1AE
  8
TEAM-NET1
 10
-24.948488
 20
-498.590984
 30
500.0
 70
    64
  0
VERTEX
  5
1AF
  8
TEAM-NET1
 10
-39.37041
 20
-494.413567
 30
500.0
 70
    64
  0
VERTEX
  5
1B0
  8
TEAM-NET1
 10
-52.757747
 20
-487.614903
 30
500.0
 70
    64
  0
VERTEX
  5
1B1
  8
TEAM-NET1
 10
-64.638925
 20
-478.434475
 30
500.0
 70
    64
  0
VERTEX
  5
1B2
  8
TEAM-NET1
 10
-74.595424
 20
-467.195669
 30
500.0
 70
    64
  0
VERTEX
  5
1B3
  8
TEAM-NET1
 10
-82.276523
 20
-454.294376
 30
500.0
 70
    64
  0
VERTEX
  5
1B4
  8
TEAM-NET1
 10
-87.411651
 20
-440.18505
 30
500.0
 70
    64
  0
VERTEX
  5
1B5
  8
TEAM-NET1
 10
-89.819923
 20
-425.364697
 30
500.0
 70
    64
  0
VERTEX
  5
1B6
  8
TEAM-NET1
 10
-90.0
 20
-410.331853
 30
500.0
 70
    64
  0
VERTEX
  5
1B7
  8
TEAM-NET1
 10
-90.0
 20
-395.294981
 30
500.0
 70
    64
  0
VERTEX
  5
1B8
  8
TEAM-NET1
 10
-90.0
 20
-380.258108
 30
500.0
 70
    64
  0
VERTEX
  5
1B9
  8
TEAM-NET1
 10
-90.0
 20
-365.221235
 30
500.0
 70
    64
  0
VERTEX
  5
1BA
  8
TEAM-NET1
 10
-90.0
 20
-350.184363
 30
500.0
 70
    64
  0
VERTEX
  5
1BB
  8
TEAM-NET1
 10
-90.0
 20
-335.14749
 30
500.0
 70
    64
  0
VERTEX
  5
1BC
  8
TEAM-NET1
 10
-90.0
 20
-320.110618
 30
500.0
 70
    64
  0
VERTEX
  5
1BD
  8
TEAM-NET1
 10
-90.0
 20
-305.073745
 30
500.0
 70
    64
  0
VERTEX
  5
1BE
  8
TEAM-NET1
 10
-90.0
 20
-290.036873
 30
500.0
 70
    64
  0
VERTEX
  5
1BF
  8
TEAM-NET1
 10
-90.0
 20
-275.0
 30
500.0
 70
    64
  0
VERTEX
  5
1C0
  8
TEAM-NET1
 10
-90.0
 20
-259.963127
 30
500.0
 70
    64
  0
VERTEX
  5
1C1
  8
TEAM-NET1
 10
-90.0
 20
-244.926255
 30
500.0
 70
    64
  0
VERTEX
  5
1C2
  8
TEAM-NET1
 10
-90.0
 20
-229.889382
 30
500.0
 70
    64
  0
VERTEX
  5
1C3
  8
TEAM-NET1
 10
-90.0
 20
-214.85251
 30
500.0
 70
    64
  0
VERTEX
  5
1C4
  8
TEAM-NET1
 10
-90.0
 20
-199.815637
 30
500.0
 70
    64
  0
VERTEX
  5
1C5
  8
TEAM-NET1
 10
-90.0
 20
-184.778765
 30
500.0
 70
    64
  0
VERTEX
  5
1C6
  8
TEAM-NET1
 10
-90.0
 20
-169.741892
 30
500.0
 70
    64
  0
VERTEX
  5
1C7
  8
TEAM-NET1
 10
-90.0
 20
-154.705019
 30
500.0
 70
    64
  0
VERTEX
  5
1C8
  8
TEAM-NET1
 10
-90.0
 20
-139.668147
 30
500.0
 70
    64
  0
VERTEX
  5
1C9
  8
TEAM-NET1
 10
-89.819923
 20
-124.635303
 30
500.0
 70
    64
  0
VERTEX
  5
1CA
  8
TEAM-NET1
 10
-87.411651
 20
-109.81495
 30
500.0
 70
    64
  0
VERTEX
  5
1CB
  8
TEAM-NET1
 10
-82.276523
 20
-95.705624
 30
500.0
 70
    64
  0
VERTEX
  5
1CC
  8
TEAM-NET1
 10
-74.595424
 20
-82.804331
 30
500.0
 70
    64
  0
VERTEX
  5
1CD
  8
TEAM-NET1
 10
-64.638925
 20
-71.565525
 30
500.0
 70
    64
  0
VERTEX
  5
1CE
  8
TEAM-NET1
 10
-52.757747
 20
-62.385097
 30
500.0
 70
    64
  0
VERTEX
  5
1CF
  8
TEAM-NET1
 10
-39.37041
 20
-55.586433
 30
500.0
 70
    64
  0
VERTEX
  5
1D0
  8
TEAM-NET1
 10
-24.948488
 20
-51.409016
 30
500.0
 70
    64
  0
VERTEX
  5
1D1
  8
TEAM-NET1
 10
-10.0
 20
-50.0
 30
500.0
 70
    64
  0
VERTEX
  5
1D2
  8
TEAM-NET1
 10
530.0
 20
-500.0
 30
500.0
 70
    64
  0
VERTEX
  5
1D3
  8
TEAM-NET1
 10
544.948488
 20
-498.590984
 30
500.0
 70
    64
  0
VERTEX
  5
1D4
  8
TEAM-NET1
 10
559.37041
 20
-494.413567
 30
500.0
 70
    64
  0
VERTEX
  5
1D5
  8
TEAM-NET1
 10
572.757747
 20
-487.614903
 30
500.0
 70
    64
  0
VERTEX
  5
1D6
  8
TEAM-NET1
 10
584.638925
 20
-478.434475
 30
500.0
 70
    64
  0
VERTEX
  5
1D7
  8
TEAM-NET1
 10
594.595424
 20
-467.195669
 30
500.0
 70
    64
  0
VERTEX
  5
1D8
  8
TEAM-NET1
 10
602.276523
 20
-454.294376
 30
500.0
 70
    64
  0
VERTEX
  5
1D9
  8
TEAM-NET1
 10
607.411651
 20
-440.18505
 30
500.0
 70
    64
  0
VERTEX
  5
1DA
  8
TEAM-NET1
 10
609.819923
 20
-425.364697
 30
500.0
 70
    64
  0
VERTEX
  5
1DB
  8
TEAM-NET1
 10
610.0
 20
-410.331853
 30
500.0
 70
    64
  0
VERTEX
  5
1DC
  8
TEAM-NET1
 10
610.0
 20
-395.294981
 30
500.0
 70
    64
  0
VERTEX
  5
1DD
  8
TEAM-NET1
 10
610.0
 20
-380.258108
 30
500.0
 70
    64
  0
VERTEX
  5
1DE
  8
TEAM-NET1
 10
610.0
 20
-365.221235
 30
500.0
 70
    64
  0
VERTEX
  5
1DF
  8
TEAM-NET1
 10
610.0
 20
-350.184363
 30
500.0
 70
    64
  0
VERTEX
  5
1E0
  8
TEAM-NET1
 10
610.0
 20
-335.14749
 30
500.0
 70
    64
  0
VERTEX
  5
1E1
  8
TEAM-NET1
 10
610.0
 20
-320.110618
 30
500.0
 70
    64
  0
VERTEX
  5
1E2
  8
TEAM-NET1
 10
610.0
 20
-305.073745
 30
500.0
 70
    64
  0
VERTEX
  5
1E3
  8
TEAM-NET1
 10
610.0
 20
-290.036873
 30
500.0
 70
    64
  0
VERTEX
  5
1E4
  8
TEAM-NET1
 10
610.0
 20
-275.0
 30
500.0
 70
    64
  0
VERTEX
  5
1E5
  8
TEAM-NET1
 10
610.0
 20
-259.963127
 30
500.0
 70
    64
  0
VERTEX
  5
1E6
  8
TEAM-NET1
 10
610.0
 20
-244.926255
 30
500.0
 70
    64
  0
VERTEX
  5
1E7
  8
TEAM-NET1
 10
610.0
 20
-229.889382
 30
500.0
 70
    64
  0
VERTEX
  5
1E8
  8
TEAM-NET1
 10
610.0
 20
-214.85251
 30
500.0
 70
    64
  0
VERTEX
  5
1E9
  8
TEAM-NET1
 10
610.0
 20
-199.815637
 30
500.0
 70
    64
  0
VERTEX
  5
1EA
  8
TEAM-NET1
 10
610.0
 20
-184.778765
 30
500.0
 70
    64
  0
VERTEX
  5
1EB
  8
TEAM-NET1
 10
610.0
 20
-169.741892
 30
500.0
 70
    64
  0
VERTEX
  5
1EC
  8
TEAM-NET1
 10
610.0
 20
-154.705019
 30
500.0
 70
    64
  0
VERTEX
  5
1ED
  8
TEAM-NET1
 10
610.0
 20
-139.668147
 30
500.0
 70
    64
  0
VERTEX
  5
1EE
  8
TEAM-NET1
 10
609.819923
 20
-124.635303
 30
500.0
 70
    64
  0
VERTEX
  5
1EF
  8
TEAM-NET1
 10
607.411651
 20
-109.81495
 30
500.0
 70
    64
  0
VERTEX
  5
1F0
  8
TEAM-NET1
 10
602.276523
 20
-95.705624
 30
500.0
 70
    64
  0
VERTEX
  5
1F1
  8
TEAM-NET1
 10
594.595424
 20
-82.804331
 30
500.0
 70
    64
  0
VERTEX
  5
1F2
  8
TEAM-NET1
 10
584.638925
 20
-71.565525
 30
500.0
 70
    64
  0
VERTEX
  5
1F3
  8
TEAM-NET1
 10
572.757747
 20
-62.385097
 30
500.0
 70
    64
  0
VERTEX
  5
1F4
  8
TEAM-NET1
 10
559.37041
 20
-55.586433
 30
500.0
 70
    64
  0
VERTEX
  5
1F5
  8
TEAM-NET1
 10
544.948488
 20
-51.409016
 30
500.0
 70
    64
  0
VERTEX
  5
1F6
  8
TEAM-NET1
 10
530.0
 20
-50.0
 30
500.0
 70
    64
  0
SEQEND
  5
1F7
  8
TEAM-NET1
  0
POLYLINE
  5
1F8
  8
TEAM-BODY
 66
     1
 10
0.0
 20
0.0
 30
500.0
  0
VERTEX
  5
5AE
  8
TEAM-BODY
 10
-10.0
 20
-50.0
 30
500.0
 42
0.414214
  0
VERTEX
  5
5AF
  8
TEAM-BODY
 10
-90.0
 20
-130.0
 30
500.0
  0
VERTEX
  5
5B0
  8
TEAM-BODY
 10
-90.0
 20
-420.0
 30
500.0
 42
0.414214
  0
VERTEX
  5
5B1
  8
TEAM-BODY
 10
-10.0
 20
-500.0
 30
500.0
  0
SEQEND
  5
5B2
  8
TEAM-BODY
  0
POLYLINE
  5
1F9
  8
TEAM-BODY
 66
     1
 10
0.0
 20
0.0
 30
500.0
  0
VERTEX
  5
5B3
  8
TEAM-BODY
 10
530.0
 20
-50.0
 30
500.0
 42
-0.414214
  0
VERTEX
  5
5B4
  8
TEAM-BODY
 10
610.0
 20
-130.0
 30
500.0
  0
VERTEX
  5
5B5
  8
TEAM-BODY
 10
610.0
 20
-420.0
 30
500.0
 42
-0.414214
  0
VERTEX
  5
5B6
  8
TEAM-BODY
 10
530.0
 20
-500.0
 30
500.0
  0
SEQEND
  5
5B7
  8
TEAM-BODY
  0
POLYLINE
  5
1FA
  8
TEAM-NET1
 66
     1
 10
0.0
 20
0.0
 30
0.0
 70
    16
 71
     2
 72
    37
  0
VERTEX
  5
1FB
  8
TEAM-NET1
 10
-440.0
 20
0.0
 30
800.0
 70
    64
  0
VERTEX
  5
1FC
  8
TEAM-NET1
 10
-409.444444
 20
0.0
 30
800.0
 70
    64
  0
VERTEX
  5
1FD
  8
TEAM-NET1
 10
-378.888889
 20
0.0
 30
800.0
 70
    64
  0
VERTEX
  5
1FE
  8
TEAM-NET1
 10
-348.333333
 20
0.0
 30
800.0
 70
    64
  0
VERTEX
  5
1FF
  8
TEAM-NET1
 10
-317.777778
 20
0.0
 30
800.0
 70
    64
  0
VERTEX
  5
200
  8
TEAM-NET1
 10
-287.222222
 20
0.0
 30
800.0
 70
    64
  0
VERTEX
  5
201
  8
TEAM-NET1
 10
-256.666667
 20
0.0
 30
800.0
 70
    64
  0
VERTEX
  5
202
  8
TEAM-NET1
 10
-226.111111
 20
0.0
 30
800.0
 70
    64
  0
VERTEX
  5
203
  8
TEAM-NET1
 10
-195.555556
 20
0.0
 30
800.0
 70
    64
  0
VERTEX
  5
204
  8
TEAM-NET1
 10
-165.0
 20
0.0
 30
800.0
 70
    64
  0
VERTEX
  5
205
  8
TEAM-NET1
 10
-134.444444
 20
0.0
 30
800.0
 70
    64
  0
VERTEX
  5
206
  8
TEAM-NET1
 10
-103.888889
 20
0.0
 30
800.0
 70
    64
  0
VERTEX
  5
207
  8
TEAM-NET1
 10
-73.333333
 20
0.0
 30
800.0
 70
    64
  0
VERTEX
  5
208
  8
TEAM-NET1
 10
-42.777778
 20
0.0
 30
800.0
 70
    64
  0
VERTEX
  5
209
  8
TEAM-NET1
 10
-12.222222
 20
0.0
 30
800.0
 70
    64
  0
VERTEX
  5
20A
  8
TEAM-NET1
 10
18.333333
 20
0.0
 30
800.0
 70
    64
  0
VERTEX
  5
20B
  8
TEAM-NET1
 10
48.888889
 20
0.0
 30
800.0
 70
    64
  0
VERTEX
  5
20C
  8
TEAM-NET1
 10
79.444444
 20
0.0
 30
800.0
 70
    64
  0
VERTEX
  5
20D
  8
TEAM-NET1
 10
110.0
 20
0.0
 30
800.0
 70
    64
  0
VERTEX
  5
20E
  8
TEAM-NET1
 10
140.555556
 20
0.0
 30
800.0
 70
    64
  0
VERTEX
  5
20F
  8
TEAM-NET1
 10
171.111111
 20
0.0
 30
800.0
 70
    64
  0
VERTEX
  5
210
  8
TEAM-NET1
 10
201.666667
 20
0.0
 30
800.0
 70
    64
  0
VERTEX
  5
211
  8
TEAM-NET1
 10
232.222222
 20
0.0
 30
800.0
 70
    64
  0
VERTEX
  5
212
  8
TEAM-NET1
 10
262.777778
 20
0.0
 30
800.0
 70
    64
  0
VERTEX
  5
213
  8
TEAM-NET1
 10
293.333333
 20
0.0
 30
800.0
 70
    64
  0
VERTEX
  5
214
  8
TEAM-NET1
 10
323.888889
 20
0.0
 30
800.0
 70
    64
  0
VERTEX
  5
215
  8
TEAM-NET1
 10
354.444444
 20
0.0
 30
800.0
 70
    64
  0
VERTEX
  5
216
  8
TEAM-NET1
 10
385.0
 20
0.0
 30
800.0
 70
    64
  0
VERTEX
  5
217
  8
TEAM-NET1
 10
415.555556
 20
0.0
 30
800.0
 70
    64
  0
VERTEX
  5
218
  8
TEAM-NET1
 10
446.111111
 20
0.0
 30
800.0
 70
    64
  0
VERTEX
  5
219
  8
TEAM-NET1
 10
476.666667
 20
0.0
 30
800.0
 70
    64
  0
VERTEX
  5
21A
  8
TEAM-NET1
 10
507.222222
 20
0.0
 30
800.0
 70
    64
  0
VERTEX
  5
21B
  8
TEAM-NET1
 10
537.777778
 20
0.0
 30
800.0
 70
    64
  0
VERTEX
  5
21C
  8
TEAM-NET1
 10
568.333333
 20
0.0
 30
800.0
 70
    64
  0
VERTEX
  5
21D
  8
TEAM-NET1
 10
598.888889
 20
0.0
 30
800.0
 70
    64
  0
VERTEX
  5
21E
  8
TEAM-NET1
 10
629.444444
 20
0.0
 30
800.0
 70
    64
  0
VERTEX
  5
21F
  8
TEAM-NET1
 10
660.0
 20
0.0
 30
800.0
 70
    64
  0
VERTEX
  5
220
  8
TEAM-NET1
 10
-440.0
 20
0.0
 30
770.0
 70
    64
  0
VERTEX
  5
221
  8
TEAM-NET1
 10
-409.444444
 20
0.0
 30
770.0
 70
    64
  0
VERTEX
  5
222
  8
TEAM-NET1
 10
-378.888889
 20
0.0
 30
770.0
 70
    64
  0
VERTEX
  5
223
  8
TEAM-NET1
 10
-348.333333
 20
0.0
 30
770.0
 70
    64
  0
VERTEX
  5
224
  8
TEAM-NET1
 10
-317.777778
 20
0.0
 30
770.0
 70
    64
  0
VERTEX
  5
225
  8
TEAM-NET1
 10
-287.222222
 20
0.0
 30
770.0
 70
    64
  0
VERTEX
  5
226
  8
TEAM-NET1
 10
-256.666667
 20
0.0
 30
770.0
 70
    64
  0
VERTEX
  5
227
  8
TEAM-NET1
 10
-226.111111
 20
0.0
 30
770.0
 70
    64
  0
VERTEX
  5
228
  8
TEAM-NET1
 10
-195.555556
 20
0.0
 30
770.0
 70
    64
  0
VERTEX
  5
229
  8
TEAM-NET1
 10
-165.0
 20
0.0
 30
770.0
 70
    64
  0
VERTEX
  5
22A
  8
TEAM-NET1
 10
-134.444444
 20
0.0
 30
770.0
 70
    64
  0
VERTEX
  5
22B
  8
TEAM-NET1
 10
-103.888889
 20
0.0
 30
770.0
 70
    64
  0
VERTEX
  5
22C
  8
TEAM-NET1
 10
-73.333333
 20
0.0
 30
770.0
 70
    64
  0
VERTEX
  5
22D
  8
TEAM-NET1
 10
-42.777778
 20
0.0
 30
770.0
 70
    64
  0
VERTEX
  5
22E
  8
TEAM-NET1
 10
-12.222222
 20
0.0
 30
770.0
 70
    64
  0
VERTEX
  5
22F
  8
TEAM-NET1
 10
18.333333
 20
0.0
 30
770.0
 70
    64
  0
VERTEX
  5
230
  8
TEAM-NET1
 10
48.888889
 20
0.0
 30
770.0
 70
    64
  0
VERTEX
  5
231
  8
TEAM-NET1
 10
79.444444
 20
0.0
 30
770.0
 70
    64
  0
VERTEX
  5
232
  8
TEAM-NET1
 10
110.0
 20
0.0
 30
770.0
 70
    64
  0
VERTEX
  5
233
  8
TEAM-NET1
 10
140.555556
 20
0.0
 30
770.0
 70
    64
  0
VERTEX
  5
234
  8
TEAM-NET1
 10
171.111111
 20
0.0
 30
770.0
 70
    64
  0
VERTEX
  5
235
  8
TEAM-NET1
 10
201.666667
 20
0.0
 30
770.0
 70
    64
  0
VERTEX
  5
236
  8
TEAM-NET1
 10
232.222222
 20
0.0
 30
770.0
 70
    64
  0
VERTEX
  5
237
  8
TEAM-NET1
 10
262.777778
 20
0.0
 30
770.0
 70
    64
  0
VERTEX
  5
238
  8
TEAM-NET1
 10
293.333333
 20
0.0
 30
770.0
 70
    64
  0
VERTEX
  5
239
  8
TEAM-NET1
 10
323.888889
 20
0.0
 30
770.0
 70
    64
  0
VERTEX
  5
23A
  8
TEAM-NET1
 10
354.444444
 20
0.0
 30
770.0
 70
    64
  0
VERTEX
  5
23B
  8
TEAM-NET1
 10
385.0
 20
0.0
 30
770.0
 70
    64
  0
VERTEX
  5
23C
  8
TEAM-NET1
 10
415.555556
 20
0.0
 30
770.0
 70
    64
  0
VERTEX
  5
23D
  8
TEAM-NET1
 10
446.111111
 20
0.0
 30
770.0
 70
    64
  0
VERTEX
  5
23E
  8
TEAM-NET1
 10
476.666667
 20
0.0
 30
770.0
 70
    64
  0
VERTEX
  5
23F
  8
TEAM-NET1
 10
507.222222
 20
0.0
 30
770.0
 70
    64
  0
VERTEX
  5
240
  8
TEAM-NET1
 10
537.777778
 20
0.0
 30
770.0
 70
    64
  0
VERTEX
  5
241
  8
TEAM-NET1
 10
568.333333
 20
0.0
 30
770.0
 70
    64
  0
VERTEX
  5
242
  8
TEAM-NET1
 10
598.888889
 20
0.0
 30
770.0
 70
    64
  0
VERTEX
  5
243
  8
TEAM-NET1
 10
629.444444
 20
0.0
 30
770.0
 70
    64
  0
VERTEX
  5
244
  8
TEAM-NET1
 10
660.0
 20
0.0
 30
770.0
 70
    64
  0
SEQEND
  5
245
  8
TEAM-NET1
  0
POLYLINE
  5
246
  8
TEAM-NET1
 66
     1
 10
0.0
 20
0.0
 30
0.0
 70
    16
 71
     2
 72
    37
  0
VERTEX
  5
247
  8
TEAM-NET1
 10
-440.0
 20
-550.0
 30
770.0
 70
    64
  0
VERTEX
  5
248
  8
TEAM-NET1
 10
-409.444444
 20
-550.0
 30
770.0
 70
    64
  0
VERTEX
  5
249
  8
TEAM-NET1
 10
-378.888889
 20
-550.0
 30
770.0
 70
    64
  0
VERTEX
  5
24A
  8
TEAM-NET1
 10
-348.333333
 20
-550.0
 30
770.0
 70
    64
  0
VERTEX
  5
24B
  8
TEAM-NET1
 10
-317.777778
 20
-550.0
 30
770.0
 70
    64
  0
VERTEX
  5
24C
  8
TEAM-NET1
 10
-287.222222
 20
-550.0
 30
770.0
 70
    64
  0
VERTEX
  5
24D
  8
TEAM-NET1
 10
-256.666667
 20
-550.0
 30
770.0
 70
    64
  0
VERTEX
  5
24E
  8
TEAM-NET1
 10
-226.111111
 20
-550.0
 30
770.0
 70
    64
  0
VERTEX
  5
24F
  8
TEAM-NET1
 10
-195.555556
 20
-550.0
 30
770.0
 70
    64
  0
VERTEX
  5
250
  8
TEAM-NET1
 10
-165.0
 20
-550.0
 30
770.0
 70
    64
  0
VERTEX
  5
251
  8
TEAM-NET1
 10
-134.444444
 20
-550.0
 30
770.0
 70
    64
  0
VERTEX
  5
252
  8
TEAM-NET1
 10
-103.888889
 20
-550.0
 30
770.0
 70
    64
  0
VERTEX
  5
253
  8
TEAM-NET1
 10
-73.333333
 20
-550.0
 30
770.0
 70
    64
  0
VERTEX
  5
254
  8
TEAM-NET1
 10
-42.777778
 20
-550.0
 30
770.0
 70
    64
  0
VERTEX
  5
255
  8
TEAM-NET1
 10
-12.222222
 20
-550.0
 30
770.0
 70
    64
  0
VERTEX
  5
256
  8
TEAM-NET1
 10
18.333333
 20
-550.0
 30
770.0
 70
    64
  0
VERTEX
  5
257
  8
TEAM-NET1
 10
48.888889
 20
-550.0
 30
770.0
 70
    64
  0
VERTEX
  5
258
  8
TEAM-NET1
 10
79.444444
 20
-550.0
 30
770.0
 70
    64
  0
VERTEX
  5
259
  8
TEAM-NET1
 10
110.0
 20
-550.0
 30
770.0
 70
    64
  0
VERTEX
  5
25A
  8
TEAM-NET1
 10
140.555556
 20
-550.0
 30
770.0
 70
    64
  0
VERTEX
  5
25B
  8
TEAM-NET1
 10
171.111111
 20
-550.0
 30
770.0
 70
    64
  0
VERTEX
  5
25C
  8
TEAM-NET1
 10
201.666667
 20
-550.0
 30
770.0
 70
    64
  0
VERTEX
  5
25D
  8
TEAM-NET1
 10
232.222222
 20
-550.0
 30
770.0
 70
    64
  0
VERTEX
  5
25E
  8
TEAM-NET1
 10
262.777778
 20
-550.0
 30
770.0
 70
    64
  0
VERTEX
  5
25F
  8
TEAM-NET1
 10
293.333333
 20
-550.0
 30
770.0
 70
    64
  0
VERTEX
  5
260
  8
TEAM-NET1
 10
323.888889
 20
-550.0
 30
770.0
 70
    64
  0
VERTEX
  5
261
  8
TEAM-NET1
 10
354.444444
 20
-550.0
 30
770.0
 70
    64
  0
VERTEX
  5
262
  8
TEAM-NET1
 10
385.0
 20
-550.0
 30
770.0
 70
    64
  0
VERTEX
  5
263
  8
TEAM-NET1
 10
415.555556
 20
-550.0
 30
770.0
 70
    64
  0
VERTEX
  5
264
  8
TEAM-NET1
 10
446.111111
 20
-550.0
 30
770.0
 70
    64
  0
VERTEX
  5
265
  8
TEAM-NET1
 10
476.666667
 20
-550.0
 30
770.0
 70
    64
  0
VERTEX
  5
266
  8
TEAM-NET1
 10
507.222222
 20
-550.0
 30
770.0
 70
    64
  0
VERTEX
  5
267
  8
TEAM-NET1
 10
537.777778
 20
-550.0
 30
770.0
 70
    64
  0
VERTEX
  5
268
  8
TEAM-NET1
 10
568.333333
 20
-550.0
 30
770.0
 70
    64
  0
VERTEX
  5
269
  8
TEAM-NET1
 10
598.888889
 20
-550.0
 30
770.0
 70
    64
  0
VERTEX
  5
26A
  8
TEAM-NET1
 10
629.444444
 20
-550.0
 30
770.0
 70
    64
  0
VERTEX
  5
26B
  8
TEAM-NET1
 10
660.0
 20
-550.0
 30
770.0
 70
    64
  0
VERTEX
  5
26C
  8
TEAM-NET1
 10
-440.0
 20
-550.0
 30
800.0
 70
    64
  0
VERTEX
  5
26D
  8
TEAM-NET1
 10
-409.444444
 20
-550.0
 30
800.0
 70
    64
  0
VERTEX
  5
26E
  8
TEAM-NET1
 10
-378.888889
 20
-550.0
 30
800.0
 70
    64
  0
VERTEX
  5
26F
  8
TEAM-NET1
 10
-348.333333
 20
-550.0
 30
800.0
 70
    64
  0
VERTEX
  5
270
  8
TEAM-NET1
 10
-317.777778
 20
-550.0
 30
800.0
 70
    64
  0
VERTEX
  5
271
  8
TEAM-NET1
 10
-287.222222
 20
-550.0
 30
800.0
 70
    64
  0
VERTEX
  5
272
  8
TEAM-NET1
 10
-256.666667
 20
-550.0
 30
800.0
 70
    64
  0
VERTEX
  5
273
  8
TEAM-NET1
 10
-226.111111
 20
-550.0
 30
800.0
 70
    64
  0
VERTEX
  5
274
  8
TEAM-NET1
 10
-195.555556
 20
-550.0
 30
800.0
 70
    64
  0
VERTEX
  5
275
  8
TEAM-NET1
 10
-165.0
 20
-550.0
 30
800.0
 70
    64
  0
VERTEX
  5
276
  8
TEAM-NET1
 10
-134.444444
 20
-550.0
 30
800.0
 70
    64
  0
VERTEX
  5
277
  8
TEAM-NET1
 10
-103.888889
 20
-550.0
 30
800.0
 70
    64
  0
VERTEX
  5
278
  8
TEAM-NET1
 10
-73.333333
 20
-550.0
 30
800.0
 70
    64
  0
VERTEX
  5
279
  8
TEAM-NET1
 10
-42.777778
 20
-550.0
 30
800.0
 70
    64
  0
VERTEX
  5
27A
  8
TEAM-NET1
 10
-12.222222
 20
-550.0
 30
800.0
 70
    64
  0
VERTEX
  5
27B
  8
TEAM-NET1
 10
18.333333
 20
-550.0
 30
800.0
 70
    64
  0
VERTEX
  5
27C
  8
TEAM-NET1
 10
48.888889
 20
-550.0
 30
800.0
 70
    64
  0
VERTEX
  5
27D
  8
TEAM-NET1
 10
79.444444
 20
-550.0
 30
800.0
 70
    64
  0
VERTEX
  5
27E
  8
TEAM-NET1
 10
110.0
 20
-550.0
 30
800.0
 70
    64
  0
VERTEX
  5
27F
  8
TEAM-NET1
 10
140.555556
 20
-550.0
 30
800.0
 70
    64
  0
VERTEX
  5
280
  8
TEAM-NET1
 10
171.111111
 20
-550.0
 30
800.0
 70
    64
  0
VERTEX
  5
281
  8
TEAM-NET1
 10
201.666667
 20
-550.0
 30
800.0
 70
    64
  0
VERTEX
  5
282
  8
TEAM-NET1
 10
232.222222
 20
-550.0
 30
800.0
 70
    64
  0
VERTEX
  5
283
  8
TEAM-NET1
 10
262.777778
 20
-550.0
 30
800.0
 70
    64
  0
VERTEX
  5
284
  8
TEAM-NET1
 10
293.333333
 20
-550.0
 30
800.0
 70
    64
  0
VERTEX
  5
285
  8
TEAM-NET1
 10
323.888889
 20
-550.0
 30
800.0
 70
    64
  0
VERTEX
  5
286
  8
TEAM-NET1
 10
354.444444
 20
-550.0
 30
800.0
 70
    64
  0
VERTEX
  5
287
  8
TEAM-NET1
 10
385.0
 20
-550.0
 30
800.0
 70
    64
  0
VERTEX
  5
288
  8
TEAM-NET1
 10
415.555556
 20
-550.0
 30
800.0
 70
    64
  0
VERTEX
  5
289
  8
TEAM-NET1
 10
446.111111
 20
-550.0
 30
800.0
 70
    64
  0
VERTEX
  5
28A
  8
TEAM-NET1
 10
476.666667
 20
-550.0
 30
800.0
 70
    64
  0
VERTEX
  5
28B
  8
TEAM-NET1
 10
507.222222
 20
-550.0
 30
800.0
 70
    64
  0
VERTEX
  5
28C
  8
TEAM-NET1
 10
537.777778
 20
-550.0
 30
800.0
 70
    64
  0
VERTEX
  5
28D
  8
TEAM-NET1
 10
568.333333
 20
-550.0
 30
800.0
 70
    64
  0
VERTEX
  5
28E
  8
TEAM-NET1
 10
598.888889
 20
-550.0
 30
800.0
 70
    64
  0
VERTEX
  5
28F
  8
TEAM-NET1
 10
629.444444
 20
-550.0
 30
800.0
 70
    64
  0
VERTEX
  5
290
  8
TEAM-NET1
 10
660.0
 20
-550.0
 30
800.0
 70
    64
  0
SEQEND
  5
291
  8
TEAM-NET1
  0
POLYLINE
  5
292
  8
TEAM-NET1
 66
     1
 10
0.0
 20
0.0
 30
0.0
 70
    16
 71
     2
 72
    37
  0
VERTEX
  5
293
  8
TEAM-NET1
 10
-440.0
 20
0.0
 30
800.0
 70
    64
  0
VERTEX
  5
294
  8
TEAM-NET1
 10
-440.0
 20
-15.277778
 30
800.0
 70
    64
  0
VERTEX
  5
295
  8
TEAM-NET1
 10
-440.0
 20
-30.555556
 30
800.0
 70
    64
  0
VERTEX
  5
296
  8
TEAM-NET1
 10
-440.0
 20
-45.833333
 30
800.0
 70
    64
  0
VERTEX
  5
297
  8
TEAM-NET1
 10
-440.0
 20
-61.111111
 30
800.0
 70
    64
  0
VERTEX
  5
298
  8
TEAM-NET1
 10
-440.0
 20
-76.388889
 30
800.0
 70
    64
  0
VERTEX
  5
299
  8
TEAM-NET1
 10
-440.0
 20
-91.666667
 30
800.0
 70
    64
  0
VERTEX
  5
29A
  8
TEAM-NET1
 10
-440.0
 20
-106.944444
 30
800.0
 70
    64
  0
VERTEX
  5
29B
  8
TEAM-NET1
 10
-440.0
 20
-122.222222
 30
800.0
 70
    64
  0
VERTEX
  5
29C
  8
TEAM-NET1
 10
-440.0
 20
-137.5
 30
800.0
 70
    64
  0
VERTEX
  5
29D
  8
TEAM-NET1
 10
-440.0
 20
-152.777778
 30
800.0
 70
    64
  0
VERTEX
  5
29E
  8
TEAM-NET1
 10
-440.0
 20
-168.055556
 30
800.0
 70
    64
  0
VERTEX
  5
29F
  8
TEAM-NET1
 10
-440.0
 20
-183.333333
 30
800.0
 70
    64
  0
VERTEX
  5
2A0
  8
TEAM-NET1
 10
-440.0
 20
-198.611111
 30
800.0
 70
    64
  0
VERTEX
  5
2A1
  8
TEAM-NET1
 10
-440.0
 20
-213.888889
 30
800.0
 70
    64
  0
VERTEX
  5
2A2
  8
TEAM-NET1
 10
-440.0
 20
-229.166667
 30
800.0
 70
    64
  0
VERTEX
  5
2A3
  8
TEAM-NET1
 10
-440.0
 20
-244.444444
 30
800.0
 70
    64
  0
VERTEX
  5
2A4
  8
TEAM-NET1
 10
-440.0
 20
-259.722222
 30
800.0
 70
    64
  0
VERTEX
  5
2A5
  8
TEAM-NET1
 10
-440.0
 20
-275.0
 30
800.0
 70
    64
  0
VERTEX
  5
2A6
  8
TEAM-NET1
 10
-440.0
 20
-290.277778
 30
800.0
 70
    64
  0
VERTEX
  5
2A7
  8
TEAM-NET1
 10
-440.0
 20
-305.555556
 30
800.0
 70
    64
  0
VERTEX
  5
2A8
  8
TEAM-NET1
 10
-440.0
 20
-320.833333
 30
800.0
 70
    64
  0
VERTEX
  5
2A9
  8
TEAM-NET1
 10
-440.0
 20
-336.111111
 30
800.0
 70
    64
  0
VERTEX
  5
2AA
  8
TEAM-NET1
 10
-440.0
 20
-351.388889
 30
800.0
 70
    64
  0
VERTEX
  5
2AB
  8
TEAM-NET1
 10
-440.0
 20
-366.666667
 30
800.0
 70
    64
  0
VERTEX
  5
2AC
  8
TEAM-NET1
 10
-440.0
 20
-381.944444
 30
800.0
 70
    64
  0
VERTEX
  5
2AD
  8
TEAM-NET1
 10
-440.0
 20
-397.222222
 30
800.0
 70
    64
  0
VERTEX
  5
2AE
  8
TEAM-NET1
 10
-440.0
 20
-412.5
 30
800.0
 70
    64
  0
VERTEX
  5
2AF
  8
TEAM-NET1
 10
-440.0
 20
-427.777778
 30
800.0
 70
    64
  0
VERTEX
  5
2B0
  8
TEAM-NET1
 10
-440.0
 20
-443.055556
 30
800.0
 70
    64
  0
VERTEX
  5
2B1
  8
TEAM-NET1
 10
-440.0
 20
-458.333333
 30
800.0
 70
    64
  0
VERTEX
  5
2B2
  8
TEAM-NET1
 10
-440.0
 20
-473.611111
 30
800.0
 70
    64
  0
VERTEX
  5
2B3
  8
TEAM-NET1
 10
-440.0
 20
-488.888889
 30
800.0
 70
    64
  0
VERTEX
  5
2B4
  8
TEAM-NET1
 10
-440.0
 20
-504.166667
 30
800.0
 70
    64
  0
VERTEX
  5
2B5
  8
TEAM-NET1
 10
-440.0
 20
-519.444444
 30
800.0
 70
    64
  0
VERTEX
  5
2B6
  8
TEAM-NET1
 10
-440.0
 20
-534.722222
 30
800.0
 70
    64
  0
VERTEX
  5
2B7
  8
TEAM-NET1
 10
-440.0
 20
-550.0
 30
800.0
 70
    64
  0
VERTEX
  5
2B8
  8
TEAM-NET1
 10
-440.0
 20
0.0
 30
770.0
 70
    64
  0
VERTEX
  5
2B9
  8
TEAM-NET1
 10
-440.0
 20
-15.277778
 30
770.0
 70
    64
  0
VERTEX
  5
2BA
  8
TEAM-NET1
 10
-440.0
 20
-30.555556
 30
770.0
 70
    64
  0
VERTEX
  5
2BB
  8
TEAM-NET1
 10
-440.0
 20
-45.833333
 30
770.0
 70
    64
  0
VERTEX
  5
2BC
  8
TEAM-NET1
 10
-440.0
 20
-61.111111
 30
770.0
 70
    64
  0
VERTEX
  5
2BD
  8
TEAM-NET1
 10
-440.0
 20
-76.388889
 30
770.0
 70
    64
  0
VERTEX
  5
2BE
  8
TEAM-NET1
 10
-440.0
 20
-91.666667
 30
770.0
 70
    64
  0
VERTEX
  5
2BF
  8
TEAM-NET1
 10
-440.0
 20
-106.944444
 30
770.0
 70
    64
  0
VERTEX
  5
2C0
  8
TEAM-NET1
 10
-440.0
 20
-122.222222
 30
770.0
 70
    64
  0
VERTEX
  5
2C1
  8
TEAM-NET1
 10
-440.0
 20
-137.5
 30
770.0
 70
    64
  0
VERTEX
  5
2C2
  8
TEAM-NET1
 10
-440.0
 20
-152.777778
 30
770.0
 70
    64
  0
VERTEX
  5
2C3
  8
TEAM-NET1
 10
-440.0
 20
-168.055556
 30
770.0
 70
    64
  0
VERTEX
  5
2C4
  8
TEAM-NET1
 10
-440.0
 20
-183.333333
 30
770.0
 70
    64
  0
VERTEX
  5
2C5
  8
TEAM-NET1
 10
-440.0
 20
-198.611111
 30
770.0
 70
    64
  0
VERTEX
  5
2C6
  8
TEAM-NET1
 10
-440.0
 20
-213.888889
 30
770.0
 70
    64
  0
VERTEX
  5
2C7
  8
TEAM-NET1
 10
-440.0
 20
-229.166667
 30
770.0
 70
    64
  0
VERTEX
  5
2C8
  8
TEAM-NET1
 10
-440.0
 20
-244.444444
 30
770.0
 70
    64
  0
VERTEX
  5
2C9
  8
TEAM-NET1
 10
-440.0
 20
-259.722222
 30
770.0
 70
    64
  0
VERTEX
  5
2CA
  8
TEAM-NET1
 10
-440.0
 20
-275.0
 30
770.0
 70
    64
  0
VERTEX
  5
2CB
  8
TEAM-NET1
 10
-440.0
 20
-290.277778
 30
770.0
 70
    64
  0
VERTEX
  5
2CC
  8
TEAM-NET1
 10
-440.0
 20
-305.555556
 30
770.0
 70
    64
  0
VERTEX
  5
2CD
  8
TEAM-NET1
 10
-440.0
 20
-320.833333
 30
770.0
 70
    64
  0
VERTEX
  5
2CE
  8
TEAM-NET1
 10
-440.0
 20
-336.111111
 30
770.0
 70
    64
  0
VERTEX
  5
2CF
  8
TEAM-NET1
 10
-440.0
 20
-351.388889
 30
770.0
 70
    64
  0
VERTEX
  5
2D0
  8
TEAM-NET1
 10
-440.0
 20
-366.666667
 30
770.0
 70
    64
  0
VERTEX
  5
2D1
  8
TEAM-NET1
 10
-440.0
 20
-381.944444
 30
770.0
 70
    64
  0
VERTEX
  5
2D2
  8
TEAM-NET1
 10
-440.0
 20
-397.222222
 30
770.0
 70
    64
  0
VERTEX
  5
2D3
  8
TEAM-NET1
 10
-440.0
 20
-412.5
 30
770.0
 70
    64
  0
VERTEX
  5
2D4
  8
TEAM-NET1
 10
-440.0
 20
-427.777778
 30
770.0
 70
    64
  0
VERTEX
  5
2D5
  8
TEAM-NET1
 10
-440.0
 20
-443.055556
 30
770.0
 70
    64
  0
VERTEX
  5
2D6
  8
TEAM-NET1
 10
-440.0
 20
-458.333333
 30
770.0
 70
    64
  0
VERTEX
  5
2D7
  8
TEAM-NET1
 10
-440.0
 20
-473.611111
 30
770.0
 70
    64
  0
VERTEX
  5
2D8
  8
TEAM-NET1
 10
-440.0
 20
-488.888889
 30
770.0
 70
    64
  0
VERTEX
  5
2D9
  8
TEAM-NET1
 10
-440.0
 20
-504.166667
 30
770.0
 70
    64
  0
VERTEX
  5
2DA
  8
TEAM-NET1
 10
-440.0
 20
-519.444444
 30
770.0
 70
    64
  0
VERTEX
  5
2DB
  8
TEAM-NET1
 10
-440.0
 20
-534.722222
 30
770.0
 70
    64
  0
VERTEX
  5
2DC
  8
TEAM-NET1
 10
-440.0
 20
-550.0
 30
770.0
 70
    64
  0
SEQEND
  5
2DD
  8
TEAM-NET1
  0
POLYLINE
  5
2DE
  8
TEAM-NET1
 66
     1
 10
0.0
 20
0.0
 30
0.0
 70
    16
 71
     2
 72
    37
  0
VERTEX
  5
2DF
  8
TEAM-NET1
 10
660.0
 20
-550.0
 30
770.0
 70
    64
  0
VERTEX
  5
2E0
  8
TEAM-NET1
 10
660.0
 20
-534.722222
 30
770.0
 70
    64
  0
VERTEX
  5
2E1
  8
TEAM-NET1
 10
660.0
 20
-519.444444
 30
770.0
 70
    64
  0
VERTEX
  5
2E2
  8
TEAM-NET1
 10
660.0
 20
-504.166667
 30
770.0
 70
    64
  0
VERTEX
  5
2E3
  8
TEAM-NET1
 10
660.0
 20
-488.888889
 30
770.0
 70
    64
  0
VERTEX
  5
2E4
  8
TEAM-NET1
 10
660.0
 20
-473.611111
 30
770.0
 70
    64
  0
VERTEX
  5
2E5
  8
TEAM-NET1
 10
660.0
 20
-458.333333
 30
770.0
 70
    64
  0
VERTEX
  5
2E6
  8
TEAM-NET1
 10
660.0
 20
-443.055556
 30
770.0
 70
    64
  0
VERTEX
  5
2E7
  8
TEAM-NET1
 10
660.0
 20
-427.777778
 30
770.0
 70
    64
  0
VERTEX
  5
2E8
  8
TEAM-NET1
 10
660.0
 20
-412.5
 30
770.0
 70
    64
  0
VERTEX
  5
2E9
  8
TEAM-NET1
 10
660.0
 20
-397.222222
 30
770.0
 70
    64
  0
VERTEX
  5
2EA
  8
TEAM-NET1
 10
660.0
 20
-381.944444
 30
770.0
 70
    64
  0
VERTEX
  5
2EB
  8
TEAM-NET1
 10
660.0
 20
-366.666667
 30
770.0
 70
    64
  0
VERTEX
  5
2EC
  8
TEAM-NET1
 10
660.0
 20
-351.388889
 30
770.0
 70
    64
  0
VERTEX
  5
2ED
  8
TEAM-NET1
 10
660.0
 20
-336.111111
 30
770.0
 70
    64
  0
VERTEX
  5
2EE
  8
TEAM-NET1
 10
660.0
 20
-320.833333
 30
770.0
 70
    64
  0
VERTEX
  5
2EF
  8
TEAM-NET1
 10
660.0
 20
-305.555556
 30
770.0
 70
    64
  0
VERTEX
  5
2F0
  8
TEAM-NET1
 10
660.0
 20
-290.277778
 30
770.0
 70
    64
  0
VERTEX
  5
2F1
  8
TEAM-NET1
 10
660.0
 20
-275.0
 30
770.0
 70
    64
  0
VERTEX
  5
2F2
  8
TEAM-NET1
 10
660.0
 20
-259.722222
 30
770.0
 70
    64
  0
VERTEX
  5
2F3
  8
TEAM-NET1
 10
660.0
 20
-244.444444
 30
770.0
 70
    64
  0
VERTEX
  5
2F4
  8
TEAM-NET1
 10
660.0
 20
-229.166667
 30
770.0
 70
    64
  0
VERTEX
  5
2F5
  8
TEAM-NET1
 10
660.0
 20
-213.888889
 30
770.0
 70
    64
  0
VERTEX
  5
2F6
  8
TEAM-NET1
 10
660.0
 20
-198.611111
 30
770.0
 70
    64
  0
VERTEX
  5
2F7
  8
TEAM-NET1
 10
660.0
 20
-183.333333
 30
770.0
 70
    64
  0
VERTEX
  5
2F8
  8
TEAM-NET1
 10
660.0
 20
-168.055556
 30
770.0
 70
    64
  0
VERTEX
  5
2F9
  8
TEAM-NET1
 10
660.0
 20
-152.777778
 30
770.0
 70
    64
  0
VERTEX
  5
2FA
  8
TEAM-NET1
 10
660.0
 20
-137.5
 30
770.0
 70
    64
  0
VERTEX
  5
2FB
  8
TEAM-NET1
 10
660.0
 20
-122.222222
 30
770.0
 70
    64
  0
VERTEX
  5
2FC
  8
TEAM-NET1
 10
660.0
 20
-106.944444
 30
770.0
 70
    64
  0
VERTEX
  5
2FD
  8
TEAM-NET1
 10
660.0
 20
-91.666667
 30
770.0
 70
    64
  0
VERTEX
  5
2FE
  8
TEAM-NET1
 10
660.0
 20
-76.388889
 30
770.0
 70
    64
  0
VERTEX
  5
2FF
  8
TEAM-NET1
 10
660.0
 20
-61.111111
 30
770.0
 70
    64
  0
VERTEX
  5
300
  8
TEAM-NET1
 10
660.0
 20
-45.833333
 30
770.0
 70
    64
  0
VERTEX
  5
301
  8
TEAM-NET1
 10
660.0
 20
-30.555556
 30
770.0
 70
    64
  0
VERTEX
  5
302
  8
TEAM-NET1
 10
660.0
 20
-15.277778
 30
770.0
 70
    64
  0
VERTEX
  5
303
  8
TEAM-NET1
 10
660.0
 20
0.0
 30
770.0
 70
    64
  0
VERTEX
  5
304
  8
TEAM-NET1
 10
660.0
 20
-550.0
 30
800.0
 70
    64
  0
VERTEX
  5
305
  8
TEAM-NET1
 10
660.0
 20
-534.722222
 30
800.0
 70
    64
  0
VERTEX
  5
306
  8
TEAM-NET1
 10
660.0
 20
-519.444444
 30
800.0
 70
    64
  0
VERTEX
  5
307
  8
TEAM-NET1
 10
660.0
 20
-504.166667
 30
800.0
 70
    64
  0
VERTEX
  5
308
  8
TEAM-NET1
 10
660.0
 20
-488.888889
 30
800.0
 70
    64
  0
VERTEX
  5
309
  8
TEAM-NET1
 10
660.0
 20
-473.611111
 30
800.0
 70
    64
  0
VERTEX
  5
30A
  8
TEAM-NET1
 10
660.0
 20
-458.333333
 30
800.0
 70
    64
  0
VERTEX
  5
30B
  8
TEAM-NET1
 10
660.0
 20
-443.055556
 30
800.0
 70
    64
  0
VERTEX
  5
30C
  8
TEAM-NET1
 10
660.0
 20
-427.777778
 30
800.0
 70
    64
  0
VERTEX
  5
30D
  8
TEAM-NET1
 10
660.0
 20
-412.5
 30
800.0
 70
    64
  0
VERTEX
  5
30E
  8
TEAM-NET1
 10
660.0
 20
-397.222222
 30
800.0
 70
    64
  0
VERTEX
  5
30F
  8
TEAM-NET1
 10
660.0
 20
-381.944444
 30
800.0
 70
    64
  0
VERTEX
  5
310
  8
TEAM-NET1
 10
660.0
 20
-366.666667
 30
800.0
 70
    64
  0
VERTEX
  5
311
  8
TEAM-NET1
 10
660.0
 20
-351.388889
 30
800.0
 70
    64
  0
VERTEX
  5
312
  8
TEAM-NET1
 10
660.0
 20
-336.111111
 30
800.0
 70
    64
  0
VERTEX
  5
313
  8
TEAM-NET1
 10
660.0
 20
-320.833333
 30
800.0
 70
    64
  0
VERTEX
  5
314
  8
TEAM-NET1
 10
660.0
 20
-305.555556
 30
800.0
 70
    64
  0
VERTEX
  5
315
  8
TEAM-NET1
 10
660.0
 20
-290.277778
 30
800.0
 70
    64
  0
VERTEX
  5
316
  8
TEAM-NET1
 10
660.0
 20
-275.0
 30
800.0
 70
    64
  0
VERTEX
  5
317
  8
TEAM-NET1
 10
660.0
 20
-259.722222
 30
800.0
 70
    64
  0
VERTEX
  5
318
  8
TEAM-NET1
 10
660.0
 20
-244.444444
 30
800.0
 70
    64
  0
VERTEX
  5
319
  8
TEAM-NET1
 10
660.0
 20
-229.166667
 30
800.0
 70
    64
  0
VERTEX
  5
31A
  8
TEAM-NET1
 10
660.0
 20
-213.888889
 30
800.0
 70
    64
  0
VERTEX
  5
31B
  8
TEAM-NET1
 10
660.0
 20
-198.611111
 30
800.0
 70
    64
  0
VERTEX
  5
31C
  8
TEAM-NET1
 10
660.0
 20
-183.333333
 30
800.0
 70
    64
  0
VERTEX
  5
31D
  8
TEAM-NET1
 10
660.0
 20
-168.055556
 30
800.0
 70
    64
  0
VERTEX
  5
31E
  8
TEAM-NET1
 10
660.0
 20
-152.777778
 30
800.0
 70
    64
  0
VERTEX
  5
31F
  8
TEAM-NET1
 10
660.0
 20
-137.5
 30
800.0
 70
    64
  0
VERTEX
  5
320
  8
TEAM-NET1
 10
660.0
 20
-122.222222
 30
800.0
 70
    64
  0
VERTEX
  5
321
  8
TEAM-NET1
 10
660.0
 20
-106.944444
 30
800.0
 70
    64
  0
VERTEX
  5
322
  8
TEAM-NET1
 10
660.0
 20
-91.666667
 30
800.0
 70
    64
  0
VERTEX
  5
323
  8
TEAM-NET1
 10
660.0
 20
-76.388889
 30
800.0
 70
    64
  0
VERTEX
  5
324
  8
TEAM-NET1
 10
660.0
 20
-61.111111
 30
800.0
 70
    64
  0
VERTEX
  5
325
  8
TEAM-NET1
 10
660.0
 20
-45.833333
 30
800.0
 70
    64
  0
VERTEX
  5
326
  8
TEAM-NET1
 10
660.0
 20
-30.555556
 30
800.0
 70
    64
  0
VERTEX
  5
327
  8
TEAM-NET1
 10
660.0
 20
-15.277778
 30
800.0
 70
    64
  0
VERTEX
  5
328
  8
TEAM-NET1
 10
660.0
 20
0.0
 30
800.0
 70
    64
  0
SEQEND
  5
329
  8
TEAM-NET1
  0
LINE
  5
32A
  8
TEAM-BODY
 10
-440.0
 20
0.0
 30
770.0
 11
660.0
 21
0.0
 31
770.0
  0
LINE
  5
32B
  8
TEAM-BODY
 10
660.0
 20
-550.0
 30
770.0
 11
-440.0
 21
-550.0
 31
770.0
  0
LINE
  5
32C
  8
TEAM-BODY
 10
-440.0
 20
-550.0
 30
770.0
 11
-440.0
 21
0.0
 31
770.0
  0
LINE
  5
32D
  8
TEAM-BODY
 10
660.0
 20
0.0
 30
770.0
 11
660.0
 21
-550.0
 31
770.0
  0
POLYLINE
  5
32E
  8
TEAM-DET1
 66
     1
 10
0.0
 20
0.0
 30
800.0
  0
VERTEX
  5
5B8
  8
TEAM-DET1
 10
69.601602
 20
-50.0
 30
800.0
  0
VERTEX
  5
5B9
  8
TEAM-DET1
 10
69.601602
 20
-147.616162
 30
800.0
 42
-0.414214
  0
VERTEX
  5
5BA
  8
TEAM-DET1
 10
9.601602
 20
-207.616162
 30
800.0
  0
VERTEX
  5
5BB
  8
TEAM-DET1
 10
-90.0
 20
-207.616162
 30
800.0
  0
SEQEND
  5
5BC
  8
TEAM-DET1
  0
LINE
  5
32F
  8
TEAM-BODY
 10
-440.0
 20
0.0
 30
800.0
 11
660.0
 21
0.0
 31
800.0
  0
POLYLINE
  5
330
  8
TEAM-NET1
 66
     1
 10
0.0
 20
0.0
 30
0.0
 70
    16
 71
     2
 72
    37
  0
VERTEX
  5
331
  8
TEAM-NET1
 10
-440.0
 20
0.0
 30
800.0
 70
    64
  0
VERTEX
  5
332
  8
TEAM-NET1
 10
-409.444444
 20
0.0
 30
800.0
 70
    64
  0
VERTEX
  5
333
  8
TEAM-NET1
 10
-378.888889
 20
0.0
 30
800.0
 70
    64
  0
VERTEX
  5
334
  8
TEAM-NET1
 10
-348.333333
 20
0.0
 30
800.0
 70
    64
  0
VERTEX
  5
335
  8
TEAM-NET1
 10
-317.777778
 20
0.0
 30
800.0
 70
    64
  0
VERTEX
  5
336
  8
TEAM-NET1
 10
-287.222222
 20
0.0
 30
800.0
 70
    64
  0
VERTEX
  5
337
  8
TEAM-NET1
 10
-256.666667
 20
0.0
 30
800.0
 70
    64
  0
VERTEX
  5
338
  8
TEAM-NET1
 10
-226.111111
 20
0.0
 30
800.0
 70
    64
  0
VERTEX
  5
339
  8
TEAM-NET1
 10
-195.555556
 20
0.0
 30
800.0
 70
    64
  0
VERTEX
  5
33A
  8
TEAM-NET1
 10
-165.0
 20
0.0
 30
800.0
 70
    64
  0
VERTEX
  5
33B
  8
TEAM-NET1
 10
-134.444444
 20
0.0
 30
800.0
 70
    64
  0
VERTEX
  5
33C
  8
TEAM-NET1
 10
-103.888889
 20
0.0
 30
800.0
 70
    64
  0
VERTEX
  5
33D
  8
TEAM-NET1
 10
-73.333333
 20
0.0
 30
800.0
 70
    64
  0
VERTEX
  5
33E
  8
TEAM-NET1
 10
-42.777778
 20
0.0
 30
800.0
 70
    64
  0
VERTEX
  5
33F
  8
TEAM-NET1
 10
-12.222222
 20
0.0
 30
800.0
 70
    64
  0
VERTEX
  5
340
  8
TEAM-NET1
 10
18.333333
 20
0.0
 30
800.0
 70
    64
  0
VERTEX
  5
341
  8
TEAM-NET1
 10
48.888889
 20
0.0
 30
800.0
 70
    64
  0
VERTEX
  5
342
  8
TEAM-NET1
 10
79.444444
 20
0.0
 30
800.0
 70
    64
  0
VERTEX
  5
343
  8
TEAM-NET1
 10
110.0
 20
0.0
 30
800.0
 70
    64
  0
VERTEX
  5
344
  8
TEAM-NET1
 10
140.555556
 20
0.0
 30
800.0
 70
    64
  0
VERTEX
  5
345
  8
TEAM-NET1
 10
171.111111
 20
0.0
 30
800.0
 70
    64
  0
VERTEX
  5
346
  8
TEAM-NET1
 10
201.666667
 20
0.0
 30
800.0
 70
    64
  0
VERTEX
  5
347
  8
TEAM-NET1
 10
232.222222
 20
0.0
 30
800.0
 70
    64
  0
VERTEX
  5
348
  8
TEAM-NET1
 10
262.777778
 20
0.0
 30
800.0
 70
    64
  0
VERTEX
  5
349
  8
TEAM-NET1
 10
293.333333
 20
0.0
 30
800.0
 70
    64
  0
VERTEX
  5
34A
  8
TEAM-NET1
 10
323.888889
 20
0.0
 30
800.0
 70
    64
  0
VERTEX
  5
34B
  8
TEAM-NET1
 10
354.444444
 20
0.0
 30
800.0
 70
    64
  0
VERTEX
  5
34C
  8
TEAM-NET1
 10
385.0
 20
0.0
 30
800.0
 70
    64
  0
VERTEX
  5
34D
  8
TEAM-NET1
 10
415.555556
 20
0.0
 30
800.0
 70
    64
  0
VERTEX
  5
34E
  8
TEAM-NET1
 10
446.111111
 20
0.0
 30
800.0
 70
    64
  0
VERTEX
  5
34F
  8
TEAM-NET1
 10
476.666667
 20
0.0
 30
800.0
 70
    64
  0
VERTEX
  5
350
  8
TEAM-NET1
 10
507.222222
 20
0.0
 30
800.0
 70
    64
  0
VERTEX
  5
351
  8
TEAM-NET1
 10
537.777778
 20
0.0
 30
800.0
 70
    64
  0
VERTEX
  5
352
  8
TEAM-NET1
 10
568.333333
 20
0.0
 30
800.0
 70
    64
  0
VERTEX
  5
353
  8
TEAM-NET1
 10
598.888889
 20
0.0
 30
800.0
 70
    64
  0
VERTEX
  5
354
  8
TEAM-NET1
 10
629.444444
 20
0.0
 30
800.0
 70
    64
  0
VERTEX
  5
355
  8
TEAM-NET1
 10
660.0
 20
0.0
 30
800.0
 70
    64
  0
VERTEX
  5
356
  8
TEAM-NET1
 10
10.0
 20
-50.0
 30
800.0
 70
    64
  0
VERTEX
  5
357
  8
TEAM-NET1
 10
24.444444
 20
-50.0
 30
800.0
 70
    64
  0
VERTEX
  5
358
  8
TEAM-NET1
 10
38.888889
 20
-50.0
 30
800.0
 70
    64
  0
VERTEX
  5
359
  8
TEAM-NET1
 10
53.333333
 20
-50.0
 30
800.0
 70
    64
  0
VERTEX
  5
35A
  8
TEAM-NET1
 10
67.777778
 20
-50.0
 30
800.0
 70
    64
  0
VERTEX
  5
35B
  8
TEAM-NET1
 10
82.222222
 20
-50.0
 30
800.0
 70
    64
  0
VERTEX
  5
35C
  8
TEAM-NET1
 10
96.666667
 20
-50.0
 30
800.0
 70
    64
  0
VERTEX
  5
35D
  8
TEAM-NET1
 10
111.111111
 20
-50.0
 30
800.0
 70
    64
  0
VERTEX
  5
35E
  8
TEAM-NET1
 10
125.555556
 20
-50.0
 30
800.0
 70
    64
  0
VERTEX
  5
35F
  8
TEAM-NET1
 10
140.0
 20
-50.0
 30
800.0
 70
    64
  0
VERTEX
  5
360
  8
TEAM-NET1
 10
154.444444
 20
-50.0
 30
800.0
 70
    64
  0
VERTEX
  5
361
  8
TEAM-NET1
 10
168.888889
 20
-50.0
 30
800.0
 70
    64
  0
VERTEX
  5
362
  8
TEAM-NET1
 10
183.333333
 20
-50.0
 30
800.0
 70
    64
  0
VERTEX
  5
363
  8
TEAM-NET1
 10
197.777778
 20
-50.0
 30
800.0
 70
    64
  0
VERTEX
  5
364
  8
TEAM-NET1
 10
212.222222
 20
-50.0
 30
800.0
 70
    64
  0
VERTEX
  5
365
  8
TEAM-NET1
 10
226.666667
 20
-50.0
 30
800.0
 70
    64
  0
VERTEX
  5
366
  8
TEAM-NET1
 10
241.111111
 20
-50.0
 30
800.0
 70
    64
  0
VERTEX
  5
367
  8
TEAM-NET1
 10
255.555556
 20
-50.0
 30
800.0
 70
    64
  0
VERTEX
  5
368
  8
TEAM-NET1
 10
270.0
 20
-50.0
 30
800.0
 70
    64
  0
VERTEX
  5
369
  8
TEAM-NET1
 10
284.444444
 20
-50.0
 30
800.0
 70
    64
  0
VERTEX
  5
36A
  8
TEAM-NET1
 10
298.888889
 20
-50.0
 30
800.0
 70
    64
  0
VERTEX
  5
36B
  8
TEAM-NET1
 10
313.333333
 20
-50.0
 30
800.0
 70
    64
  0
VERTEX
  5
36C
  8
TEAM-NET1
 10
327.777778
 20
-50.0
 30
800.0
 70
    64
  0
VERTEX
  5
36D
  8
TEAM-NET1
 10
342.222222
 20
-50.0
 30
800.0
 70
    64
  0
VERTEX
  5
36E
  8
TEAM-NET1
 10
356.666667
 20
-50.0
 30
800.0
 70
    64
  0
VERTEX
  5
36F
  8
TEAM-NET1
 10
371.111111
 20
-50.0
 30
800.0
 70
    64
  0
VERTEX
  5
370
  8
TEAM-NET1
 10
385.555556
 20
-50.0
 30
800.0
 70
    64
  0
VERTEX
  5
371
  8
TEAM-NET1
 10
400.0
 20
-50.0
 30
800.0
 70
    64
  0
VERTEX
  5
372
  8
TEAM-NET1
 10
414.444444
 20
-50.0
 30
800.0
 70
    64
  0
VERTEX
  5
373
  8
TEAM-NET1
 10
428.888889
 20
-50.0
 30
800.0
 70
    64
  0
VERTEX
  5
374
  8
TEAM-NET1
 10
443.333333
 20
-50.0
 30
800.0
 70
    64
  0
VERTEX
  5
375
  8
TEAM-NET1
 10
457.777778
 20
-50.0
 30
800.0
 70
    64
  0
VERTEX
  5
376
  8
TEAM-NET1
 10
472.222222
 20
-50.0
 30
800.0
 70
    64
  0
VERTEX
  5
377
  8
TEAM-NET1
 10
486.666667
 20
-50.0
 30
800.0
 70
    64
  0
VERTEX
  5
378
  8
TEAM-NET1
 10
501.111111
 20
-50.0
 30
800.0
 70
    64
  0
VERTEX
  5
379
  8
TEAM-NET1
 10
515.555556
 20
-50.0
 30
800.0
 70
    64
  0
VERTEX
  5
37A
  8
TEAM-NET1
 10
530.0
 20
-50.0
 30
800.0
 70
    64
  0
SEQEND
  5
37B
  8
TEAM-NET1
  0
LINE
  5
37C
  8
TEAM-BODY
 10
660.0
 20
-550.0
 30
800.0
 11
-440.0
 21
-550.0
 31
800.0
  0
POLYLINE
  5
37D
  8
TEAM-NET1
 66
     1
 10
0.0
 20
0.0
 30
0.0
 70
    16
 71
     2
 72
    37
  0
VERTEX
  5
37E
  8
TEAM-NET1
 10
-440.0
 20
-550.0
 30
800.0
 70
    64
  0
VERTEX
  5
37F
  8
TEAM-NET1
 10
-409.444444
 20
-550.0
 30
800.0
 70
    64
  0
VERTEX
  5
380
  8
TEAM-NET1
 10
-378.888889
 20
-550.0
 30
800.0
 70
    64
  0
VERTEX
  5
381
  8
TEAM-NET1
 10
-348.333333
 20
-550.0
 30
800.0
 70
    64
  0
VERTEX
  5
382
  8
TEAM-NET1
 10
-317.777778
 20
-550.0
 30
800.0
 70
    64
  0
VERTEX
  5
383
  8
TEAM-NET1
 10
-287.222222
 20
-550.0
 30
800.0
 70
    64
  0
VERTEX
  5
384
  8
TEAM-NET1
 10
-256.666667
 20
-550.0
 30
800.0
 70
    64
  0
VERTEX
  5
385
  8
TEAM-NET1
 10
-226.111111
 20
-550.0
 30
800.0
 70
    64
  0
VERTEX
  5
386
  8
TEAM-NET1
 10
-195.555556
 20
-550.0
 30
800.0
 70
    64
  0
VERTEX
  5
387
  8
TEAM-NET1
 10
-165.0
 20
-550.0
 30
800.0
 70
    64
  0
VERTEX
  5
388
  8
TEAM-NET1
 10
-134.444444
 20
-550.0
 30
800.0
 70
    64
  0
VERTEX
  5
389
  8
TEAM-NET1
 10
-103.888889
 20
-550.0
 30
800.0
 70
    64
  0
VERTEX
  5
38A
  8
TEAM-NET1
 10
-73.333333
 20
-550.0
 30
800.0
 70
    64
  0
VERTEX
  5
38B
  8
TEAM-NET1
 10
-42.777778
 20
-550.0
 30
800.0
 70
    64
  0
VERTEX
  5
38C
  8
TEAM-NET1
 10
-12.222222
 20
-550.0
 30
800.0
 70
    64
  0
VERTEX
  5
38D
  8
TEAM-NET1
 10
18.333333
 20
-550.0
 30
800.0
 70
    64
  0
VERTEX
  5
38E
  8
TEAM-NET1
 10
48.888889
 20
-550.0
 30
800.0
 70
    64
  0
VERTEX
  5
38F
  8
TEAM-NET1
 10
79.444444
 20
-550.0
 30
800.0
 70
    64
  0
VERTEX
  5
390
  8
TEAM-NET1
 10
110.0
 20
-550.0
 30
800.0
 70
    64
  0
VERTEX
  5
391
  8
TEAM-NET1
 10
140.555556
 20
-550.0
 30
800.0
 70
    64
  0
VERTEX
  5
392
  8
TEAM-NET1
 10
171.111111
 20
-550.0
 30
800.0
 70
    64
  0
VERTEX
  5
393
  8
TEAM-NET1
 10
201.666667
 20
-550.0
 30
800.0
 70
    64
  0
VERTEX
  5
394
  8
TEAM-NET1
 10
232.222222
 20
-550.0
 30
800.0
 70
    64
  0
VERTEX
  5
395
  8
TEAM-NET1
 10
262.777778
 20
-550.0
 30
800.0
 70
    64
  0
VERTEX
  5
396
  8
TEAM-NET1
 10
293.333333
 20
-550.0
 30
800.0
 70
    64
  0
VERTEX
  5
397
  8
TEAM-NET1
 10
323.888889
 20
-550.0
 30
800.0
 70
    64
  0
VERTEX
  5
398
  8
TEAM-NET1
 10
354.444444
 20
-550.0
 30
800.0
 70
    64
  0
VERTEX
  5
399
  8
TEAM-NET1
 10
385.0
 20
-550.0
 30
800.0
 70
    64
  0
VERTEX
  5
39A
  8
TEAM-NET1
 10
415.555556
 20
-550.0
 30
800.0
 70
    64
  0
VERTEX
  5
39B
  8
TEAM-NET1
 10
446.111111
 20
-550.0
 30
800.0
 70
    64
  0
VERTEX
  5
39C
  8
TEAM-NET1
 10
476.666667
 20
-550.0
 30
800.0
 70
    64
  0
VERTEX
  5
39D
  8
TEAM-NET1
 10
507.222222
 20
-550.0
 30
800.0
 70
    64
  0
VERTEX
  5
39E
  8
TEAM-NET1
 10
537.777778
 20
-550.0
 30
800.0
 70
    64
  0
VERTEX
  5
39F
  8
TEAM-NET1
 10
568.333333
 20
-550.0
 30
800.0
 70
    64
  0
VERTEX
  5
3A0
  8
TEAM-NET1
 10
598.888889
 20
-550.0
 30
800.0
 70
    64
  0
VERTEX
  5
3A1
  8
TEAM-NET1
 10
629.444444
 20
-550.0
 30
800.0
 70
    64
  0
VERTEX
  5
3A2
  8
TEAM-NET1
 10
660.0
 20
-550.0
 30
800.0
 70
    64
  0
VERTEX
  5
3A3
  8
TEAM-NET1
 10
10.0
 20
-500.0
 30
800.0
 70
    64
  0
VERTEX
  5
3A4
  8
TEAM-NET1
 10
24.444444
 20
-500.0
 30
800.0
 70
    64
  0
VERTEX
  5
3A5
  8
TEAM-NET1
 10
38.888889
 20
-500.0
 30
800.0
 70
    64
  0
VERTEX
  5
3A6
  8
TEAM-NET1
 10
53.333333
 20
-500.0
 30
800.0
 70
    64
  0
VERTEX
  5
3A7
  8
TEAM-NET1
 10
67.777778
 20
-500.0
 30
800.0
 70
    64
  0
VERTEX
  5
3A8
  8
TEAM-NET1
 10
82.222222
 20
-500.0
 30
800.0
 70
    64
  0
VERTEX
  5
3A9
  8
TEAM-NET1
 10
96.666667
 20
-500.0
 30
800.0
 70
    64
  0
VERTEX
  5
3AA
  8
TEAM-NET1
 10
111.111111
 20
-500.0
 30
800.0
 70
    64
  0
VERTEX
  5
3AB
  8
TEAM-NET1
 10
125.555556
 20
-500.0
 30
800.0
 70
    64
  0
VERTEX
  5
3AC
  8
TEAM-NET1
 10
140.0
 20
-500.0
 30
800.0
 70
    64
  0
VERTEX
  5
3AD
  8
TEAM-NET1
 10
154.444444
 20
-500.0
 30
800.0
 70
    64
  0
VERTEX
  5
3AE
  8
TEAM-NET1
 10
168.888889
 20
-500.0
 30
800.0
 70
    64
  0
VERTEX
  5
3AF
  8
TEAM-NET1
 10
183.333333
 20
-500.0
 30
800.0
 70
    64
  0
VERTEX
  5
3B0
  8
TEAM-NET1
 10
197.777778
 20
-500.0
 30
800.0
 70
    64
  0
VERTEX
  5
3B1
  8
TEAM-NET1
 10
212.222222
 20
-500.0
 30
800.0
 70
    64
  0
VERTEX
  5
3B2
  8
TEAM-NET1
 10
226.666667
 20
-500.0
 30
800.0
 70
    64
  0
VERTEX
  5
3B3
  8
TEAM-NET1
 10
241.111111
 20
-500.0
 30
800.0
 70
    64
  0
VERTEX
  5
3B4
  8
TEAM-NET1
 10
255.555556
 20
-500.0
 30
800.0
 70
    64
  0
VERTEX
  5
3B5
  8
TEAM-NET1
 10
270.0
 20
-500.0
 30
800.0
 70
    64
  0
VERTEX
  5
3B6
  8
TEAM-NET1
 10
284.444444
 20
-500.0
 30
800.0
 70
    64
  0
VERTEX
  5
3B7
  8
TEAM-NET1
 10
298.888889
 20
-500.0
 30
800.0
 70
    64
  0
VERTEX
  5
3B8
  8
TEAM-NET1
 10
313.333333
 20
-500.0
 30
800.0
 70
    64
  0
VERTEX
  5
3B9
  8
TEAM-NET1
 10
327.777778
 20
-500.0
 30
800.0
 70
    64
  0
VERTEX
  5
3BA
  8
TEAM-NET1
 10
342.222222
 20
-500.0
 30
800.0
 70
    64
  0
VERTEX
  5
3BB
  8
TEAM-NET1
 10
356.666667
 20
-500.0
 30
800.0
 70
    64
  0
VERTEX
  5
3BC
  8
TEAM-NET1
 10
371.111111
 20
-500.0
 30
800.0
 70
    64
  0
VERTEX
  5
3BD
  8
TEAM-NET1
 10
385.555556
 20
-500.0
 30
800.0
 70
    64
  0
VERTEX
  5
3BE
  8
TEAM-NET1
 10
400.0
 20
-500.0
 30
800.0
 70
    64
  0
VERTEX
  5
3BF
  8
TEAM-NET1
 10
414.444444
 20
-500.0
 30
800.0
 70
    64
  0
VERTEX
  5
3C0
  8
TEAM-NET1
 10
428.888889
 20
-500.0
 30
800.0
 70
    64
  0
VERTEX
  5
3C1
  8
TEAM-NET1
 10
443.333333
 20
-500.0
 30
800.0
 70
    64
  0
VERTEX
  5
3C2
  8
TEAM-NET1
 10
457.777778
 20
-500.0
 30
800.0
 70
    64
  0
VERTEX
  5
3C3
  8
TEAM-NET1
 10
472.222222
 20
-500.0
 30
800.0
 70
    64
  0
VERTEX
  5
3C4
  8
TEAM-NET1
 10
486.666667
 20
-500.0
 30
800.0
 70
    64
  0
VERTEX
  5
3C5
  8
TEAM-NET1
 10
501.111111
 20
-500.0
 30
800.0
 70
    64
  0
VERTEX
  5
3C6
  8
TEAM-NET1
 10
515.555556
 20
-500.0
 30
800.0
 70
    64
  0
VERTEX
  5
3C7
  8
TEAM-NET1
 10
530.0
 20
-500.0
 30
800.0
 70
    64
  0
SEQEND
  5
3C8
  8
TEAM-NET1
  0
LINE
  5
3C9
  8
TEAM-DET1
 10
620.0
 20
-530.0
 30
800.0
 11
-400.0
 21
-530.0
 31
800.0
  0
LINE
  5
3CA
  8
TEAM-DET1
 10
-400.0
 20
-20.0
 30
800.0
 11
620.0
 21
-20.0
 31
800.0
  0
LINE
  5
3CB
  8
TEAM-BODY
 10
-10.0
 20
-50.0
 30
800.0
 11
530.0
 21
-50.0
 31
800.0
  0
LINE
  5
3CC
  8
TEAM-BODY
 10
530.0
 20
-500.0
 30
800.0
 11
-10.0
 21
-500.0
 31
800.0
  0
POLYLINE
  5
3CD
  8
TEAM-BODY
 66
     1
 10
0.0
 20
0.0
 30
800.0
  0
VERTEX
  5
5BD
  8
TEAM-BODY
 10
-10.0
 20
-50.0
 30
800.0
 42
0.414214
  0
VERTEX
  5
5BE
  8
TEAM-BODY
 10
-90.0
 20
-130.0
 30
800.0
  0
VERTEX
  5
5BF
  8
TEAM-BODY
 10
-90.0
 20
-420.0
 30
800.0
 42
0.414214
  0
VERTEX
  5
5C0
  8
TEAM-BODY
 10
-10.0
 20
-500.0
 30
800.0
  0
SEQEND
  5
5C1
  8
TEAM-BODY
  0
ARC
  5
3CE
  8
TEAM-DET1
 10
-400.0
 20
-510.0
 30
800.0
 40
20.0
 50
180.0
 51
270.0
  0
LINE
  5
3CF
  8
TEAM-BODY
 10
-440.0
 20
-550.0
 30
800.0
 11
-440.0
 21
0.0
 31
800.0
  0
POLYLINE
  5
3D0
  8
TEAM-NET1
 66
     1
 10
0.0
 20
0.0
 30
0.0
 70
    16
 71
     2
 72
    37
  0
VERTEX
  5
3D1
  8
TEAM-NET1
 10
-440.0
 20
-550.0
 30
800.0
 70
    64
  0
VERTEX
  5
3D2
  8
TEAM-NET1
 10
-440.0
 20
-534.722222
 30
800.0
 70
    64
  0
VERTEX
  5
3D3
  8
TEAM-NET1
 10
-440.0
 20
-519.444444
 30
800.0
 70
    64
  0
VERTEX
  5
3D4
  8
TEAM-NET1
 10
-440.0
 20
-504.166667
 30
800.0
 70
    64
  0
VERTEX
  5
3D5
  8
TEAM-NET1
 10
-440.0
 20
-488.888889
 30
800.0
 70
    64
  0
VERTEX
  5
3D6
  8
TEAM-NET1
 10
-440.0
 20
-473.611111
 30
800.0
 70
    64
  0
VERTEX
  5
3D7
  8
TEAM-NET1
 10
-440.0
 20
-458.333333
 30
800.0
 70
    64
  0
VERTEX
  5
3D8
  8
TEAM-NET1
 10
-440.0
 20
-443.055556
 30
800.0
 70
    64
  0
VERTEX
  5
3D9
  8
TEAM-NET1
 10
-440.0
 20
-427.777778
 30
800.0
 70
    64
  0
VERTEX
  5
3DA
  8
TEAM-NET1
 10
-440.0
 20
-412.5
 30
800.0
 70
    64
  0
VERTEX
  5
3DB
  8
TEAM-NET1
 10
-440.0
 20
-397.222222
 30
800.0
 70
    64
  0
VERTEX
  5
3DC
  8
TEAM-NET1
 10
-440.0
 20
-381.944444
 30
800.0
 70
    64
  0
VERTEX
  5
3DD
  8
TEAM-NET1
 10
-440.0
 20
-366.666667
 30
800.0
 70
    64
  0
VERTEX
  5
3DE
  8
TEAM-NET1
 10
-440.0
 20
-351.388889
 30
800.0
 70
    64
  0
VERTEX
  5
3DF
  8
TEAM-NET1
 10
-440.0
 20
-336.111111
 30
800.0
 70
    64
  0
VERTEX
  5
3E0
  8
TEAM-NET1
 10
-440.0
 20
-320.833333
 30
800.0
 70
    64
  0
VERTEX
  5
3E1
  8
TEAM-NET1
 10
-440.0
 20
-305.555556
 30
800.0
 70
    64
  0
VERTEX
  5
3E2
  8
TEAM-NET1
 10
-440.0
 20
-290.277778
 30
800.0
 70
    64
  0
VERTEX
  5
3E3
  8
TEAM-NET1
 10
-440.0
 20
-275.0
 30
800.0
 70
    64
  0
VERTEX
  5
3E4
  8
TEAM-NET1
 10
-440.0
 20
-259.722222
 30
800.0
 70
    64
  0
VERTEX
  5
3E5
  8
TEAM-NET1
 10
-440.0
 20
-244.444444
 30
800.0
 70
    64
  0
VERTEX
  5
3E6
  8
TEAM-NET1
 10
-440.0
 20
-229.166667
 30
800.0
 70
    64
  0
VERTEX
  5
3E7
  8
TEAM-NET1
 10
-440.0
 20
-213.888889
 30
800.0
 70
    64
  0
VERTEX
  5
3E8
  8
TEAM-NET1
 10
-440.0
 20
-198.611111
 30
800.0
 70
    64
  0
VERTEX
  5
3E9
  8
TEAM-NET1
 10
-440.0
 20
-183.333333
 30
800.0
 70
    64
  0
VERTEX
  5
3EA
  8
TEAM-NET1
 10
-440.0
 20
-168.055556
 30
800.0
 70
    64
  0
VERTEX
  5
3EB
  8
TEAM-NET1
 10
-440.0
 20
-152.777778
 30
800.0
 70
    64
  0
VERTEX
  5
3EC
  8
TEAM-NET1
 10
-440.0
 20
-137.5
 30
800.0
 70
    64
  0
VERTEX
  5
3ED
  8
TEAM-NET1
 10
-440.0
 20
-122.222222
 30
800.0
 70
    64
  0
VERTEX
  5
3EE
  8
TEAM-NET1
 10
-440.0
 20
-106.944444
 30
800.0
 70
    64
  0
VERTEX
  5
3EF
  8
TEAM-NET1
 10
-440.0
 20
-91.666667
 30
800.0
 70
    64
  0
VERTEX
  5
3F0
  8
TEAM-NET1
 10
-440.0
 20
-76.388889
 30
800.0
 70
    64
  0
VERTEX
  5
3F1
  8
TEAM-NET1
 10
-440.0
 20
-61.111111
 30
800.0
 70
    64
  0
VERTEX
  5
3F2
  8
TEAM-NET1
 10
-440.0
 20
-45.833333
 30
800.0
 70
    64
  0
VERTEX
  5
3F3
  8
TEAM-NET1
 10
-440.0
 20
-30.555556
 30
800.0
 70
    64
  0
VERTEX
  5
3F4
  8
TEAM-NET1
 10
-440.0
 20
-15.277778
 30
800.0
 70
    64
  0
VERTEX
  5
3F5
  8
TEAM-NET1
 10
-440.0
 20
0.0
 30
800.0
 70
    64
  0
VERTEX
  5
3F6
  8
TEAM-NET1
 10
-10.0
 20
-500.0
 30
800.0
 70
    64
  0
VERTEX
  5
3F7
  8
TEAM-NET1
 10
-24.948488
 20
-498.590984
 30
800.0
 70
    64
  0
VERTEX
  5
3F8
  8
TEAM-NET1
 10
-39.37041
 20
-494.413567
 30
800.0
 70
    64
  0
VERTEX
  5
3F9
  8
TEAM-NET1
 10
-52.757747
 20
-487.614903
 30
800.0
 70
    64
  0
VERTEX
  5
3FA
  8
TEAM-NET1
 10
-64.638925
 20
-478.434475
 30
800.0
 70
    64
  0
VERTEX
  5
3FB
  8
TEAM-NET1
 10
-74.595424
 20
-467.195669
 30
800.0
 70
    64
  0
VERTEX
  5
3FC
  8
TEAM-NET1
 10
-82.276523
 20
-454.294376
 30
800.0
 70
    64
  0
VERTEX
  5
3FD
  8
TEAM-NET1
 10
-87.411651
 20
-440.18505
 30
800.0
 70
    64
  0
VERTEX
  5
3FE
  8
TEAM-NET1
 10
-89.819923
 20
-425.364697
 30
800.0
 70
    64
  0
VERTEX
  5
3FF
  8
TEAM-NET1
 10
-90.0
 20
-410.331853
 30
800.0
 70
    64
  0
VERTEX
  5
400
  8
TEAM-NET1
 10
-90.0
 20
-395.294981
 30
800.0
 70
    64
  0
VERTEX
  5
401
  8
TEAM-NET1
 10
-90.0
 20
-380.258108
 30
800.0
 70
    64
  0
VERTEX
  5
402
  8
TEAM-NET1
 10
-90.0
 20
-365.221235
 30
800.0
 70
    64
  0
VERTEX
  5
403
  8
TEAM-NET1
 10
-90.0
 20
-350.184363
 30
800.0
 70
    64
  0
VERTEX
  5
404
  8
TEAM-NET1
 10
-90.0
 20
-335.14749
 30
800.0
 70
    64
  0
VERTEX
  5
405
  8
TEAM-NET1
 10
-90.0
 20
-320.110618
 30
800.0
 70
    64
  0
VERTEX
  5
406
  8
TEAM-NET1
 10
-90.0
 20
-305.073745
 30
800.0
 70
    64
  0
VERTEX
  5
407
  8
TEAM-NET1
 10
-90.0
 20
-290.036873
 30
800.0
 70
    64
  0
VERTEX
  5
408
  8
TEAM-NET1
 10
-90.0
 20
-275.0
 30
800.0
 70
    64
  0
VERTEX
  5
409
  8
TEAM-NET1
 10
-90.0
 20
-259.963127
 30
800.0
 70
    64
  0
VERTEX
  5
40A
  8
TEAM-NET1
 10
-90.0
 20
-244.926255
 30
800.0
 70
    64
  0
VERTEX
  5
40B
  8
TEAM-NET1
 10
-90.0
 20
-229.889382
 30
800.0
 70
    64
  0
VERTEX
  5
40C
  8
TEAM-NET1
 10
-90.0
 20
-214.85251
 30
800.0
 70
    64
  0
VERTEX
  5
40D
  8
TEAM-NET1
 10
-90.0
 20
-199.815637
 30
800.0
 70
    64
  0
VERTEX
  5
40E
  8
TEAM-NET1
 10
-90.0
 20
-184.778765
 30
800.0
 70
    64
  0
VERTEX
  5
40F
  8
TEAM-NET1
 10
-90.0
 20
-169.741892
 30
800.0
 70
    64
  0
VERTEX
  5
410
  8
TEAM-NET1
 10
-90.0
 20
-154.705019
 30
800.0
 70
    64
  0
VERTEX
  5
411
  8
TEAM-NET1
 10
-90.0
 20
-139.668147
 30
800.0
 70
    64
  0
VERTEX
  5
412
  8
TEAM-NET1
 10
-89.819923
 20
-124.635303
 30
800.0
 70
    64
  0
VERTEX
  5
413
  8
TEAM-NET1
 10
-87.411651
 20
-109.81495
 30
800.0
 70
    64
  0
VERTEX
  5
414
  8
TEAM-NET1
 10
-82.276523
 20
-95.705624
 30
800.0
 70
    64
  0
VERTEX
  5
415
  8
TEAM-NET1
 10
-74.595424
 20
-82.804331
 30
800.0
 70
    64
  0
VERTEX
  5
416
  8
TEAM-NET1
 10
-64.638925
 20
-71.565525
 30
800.0
 70
    64
  0
VERTEX
  5
417
  8
TEAM-NET1
 10
-52.757747
 20
-62.385097
 30
800.0
 70
    64
  0
VERTEX
  5
418
  8
TEAM-NET1
 10
-39.37041
 20
-55.586433
 30
800.0
 70
    64
  0
VERTEX
  5
419
  8
TEAM-NET1
 10
-24.948488
 20
-51.409016
 30
800.0
 70
    64
  0
VERTEX
  5
41A
  8
TEAM-NET1
 10
-10.0
 20
-50.0
 30
800.0
 70
    64
  0
SEQEND
  5
41B
  8
TEAM-NET1
  0
LINE
  5
41C
  8
TEAM-DET1
 10
-120.270435
 20
-86.735207
 30
800.0
 11
-386.466824
 21
-86.735207
 31
800.0
  0
LINE
  5
41D
  8
TEAM-DET1
 10
-120.270435
 20
-116.735207
 30
800.0
 11
-386.466824
 21
-116.735207
 31
800.0
  0
LINE
  5
41E
  8
TEAM-DET1
 10
-120.270435
 20
-146.735207
 30
800.0
 11
-386.466824
 21
-146.735207
 31
800.0
  0
LINE
  5
41F
  8
TEAM-DET1
 10
-120.270435
 20
-176.735207
 30
800.0
 11
-386.466824
 21
-176.735207
 31
800.0
  0
LINE
  5
420
  8
TEAM-DET1
 10
-120.270435
 20
-206.735207
 30
800.0
 11
-386.466824
 21
-206.735207
 31
800.0
  0
LINE
  5
421
  8
TEAM-DET1
 10
-120.270435
 20
-236.735207
 30
800.0
 11
-386.466824
 21
-236.735207
 31
800.0
  0
LINE
  5
422
  8
TEAM-DET1
 10
-120.270435
 20
-266.735207
 30
800.0
 11
-386.466824
 21
-266.735207
 31
800.0
  0
LINE
  5
423
  8
TEAM-DET1
 10
-120.270435
 20
-296.735207
 30
800.0
 11
-386.466824
 21
-296.735207
 31
800.0
  0
LINE
  5
424
  8
TEAM-DET1
 10
-120.270435
 20
-326.735207
 30
800.0
 11
-386.466824
 21
-326.735207
 31
800.0
  0
LINE
  5
425
  8
TEAM-DET1
 10
-120.270435
 20
-356.735207
 30
800.0
 11
-386.466824
 21
-356.735207
 31
800.0
  0
LINE
  5
426
  8
TEAM-DET1
 10
-120.270435
 20
-386.735207
 30
800.0
 11
-386.466824
 21
-386.735207
 31
800.0
  0
LINE
  5
427
  8
TEAM-DET1
 10
-120.270435
 20
-416.735207
 30
800.0
 11
-386.466824
 21
-416.735207
 31
800.0
  0
LINE
  5
428
  8
TEAM-DET1
 10
-120.270435
 20
-446.735207
 30
800.0
 11
-386.466824
 21
-446.735207
 31
800.0
  0
LINE
  5
429
  8
TEAM-DET1
 10
-120.270435
 20
-476.735207
 30
800.0
 11
-386.466824
 21
-476.735207
 31
800.0
  0
LINE
  5
42A
  8
TEAM-DET1
 10
-120.270435
 20
-56.735207
 30
800.0
 11
-386.466824
 21
-56.735207
 31
800.0
  0
ARC
  5
42B
  8
TEAM-DET1
 10
-400.0
 20
-40.0
 30
800.0
 40
20.0
 50
90.0
 51
180.0
  0
LINE
  5
42C
  8
TEAM-DET1
 10
-420.0
 20
-510.0
 30
800.0
 11
-420.0
 21
-40.0
 31
800.0
  0
ARC
  5
42D
  8
TEAM-DET1
 10
620.0
 20
-40.0
 30
800.0
 40
20.0
 50
0.0
 51
90.0
  0
ARC
  5
42E
  8
TEAM-DET1
 10
620.0
 20
-510.0
 30
800.0
 40
20.0
 50
270.0
 51
0.0
  0
POLYLINE
  5
42F
  8
TEAM-NET1
 66
     1
 10
0.0
 20
0.0
 30
0.0
 70
    16
 71
     2
 72
    37
  0
VERTEX
  5
430
  8
TEAM-NET1
 10
660.0
 20
-550.0
 30
800.0
 70
    64
  0
VERTEX
  5
431
  8
TEAM-NET1
 10
660.0
 20
-534.722222
 30
800.0
 70
    64
  0
VERTEX
  5
432
  8
TEAM-NET1
 10
660.0
 20
-519.444444
 30
800.0
 70
    64
  0
VERTEX
  5
433
  8
TEAM-NET1
 10
660.0
 20
-504.166667
 30
800.0
 70
    64
  0
VERTEX
  5
434
  8
TEAM-NET1
 10
660.0
 20
-488.888889
 30
800.0
 70
    64
  0
VERTEX
  5
435
  8
TEAM-NET1
 10
660.0
 20
-473.611111
 30
800.0
 70
    64
  0
VERTEX
  5
436
  8
TEAM-NET1
 10
660.0
 20
-458.333333
 30
800.0
 70
    64
  0
VERTEX
  5
437
  8
TEAM-NET1
 10
660.0
 20
-443.055556
 30
800.0
 70
    64
  0
VERTEX
  5
438
  8
TEAM-NET1
 10
660.0
 20
-427.777778
 30
800.0
 70
    64
  0
VERTEX
  5
439
  8
TEAM-NET1
 10
660.0
 20
-412.5
 30
800.0
 70
    64
  0
VERTEX
  5
43A
  8
TEAM-NET1
 10
660.0
 20
-397.222222
 30
800.0
 70
    64
  0
VERTEX
  5
43B
  8
TEAM-NET1
 10
660.0
 20
-381.944444
 30
800.0
 70
    64
  0
VERTEX
  5
43C
  8
TEAM-NET1
 10
660.0
 20
-366.666667
 30
800.0
 70
    64
  0
VERTEX
  5
43D
  8
TEAM-NET1
 10
660.0
 20
-351.388889
 30
800.0
 70
    64
  0
VERTEX
  5
43E
  8
TEAM-NET1
 10
660.0
 20
-336.111111
 30
800.0
 70
    64
  0
VERTEX
  5
43F
  8
TEAM-NET1
 10
660.0
 20
-320.833333
 30
800.0
 70
    64
  0
VERTEX
  5
440
  8
TEAM-NET1
 10
660.0
 20
-305.555556
 30
800.0
 70
    64
  0
VERTEX
  5
441
  8
TEAM-NET1
 10
660.0
 20
-290.277778
 30
800.0
 70
    64
  0
VERTEX
  5
442
  8
TEAM-NET1
 10
660.0
 20
-275.0
 30
800.0
 70
    64
  0
VERTEX
  5
443
  8
TEAM-NET1
 10
660.0
 20
-259.722222
 30
800.0
 70
    64
  0
VERTEX
  5
444
  8
TEAM-NET1
 10
660.0
 20
-244.444444
 30
800.0
 70
    64
  0
VERTEX
  5
445
  8
TEAM-NET1
 10
660.0
 20
-229.166667
 30
800.0
 70
    64
  0
VERTEX
  5
446
  8
TEAM-NET1
 10
660.0
 20
-213.888889
 30
800.0
 70
    64
  0
VERTEX
  5
447
  8
TEAM-NET1
 10
660.0
 20
-198.611111
 30
800.0
 70
    64
  0
VERTEX
  5
448
  8
TEAM-NET1
 10
660.0
 20
-183.333333
 30
800.0
 70
    64
  0
VERTEX
  5
449
  8
TEAM-NET1
 10
660.0
 20
-168.055556
 30
800.0
 70
    64
  0
VERTEX
  5
44A
  8
TEAM-NET1
 10
660.0
 20
-152.777778
 30
800.0
 70
    64
  0
VERTEX
  5
44B
  8
TEAM-NET1
 10
660.0
 20
-137.5
 30
800.0
 70
    64
  0
VERTEX
  5
44C
  8
TEAM-NET1
 10
660.0
 20
-122.222222
 30
800.0
 70
    64
  0
VERTEX
  5
44D
  8
TEAM-NET1
 10
660.0
 20
-106.944444
 30
800.0
 70
    64
  0
VERTEX
  5
44E
  8
TEAM-NET1
 10
660.0
 20
-91.666667
 30
800.0
 70
    64
  0
VERTEX
  5
44F
  8
TEAM-NET1
 10
660.0
 20
-76.388889
 30
800.0
 70
    64
  0
VERTEX
  5
450
  8
TEAM-NET1
 10
660.0
 20
-61.111111
 30
800.0
 70
    64
  0
VERTEX
  5
451
  8
TEAM-NET1
 10
660.0
 20
-45.833333
 30
800.0
 70
    64
  0
VERTEX
  5
452
  8
TEAM-NET1
 10
660.0
 20
-30.555556
 30
800.0
 70
    64
  0
VERTEX
  5
453
  8
TEAM-NET1
 10
660.0
 20
-15.277778
 30
800.0
 70
    64
  0
VERTEX
  5
454
  8
TEAM-NET1
 10
660.0
 20
0.0
 30
800.0
 70
    64
  0
VERTEX
  5
455
  8
TEAM-NET1
 10
530.0
 20
-500.0
 30
800.0
 70
    64
  0
VERTEX
  5
456
  8
TEAM-NET1
 10
544.948488
 20
-498.590984
 30
800.0
 70
    64
  0
VERTEX
  5
457
  8
TEAM-NET1
 10
559.37041
 20
-494.413567
 30
800.0
 70
    64
  0
VERTEX
  5
458
  8
TEAM-NET1
 10
572.757747
 20
-487.614903
 30
800.0
 70
    64
  0
VERTEX
  5
459
  8
TEAM-NET1
 10
584.638925
 20
-478.434475
 30
800.0
 70
    64
  0
VERTEX
  5
45A
  8
TEAM-NET1
 10
594.595424
 20
-467.195669
 30
800.0
 70
    64
  0
VERTEX
  5
45B
  8
TEAM-NET1
 10
602.276523
 20
-454.294376
 30
800.0
 70
    64
  0
VERTEX
  5
45C
  8
TEAM-NET1
 10
607.411651
 20
-440.18505
 30
800.0
 70
    64
  0
VERTEX
  5
45D
  8
TEAM-NET1
 10
609.819923
 20
-425.364697
 30
800.0
 70
    64
  0
VERTEX
  5
45E
  8
TEAM-NET1
 10
610.0
 20
-410.331853
 30
800.0
 70
    64
  0
VERTEX
  5
45F
  8
TEAM-NET1
 10
610.0
 20
-395.294981
 30
800.0
 70
    64
  0
VERTEX
  5
460
  8
TEAM-NET1
 10
610.0
 20
-380.258108
 30
800.0
 70
    64
  0
VERTEX
  5
461
  8
TEAM-NET1
 10
610.0
 20
-365.221235
 30
800.0
 70
    64
  0
VERTEX
  5
462
  8
TEAM-NET1
 10
610.0
 20
-350.184363
 30
800.0
 70
    64
  0
VERTEX
  5
463
  8
TEAM-NET1
 10
610.0
 20
-335.14749
 30
800.0
 70
    64
  0
VERTEX
  5
464
  8
TEAM-NET1
 10
610.0
 20
-320.110618
 30
800.0
 70
    64
  0
VERTEX
  5
465
  8
TEAM-NET1
 10
610.0
 20
-305.073745
 30
800.0
 70
    64
  0
VERTEX
  5
466
  8
TEAM-NET1
 10
610.0
 20
-290.036873
 30
800.0
 70
    64
  0
VERTEX
  5
467
  8
TEAM-NET1
 10
610.0
 20
-275.0
 30
800.0
 70
    64
  0
VERTEX
  5
468
  8
TEAM-NET1
 10
610.0
 20
-259.963127
 30
800.0
 70
    64
  0
VERTEX
  5
469
  8
TEAM-NET1
 10
610.0
 20
-244.926255
 30
800.0
 70
    64
  0
VERTEX
  5
46A
  8
TEAM-NET1
 10
610.0
 20
-229.889382
 30
800.0
 70
    64
  0
VERTEX
  5
46B
  8
TEAM-NET1
 10
610.0
 20
-214.85251
 30
800.0
 70
    64
  0
VERTEX
  5
46C
  8
TEAM-NET1
 10
610.0
 20
-199.815637
 30
800.0
 70
    64
  0
VERTEX
  5
46D
  8
TEAM-NET1
 10
610.0
 20
-184.778765
 30
800.0
 70
    64
  0
VERTEX
  5
46E
  8
TEAM-NET1
 10
610.0
 20
-169.741892
 30
800.0
 70
    64
  0
VERTEX
  5
46F
  8
TEAM-NET1
 10
610.0
 20
-154.705019
 30
800.0
 70
    64
  0
VERTEX
  5
470
  8
TEAM-NET1
 10
610.0
 20
-139.668147
 30
800.0
 70
    64
  0
VERTEX
  5
471
  8
TEAM-NET1
 10
609.819923
 20
-124.635303
 30
800.0
 70
    64
  0
VERTEX
  5
472
  8
TEAM-NET1
 10
607.411651
 20
-109.81495
 30
800.0
 70
    64
  0
VERTEX
  5
473
  8
TEAM-NET1
 10
602.276523
 20
-95.705624
 30
800.0
 70
    64
  0
VERTEX
  5
474
  8
TEAM-NET1
 10
594.595424
 20
-82.804331
 30
800.0
 70
    64
  0
VERTEX
  5
475
  8
TEAM-NET1
 10
584.638925
 20
-71.565525
 30
800.0
 70
    64
  0
VERTEX
  5
476
  8
TEAM-NET1
 10
572.757747
 20
-62.385097
 30
800.0
 70
    64
  0
VERTEX
  5
477
  8
TEAM-NET1
 10
559.37041
 20
-55.586433
 30
800.0
 70
    64
  0
VERTEX
  5
478
  8
TEAM-NET1
 10
544.948488
 20
-51.409016
 30
800.0
 70
    64
  0
VERTEX
  5
479
  8
TEAM-NET1
 10
530.0
 20
-50.0
 30
800.0
 70
    64
  0
SEQEND
  5
47A
  8
TEAM-NET1
  0
POLYLINE
  5
47B
  8
TEAM-BODY
 66
     1
 10
0.0
 20
0.0
 30
800.0
  0
VERTEX
  5
5C2
  8
TEAM-BODY
 10
530.0
 20
-50.0
 30
800.0
 42
-0.414214
  0
VERTEX
  5
5C3
  8
TEAM-BODY
 10
610.0
 20
-130.0
 30
800.0
  0
VERTEX
  5
5C4
  8
TEAM-BODY
 10
610.0
 20
-420.0
 30
800.0
 42
-0.414214
  0
VERTEX
  5
5C5
  8
TEAM-BODY
 10
530.0
 20
-500.0
 30
800.0
  0
SEQEND
  5
5C6
  8
TEAM-BODY
  0
LINE
  5
47C
  8
TEAM-BODY
 10
660.0
 20
0.0
 30
800.0
 11
660.0
 21
-550.0
 31
800.0
  0
LINE
  5
47D
  8
TEAM-DET1
 10
640.0
 20
-40.0
 30
800.0
 11
640.0
 21
-510.0
 31
800.0
  0
TEXT
  5
47E
  8
TEAM-TXT
 10
273.095099
 20
-464.904553
 30
800.0
 40
30.0
  1
team 433301
 41
0.8
 51
15.0
  7
TEAM
  0
LINE
  5
481
  8
TEAM-AXE
 10
336.5
 20
0.0
 30
1030.0
 11
336.5
 21
0.0
 31
1070.0
210
0.0
220
-1.0
230
0.0
  0
LINE
  5
482
  8
TEAM-AXE
 10
183.5
 20
0.0
 30
1030.0
 11
183.5
 21
0.0
 31
1070.0
210
0.0
220
-1.0
230
0.0
  0
CIRCLE
  5
483
  8
TEAM-COLD
 10
336.5
 20
1050.0
 30
0.0
 40
15.0
210
0.0
220
-1.0
230
0.0
  0
CIRCLE
  5
485
  8
TEAM-WARM
 10
183.5
 20
1050.0
 30
0.0
 40
15.0
210
0.0
220
-1.0
230
0.0
  0
CIRCLE
  5
487
  8
TEAM-WARM
 10
183.5
 20
0.0
 30
1050.0
 40
15.0
  0
LINE
  5
488
  8
TEAM-AXE
 10
203.5
 20
0.0
 30
1050.0
 11
163.5
 21
0.0
 31
1050.0
210
0.0
220
-1.0
230
0.0
  0
LINE
  5
489
  8
TEAM-AXE
 10
183.5
 20
-20.0
 30
1050.0
 11
183.5
 21
20.0
 31
1050.0
  0
LINE
  5
48A
  8
TEAM-AXE
 10
203.5
 20
0.0
 30
1050.0
 11
163.5
 21
0.0
 31
1050.0
  0
CIRCLE
  5
48B
  8
TEAM-COLD
 10
336.5
 20
0.0
 30
1050.0
 40
15.0
  0
LINE
  5
48C
  8
TEAM-AXE
 10
356.5
 20
0.0
 30
1050.0
 11
316.5
 21
0.0
 31
1050.0
210
0.0
220
-1.0
230
0.0
  0
LINE
  5
48D
  8
TEAM-AXE
 10
356.5
 20
0.0
 30
1050.0
 11
316.5
 21
0.0
 31
1050.0
  0
LINE
  5
48E
  8
TEAM-AXE
 10
336.5
 20
-20.0
 30
1050.0
 11
336.5
 21
20.0
 31
1050.0
  0
ENDSEC
  0
EOF
