  0
SECTION
  2
HEADER
  9
$ACADVER
  1
AC1009
  9
$INSBASE
 10
0.0
 20
0.0
 30
0.0
  9
$EXTMIN
 10
-1010.038449
 20
-16.551565
 30
-0.034177
  9
$EXTMAX
 10
250.038455
 20
117.884119
 30
1120.034182
  9
$LIMMIN
 10
-1010.038449
 20
-16.551565
  9
$LIMMAX
 10
250.038455
 20
117.884119
  9
$ORTHOMODE
 70
     1
  9
$REGENMODE
 70
     1
  9
$FILLMODE
 70
     1
  9
$QTEXTMODE
 70
     0
  9
$MIRRTEXT
 70
     0
  9
$DRAGMODE
 70
     2
  9
$LTSCALE
 40
50.0
  9
$OSMODE
 70
     0
  9
$ATTMODE
 70
     1
  9
$TEXTSIZE
 40
200.0
  9
$TRACEWID
 40
1.0
  9
$TEXTSTYLE
  7
STANDARD
  9
$CLAYER
  8
TEAM-MAS
  9
$CELTYPE
  6
BYLAYER
  9
$CECOLOR
 62
   256
  9
$DIMSCALE
 40
1.0
  9
$DIMASZ
 40
20.0
  9
$DIMEXO
 40
10.0
  9
$DIMDLI
 40
1.0
  9
$DIMRND
 40
0.0
  9
$DIMDLE
 40
0.0
  9
$DIMEXE
 40
1.0
  9
$DIMTP
 40
0.0
  9
$DIMTM
 40
0.0
  9
$DIMTXT
 40
35.0
  9
$DIMCEN
 40
1.0
  9
$DIMTSZ
 40
0.0
  9
$DIMTOL
 70
     0
  9
$DIMLIM
 70
     0
  9
$DIMTIH
 70
     0
  9
$DIMTOH
 70
     0
  9
$DIMSE1
 70
     0
  9
$DIMSE2
 70
     0
  9
$DIMTAD
 70
     0
  9
$DIMZIN
 70
     0
  9
$DIMBLK
  1

  9
$DIMASO
 70
     1
  9
$DIMSHO
 70
     0
  9
$DIMPOST
  1

  9
$DIMAPOST
  1

  9
$DIMALT
 70
     0
  9
$DIMALTD
 70
     2
  9
$DIMALTF
 40
25.4
  9
$DIMLFAC
 40
1.0
  9
$DIMTOFL
 70
     0
  9
$DIMTVP
 40
0.0
  9
$DIMTIX
 70
     0
  9
$DIMSOXD
 70
     0
  9
$DIMSAH
 70
     0
  9
$DIMBLK1
  1

  9
$DIMBLK2
  1

  9
$DIMSTYLE
  2
TEAM
  9
$DIMCLRD
 70
     9
  9
$DIMCLRE
 70
     9
  9
$DIMCLRT
 70
    11
  9
$DIMTFAC
 40
1.0
  9
$DIMGAP
 40
7.0
  9
$LUNITS
 70
     2
  9
$LUPREC
 70
     1
  9
$SKETCHINC
 40
1.0
  9
$FILLETRAD
 40
50.0
  9
$AUNITS
 70
     0
  9
$AUPREC
 70
     0
  9
$MENU
  1
ROPLANS
  9
$ELEVATION
 40
0.0
  9
$PELEVATION
 40
0.0
  9
$THICKNESS
 40
0.0
  9
$LIMCHECK
 70
     0
  9
$BLIPMODE
 70
     1
  9
$CHAMFERA
 40
0.0
  9
$CHAMFERB
 40
0.0
  9
$SKPOLY
 70
     0
  9
$TDCREATE
 40
2450392.957851
  9
$TDUPDATE
 40
2456118.662559
  9
$TDINDWG
 40
5.307301
  9
$TDUSRTIMER
 40
5.307301
  9
$USRTIMER
 70
     1
  9
$ANGBASE
 50
0.0
  9
$ANGDIR
 70
     0
  9
$PDMODE
 70
     0
  9
$PDSIZE
 40
0.0
  9
$PLINEWID
 40
0.0
  9
$COORDS
 70
     2
  9
$SPLFRAME
 70
     0
  9
$SPLINETYPE
 70
     6
  9
$SPLINESEGS
 70
     8
  9
$ATTDIA
 70
     0
  9
$ATTREQ
 70
     0
  9
$HANDLING
 70
     1
  9
$HANDSEED
  5
1C9
  9
$SURFTAB1
 70
    24
  9
$SURFTAB2
 70
    24
  9
$SURFTYPE
 70
     6
  9
$SURFU
 70
     6
  9
$SURFV
 70
     6
  9
$UCSNAME
  2

  9
$UCSORG
 10
0.0
 20
0.0
 30
0.0
  9
$UCSXDIR
 10
1.0
 20
0.0
 30
0.0
  9
$UCSYDIR
 10
0.0
 20
1.0
 30
0.0
  9
$PUCSNAME
  2

  9
$PUCSORG
 10
0.0
 20
0.0
 30
0.0
  9
$PUCSXDIR
 10
1.0
 20
0.0
 30
0.0
  9
$PUCSYDIR
 10
0.0
 20
1.0
 30
0.0
  9
$USERI1
 70
     0
  9
$USERI2
 70
     0
  9
$USERI3
 70
     0
  9
$USERI4
 70
     0
  9
$USERI5
 70
     0
  9
$USERR1
 40
0.0
  9
$USERR2
 40
0.0
  9
$USERR3
 40
0.0
  9
$USERR4
 40
0.0
  9
$USERR5
 40
0.0
  9
$WORLDVIEW
 70
     1
  9
$SHADEDGE
 70
     0
  9
$SHADEDIF
 70
    70
  9
$TILEMODE
 70
     1
  9
$MAXACTVP
 70
    16
  9
$PLIMCHECK
 70
     0
  9
$PEXTMIN
 10
-0.805942
 20
0.005011
 30
0.0
  9
$PEXTMAX
 10
20.250094
 20
11.356329
 30
0.0
  9
$PLIMMIN
 10
0.0
 20
0.0
  9
$PLIMMAX
 10
12.0
 20
9.0
  9
$UNITMODE
 70
     0
  9
$VISRETAIN
 70
     0
  9
$PLINEGEN
 70
     0
  9
$PSLTSCALE
 70
     0
  0
ENDSEC
  0
SECTION
  2
TABLES
  0
TABLE
  2
VPORT
 70
     2
  0
VPORT
  2
*ACTIVE
 70
     0
 10
0.0
 20
0.0
 11
1.0
 21
1.0
 12
-379.999997
 22
50.666277
 13
0.0
 23
0.0
 14
1.0
 24
1.0
 15
50.0
 25
50.0
 16
0.0
 26
0.0
 36
1.0
 17
0.0
 27
0.0
 37
0.0
 40
661.287784
 41
1.911765
 42
50.0
 43
0.0
 44
0.0
 50
0.0
 51
0.0
 71
     0
 72
   100
 73
     1
 74
     1
 75
     0
 76
     0
 77
     0
 78
     0
  0
ENDTAB
  0
TABLE
  2
LTYPE
 70
     2
  0
LTYPE
  2
CONTINUOUS
 70
     0
  3
Solid Line
 72
    65
 73
     0
 40
0.0
  0
LTYPE
  2
31
 70
     0
  3

 72
    65
 73
     4
 40
2.1
 49
1.5
 49
-0.3
 49
0.0
 49
-0.3
  0
ENDTAB
  0
TABLE
  2
LAYER
 70
     7
  0
LAYER
  2
0
 70
     0
 62
     7
  6
CONTINUOUS
  0
LAYER
  2
TEAM-AXE
 70
     0
 62
    10
  6
31
  0
LAYER
  2
TEAM-MAS
 70
     0
 62
     9
  6
CONTINUOUS
  0
LAYER
  2
TEAM-TXT
 70
     0
 62
    11
  6
CONTINUOUS
  0
LAYER
  2
TEAM-DET2
 70
     0
 62
    11
  6
CONTINUOUS
  0
LAYER
  2
TEAM-DET3
 70
     0
 62
    14
  6
CONTINUOUS
  0
LAYER
  2
TEAM-INSP
 70
     0
 62
     5
  6
CONTINUOUS
  0
ENDTAB
  0
TABLE
  2
STYLE
 70
     2
  0
STYLE
  2
STANDARD
 70
     0
 40
0.0
 41
1.0
 50
0.0
 71
     0
 42
200.0
  3
txt
  4

  0
STYLE
  2
TEAM
 70
     0
 40
0.0
 41
0.8
 50
15.0
 71
     0
 42
7.0
  3
ROMANS.shx
  4

  0
ENDTAB
  0
TABLE
  2
VIEW
 70
     0
  0
ENDTAB
  0
TABLE
  2
UCS
 70
     0
  0
ENDTAB
  0
TABLE
  2
APPID
 70
     1
  0
APPID
  2
ACAD
 70
     0
  0
ENDTAB
  0
TABLE
  2
DIMSTYLE
 70
     1
  0
DIMSTYLE
  2
TEAM
 70
     0
  3

  4

  5

  6

  7

 40
1.0
 41
20.0
 42
10.0
 43
1.0
 44
1.0
 45
0.0
 46
0.0
 47
0.0
 48
0.0
140
35.0
141
1.0
142
0.0
143
25.4
144
1.0
145
0.0
146
1.0
147
7.0
 71
     0
 72
     0
 73
     0
 74
     0
 75
     0
 76
     0
 77
     0
 78
     0
170
     0
171
     2
172
     0
173
     0
174
     0
175
     0
176
     9
177
     9
178
    11
  0
ENDTAB
  0
ENDSEC
  0
SECTION
  2
BLOCKS
  0
BLOCK
  8
0
  2
$MODEL_SPACE
 70
     0
 10
0.0
 20
0.0
 30
0.0
  3
$MODEL_SPACE
  1

  0
ENDBLK
  5
1BB
  8
0
  0
BLOCK
 67
     1
  8
0
  2
$PAPER_SPACE
 70
     0
 10
0.0
 20
0.0
 30
0.0
  3
$PAPER_SPACE
  1

  0
ENDBLK
  5
1B9
 67
     1
  8
0
  0
ENDSEC
  0
SECTION
  2
ENTITIES
  0
LINE
  5
20
  8
TEAM-DET2
 39
-1020.0
 10
184.0
 20
0.0
 30
1120.0
 11
184.0
 21
40.0
 31
1120.0
  0
LINE
  5
22
  8
TEAM-DET2
 39
-1020.0
 10
-184.0
 20
0.0
 30
1120.0
 11
-184.0
 21
40.0
 31
1120.0
  0
POLYLINE
  5
23
  8
TEAM-DET2
 66
     1
 10
0.0
 20
0.0
 30
1080.0
 39
-990.0
  0
VERTEX
  5
1C1
  8
TEAM-DET2
 10
-250.0
 20
40.0
 30
1080.0
  0
VERTEX
  5
1C2
  8
TEAM-DET2
 10
-100.252279
 20
40.0
 30
1080.0
  0
VERTEX
  5
1C3
  8
TEAM-DET2
 10
-100.252279
 20
17.998557
 30
1080.0
  0
VERTEX
  5
1C4
  8
TEAM-DET2
 10
99.751017
 20
17.998557
 30
1080.0
  0
VERTEX
  5
1C5
  8
TEAM-DET2
 10
99.751017
 20
40.0
 30
1080.0
  0
VERTEX
  5
1C6
  8
TEAM-DET2
 10
250.0
 20
40.0
 30
1080.0
  0
SEQEND
  5
1C7
  8
TEAM-DET2
  0
LINE
  5
24
  8
TEAM-DET2
 39
-1120.0
 10
210.0
 20
0.0
 30
1120.0
 11
210.0
 21
40.0
 31
1120.0
  0
LINE
  5
25
  8
TEAM-DET2
 39
-1120.0
 10
250.0
 20
0.0
 30
1120.0
 11
250.0
 21
40.0
 31
1120.0
  0
LINE
  5
26
  8
TEAM-DET2
 39
-1120.0
 10
-210.0
 20
0.0
 30
1120.0
 11
-210.0
 21
40.0
 31
1120.0
  0
LINE
  5
27
  8
TEAM-DET2
 39
-1120.0
 10
-250.0
 20
0.0
 30
1120.0
 11
-250.0
 21
40.0
 31
1120.0
  0
LINE
  5
28
  8
TEAM-DET2
 39
-990.0
 10
210.0
 20
40.0
 30
1080.0
 11
210.0
 21
76.0
 31
1080.0
  0
LINE
  5
29
  8
TEAM-DET2
 39
-990.0
 10
184.0
 20
76.0
 30
1080.0
 11
184.0
 21
75.0
 31
1080.0
  0
LINE
  5
2A
  8
TEAM-DET2
 39
-990.0
 10
209.0
 20
40.0
 30
1080.0
 11
209.0
 21
75.0
 31
1080.0
  0
LINE
  5
2B
  8
TEAM-DET2
 39
-990.0
 10
210.0
 20
76.0
 30
1080.0
 11
184.0
 21
76.0
 31
1080.0
  0
LINE
  5
2C
  8
TEAM-DET2
 39
-990.0
 10
-184.0
 20
76.0
 30
1080.0
 11
-184.0
 21
75.0
 31
1080.0
  0
LINE
  5
2D
  8
TEAM-DET2
 39
-990.0
 10
-210.0
 20
40.0
 30
1080.0
 11
-210.0
 21
76.0
 31
1080.0
  0
LINE
  5
2E
  8
TEAM-DET2
 39
-990.0
 10
-209.0
 20
40.0
 30
1080.0
 11
-209.0
 21
75.0
 31
1080.0
  0
LINE
  5
2F
  8
TEAM-DET2
 39
-990.0
 10
-210.0
 20
76.0
 30
1080.0
 11
-184.0
 21
76.0
 31
1080.0
  0
LINE
  5
30
  8
TEAM-DET2
 39
-990.0
 10
-209.0
 20
75.0
 30
1080.0
 11
209.0
 21
75.0
 31
1080.0
  0
LINE
  5
31
  8
TEAM-DET2
 39
-35.0
 10
-250.0
 20
40.0
 30
100.0
 11
250.0
 21
40.0
 31
100.0
  0
LINE
  5
32
  8
TEAM-DET2
 39
-35.0
 10
-250.0
 20
0.0
 30
100.0
 11
250.0
 21
0.0
 31
100.0
  0
CIRCLE
  5
33
  8
TEAM-INSP
 10
-1000.0
 20
0.0
 30
0.0
 40
10.0
  0
CIRCLE
  5
35
  8
TEAM-INSP
 10
0.0
 20
0.0
 30
0.0
 40
10.0
  0
TEXT
  5
36
  8
TEAM-TXT
 10
-277.946164
 20
87.880016
 30
0.0
 40
30.0
  1
team 871083
 41
0.8
 51
15.0
  7
TEAM
  0
LINE
  5
39
  8
TEAM-AXE
 39
-5.0
 10
150.0
 20
0.0
 30
571.754264
 11
150.0
 21
0.0
 31
597.602984
210
-0.0
220
-1.0
230
0.0
  0
LINE
  5
3C
  8
TEAM-DET3
 39
-5.0
 10
155.25
 20
0.0
 30
580.004264
 11
155.25
 21
0.0
 31
590.004264
210
-0.0
220
-1.0
230
0.0
  0
LINE
  5
3E
  8
TEAM-DET3
 39
-5.0
 10
144.75
 20
0.0
 30
580.004264
 11
144.75
 21
0.0
 31
590.004264
210
-0.0
220
-1.0
230
0.0
  0
LINE
  5
3F
  8
TEAM-AXE
 39
-5.0
 10
-150.0
 20
0.0
 30
576.410054
 11
-150.0
 21
0.0
 31
592.557044
210
-0.0
220
-1.0
230
0.0
  0
ARC
  5
40
  8
TEAM-DET3
 39
-5.0
 10
-145.0
 20
585.004264
 30
0.0
 40
5.25
210
-0.0
220
-1.0
230
0.0
 50
270.0
 51
90.0
  0
ARC
  5
41
  8
TEAM-DET3
 39
-5.0
 10
-155.0
 20
585.004264
 30
0.0
 40
5.25
210
-0.0
220
-1.0
230
0.0
 50
90.0
 51
270.0
  0
ARC
  5
42
  8
TEAM-DET3
 39
-5.0
 10
0.0
 20
400.003646
 30
0.0
 40
31.2
210
-0.0
220
-1.0
230
0.0
 50
180.0
 51
170.000012
  0
ARC
  5
43
  8
TEAM-DET3
 39
-5.0
 10
0.0
 20
400.003646
 30
0.0
 40
31.2
210
-0.0
220
-1.0
230
0.0
 50
180.0
 51
170.000012
  0
ARC
  5
44
  8
TEAM-DET3
 39
-5.0
 10
0.0
 20
400.003646
 30
0.0
 40
31.2
210
-0.0
220
-1.0
230
0.0
 50
180.0
 51
170.000012
  0
ARC
  5
45
  8
TEAM-DET3
 39
-5.0
 10
0.0
 20
400.003646
 30
0.0
 40
31.2
210
-0.0
220
-1.0
230
0.0
 50
180.0
 51
170.000012
  0
ARC
  5
46
  8
TEAM-DET3
 39
-5.0
 10
0.0
 20
400.003646
 30
0.0
 40
37.8
210
-0.0
220
-1.0
230
0.0
 50
180.00001
 51
170.000022
  0
ARC
  5
47
  8
TEAM-DET3
 39
-5.0
 10
0.0
 20
400.003646
 30
0.0
 40
33.2
210
-0.0
220
-1.0
230
0.0
 50
180.0
 51
170.000012
  0
LINE
  5
48
  8
TEAM-DET3
 39
-5.0
 10
-41.447236
 20
0.0
 30
421.003646
 11
-41.447236
 21
0.0
 31
425.003646
210
-0.0
220
-1.0
230
0.0
  0
LINE
  5
49
  8
TEAM-DET3
 39
-5.0
 10
-43.049622
 20
0.0
 30
421.003646
 11
-43.049622
 21
0.0
 31
425.003646
210
-0.0
220
-1.0
230
0.0
  0
LINE
  5
4A
  8
TEAM-DET3
 39
-5.0
 10
-50.552766
 20
0.0
 30
421.003646
 11
-50.552766
 21
0.0
 31
425.003646
210
-0.0
220
-1.0
230
0.0
  0
LINE
  5
4B
  8
TEAM-DET3
 39
-5.0
 10
-47.602386
 20
0.0
 30
421.003646
 11
-47.602386
 21
0.0
 31
425.003646
210
-0.0
220
-1.0
230
0.0
  0
ARC
  5
4C
  8
TEAM-DET3
 39
-5.0
 10
0.0
 20
400.003646
 30
0.0
 40
41.0
210
-0.0
220
-1.0
230
0.0
 50
25.519463
 51
158.447922
  0
LINE
  5
4D
  8
TEAM-AXE
 39
-5.0
 10
0.0
 20
0.0
 30
352.843672
 11
0.0
 21
0.0
 31
447.16368
210
-0.0
220
-1.0
230
0.0
  0
LINE
  5
4E
  8
TEAM-DET3
 39
-5.0
 10
48.5
 20
0.0
 30
378.486678
 11
48.5
 21
0.0
 31
389.520858
210
-0.0
220
-1.0
230
0.0
  0
LINE
  5
4F
  8
TEAM-DET3
 39
-5.0
 10
-52.5
 20
0.0
 30
395.520858
 11
-52.5
 21
0.0
 31
378.486678
210
-0.0
220
-1.0
230
0.0
  0
LINE
  5
50
  8
TEAM-DET3
 39
-5.0
 10
161.854094
 20
0.0
 30
404.090682
 11
145.470306
 21
0.0
 31
375.713118
210
-0.0
220
-1.0
230
0.0
  0
LINE
  5
51
  8
TEAM-DET3
 39
-5.0
 10
-161.854066
 20
0.0
 30
404.090682
 11
-145.470338
 21
0.0
 31
375.713118
210
-0.0
220
-1.0
230
0.0
  0
LINE
  5
52
  8
TEAM-DET3
 39
-40.0
 10
62.651079
 20
26.500363
 30
400.0
 11
-63.152024
 21
26.500363
 31
400.0
  0
LINE
  5
53
  8
TEAM-DET3
 39
-40.0
 10
-43.251107
 20
48.500743
 30
400.0
 11
42.749845
 21
48.500743
 31
400.0
  0
ARC
  5
54
  8
TEAM-DET3
 39
-40.0
 10
-43.241149
 20
28.499206
 30
400.0
 40
20.007741
 50
90.028515
 51
211.645163
  0
ARC
  5
55
  8
TEAM-DET3
 39
-40.0
 10
42.749104
 20
28.504156
 30
400.0
 40
20.002788
 50
328.329432
 51
89.997878
  0
LINE
  5
56
  8
TEAM-DET3
 39
-5.0
 10
-35.812832
 20
0.0
 30
373.905078
 11
-71.974645
 21
0.0
 31
373.905131
210
-0.0
220
-1.0
230
0.0
  0
ARC
  5
57
  8
TEAM-DET3
 39
-5.0
 10
-29.819458
 20
376.47801
 30
0.0
 40
0.500386
210
-0.0
220
-1.0
230
0.0
 50
269.969157
 51
329.993632
  0
LINE
  5
58
  8
TEAM-DET3
 39
-5.0
 10
-29.819702
 20
0.0
 30
375.977584
 11
-53.85492
 21
0.0
 31
375.977584
210
-0.0
220
-1.0
230
0.0
  0
ARC
  5
59
  8
TEAM-DET3
 39
-5.0
 10
-55.5
 20
378.503646
 30
0.0
 40
3.0
210
-0.0
220
-1.0
230
0.0
 50
270.000003
 51
359.977411
  0
ARC
  5
5A
  8
TEAM-DET3
 39
-5.0
 10
51.5
 20
378.503646
 30
0.0
 40
2.999986
210
-0.0
220
-1.0
230
0.0
 50
179.999872
 51
270.000119
  0
ARC
  5
5B
  8
TEAM-DET3
 39
-5.0
 10
51.50061
 20
378.486556
 30
0.0
 40
3.00058
210
-0.0
220
-1.0
230
0.0
 50
179.998422
 51
236.73916
  0
ARC
  5
5C
  8
TEAM-DET3
 39
-5.0
 10
51.526
 20
378.517806
 30
0.0
 40
3.040452
210
-0.0
220
-1.0
230
0.0
 50
236.661293
 51
269.509889
  0
LINE
  5
5D
  8
TEAM-DET3
 39
-5.0
 10
183.75
 20
0.0
 30
344.554458
 11
167.239624
 21
0.0
 31
344.503646
210
-0.0
220
-1.0
230
0.0
  0
LINE
  5
5E
  8
TEAM-DET3
 39
-5.0
 10
141.636566
 20
0.0
 30
375.503646
 11
145.470306
 21
0.0
 31
375.713118
210
-0.0
220
-1.0
230
0.0
  0
LINE
  5
5F
  8
TEAM-DET3
 39
-5.0
 10
51.5
 20
0.0
 30
375.477644
 11
29.819702
 21
0.0
 31
375.477644
210
-0.0
220
-1.0
230
0.0
  0
LINE
  5
60
  8
TEAM-DET3
 39
-5.0
 10
51.5
 20
0.0
 30
375.477644
 11
51.5
 21
0.0
 31
375.503646
210
-0.0
220
-1.0
230
0.0
  0
LINE
  5
61
  8
TEAM-DET3
 39
-5.0
 10
51.5
 20
0.0
 30
375.503646
 11
141.636566
 21
0.0
 31
375.503646
210
-0.0
220
-1.0
230
0.0
  0
ARC
  5
62
  8
TEAM-DET3
 39
-5.0
 10
29.82022
 20
376.477644
 30
0.0
 40
1.000002
210
-0.0
220
-1.0
230
0.0
 50
220.434788
 51
269.970947
  0
ARC
  5
63
  8
TEAM-DET3
 39
-5.0
 10
15.307556
 20
363.601668
 30
0.0
 40
0.999712
210
-0.0
220
-1.0
230
0.0
 50
292.792494
 51
24.993593
  0
LINE
  5
64
  8
TEAM-DET3
 39
-5.0
 10
16.213562
 20
0.0
 30
364.024214
 11
15.510284
 21
0.0
 31
365.532332
210
-0.0
220
-1.0
230
0.0
  0
LINE
  5
65
  8
TEAM-DET3
 39
-5.0
 10
0.511108
 20
0.0
 30
362.207136
 11
0.511108
 21
0.0
 31
360.543074
210
-0.0
220
-1.0
230
0.0
  0
ARC
  5
66
  8
TEAM-DET3
 39
-5.0
 10
1.510254
 20
360.54283
 30
0.0
 40
0.999164
210
-0.0
220
-1.0
230
0.0
 50
179.994424
 51
272.195041
  0
ARC
  5
67
  8
TEAM-DET3
 39
-5.0
 10
0.0
 20
400.003646
 30
0.0
 40
40.488892
210
-0.0
220
-1.0
230
0.0
 50
272.192138
 51
292.807862
  0
LINE
  5
68
  8
TEAM-DET3
 39
-5.0
 10
-0.511108
 20
0.0
 30
362.207136
 11
-0.511108
 21
0.0
 31
360.543074
210
-0.0
220
-1.0
230
0.0
  0
LINE
  5
69
  8
TEAM-DET3
 39
-5.0
 10
-16.213562
 20
0.0
 30
364.024214
 11
-15.510284
 21
0.0
 31
365.532332
210
-0.0
220
-1.0
230
0.0
  0
ARC
  5
6A
  8
TEAM-DET3
 39
-5.0
 10
-15.308106
 20
363.60179
 30
0.0
 40
0.999164
210
-0.0
220
-1.0
230
0.0
 50
154.994177
 51
247.195271
  0
ARC
  5
6B
  8
TEAM-DET3
 39
-5.0
 10
0.0
 20
400.003646
 30
0.0
 40
40.488892
210
-0.0
220
-1.0
230
0.0
 50
247.192136
 51
267.80786
  0
ARC
  5
6C
  8
TEAM-DET3
 39
-5.0
 10
-1.510834
 20
360.542952
 30
0.0
 40
0.999726
210
-0.0
220
-1.0
230
0.0
 50
267.792492
 51
359.993107
  0
ARC
  5
6D
  8
TEAM-DET3
 39
-5.0
 10
18.045592
 20
364.87828
 30
0.0
 40
0.999164
210
-0.0
220
-1.0
230
0.0
 50
204.994177
 51
297.195268
  0
ARC
  5
6E
  8
TEAM-DET3
 39
-5.0
 10
0.0
 20
400.003646
 30
0.0
 40
40.488892
210
-0.0
220
-1.0
230
0.0
 50
297.19214
 51
316.843619
  0
ARC
  5
6F
  8
TEAM-DET3
 39
-5.0
 10
28.807158
 20
372.994734
 30
0.0
 40
1.0004
210
-0.0
220
-1.0
230
0.0
 50
316.7785
 51
16.707618
  0
ARC
  5
70
  8
TEAM-DET3
 39
-5.0
 10
28.808776
 20
372.993026
 30
0.0
 40
0.999386
210
-0.0
220
-1.0
230
0.0
 50
16.828789
 51
90.091747
  0
LINE
  5
71
  8
TEAM-DET3
 39
-5.0
 10
28.80719
 20
0.0
 30
373.992538
 11
27.427398
 21
0.0
 31
373.992538
210
-0.0
220
-1.0
230
0.0
  0
LINE
  5
72
  8
TEAM-DET3
 39
-5.0
 10
17.140014
 20
0.0
 30
364.456222
 11
16.436736
 21
0.0
 31
365.96434
210
-0.0
220
-1.0
230
0.0
  0
ARC
  5
73
  8
TEAM-DET3
 39
-5.0
 10
-18.046082
 20
364.878646
 30
0.0
 40
0.999712
210
-0.0
220
-1.0
230
0.0
 50
242.79249
 51
334.99359
  0
LINE
  5
74
  8
TEAM-DET3
 39
-5.0
 10
-17.139984
 20
0.0
 30
364.456222
 11
-16.436738
 21
0.0
 31
365.96434
210
-0.0
220
-1.0
230
0.0
  0
LINE
  5
75
  8
TEAM-DET3
 39
-5.0
 10
-27.4274
 20
0.0
 30
373.992538
 11
-28.80719
 21
0.0
 31
373.992538
210
-0.0
220
-1.0
230
0.0
  0
ARC
  5
76
  8
TEAM-DET3
 39
-5.0
 10
-28.808778
 20
372.993026
 30
0.0
 40
0.999386
210
-0.0
220
-1.0
230
0.0
 50
89.908254
 51
163.171215
  0
ARC
  5
77
  8
TEAM-DET3
 39
-5.0
 10
-28.80716
 20
372.994734
 30
0.0
 40
1.0004
210
-0.0
220
-1.0
230
0.0
 50
163.292389
 51
223.221499
  0
ARC
  5
78
  8
TEAM-DET3
 39
-5.0
 10
0.0
 20
400.003646
 30
0.0
 40
40.488892
210
-0.0
220
-1.0
230
0.0
 50
223.156383
 51
242.807865
  0
ARC
  5
79
  8
TEAM-DET3
 39
-5.0
 10
0.0
 20
400.003646
 30
0.0
 40
41.598412
210
-0.0
220
-1.0
230
0.0
 50
272.351527
 51
302.837551
  0
ARC
  5
7A
  8
TEAM-DET3
 39
-5.0
 10
1.747558
 20
357.442
 30
0.0
 40
0.999116
210
-0.0
220
-1.0
230
0.0
 50
92.337404
 51
180.014116
  0
LINE
  5
7B
  8
TEAM-DET3
 39
-5.0
 10
0.748412
 20
0.0
 30
357.441756
 11
0.748412
 21
0.0
 31
347.101486
210
-0.0
220
-1.0
230
0.0
  0
ARC
  5
7C
  8
TEAM-DET3
 39
-5.0
 10
1.747528
 20
347.10118
 30
0.0
 40
0.999096
210
-0.0
220
-1.0
230
0.0
 50
179.984205
 51
270.015787
  0
LINE
  5
7D
  8
TEAM-DET3
 39
-5.0
 10
23.09906
 20
0.0
 30
346.102096
 11
1.747802
 21
0.0
 31
346.102096
210
-0.0
220
-1.0
230
0.0
  0
ARC
  5
7E
  8
TEAM-DET3
 39
-5.0
 10
23.099304
 20
347.10118
 30
0.0
 40
0.999096
210
-0.0
220
-1.0
230
0.0
 50
269.984204
 51
0.015783
  0
LINE
  5
7F
  8
TEAM-DET3
 39
-5.0
 10
24.09845
 20
0.0
 30
364.212508
 11
24.09845
 21
0.0
 31
347.101486
210
-0.0
220
-1.0
230
0.0
  0
ARC
  5
80
  8
TEAM-DET3
 39
-5.0
 10
23.099762
 20
364.21385
 30
0.0
 40
0.998534
210
-0.0
220
-1.0
230
0.0
 50
359.924067
 51
122.91348
  0
ARC
  5
81
  8
TEAM-DET3
 39
-5.0
 10
-23.099304
 20
347.10118
 30
0.0
 40
0.999096
210
-0.0
220
-1.0
230
0.0
 50
179.984212
 51
270.015794
  0
LINE
  5
82
  8
TEAM-DET3
 39
-5.0
 10
-1.747804
 20
0.0
 30
346.102096
 11
-23.09906
 21
0.0
 31
346.102096
210
-0.0
220
-1.0
230
0.0
  0
ARC
  5
83
  8
TEAM-DET3
 39
-5.0
 10
-1.747528
 20
347.10118
 30
0.0
 40
0.999096
210
-0.0
220
-1.0
230
0.0
 50
269.984211
 51
0.015796
  0
LINE
  5
84
  8
TEAM-DET3
 39
-5.0
 10
-0.748414
 20
0.0
 30
357.441756
 11
-0.748414
 21
0.0
 31
347.101486
210
-0.0
220
-1.0
230
0.0
  0
ARC
  5
85
  8
TEAM-DET3
 39
-5.0
 10
-1.74756
 20
357.442
 30
0.0
 40
0.999116
210
-0.0
220
-1.0
230
0.0
 50
359.98588
 51
87.662601
  0
ARC
  5
86
  8
TEAM-DET3
 39
-5.0
 10
0.0
 20
400.003646
 30
0.0
 40
41.598412
210
-0.0
220
-1.0
230
0.0
 50
237.162447
 51
267.648478
  0
ARC
  5
87
  8
TEAM-DET3
 39
-5.0
 10
-23.099762
 20
364.21385
 30
0.0
 40
0.998534
210
-0.0
220
-1.0
230
0.0
 50
57.086525
 51
180.075927
  0
LINE
  5
88
  8
TEAM-DET3
 39
-5.0
 10
-24.09845
 20
0.0
 30
364.212508
 11
-24.09845
 21
0.0
 31
347.101486
210
-0.0
220
-1.0
230
0.0
  0
LINE
  5
89
  8
TEAM-DET3
 39
-5.0
 10
-32.947938
 20
0.0
 30
372.68553
 11
-52.455688
 21
0.0
 31
347.71678
210
-0.0
220
-1.0
230
0.0
  0
ARC
  5
8A
  8
TEAM-DET3
 39
-5.0
 10
-51.669922
 20
347.10063
 30
0.0
 40
0.998358
210
-0.0
220
-1.0
230
0.0
 50
141.900348
 51
270.099607
  0
LINE
  5
8B
  8
TEAM-DET3
 39
-5.0
 10
-26.491638
 20
0.0
 30
346.102096
 11
-51.668152
 21
0.0
 31
346.102096
210
-0.0
220
-1.0
230
0.0
  0
ARC
  5
8C
  8
TEAM-DET3
 39
-5.0
 10
-26.491364
 20
347.10118
 30
0.0
 40
0.999096
210
-0.0
220
-1.0
230
0.0
 50
269.984211
 51
0.015796
  0
LINE
  5
8D
  8
TEAM-DET3
 39
-5.0
 10
-25.49225
 20
0.0
 30
366.645614
 11
-25.49225
 21
0.0
 31
347.101486
210
-0.0
220
-1.0
230
0.0
  0
ARC
  5
8E
  8
TEAM-DET3
 39
-5.0
 10
-26.491578
 20
366.645614
 30
0.0
 40
0.999322
210
-0.0
220
-1.0
230
0.0
 50
359.998079
 51
51.546282
  0
ARC
  5
8F
  8
TEAM-DET3
 39
-5.0
 10
0.000244
 20
400.003524
 30
0.0
 40
41.598412
210
-0.0
220
-1.0
230
0.0
 50
220.976033
 51
231.544412
  0
ARC
  5
90
  8
TEAM-DET3
 39
-5.0
 10
-32.1604
 20
372.070906
 30
0.0
 40
0.998974
210
-0.0
220
-1.0
230
0.0
 50
40.949629
 51
142.026409
  0
ARC
  5
91
  8
TEAM-DET3
 39
-5.0
 10
26.491394
 20
347.10118
 30
0.0
 40
0.999096
210
-0.0
220
-1.0
230
0.0
 50
179.984205
 51
270.015787
  0
LINE
  5
92
  8
TEAM-DET3
 39
-5.0
 10
51.668152
 20
0.0
 30
346.102096
 11
26.491638
 21
0.0
 31
346.102096
210
-0.0
220
-1.0
230
0.0
  0
ARC
  5
93
  8
TEAM-DET3
 39
-5.0
 10
51.669922
 20
347.10063
 30
0.0
 40
0.998358
210
-0.0
220
-1.0
230
0.0
 50
269.900398
 51
38.099647
  0
LINE
  5
94
  8
TEAM-DET3
 39
-5.0
 10
32.947936
 20
0.0
 30
372.68553
 11
52.455688
 21
0.0
 31
347.71678
210
-0.0
220
-1.0
230
0.0
  0
ARC
  5
95
  8
TEAM-DET3
 39
-5.0
 10
32.1604
 20
372.070906
 30
0.0
 40
0.998974
210
-0.0
220
-1.0
230
0.0
 50
37.973593
 51
139.050376
  0
ARC
  5
96
  8
TEAM-DET3
 39
-5.0
 10
-0.000244
 20
400.003524
 30
0.0
 40
41.598412
210
-0.0
220
-1.0
230
0.0
 50
308.455586
 51
319.023965
  0
ARC
  5
97
  8
TEAM-DET3
 39
-5.0
 10
26.491576
 20
366.645614
 30
0.0
 40
0.999322
210
-0.0
220
-1.0
230
0.0
 50
128.453717
 51
180.001917
  0
LINE
  5
98
  8
TEAM-DET3
 39
-5.0
 10
25.492248
 20
0.0
 30
366.645614
 11
25.492248
 21
0.0
 31
347.101486
210
-0.0
220
-1.0
230
0.0
  0
ARC
  5
99
  8
TEAM-DET3
 39
-5.0
 10
57.96405
 20
347.101362
 30
0.0
 40
0.999284
210
-0.0
220
-1.0
230
0.0
 50
269.996471
 51
331.503527
  0
LINE
  5
9A
  8
TEAM-DET3
 39
-5.0
 10
58.842284
 20
0.0
 30
346.624618
 11
72.852936
 21
0.0
 31
372.429
210
-0.0
220
-1.0
230
0.0
  0
ARC
  5
9B
  8
TEAM-DET3
 39
-5.0
 10
71.975708
 20
372.906478
 30
0.0
 40
0.998654
210
-0.0
220
-1.0
230
0.0
 50
331.439009
 51
90.060981
  0
LINE
  5
9C
  8
TEAM-DET3
 39
-5.0
 10
71.97464
 20
0.0
 30
373.905256
 11
35.812836
 21
0.0
 31
373.905256
210
-0.0
220
-1.0
230
0.0
  0
ARC
  5
9D
  8
TEAM-DET3
 39
-5.0
 10
35.811096
 20
372.906722
 30
0.0
 40
0.998358
210
-0.0
220
-1.0
230
0.0
 50
89.900393
 51
218.099652
  0
LINE
  5
9E
  8
TEAM-DET3
 39
-5.0
 10
35.02533
 20
0.0
 30
372.290632
 11
55.185912
 21
0.0
 31
346.48619
210
-0.0
220
-1.0
230
0.0
  0
ARC
  5
9F
  8
TEAM-DET3
 39
-5.0
 10
55.973418
 20
347.101424
 30
0.0
 40
0.999318
210
-0.0
220
-1.0
230
0.0
 50
217.997999
 51
270.002004
  0
LINE
  5
A0
  8
TEAM-DET3
 39
-5.0
 10
57.963988
 20
0.0
 30
346.102096
 11
55.97345
 21
0.0
 31
346.102096
210
-0.0
220
-1.0
230
0.0
  0
LINE
  5
A1
  8
TEAM-DET3
 39
-5.0
 10
-80.786378
 20
0.0
 30
372.429
 11
-94.796998
 21
0.0
 31
346.624618
210
-0.0
220
-1.0
230
0.0
  0
ARC
  5
A2
  8
TEAM-DET3
 39
-5.0
 10
-81.663574
 20
372.906478
 30
0.0
 40
0.998654
210
-0.0
220
-1.0
230
0.0
 50
331.439023
 51
90.060981
  0
LINE
  5
A3
  8
TEAM-DET3
 39
-5.0
 10
-81.664612
 20
0.0
 30
373.905256
 11
-111.65503
 21
0.0
 31
373.905256
210
-0.0
220
-1.0
230
0.0
  0
ARC
  5
A4
  8
TEAM-DET3
 39
-5.0
 10
-111.656006
 20
372.906478
 30
0.0
 40
0.998654
210
-0.0
220
-1.0
230
0.0
 50
89.939018
 51
208.560984
  0
LINE
  5
A5
  8
TEAM-DET3
 39
-5.0
 10
-98.522584
 20
0.0
 30
346.624618
 11
-112.533264
 21
0.0
 31
372.429
210
-0.0
220
-1.0
230
0.0
  0
ARC
  5
A6
  8
TEAM-DET3
 39
-5.0
 10
-97.64441
 20
347.101362
 30
0.0
 40
0.999284
210
-0.0
220
-1.0
230
0.0
 50
208.496471
 51
270.003527
  0
LINE
  5
A7
  8
TEAM-DET3
 39
-5.0
 10
-95.675294
 20
0.0
 30
346.102096
 11
-97.644348
 21
0.0
 31
346.102096
210
-0.0
220
-1.0
230
0.0
  0
ARC
  5
A8
  8
TEAM-DET3
 39
-5.0
 10
-95.675172
 20
347.101362
 30
0.0
 40
0.999284
210
-0.0
220
-1.0
230
0.0
 50
269.996471
 51
331.503527
  0
ARC
  5
A9
  8
TEAM-DET3
 39
-5.0
 10
131.496246
 20
347.100814
 30
0.0
 40
0.998654
210
-0.0
220
-1.0
230
0.0
 50
269.939016
 51
28.560987
  0
LINE
  5
AA
  8
TEAM-DET3
 39
-5.0
 10
132.373474
 20
0.0
 30
347.578352
 11
118.362824
 21
0.0
 31
373.382736
210
-0.0
220
-1.0
230
0.0
  0
ARC
  5
AB
  8
TEAM-DET3
 39
-5.0
 10
117.484618
 20
372.90599
 30
0.0
 40
0.999284
210
-0.0
220
-1.0
230
0.0
 50
28.496473
 51
90.003529
  0
LINE
  5
AC
  8
TEAM-DET3
 39
-5.0
 10
117.484558
 20
0.0
 30
373.905256
 11
115.515472
 21
0.0
 31
373.905256
210
-0.0
220
-1.0
230
0.0
  0
ARC
  5
AD
  8
TEAM-DET3
 39
-5.0
 10
115.51541
 20
372.90599
 30
0.0
 40
0.999284
210
-0.0
220
-1.0
230
0.0
 50
89.996473
 51
151.503529
  0
LINE
  5
AE
  8
TEAM-DET3
 39
-5.0
 10
100.626526
 20
0.0
 30
347.578352
 11
114.637176
 21
0.0
 31
373.382736
210
-0.0
220
-1.0
230
0.0
  0
ARC
  5
AF
  8
TEAM-DET3
 39
-5.0
 10
101.503754
 20
347.100814
 30
0.0
 40
0.998654
210
-0.0
220
-1.0
230
0.0
 50
151.439016
 51
270.060982
  0
LINE
  5
B0
  8
TEAM-DET3
 39
-5.0
 10
131.495178
 20
0.0
 30
346.102096
 11
101.504822
 21
0.0
 31
346.102096
210
-0.0
220
-1.0
230
0.0
  0
LINE
  5
B1
  8
TEAM-DET3
 39
-5.0
 10
-60.946168
 20
0.0
 30
347.578352
 11
-74.956788
 21
0.0
 31
373.382736
210
-0.0
220
-1.0
230
0.0
  0
ARC
  5
B2
  8
TEAM-DET3
 39
-5.0
 10
-75.834962
 20
372.90599
 30
0.0
 40
0.999284
210
-0.0
220
-1.0
230
0.0
 50
28.496473
 51
90.003529
  0
LINE
  5
B3
  8
TEAM-DET3
 39
-5.0
 10
-75.835084
 20
0.0
 30
373.905256
 11
-77.804138
 21
0.0
 31
373.905256
210
-0.0
220
-1.0
230
0.0
  0
ARC
  5
B4
  8
TEAM-DET3
 39
-5.0
 10
-77.8042
 20
372.90599
 30
0.0
 40
0.999284
210
-0.0
220
-1.0
230
0.0
 50
89.996473
 51
151.503529
  0
LINE
  5
B5
  8
TEAM-DET3
 39
-5.0
 10
-92.693116
 20
0.0
 30
347.578352
 11
-78.682434
 21
0.0
 31
373.382736
210
-0.0
220
-1.0
230
0.0
  0
ARC
  5
B6
  8
TEAM-DET3
 39
-5.0
 10
-91.815858
 20
347.100814
 30
0.0
 40
0.998654
210
-0.0
220
-1.0
230
0.0
 50
151.439018
 51
270.060982
  0
LINE
  5
B7
  8
TEAM-DET3
 39
-5.0
 10
-61.824464
 20
0.0
 30
346.102096
 11
-91.81482
 21
0.0
 31
346.102096
210
-0.0
220
-1.0
230
0.0
  0
ARC
  5
B8
  8
TEAM-DET3
 39
-5.0
 10
-61.823364
 20
347.100814
 30
0.0
 40
0.998654
210
-0.0
220
-1.0
230
0.0
 50
269.939016
 51
28.560987
  0
ARC
  5
B9
  8
TEAM-DET3
 39
-5.0
 10
97.644408
 20
347.101362
 30
0.0
 40
0.999284
210
-0.0
220
-1.0
230
0.0
 50
269.996471
 51
331.503527
  0
LINE
  5
BA
  8
TEAM-DET3
 39
-5.0
 10
98.522644
 20
0.0
 30
346.624618
 11
112.533264
 21
0.0
 31
372.429
210
-0.0
220
-1.0
230
0.0
  0
ARC
  5
BB
  8
TEAM-DET3
 39
-5.0
 10
111.656066
 20
372.906478
 30
0.0
 40
0.998654
210
-0.0
220
-1.0
230
0.0
 50
331.439009
 51
90.060981
  0
LINE
  5
BC
  8
TEAM-DET3
 39
-5.0
 10
111.654998
 20
0.0
 30
373.905256
 11
81.664612
 21
0.0
 31
373.905256
210
-0.0
220
-1.0
230
0.0
  0
ARC
  5
BD
  8
TEAM-DET3
 39
-5.0
 10
81.663574
 20
372.906478
 30
0.0
 40
0.998654
210
-0.0
220
-1.0
230
0.0
 50
89.939018
 51
208.560982
  0
LINE
  5
BE
  8
TEAM-DET3
 39
-5.0
 10
80.786346
 20
0.0
 30
372.429
 11
94.796996
 21
0.0
 31
346.624618
210
-0.0
220
-1.0
230
0.0
  0
ARC
  5
BF
  8
TEAM-DET3
 39
-5.0
 10
95.6752
 20
347.101362
 30
0.0
 40
0.999284
210
-0.0
220
-1.0
230
0.0
 50
208.496471
 51
270.003527
  0
LINE
  5
C0
  8
TEAM-DET3
 39
-5.0
 10
97.644348
 20
0.0
 30
346.102096
 11
95.675262
 21
0.0
 31
346.102096
210
-0.0
220
-1.0
230
0.0
  0
LINE
  5
C1
  8
TEAM-DET3
 39
-5.0
 10
-100.626526
 20
0.0
 30
347.578352
 11
-114.637208
 21
0.0
 31
373.382736
210
-0.0
220
-1.0
230
0.0
  0
ARC
  5
C2
  8
TEAM-DET3
 39
-5.0
 10
-115.515382
 20
372.90599
 30
0.0
 40
0.999284
210
-0.0
220
-1.0
230
0.0
 50
28.496473
 51
90.003529
  0
LINE
  5
C3
  8
TEAM-DET3
 39
-5.0
 10
-115.515442
 20
0.0
 30
373.905256
 11
-117.484498
 21
0.0
 31
373.905256
210
-0.0
220
-1.0
230
0.0
  0
ARC
  5
C4
  8
TEAM-DET3
 39
-5.0
 10
-117.48462
 20
372.90599
 30
0.0
 40
0.999284
210
-0.0
220
-1.0
230
0.0
 50
89.996473
 51
151.503529
  0
ARC
  5
C5
  8
TEAM-DET3
 39
-5.0
 10
-101.503784
 20
347.100814
 30
0.0
 40
0.998654
210
-0.0
220
-1.0
230
0.0
 50
269.939016
 51
28.560987
  0
ARC
  5
C6
  8
TEAM-DET3
 39
-5.0
 10
137.984618
 20
372.90599
 30
0.0
 40
0.999284
210
-0.0
220
-1.0
230
0.0
 50
28.496473
 51
90.003529
  0
LINE
  5
C7
  8
TEAM-DET3
 39
-5.0
 10
137.984558
 20
0.0
 30
373.905256
 11
121.345032
 21
0.0
 31
373.905256
210
-0.0
220
-1.0
230
0.0
  0
ARC
  5
C8
  8
TEAM-DET3
 39
-5.0
 10
121.343932
 20
372.906478
 30
0.0
 40
0.998654
210
-0.0
220
-1.0
230
0.0
 50
89.939018
 51
208.560982
  0
LINE
  5
C9
  8
TEAM-DET3
 39
-5.0
 10
120.466736
 20
0.0
 30
372.429
 11
134.477386
 21
0.0
 31
346.624618
210
-0.0
220
-1.0
230
0.0
  0
ARC
  5
CA
  8
TEAM-DET3
 39
-5.0
 10
135.35559
 20
347.101362
 30
0.0
 40
0.999284
210
-0.0
220
-1.0
230
0.0
 50
208.496471
 51
270.003527
  0
LINE
  5
CB
  8
TEAM-DET3
 39
-5.0
 10
151.995178
 20
0.0
 30
346.102096
 11
135.355652
 21
0.0
 31
346.102096
210
-0.0
220
-1.0
230
0.0
  0
ARC
  5
CC
  8
TEAM-DET3
 39
-5.0
 10
151.996246
 20
347.100814
 30
0.0
 40
0.998654
210
-0.0
220
-1.0
230
0.0
 50
269.939016
 51
28.560987
  0
LINE
  5
CD
  8
TEAM-DET3
 39
-5.0
 10
138.862824
 20
0.0
 30
373.382736
 11
152.873474
 21
0.0
 31
347.578352
210
-0.0
220
-1.0
230
0.0
  0
ARC
  5
CE
  8
TEAM-DET3
 39
-5.0
 10
91.815856
 20
347.100814
 30
0.0
 40
0.998654
210
-0.0
220
-1.0
230
0.0
 50
269.939016
 51
28.560987
  0
LINE
  5
CF
  8
TEAM-DET3
 39
-5.0
 10
92.693084
 20
0.0
 30
347.578352
 11
78.682434
 21
0.0
 31
373.382736
210
-0.0
220
-1.0
230
0.0
  0
ARC
  5
D0
  8
TEAM-DET3
 39
-5.0
 10
77.804198
 20
372.90599
 30
0.0
 40
0.999284
210
-0.0
220
-1.0
230
0.0
 50
28.496473
 51
90.003529
  0
LINE
  5
D1
  8
TEAM-DET3
 39
-5.0
 10
77.804138
 20
0.0
 30
373.905256
 11
75.835082
 21
0.0
 31
373.905256
210
-0.0
220
-1.0
230
0.0
  0
ARC
  5
D2
  8
TEAM-DET3
 39
-5.0
 10
75.835022
 20
372.90599
 30
0.0
 40
0.999284
210
-0.0
220
-1.0
230
0.0
 50
89.996473
 51
151.503529
  0
LINE
  5
D3
  8
TEAM-DET3
 39
-5.0
 10
60.946136
 20
0.0
 30
347.578352
 11
74.956786
 21
0.0
 31
373.382736
210
-0.0
220
-1.0
230
0.0
  0
ARC
  5
D4
  8
TEAM-DET3
 39
-5.0
 10
61.823364
 20
347.100814
 30
0.0
 40
0.998654
210
-0.0
220
-1.0
230
0.0
 50
151.439016
 51
270.060982
  0
LINE
  5
D5
  8
TEAM-DET3
 39
-5.0
 10
91.814788
 20
0.0
 30
346.102096
 11
61.824432
 21
0.0
 31
346.102096
210
-0.0
220
-1.0
230
0.0
  0
ARC
  5
D6
  8
TEAM-DET3
 39
-5.0
 10
-71.975708
 20
372.906478
 30
0.0
 40
0.998654
210
-0.0
220
-1.0
230
0.0
 50
89.939018
 51
208.560984
  0
LINE
  5
D7
  8
TEAM-DET3
 39
-5.0
 10
-58.842286
 20
0.0
 30
346.624618
 11
-72.852906
 21
0.0
 31
372.429
210
-0.0
220
-1.0
230
0.0
  0
ARC
  5
D8
  8
TEAM-DET3
 39
-5.0
 10
-57.96405
 20
347.101362
 30
0.0
 40
0.999284
210
-0.0
220
-1.0
230
0.0
 50
208.496471
 51
270.003527
  0
LINE
  5
D9
  8
TEAM-DET3
 39
-5.0
 10
-55.97345
 20
0.0
 30
346.102096
 11
-57.96399
 21
0.0
 31
346.102096
210
-0.0
220
-1.0
230
0.0
  0
ARC
  5
DA
  8
TEAM-DET3
 39
-5.0
 10
-55.97339
 20
347.101424
 30
0.0
 40
0.999318
210
-0.0
220
-1.0
230
0.0
 50
269.998001
 51
322.001996
  0
LINE
  5
DB
  8
TEAM-DET3
 39
-5.0
 10
-35.0253
 20
0.0
 30
372.290632
 11
-55.185914
 21
0.0
 31
346.48619
210
-0.0
220
-1.0
230
0.0
  0
ARC
  5
DC
  8
TEAM-DET3
 39
-5.0
 10
-35.811096
 20
372.906722
 30
0.0
 40
0.998358
210
-0.0
220
-1.0
230
0.0
 50
321.900349
 51
90.099612
  0
LINE
  5
DD
  8
TEAM-DET3
 39
-5.0
 10
-141.636536
 20
0.0
 30
375.503646
 11
-145.470338
 21
0.0
 31
375.713118
210
-0.0
220
-1.0
230
0.0
  0
LINE
  5
DE
  8
TEAM-DET3
 39
-5.0
 10
-135.355652
 20
0.0
 30
346.102096
 11
-151.995178
 21
0.0
 31
346.102096
210
-0.0
220
-1.0
230
0.0
  0
ARC
  5
DF
  8
TEAM-DET3
 39
-5.0
 10
-135.355592
 20
347.101362
 30
0.0
 40
0.999284
210
-0.0
220
-1.0
230
0.0
 50
269.996471
 51
331.503527
  0
LINE
  5
E0
  8
TEAM-DET3
 39
-5.0
 10
-120.466736
 20
0.0
 30
372.429
 11
-134.477356
 21
0.0
 31
346.624618
210
-0.0
220
-1.0
230
0.0
  0
ARC
  5
E1
  8
TEAM-DET3
 39
-5.0
 10
-121.343934
 20
372.906478
 30
0.0
 40
0.998654
210
-0.0
220
-1.0
230
0.0
 50
331.439023
 51
90.060981
  0
LINE
  5
E2
  8
TEAM-DET3
 39
-5.0
 10
-121.344972
 20
0.0
 30
373.905256
 11
-137.984498
 21
0.0
 31
373.905256
210
-0.0
220
-1.0
230
0.0
  0
ARC
  5
E3
  8
TEAM-DET3
 39
-5.0
 10
-137.98462
 20
372.90599
 30
0.0
 40
0.999284
210
-0.0
220
-1.0
230
0.0
 50
89.996473
 51
151.503529
  0
LINE
  5
E4
  8
TEAM-DET3
 39
-5.0
 10
-138.862794
 20
0.0
 30
373.382736
 11
-152.873474
 21
0.0
 31
347.578352
210
-0.0
220
-1.0
230
0.0
  0
ARC
  5
E5
  8
TEAM-DET3
 39
-5.0
 10
-151.996216
 20
347.100814
 30
0.0
 40
0.998654
210
-0.0
220
-1.0
230
0.0
 50
151.439018
 51
270.060982
  0
ARC
  5
E6
  8
TEAM-DET3
 39
-5.0
 10
-131.496216
 20
347.100814
 30
0.0
 40
0.998654
210
-0.0
220
-1.0
230
0.0
 50
151.439018
 51
270.060982
  0
LINE
  5
E7
  8
TEAM-DET3
 39
-5.0
 10
-55.5
 20
0.0
 30
375.503646
 11
-141.636536
 21
0.0
 31
375.503646
210
-0.0
220
-1.0
230
0.0
  0
LINE
  5
E8
  8
TEAM-DET3
 39
-5.0
 10
167.239624
 20
0.0
 30
344.503646
 11
-183.75
 21
0.0
 31
344.503646
210
-0.0
220
-1.0
230
0.0
  0
LINE
  5
E9
  8
TEAM-DET3
 39
-5.0
 10
-132.373474
 20
0.0
 30
347.578352
 11
-118.362794
 21
0.0
 31
373.382736
210
-0.0
220
-1.0
230
0.0
  0
LINE
  5
EA
  8
TEAM-DET3
 39
-5.0
 10
-101.504822
 20
0.0
 30
346.102096
 11
-131.495178
 21
0.0
 31
346.102096
210
-0.0
220
-1.0
230
0.0
  0
ARC
  5
EB
  8
TEAM-DET3
 39
-5.0
 10
164.354614
 20
402.657454
 30
0.0
 40
2.881768
210
-0.0
220
-1.0
230
0.0
 50
89.820416
 51
150.17959
  0
LINE
  5
EC
  8
TEAM-DET3
 39
-5.0
 10
-37.799988
 20
0.0
 30
400.003646
 11
-33.200012
 21
0.0
 31
400.003646
210
-0.0
220
-1.0
230
0.0
  0
LINE
  5
ED
  8
TEAM-DET3
 39
-5.0
 10
-37.225708
 20
0.0
 30
406.56761
 11
-32.695618
 21
0.0
 31
405.768782
210
-0.0
220
-1.0
230
0.0
  0
LINE
  5
EE
  8
TEAM-DET3
 39
-5.0
 10
-33.200012
 20
0.0
 30
400.003646
 11
-31.200012
 21
0.0
 31
400.003646
210
-0.0
220
-1.0
230
0.0
  0
LINE
  5
EF
  8
TEAM-DET3
 39
-5.0
 10
-32.695618
 20
0.0
 30
405.768782
 11
-30.726014
 21
0.0
 31
405.421492
210
-0.0
220
-1.0
230
0.0
  0
LINE
  5
F0
  8
TEAM-DET3
 39
-5.0
 10
-41.188844
 20
0.0
 30
395.503646
 11
-52.274658
 21
0.0
 31
395.503646
210
-0.0
220
-1.0
230
0.0
  0
LINE
  5
F1
  8
TEAM-DET3
 39
-5.0
 10
-52.274658
 20
0.0
 30
396.003646
 11
-41.188844
 21
0.0
 31
396.003646
210
-0.0
220
-1.0
230
0.0
  0
ARC
  5
F2
  8
TEAM-DET3
 39
-5.0
 10
-52.274658
 20
396.503646
 30
0.0
 40
0.5
210
-0.0
220
-1.0
230
0.0
 50
180.0
 51
270.000003
  0
ARC
  5
F3
  8
TEAM-DET3
 39
-5.0
 10
-41.188844
 20
395.003646
 30
0.0
 40
1.0
210
-0.0
220
-1.0
230
0.0
 50
44.999996
 51
90.000001
  0
LINE
  5
F4
  8
TEAM-DET3
 39
-5.0
 10
-52.774658
 20
0.0
 30
398.503646
 11
-52.774658
 21
0.0
 31
396.503646
210
-0.0
220
-1.0
230
0.0
  0
LINE
  5
F5
  8
TEAM-DET3
 39
-5.0
 10
-38.274658
 20
0.0
 30
399.003646
 11
-52.274658
 21
0.0
 31
399.003646
210
-0.0
220
-1.0
230
0.0
  0
LINE
  5
F6
  8
TEAM-DET3
 39
-5.0
 10
-38.274658
 20
0.0
 30
399.503646
 11
-38.274658
 21
0.0
 31
399.003646
210
-0.0
220
-1.0
230
0.0
  0
LINE
  5
F7
  8
TEAM-DET3
 39
-5.0
 10
-52.274658
 20
0.0
 30
399.503646
 11
-38.274658
 21
0.0
 31
399.503646
210
-0.0
220
-1.0
230
0.0
  0
ARC
  5
F8
  8
TEAM-DET3
 39
-5.0
 10
-52.274658
 20
398.503646
 30
0.0
 40
1.0
210
-0.0
220
-1.0
230
0.0
 50
90.000001
 51
180.00001
  0
LINE
  5
F9
  8
TEAM-DET3
 39
-5.0
 10
-53.274658
 20
0.0
 30
396.503646
 11
-53.274658
 21
0.0
 31
398.503646
210
-0.0
220
-1.0
230
0.0
  0
ARC
  5
FA
  8
TEAM-DET3
 39
-5.0
 10
-52.274658
 20
396.503646
 30
0.0
 40
1.0
210
-0.0
220
-1.0
230
0.0
 50
180.0
 51
270.000003
  0
LINE
  5
FB
  8
TEAM-DET3
 39
-5.0
 10
-39.006898
 20
0.0
 30
393.528792
 11
-40.835298
 21
0.0
 31
395.357222
210
-0.0
220
-1.0
230
0.0
  0
LINE
  5
FC
  8
TEAM-DET3
 39
-5.0
 10
-38.65332
 20
0.0
 30
393.882368
 11
-39.006898
 21
0.0
 31
393.528792
210
-0.0
220
-1.0
230
0.0
  0
LINE
  5
FD
  8
TEAM-DET3
 39
-5.0
 10
-40.48175
 20
0.0
 30
395.710798
 11
-38.65332
 21
0.0
 31
393.882368
210
-0.0
220
-1.0
230
0.0
  0
ARC
  5
FE
  8
TEAM-DET3
 39
-5.0
 10
-41.188844
 20
395.003646
 30
0.0
 40
0.5
210
-0.0
220
-1.0
230
0.0
 50
44.999996
 51
90.000001
  0
ARC
  5
FF
  8
TEAM-DET3
 39
-5.0
 10
-52.274658
 20
398.503646
 30
0.0
 40
0.5
210
-0.0
220
-1.0
230
0.0
 50
90.000001
 51
180.00001
  0
LINE
  5
100
  8
TEAM-DET3
 39
-5.0
 10
-44.399994
 20
0.0
 30
382.003646
 11
-43.599976
 21
0.0
 31
382.46556
210
-0.0
220
-1.0
230
0.0
  0
LINE
  5
101
  8
TEAM-DET3
 39
-5.0
 10
-47.599976
 20
0.0
 30
382.003646
 11
-48.399994
 21
0.0
 31
382.46556
210
-0.0
220
-1.0
230
0.0
  0
LINE
  5
102
  8
TEAM-DET3
 39
-5.0
 10
-43.599976
 20
0.0
 30
382.46556
 11
-43.599976
 21
0.0
 31
386.541792
210
-0.0
220
-1.0
230
0.0
  0
LINE
  5
103
  8
TEAM-DET3
 39
-5.0
 10
-48.399994
 20
0.0
 30
382.46556
 11
-48.399994
 21
0.0
 31
386.541792
210
-0.0
220
-1.0
230
0.0
  0
LINE
  5
104
  8
TEAM-DET3
 39
-5.0
 10
-44.399994
 20
0.0
 30
387.003646
 11
-43.599976
 21
0.0
 31
386.541792
210
-0.0
220
-1.0
230
0.0
  0
LINE
  5
105
  8
TEAM-DET3
 39
-5.0
 10
-47.599976
 20
0.0
 30
387.003646
 11
-48.399994
 21
0.0
 31
386.541792
210
-0.0
220
-1.0
230
0.0
  0
LINE
  5
106
  8
TEAM-DET3
 39
-5.0
 10
-44.399994
 20
0.0
 30
387.003646
 11
-44.399994
 21
0.0
 31
390.003646
210
-0.0
220
-1.0
230
0.0
  0
LINE
  5
107
  8
TEAM-DET3
 39
-5.0
 10
-47.599976
 20
0.0
 30
387.003646
 11
-47.599976
 21
0.0
 31
390.003646
210
-0.0
220
-1.0
230
0.0
  0
LINE
  5
108
  8
TEAM-DET3
 39
-5.0
 10
-44.399994
 20
0.0
 30
390.003646
 11
-43.599976
 21
0.0
 31
390.46556
210
-0.0
220
-1.0
230
0.0
  0
LINE
  5
109
  8
TEAM-DET3
 39
-5.0
 10
-47.599976
 20
0.0
 30
390.003646
 11
-48.399994
 21
0.0
 31
390.46556
210
-0.0
220
-1.0
230
0.0
  0
LINE
  5
10A
  8
TEAM-DET3
 39
-5.0
 10
-43.599976
 20
0.0
 30
410.251082
 11
-43.599976
 21
0.0
 31
420.003646
210
-0.0
220
-1.0
230
0.0
  0
LINE
  5
10B
  8
TEAM-DET3
 39
-5.0
 10
-43.599976
 20
0.0
 30
399.503646
 11
-43.599976
 21
0.0
 31
402.003646
210
-0.0
220
-1.0
230
0.0
  0
LINE
  5
10C
  8
TEAM-DET3
 39
-5.0
 10
-43.599976
 20
0.0
 30
390.46556
 11
-43.599976
 21
0.0
 31
395.503646
210
-0.0
220
-1.0
230
0.0
  0
LINE
  5
10D
  8
TEAM-DET3
 39
-5.0
 10
-48.399994
 20
0.0
 30
410.003646
 11
-48.399994
 21
0.0
 31
420.003646
210
-0.0
220
-1.0
230
0.0
  0
LINE
  5
10E
  8
TEAM-DET3
 39
-5.0
 10
-48.399994
 20
0.0
 30
399.503646
 11
-48.399994
 21
0.0
 31
402.003646
210
-0.0
220
-1.0
230
0.0
  0
LINE
  5
10F
  8
TEAM-DET3
 39
-5.0
 10
-48.399994
 20
0.0
 30
390.46556
 11
-48.399994
 21
0.0
 31
395.503646
210
-0.0
220
-1.0
230
0.0
  0
LINE
  5
110
  8
TEAM-DET3
 39
-5.0
 10
-41.0
 20
0.0
 30
420.003646
 11
-41.0
 21
0.0
 31
421.003646
210
-0.0
220
-1.0
230
0.0
  0
LINE
  5
111
  8
TEAM-DET3
 39
-5.0
 10
-51.0
 20
0.0
 30
420.003646
 11
-51.0
 21
0.0
 31
421.003646
210
-0.0
220
-1.0
230
0.0
  0
LINE
  5
112
  8
TEAM-DET3
 39
-5.0
 10
-44.399994
 20
0.0
 30
382.003646
 11
-47.254822
 21
0.0
 31
382.003646
210
-0.0
220
-1.0
230
0.0
  0
LINE
  5
113
  8
TEAM-DET3
 39
-5.0
 10
-47.254822
 20
0.0
 30
382.003646
 11
-47.599976
 21
0.0
 31
382.003646
210
-0.0
220
-1.0
230
0.0
  0
LINE
  5
114
  8
TEAM-DET3
 39
-5.0
 10
-43.599976
 20
0.0
 30
382.46556
 11
-47.882202
 21
0.0
 31
382.46556
210
-0.0
220
-1.0
230
0.0
  0
LINE
  5
115
  8
TEAM-DET3
 39
-5.0
 10
-47.882202
 20
0.0
 30
382.46556
 11
-48.399994
 21
0.0
 31
382.46556
210
-0.0
220
-1.0
230
0.0
  0
LINE
  5
116
  8
TEAM-DET3
 39
-5.0
 10
-43.599976
 20
0.0
 30
386.541792
 11
-47.882202
 21
0.0
 31
386.541792
210
-0.0
220
-1.0
230
0.0
  0
LINE
  5
117
  8
TEAM-DET3
 39
-5.0
 10
-47.882202
 20
0.0
 30
386.541792
 11
-48.399994
 21
0.0
 31
386.541792
210
-0.0
220
-1.0
230
0.0
  0
LINE
  5
118
  8
TEAM-DET3
 39
-5.0
 10
-44.399994
 20
0.0
 30
387.003646
 11
-47.254822
 21
0.0
 31
387.003646
210
-0.0
220
-1.0
230
0.0
  0
LINE
  5
119
  8
TEAM-DET3
 39
-5.0
 10
-47.254822
 20
0.0
 30
387.003646
 11
-47.599976
 21
0.0
 31
387.003646
210
-0.0
220
-1.0
230
0.0
  0
LINE
  5
11A
  8
TEAM-DET3
 39
-5.0
 10
-44.399994
 20
0.0
 30
390.003646
 11
-47.254822
 21
0.0
 31
390.003646
210
-0.0
220
-1.0
230
0.0
  0
LINE
  5
11B
  8
TEAM-DET3
 39
-5.0
 10
-47.254822
 20
0.0
 30
390.003646
 11
-47.599976
 21
0.0
 31
390.003646
210
-0.0
220
-1.0
230
0.0
  0
LINE
  5
11C
  8
TEAM-DET3
 39
-5.0
 10
-43.599976
 20
0.0
 30
390.46556
 11
-47.882202
 21
0.0
 31
390.46556
210
-0.0
220
-1.0
230
0.0
  0
LINE
  5
11D
  8
TEAM-DET3
 39
-5.0
 10
-47.882202
 20
0.0
 30
390.46556
 11
-48.399994
 21
0.0
 31
390.46556
210
-0.0
220
-1.0
230
0.0
  0
LINE
  5
11E
  8
TEAM-DET3
 39
-5.0
 10
-41.0
 20
0.0
 30
420.003646
 11
-49.921266
 21
0.0
 31
420.003646
210
-0.0
220
-1.0
230
0.0
  0
LINE
  5
11F
  8
TEAM-DET3
 39
-5.0
 10
-41.0
 20
0.0
 30
421.003646
 11
-51.0
 21
0.0
 31
421.003646
210
-0.0
220
-1.0
230
0.0
  0
LINE
  5
120
  8
TEAM-DET3
 39
-5.0
 10
-49.921266
 20
0.0
 30
420.003646
 11
-51.0
 21
0.0
 31
420.003646
210
-0.0
220
-1.0
230
0.0
  0
ARC
  5
121
  8
TEAM-DET3
 39
-5.0
 10
40.0
 20
394.003646
 30
0.0
 40
3.0
210
-0.0
220
-1.0
230
0.0
 50
213.55731
 51
144.43068
  0
LINE
  5
122
  8
TEAM-DET3
 39
-5.0
 10
37.5
 20
0.0
 30
392.34532
 11
37.5
 21
0.0
 31
395.250716
210
-0.0
220
-1.0
230
0.0
  0
LINE
  5
123
  8
TEAM-DET3
 39
-5.0
 10
39.131997
 20
0.0
 30
400.003646
 11
37.502686
 21
0.0
 31
404.735458
210
-0.0
220
-1.0
230
0.0
  0
LINE
  5
124
  8
TEAM-DET3
 39
-5.0
 10
37.0
 20
0.0
 30
407.739302
 11
37.0
 21
0.0
 31
417.66722
210
-0.0
220
-1.0
230
0.0
  0
ARC
  5
125
  8
TEAM-DET3
 39
-5.0
 10
0.0
 20
400.003646
 30
0.0
 40
34.0
210
-0.0
220
-1.0
230
0.0
 50
170.000012
 51
176.6277
  0
LINE
  5
126
  8
TEAM-DET3
 39
-5.0
 10
-52.5
 20
0.0
 30
410.003646
 11
-52.5
 21
0.0
 31
407.003646
210
-0.0
220
-1.0
230
0.0
  0
LINE
  5
127
  8
TEAM-DET3
 39
-5.0
 10
-52.5
 20
0.0
 30
410.003646
 11
-45.574098
 21
0.0
 31
410.003646
210
-0.0
220
-1.0
230
0.0
  0
ARC
  5
128
  8
TEAM-DET3
 39
-5.0
 10
-45.574098
 20
418.003646
 30
0.0
 40
8.0
210
-0.0
220
-1.0
230
0.0
 50
270.000003
 51
338.447917
  0
LINE
  5
129
  8
TEAM-DET3
 39
-5.0
 10
-51.160248
 20
0.0
 30
402.003646
 11
-52.5
 21
0.0
 31
407.003646
210
-0.0
220
-1.0
230
0.0
  0
LINE
  5
12A
  8
TEAM-DET3
 39
-5.0
 10
-33.941102
 20
0.0
 30
402.003646
 11
-51.160248
 21
0.0
 31
402.003646
210
-0.0
220
-1.0
230
0.0
  0
LINE
  5
12B
  8
TEAM-DET3
 39
-5.0
 10
46.35086
 20
0.0
 30
390.020492
 11
48.5
 21
0.0
 31
390.020492
210
-0.0
220
-1.0
230
0.0
  0
LINE
  5
12C
  8
TEAM-DET3
 39
-5.0
 10
48.5
 20
0.0
 30
391.281234
 11
48.5
 21
0.0
 31
391.16783
210
-0.0
220
-1.0
230
0.0
  0
LINE
  5
12D
  8
TEAM-DET3
 39
-5.0
 10
48.5
 20
0.0
 30
390.020492
 11
48.5
 21
0.0
 31
389.520858
210
-0.0
220
-1.0
230
0.0
  0
LINE
  5
12E
  8
TEAM-DET3
 39
-5.0
 10
48.5
 20
0.0
 30
390.082258
 11
48.5
 21
0.0
 31
390.020492
210
-0.0
220
-1.0
230
0.0
  0
LINE
  5
12F
  8
TEAM-DET3
 39
-5.0
 10
48.5
 20
0.0
 30
390.940902
 11
48.5
 21
0.0
 31
391.16783
210
-0.0
220
-1.0
230
0.0
  0
LINE
  5
130
  8
TEAM-DET3
 39
-5.0
 10
48.5
 20
0.0
 30
390.082258
 11
48.5
 21
0.0
 31
390.309188
210
-0.0
220
-1.0
230
0.0
  0
ARC
  5
131
  8
TEAM-DET3
 39
-5.0
 10
46.35086
 20
391.003646
 30
0.0
 40
0.983148
210
-0.0
220
-1.0
230
0.0
 50
210.000001
 51
270.000003
  0
LINE
  5
132
  8
TEAM-DET3
 39
-5.0
 10
44.472136
 20
0.0
 30
398.003646
 11
46.004456
 21
0.0
 31
398.003646
210
-0.0
220
-1.0
230
0.0
  0
LINE
  5
133
  8
TEAM-DET3
 39
-5.0
 10
46.004456
 20
0.0
 30
398.003646
 11
47.204468
 21
0.0
 31
393.525252
210
-0.0
220
-1.0
230
0.0
  0
LINE
  5
134
  8
TEAM-DET3
 39
-5.0
 10
48.5
 20
0.0
 30
391.281234
 11
47.204468
 21
0.0
 31
393.525252
210
-0.0
220
-1.0
230
0.0
  0
ARC
  5
135
  8
TEAM-DET3
 39
-5.0
 10
40.0
 20
394.003646
 30
0.0
 40
6.0
210
-0.0
220
-1.0
230
0.0
 50
41.810311
 51
90.000001
  0
LINE
  5
136
  8
TEAM-DET3
 39
-5.0
 10
-40.29181
 20
0.0
 30
395.520858
 11
-37.533247
 21
0.0
 31
395.520858
210
-0.0
220
-1.0
230
0.0
  0
LINE
  5
137
  8
TEAM-DET3
 39
-5.0
 10
42.61267
 20
0.0
 30
395.512068
 11
45.49942
 21
0.0
 31
390.512068
210
-0.0
220
-1.0
230
0.0
  0
LINE
  5
138
  8
TEAM-DET3
 39
-5.0
 10
39.54666
 20
0.0
 30
400.003646
 11
40.0
 21
0.0
 31
400.003646
210
-0.0
220
-1.0
230
0.0
  0
LINE
  5
139
  8
TEAM-DET3
 39
-5.0
 10
-37.786744
 20
0.0
 30
399.003646
 11
-38.274628
 21
0.0
 31
399.003646
210
-0.0
220
-1.0
230
0.0
  0
LINE
  5
13A
  8
TEAM-DET3
 39
-5.0
 10
183.75
 20
0.0
 30
405.539534
 11
164.363646
 21
0.0
 31
405.539534
210
-0.0
220
-1.0
230
0.0
  0
ARC
  5
13B
  8
TEAM-DET3
 39
-5.0
 10
40.0
 20
394.003646
 30
0.0
 40
3.01685
210
-0.0
220
-1.0
230
0.0
 50
29.999999
 51
86.948026
  0
LINE
  5
13C
  8
TEAM-DET3
 39
-5.0
 10
48.5
 20
0.0
 30
390.457626
 11
48.5
 21
0.0
 31
390.309188
210
-0.0
220
-1.0
230
0.0
  0
LINE
  5
13D
  8
TEAM-DET3
 39
-5.0
 10
48.5
 20
0.0
 30
390.940902
 11
48.5
 21
0.0
 31
390.792464
210
-0.0
220
-1.0
230
0.0
  0
ARC
  5
13E
  8
TEAM-DET3
 39
-5.0
 10
39.55011
 20
387.481918
 30
0.0
 40
12.521724
210
-0.0
220
-1.0
230
0.0
 50
90.015809
 51
91.902799
  0
LINE
  5
13F
  8
TEAM-DET3
 39
-5.0
 10
165.799988
 20
0.0
 30
401.003646
 11
183.75
 21
0.0
 31
401.003646
210
-0.0
220
-1.0
230
0.0
  0
ARC
  5
140
  8
TEAM-DET3
 39
-5.0
 10
165.799988
 20
400.703718
 30
0.0
 40
0.3
210
-0.0
220
-1.0
230
0.0
 50
90.000001
 51
180.00001
  0
LINE
  5
141
  8
TEAM-DET3
 39
-5.0
 10
165.5
 20
0.0
 30
400.703718
 11
165.5
 21
0.0
 31
399.303694
210
-0.0
220
-1.0
230
0.0
  0
ARC
  5
142
  8
TEAM-DET3
 39
-5.0
 10
165.799988
 20
399.303694
 30
0.0
 40
0.3
210
-0.0
220
-1.0
230
0.0
 50
180.0
 51
270.000003
  0
LINE
  5
143
  8
TEAM-DET3
 39
-5.0
 10
165.799988
 20
0.0
 30
399.003646
 11
183.75
 21
0.0
 31
399.003646
210
-0.0
220
-1.0
230
0.0
  0
LINE
  5
144
  8
TEAM-DET3
 39
-5.0
 10
48.5
 20
0.0
 30
390.457626
 11
48.5
 21
0.0
 31
390.792464
210
-0.0
220
-1.0
230
0.0
  0
LINE
  5
145
  8
TEAM-AXE
 39
-5.0
 10
-37.8
 20
0.0
 30
400.003646
 11
40.0
 21
0.0
 31
400.003646
210
-0.0
220
-1.0
230
0.0
  0
ARC
  5
146
  8
TEAM-DET3
 39
-5.0
 10
-164.354614
 20
402.657454
 30
0.0
 40
2.881768
210
-0.0
220
-1.0
230
0.0
 50
29.82041
 51
90.179584
  0
LINE
  5
147
  8
TEAM-DET3
 39
-5.0
 10
-164.363648
 20
0.0
 30
405.539534
 11
-183.25
 21
0.0
 31
405.539534
210
-0.0
220
-1.0
230
0.0
  0
LINE
  5
148
  8
TEAM-DET3
 39
-5.0
 10
-183.25
 20
0.0
 30
399.003646
 11
-165.799988
 21
0.0
 31
399.003646
210
-0.0
220
-1.0
230
0.0
  0
ARC
  5
149
  8
TEAM-DET3
 39
-5.0
 10
-165.799988
 20
399.303694
 30
0.0
 40
0.3
210
-0.0
220
-1.0
230
0.0
 50
270.000003
 51
0.000005
  0
LINE
  5
14A
  8
TEAM-DET3
 39
-5.0
 10
-165.5
 20
0.0
 30
400.703718
 11
-165.5
 21
0.0
 31
399.303694
210
-0.0
220
-1.0
230
0.0
  0
ARC
  5
14B
  8
TEAM-DET3
 39
-5.0
 10
-165.799988
 20
400.703718
 30
0.0
 40
0.3
210
-0.0
220
-1.0
230
0.0
 50
0.000005
 51
90.000001
  0
LINE
  5
14C
  8
TEAM-DET3
 39
-5.0
 10
-183.25
 20
0.0
 30
401.003646
 11
-165.799988
 21
0.0
 31
401.003646
210
-0.0
220
-1.0
230
0.0
  0
LINE
  5
14D
  8
TEAM-AXE
 39
-40.0
 10
0.0
 20
-16.547463
 30
400.0
 11
0.0
 21
75.0
 31
400.0
  0
LINE
  5
14E
  8
TEAM-AXE
 39
-40.0
 10
32.18025
 20
47.0
 30
400.0
 11
-34.35821
 21
47.0
 31
400.0
  0
LINE
  5
14F
  8
TEAM-DET3
 39
-5.0
 10
-41.447236
 20
0.0
 30
425.003646
 11
-43.049622
 21
0.0
 31
425.003646
210
-0.0
220
-1.0
230
0.0
  0
LINE
  5
150
  8
TEAM-DET3
 39
-5.0
 10
-43.049622
 20
0.0
 30
425.003646
 11
-47.602386
 21
0.0
 31
425.003646
210
-0.0
220
-1.0
230
0.0
  0
LINE
  5
151
  8
TEAM-DET3
 39
-5.0
 10
-47.602386
 20
0.0
 30
425.003646
 11
-50.552766
 21
0.0
 31
425.003646
210
-0.0
220
-1.0
230
0.0
  0
LINE
  5
152
  8
TEAM-AXE
 39
-5.0
 10
0.0
 20
0.0
 30
541.440911
 11
0.0
 21
0.0
 31
559.792571
210
-0.0
220
-1.0
230
0.0
  0
LINE
  5
153
  8
TEAM-DET3
 39
-5.0
 10
27.0
 20
0.0
 30
543.003301
 11
27.0
 21
0.0
 31
557.003301
210
-0.0
220
-1.0
230
0.0
  0
LINE
  5
154
  8
TEAM-DET3
 39
-5.0
 10
175.5
 20
0.0
 30
543.003301
 11
175.5
 21
0.0
 31
557.003301
210
-0.0
220
-1.0
230
0.0
  0
LINE
  5
155
  8
TEAM-DET3
 39
-5.0
 10
8.5
 20
0.0
 30
543.503301
 11
8.5
 21
0.0
 31
556.503301
210
-0.0
220
-1.0
230
0.0
  0
LINE
  5
156
  8
TEAM-DET3
 39
-5.0
 10
-8.5
 20
0.0
 30
543.503301
 11
-8.5
 21
0.0
 31
556.503301
210
-0.0
220
-1.0
230
0.0
  0
LINE
  5
157
  8
TEAM-DET3
 39
-5.0
 10
-27.0
 20
0.0
 30
543.003301
 11
-27.0
 21
0.0
 31
557.003301
210
-0.0
220
-1.0
230
0.0
  0
LINE
  5
158
  8
TEAM-AXE
 39
-5.0
 10
125.0
 20
0.0
 30
546.403301
 11
125.0
 21
0.0
 31
553.603301
210
-0.0
220
-1.0
230
0.0
  0
LINE
  5
159
  8
TEAM-DET3
 39
-5.0
 10
-175.5
 20
0.0
 30
543.003301
 11
-175.5
 21
0.0
 31
557.003301
210
-0.0
220
-1.0
230
0.0
  0
LINE
  5
15A
  8
TEAM-AXE
 39
-5.0
 10
-125.0
 20
0.0
 30
546.403301
 11
-125.0
 21
0.0
 31
553.603301
210
-0.0
220
-1.0
230
0.0
  0
LINE
  5
15B
  8
TEAM-DET3
 39
-5.0
 10
-8.5
 20
0.0
 30
543.503301
 11
8.5
 21
0.0
 31
543.503301
210
-0.0
220
-1.0
230
0.0
  0
LINE
  5
15C
  8
TEAM-DET3
 39
-5.0
 10
27.0
 20
0.0
 30
543.003301
 11
175.5
 21
0.0
 31
543.003301
210
-0.0
220
-1.0
230
0.0
  0
LINE
  5
15D
  8
TEAM-DET3
 39
-5.0
 10
-184.0
 20
0.0
 30
535.279897
 11
183.979935
 21
0.0
 31
535.279897
210
-0.0
220
-1.0
230
0.0
  0
LINE
  5
15E
  8
TEAM-DET3
 39
-5.0
 10
-27.0
 20
0.0
 30
543.003301
 11
-175.5
 21
0.0
 31
543.003301
210
-0.0
220
-1.0
230
0.0
  0
ARC
  5
15F
  8
TEAM-DET3
 39
-5.0
 10
150.0
 20
580.004264
 30
0.0
 40
5.25
210
-0.0
220
-1.0
230
0.0
 50
180.0
 51
0.0
  0
LINE
  5
160
  8
TEAM-AXE
 39
-5.0
 10
141.35841
 20
0.0
 30
585.004264
 11
157.7577
 21
0.0
 31
585.004264
210
-0.0
220
-1.0
230
0.0
  0
LINE
  5
161
  8
TEAM-AXE
 39
-5.0
 10
176.979935
 20
0.0
 30
550.003301
 11
183.979935
 21
0.0
 31
550.003301
210
-0.0
220
-1.0
230
0.0
  0
LINE
  5
162
  8
TEAM-DET3
 39
-5.0
 10
175.5
 20
0.0
 30
549.003301
 11
183.979935
 21
0.0
 31
549.003301
210
-0.0
220
-1.0
230
0.0
  0
LINE
  5
163
  8
TEAM-DET3
 39
-5.0
 10
175.5
 20
0.0
 30
551.003301
 11
183.979935
 21
0.0
 31
551.003301
210
-0.0
220
-1.0
230
0.0
  0
LINE
  5
164
  8
TEAM-AXE
 39
-5.0
 10
-13.09292
 20
0.0
 30
550.003301
 11
11.235725
 21
0.0
 31
550.003301
210
-0.0
220
-1.0
230
0.0
  0
LINE
  5
165
  8
TEAM-DET3
 39
-5.0
 10
-8.5
 20
0.0
 30
556.503301
 11
8.5
 21
0.0
 31
556.503301
210
-0.0
220
-1.0
230
0.0
  0
LINE
  5
166
  8
TEAM-DET3
 39
-5.0
 10
27.0
 20
0.0
 30
557.003301
 11
175.5
 21
0.0
 31
557.003301
210
-0.0
220
-1.0
230
0.0
  0
CIRCLE
  5
167
  8
TEAM-DET3
 39
-5.0
 10
125.0
 20
550.003301
 30
0.0
 40
2.6
210
-0.0
220
-1.0
230
0.0
  0
LINE
  5
168
  8
TEAM-AXE
 39
-5.0
 10
121.4
 20
0.0
 30
550.003301
 11
128.6
 21
0.0
 31
550.003301
210
-0.0
220
-1.0
230
0.0
  0
LINE
  5
169
  8
TEAM-AXE
 39
-5.0
 10
-163.25
 20
0.0
 30
585.004264
 11
-137.42956
 21
0.0
 31
585.004264
210
-0.0
220
-1.0
230
0.0
  0
LINE
  5
16A
  8
TEAM-DET3
 39
-5.0
 10
-155.0
 20
0.0
 30
579.754264
 11
-145.0
 21
0.0
 31
579.754264
210
-0.0
220
-1.0
230
0.0
  0
LINE
  5
16B
  8
TEAM-AXE
 39
-5.0
 10
-176.979936
 20
0.0
 30
550.003301
 11
-183.979936
 21
0.0
 31
550.003301
210
-0.0
220
-1.0
230
0.0
  0
LINE
  5
16C
  8
TEAM-DET3
 39
-5.0
 10
-175.5
 20
0.0
 30
549.003301
 11
-183.979936
 21
0.0
 31
549.003301
210
-0.0
220
-1.0
230
0.0
  0
LINE
  5
16D
  8
TEAM-DET3
 39
-5.0
 10
-175.5
 20
0.0
 30
551.003301
 11
-183.979936
 21
0.0
 31
551.003301
210
-0.0
220
-1.0
230
0.0
  0
CIRCLE
  5
16E
  8
TEAM-DET3
 39
-5.0
 10
-125.0
 20
550.003301
 30
0.0
 40
2.6
210
-0.0
220
-1.0
230
0.0
  0
LINE
  5
16F
  8
TEAM-AXE
 39
-5.0
 10
-128.6
 20
0.0
 30
550.003301
 11
-121.4
 21
0.0
 31
550.003301
210
-0.0
220
-1.0
230
0.0
  0
LINE
  5
170
  8
TEAM-DET3
 39
-5.0
 10
-184.0
 20
0.0
 30
560.484264
 11
183.979935
 21
0.0
 31
560.484264
210
-0.0
220
-1.0
230
0.0
  0
LINE
  5
171
  8
TEAM-DET3
 39
-5.0
 10
-184.0
 20
0.0
 30
564.799897
 11
183.979935
 21
0.0
 31
564.799897
210
-0.0
220
-1.0
230
0.0
  0
LINE
  5
172
  8
TEAM-DET3
 39
-5.0
 10
-27.0
 20
0.0
 30
557.003301
 11
-175.5
 21
0.0
 31
557.003301
210
-0.0
220
-1.0
230
0.0
  0
ARC
  5
173
  8
TEAM-DET3
 39
-5.0
 10
150.0
 20
590.004264
 30
0.0
 40
5.25
210
-0.0
220
-1.0
230
0.0
 50
0.0
 51
180.0
  0
LINE
  5
174
  8
TEAM-AXE
 39
-5.0
 10
0.0
 20
0.0
 30
590.404264
 11
0.0
 21
0.0
 31
597.604264
210
-0.0
220
-1.0
230
0.0
  0
LINE
  5
175
  8
TEAM-AXE
 39
-5.0
 10
-3.6
 20
0.0
 30
594.004264
 11
3.6
 21
0.0
 31
594.004264
210
-0.0
220
-1.0
230
0.0
  0
CIRCLE
  5
176
  8
TEAM-DET3
 39
-5.0
 10
0.0
 20
594.004264
 30
0.0
 40
2.6
210
-0.0
220
-1.0
230
0.0
  0
LINE
  5
177
  8
TEAM-DET3
 39
-5.0
 10
-155.0
 20
0.0
 30
590.254264
 11
-145.0
 21
0.0
 31
590.254264
210
-0.0
220
-1.0
230
0.0
  0
LINE
  5
178
  8
TEAM-DET3
 39
-5.0
 10
-184.0
 20
0.0
 30
610.004264
 11
183.979935
 21
0.0
 31
610.004264
210
-0.0
220
-1.0
230
0.0
  0
LINE
  5
179
  8
TEAM-DET2
 39
-35.0
 10
-250.0
 20
40.0
 30
720.0
 11
250.0
 21
40.0
 31
720.0
  0
LINE
  5
17A
  8
TEAM-DET2
 39
-35.0
 10
-250.0
 20
0.0
 30
720.0
 11
250.0
 21
0.0
 31
720.0
  0
LINE
  5
17B
  8
TEAM-DET2
 39
-35.0
 10
-250.0
 20
40.0
 30
920.0
 11
250.0
 21
40.0
 31
920.0
  0
LINE
  5
17C
  8
TEAM-DET2
 39
-35.0
 10
-250.0
 20
0.0
 30
920.0
 11
250.0
 21
0.0
 31
920.0
  0
LINE
  5
17D
  8
TEAM-DET2
 39
-35.0
 10
-250.0
 20
40.0
 30
1120.0
 11
250.0
 21
40.0
 31
1120.0
  0
LINE
  5
17E
  8
TEAM-DET2
 39
-35.0
 10
-250.0
 20
0.0
 30
1120.0
 11
250.0
 21
0.0
 31
1120.0
  0
LINE
  5
17F
  8
TEAM-DET3
 10
59.456147
 20
39.503532
 30
1120.0
 11
-59.950863
 21
39.503532
 31
1120.0
  0
ENDSEC
  0
EOF
