  0
SECTION
  2
HEADER
  9
$ACADVER
  1
AC1009
  9
$INSBASE
 10
0.0
 20
0.0
 30
0.0
  9
$EXTMIN
 10
-219.566026
 20
-350.000997
 30
-380.046077
  9
$EXTMAX
 10
232.675859
 20
10.023461
 30
470.057685
  9
$LIMMIN
 10
-219.566026
 20
-350.000997
  9
$LIMMAX
 10
232.675859
 20
10.023461
  9
$ORTHOMODE
 70
     1
  9
$REGENMODE
 70
     1
  9
$FILLMODE
 70
     1
  9
$QTEXTMODE
 70
     0
  9
$MIRRTEXT
 70
     0
  9
$DRAGMODE
 70
     2
  9
$LTSCALE
 40
50.0
  9
$OSMODE
 70
     7
  9
$ATTMODE
 70
     1
  9
$TEXTSIZE
 40
200.0
  9
$TRACEWID
 40
1.0
  9
$TEXTSTYLE
  7
STANDARD
  9
$CLAYER
  8
TEAM-MAS
  9
$CELTYPE
  6
BYLAYER
  9
$CECOLOR
 62
   256
  9
$DIMSCALE
 40
0.0
  9
$DIMASZ
 40
20.0
  9
$DIMEXO
 40
10.0
  9
$DIMDLI
 40
1.0
  9
$DIMRND
 40
0.0
  9
$DIMDLE
 40
0.0
  9
$DIMEXE
 40
1.0
  9
$DIMTP
 40
0.0
  9
$DIMTM
 40
0.0
  9
$DIMTXT
 40
35.0
  9
$DIMCEN
 40
1.0
  9
$DIMTSZ
 40
0.0
  9
$DIMTOL
 70
     0
  9
$DIMLIM
 70
     0
  9
$DIMTIH
 70
     0
  9
$DIMTOH
 70
     0
  9
$DIMSE1
 70
     0
  9
$DIMSE2
 70
     0
  9
$DIMTAD
 70
     0
  9
$DIMZIN
 70
     0
  9
$DIMBLK
  1

  9
$DIMASO
 70
     1
  9
$DIMSHO
 70
     0
  9
$DIMPOST
  1

  9
$DIMAPOST
  1

  9
$DIMALT
 70
     0
  9
$DIMALTD
 70
     2
  9
$DIMALTF
 40
25.4
  9
$DIMLFAC
 40
1.0
  9
$DIMTOFL
 70
     0
  9
$DIMTVP
 40
0.0
  9
$DIMTIX
 70
     0
  9
$DIMSOXD
 70
     0
  9
$DIMSAH
 70
     0
  9
$DIMBLK1
  1

  9
$DIMBLK2
  1

  9
$DIMSTYLE
  2
TEAM
  9
$DIMCLRD
 70
     9
  9
$DIMCLRE
 70
     9
  9
$DIMCLRT
 70
    11
  9
$DIMTFAC
 40
1.0
  9
$DIMGAP
 40
7.0
  9
$LUNITS
 70
     2
  9
$LUPREC
 70
     1
  9
$SKETCHINC
 40
1.0
  9
$FILLETRAD
 40
5.0
  9
$AUNITS
 70
     0
  9
$AUPREC
 70
     0
  9
$MENU
  1
ROPLANS
  9
$ELEVATION
 40
0.0
  9
$PELEVATION
 40
0.0
  9
$THICKNESS
 40
0.0
  9
$LIMCHECK
 70
     0
  9
$BLIPMODE
 70
     1
  9
$CHAMFERA
 40
0.0
  9
$CHAMFERB
 40
0.0
  9
$SKPOLY
 70
     0
  9
$TDCREATE
 40
2450392.957851
  9
$TDUPDATE
 40
2456004.599416
  9
$TDINDWG
 40
2.546599
  9
$TDUSRTIMER
 40
2.546599
  9
$USRTIMER
 70
     1
  9
$ANGBASE
 50
0.0
  9
$ANGDIR
 70
     0
  9
$PDMODE
 70
     0
  9
$PDSIZE
 40
0.0
  9
$PLINEWID
 40
0.0
  9
$COORDS
 70
     2
  9
$SPLFRAME
 70
     0
  9
$SPLINETYPE
 70
     6
  9
$SPLINESEGS
 70
     8
  9
$ATTDIA
 70
     0
  9
$ATTREQ
 70
     0
  9
$HANDLING
 70
     1
  9
$HANDSEED
  5
733
  9
$SURFTAB1
 70
    36
  9
$SURFTAB2
 70
    36
  9
$SURFTYPE
 70
     6
  9
$SURFU
 70
     6
  9
$SURFV
 70
     6
  9
$UCSNAME
  2

  9
$UCSORG
 10
0.0
 20
0.0
 30
0.0
  9
$UCSXDIR
 10
1.0
 20
0.0
 30
0.0
  9
$UCSYDIR
 10
0.0
 20
1.0
 30
0.0
  9
$PUCSNAME
  2

  9
$PUCSORG
 10
0.0
 20
0.0
 30
0.0
  9
$PUCSXDIR
 10
1.0
 20
0.0
 30
0.0
  9
$PUCSYDIR
 10
0.0
 20
1.0
 30
0.0
  9
$USERI1
 70
     0
  9
$USERI2
 70
     0
  9
$USERI3
 70
     0
  9
$USERI4
 70
     0
  9
$USERI5
 70
     0
  9
$USERR1
 40
0.0
  9
$USERR2
 40
0.0
  9
$USERR3
 40
0.0
  9
$USERR4
 40
0.0
  9
$USERR5
 40
0.0
  9
$WORLDVIEW
 70
     1
  9
$SHADEDGE
 70
     0
  9
$SHADEDIF
 70
    70
  9
$TILEMODE
 70
     1
  9
$MAXACTVP
 70
    16
  9
$PLIMCHECK
 70
     0
  9
$PEXTMIN
 10
-0.805942
 20
0.005011
 30
0.0
  9
$PEXTMAX
 10
20.250094
 20
11.356329
 30
0.0
  9
$PLIMMIN
 10
0.0
 20
0.0
  9
$PLIMMAX
 10
12.0
 20
9.0
  9
$UNITMODE
 70
     0
  9
$VISRETAIN
 70
     0
  9
$PLINEGEN
 70
     0
  9
$PSLTSCALE
 70
     0
  0
ENDSEC
  0
SECTION
  2
TABLES
  0
TABLE
  2
VPORT
 70
     2
  0
VPORT
  2
*ACTIVE
 70
     0
 10
0.0
 20
0.0
 11
1.0
 21
1.0
 12
6.554916
 22
-169.988768
 13
0.0
 23
0.0
 14
1.0
 24
1.0
 15
50.0
 25
50.0
 16
0.0
 26
0.0
 36
1.0
 17
0.0
 27
0.0
 37
0.0
 40
362.281665
 41
1.903766
 42
50.0
 43
0.0
 44
0.0
 50
0.0
 51
0.0
 71
     0
 72
   100
 73
     1
 74
     1
 75
     0
 76
     0
 77
     0
 78
     0
  0
ENDTAB
  0
TABLE
  2
LTYPE
 70
     2
  0
LTYPE
  2
CONTINUOUS
 70
     0
  3
Solid Line
 72
    65
 73
     0
 40
0.0
  0
LTYPE
  2
31
 70
     0
  3

 72
    65
 73
     4
 40
2.1
 49
1.5
 49
-0.3
 49
0.0
 49
-0.3
  0
ENDTAB
  0
TABLE
  2
LAYER
 70
     9
  0
LAYER
  2
0
 70
     0
 62
     7
  6
CONTINUOUS
  0
LAYER
  2
TEAM-BODY
 70
     0
 62
     2
  6
CONTINUOUS
  0
LAYER
  2
TEAM-AXE
 70
     0
 62
    10
  6
31
  0
LAYER
  2
TEAM-MAS
 70
     0
 62
     9
  6
CONTINUOUS
  0
LAYER
  2
TEAM-TXT
 70
     0
 62
    11
  6
CONTINUOUS
  0
LAYER
  2
TEAM-DET1
 70
     0
 62
     4
  6
CONTINUOUS
  0
LAYER
  2
TEAM-DET3
 70
     0
 62
    14
  6
CONTINUOUS
  0
LAYER
  2
TEAM-NET
 70
     0
 62
    15
  6
CONTINUOUS
  0
LAYER
  2
TEAM-INSP
 70
     0
 62
     5
  6
CONTINUOUS
  0
ENDTAB
  0
TABLE
  2
STYLE
 70
     2
  0
STYLE
  2
STANDARD
 70
     0
 40
0.0
 41
1.0
 50
0.0
 71
     0
 42
200.0
  3
txt
  4

  0
STYLE
  2
TEAM
 70
     0
 40
0.0
 41
0.8
 50
15.0
 71
     0
 42
7.0
  3
ROMANS.shx
  4

  0
ENDTAB
  0
TABLE
  2
VIEW
 70
     0
  0
ENDTAB
  0
TABLE
  2
UCS
 70
     0
  0
ENDTAB
  0
TABLE
  2
APPID
 70
     1
  0
APPID
  2
ACAD
 70
     0
  0
ENDTAB
  0
TABLE
  2
DIMSTYLE
 70
     1
  0
DIMSTYLE
  2
TEAM
 70
     0
  3

  4

  5

  6

  7

 40
0.0
 41
20.0
 42
10.0
 43
1.0
 44
1.0
 45
0.0
 46
0.0
 47
0.0
 48
0.0
140
35.0
141
1.0
142
0.0
143
25.4
144
1.0
145
0.0
146
1.0
147
7.0
 71
     0
 72
     0
 73
     0
 74
     0
 75
     0
 76
     0
 77
     0
 78
     0
170
     0
171
     2
172
     0
173
     0
174
     0
175
     0
176
     9
177
     9
178
    11
  0
ENDTAB
  0
ENDSEC
  0
SECTION
  2
BLOCKS
  0
BLOCK
  8
0
  2
$MODEL_SPACE
 70
     0
 10
0.0
 20
0.0
 30
0.0
  3
$MODEL_SPACE
  1

  0
ENDBLK
  5
718
  8
0
  0
BLOCK
 67
     1
  8
0
  2
$PAPER_SPACE
 70
     0
 10
0.0
 20
0.0
 30
0.0
  3
$PAPER_SPACE
  1

  0
ENDBLK
  5
716
 67
     1
  8
0
  0
ENDSEC
  0
SECTION
  2
ENTITIES
  0
POLYLINE
  5
20
  8
TEAM-NET
 66
     1
 10
0.0
 20
0.0
 30
0.0
 70
    16
 71
     2
 72
    37
  0
VERTEX
  5
21
  8
TEAM-NET
 10
-123.548265
 20
-60.057155
 30
450.0
 70
    64
  0
VERTEX
  5
22
  8
TEAM-NET
 10
-123.548265
 20
-42.570924
 30
450.0
 70
    64
  0
VERTEX
  5
23
  8
TEAM-NET
 10
-123.548265
 20
-25.084694
 30
450.0
 70
    64
  0
VERTEX
  5
24
  8
TEAM-NET
 10
-123.548265
 20
-7.598463
 30
450.0
 70
    64
  0
VERTEX
  5
25
  8
TEAM-NET
 10
-113.660498
 20
0.0
 30
450.0
 70
    64
  0
VERTEX
  5
26
  8
TEAM-NET
 10
-96.174268
 20
0.0
 30
450.0
 70
    64
  0
VERTEX
  5
27
  8
TEAM-NET
 10
-78.688037
 20
0.0
 30
450.0
 70
    64
  0
VERTEX
  5
28
  8
TEAM-NET
 10
-61.201807
 20
0.0
 30
450.0
 70
    64
  0
VERTEX
  5
29
  8
TEAM-NET
 10
-43.715576
 20
0.0
 30
450.0
 70
    64
  0
VERTEX
  5
2A
  8
TEAM-NET
 10
-26.229346
 20
0.0
 30
450.0
 70
    64
  0
VERTEX
  5
2B
  8
TEAM-NET
 10
-8.743115
 20
0.0
 30
450.0
 70
    64
  0
VERTEX
  5
2C
  8
TEAM-NET
 10
8.743115
 20
0.0
 30
450.0
 70
    64
  0
VERTEX
  5
2D
  8
TEAM-NET
 10
26.229346
 20
0.0
 30
450.0
 70
    64
  0
VERTEX
  5
2E
  8
TEAM-NET
 10
43.715576
 20
0.0
 30
450.0
 70
    64
  0
VERTEX
  5
2F
  8
TEAM-NET
 10
61.201807
 20
0.0
 30
450.0
 70
    64
  0
VERTEX
  5
30
  8
TEAM-NET
 10
78.688037
 20
0.0
 30
450.0
 70
    64
  0
VERTEX
  5
31
  8
TEAM-NET
 10
96.174268
 20
0.0
 30
450.0
 70
    64
  0
VERTEX
  5
32
  8
TEAM-NET
 10
113.660498
 20
0.0
 30
450.0
 70
    64
  0
VERTEX
  5
33
  8
TEAM-NET
 10
130.451735
 20
-0.694994
 30
450.0
 70
    64
  0
VERTEX
  5
34
  8
TEAM-NET
 10
130.451735
 20
-18.181225
 30
450.0
 70
    64
  0
VERTEX
  5
35
  8
TEAM-NET
 10
130.451735
 20
-35.667455
 30
450.0
 70
    64
  0
VERTEX
  5
36
  8
TEAM-NET
 10
130.451735
 20
-53.153685
 30
450.0
 70
    64
  0
VERTEX
  5
37
  8
TEAM-NET
 10
130.451735
 20
-70.639916
 30
450.0
 70
    64
  0
VERTEX
  5
38
  8
TEAM-NET
 10
130.451735
 20
-88.126146
 30
450.0
 70
    64
  0
VERTEX
  5
39
  8
TEAM-NET
 10
130.451735
 20
-105.612377
 30
450.0
 70
    64
  0
VERTEX
  5
3A
  8
TEAM-NET
 10
130.451735
 20
-123.098607
 30
450.0
 70
    64
  0
VERTEX
  5
3B
  8
TEAM-NET
 10
130.451735
 20
-140.584838
 30
450.0
 70
    64
  0
VERTEX
  5
3C
  8
TEAM-NET
 10
130.451735
 20
-158.071068
 30
450.0
 70
    64
  0
VERTEX
  5
3D
  8
TEAM-NET
 10
130.451735
 20
-175.557299
 30
450.0
 70
    64
  0
VERTEX
  5
3E
  8
TEAM-NET
 10
130.451735
 20
-193.043529
 30
450.0
 70
    64
  0
VERTEX
  5
3F
  8
TEAM-NET
 10
130.451735
 20
-210.52976
 30
450.0
 70
    64
  0
VERTEX
  5
40
  8
TEAM-NET
 10
130.451735
 20
-228.01599
 30
450.0
 70
    64
  0
VERTEX
  5
41
  8
TEAM-NET
 10
130.451735
 20
-245.502221
 30
450.0
 70
    64
  0
VERTEX
  5
42
  8
TEAM-NET
 10
122.463283
 20
-255.0
 30
450.0
 70
    64
  0
VERTEX
  5
43
  8
TEAM-NET
 10
104.977053
 20
-255.0
 30
450.0
 70
    64
  0
VERTEX
  5
44
  8
TEAM-NET
 10
87.490822
 20
-255.0
 30
450.0
 70
    64
  0
VERTEX
  5
45
  8
TEAM-NET
 10
70.004592
 20
-255.0
 30
450.0
 70
    64
  0
VERTEX
  5
46
  8
TEAM-NET
 10
-123.548265
 20
-60.057155
 30
0.0
 70
    64
  0
VERTEX
  5
47
  8
TEAM-NET
 10
-123.548265
 20
-42.570924
 30
0.0
 70
    64
  0
VERTEX
  5
48
  8
TEAM-NET
 10
-123.548265
 20
-25.084694
 30
0.0
 70
    64
  0
VERTEX
  5
49
  8
TEAM-NET
 10
-123.548265
 20
-7.598463
 30
0.0
 70
    64
  0
VERTEX
  5
4A
  8
TEAM-NET
 10
-113.660498
 20
0.0
 30
0.0
 70
    64
  0
VERTEX
  5
4B
  8
TEAM-NET
 10
-96.174268
 20
0.0
 30
0.0
 70
    64
  0
VERTEX
  5
4C
  8
TEAM-NET
 10
-78.688037
 20
0.0
 30
0.0
 70
    64
  0
VERTEX
  5
4D
  8
TEAM-NET
 10
-61.201807
 20
0.0
 30
0.0
 70
    64
  0
VERTEX
  5
4E
  8
TEAM-NET
 10
-43.715576
 20
0.0
 30
0.0
 70
    64
  0
VERTEX
  5
4F
  8
TEAM-NET
 10
-26.229346
 20
0.0
 30
0.0
 70
    64
  0
VERTEX
  5
50
  8
TEAM-NET
 10
-8.743115
 20
0.0
 30
0.0
 70
    64
  0
VERTEX
  5
51
  8
TEAM-NET
 10
8.743115
 20
0.0
 30
0.0
 70
    64
  0
VERTEX
  5
52
  8
TEAM-NET
 10
26.229346
 20
0.0
 30
0.0
 70
    64
  0
VERTEX
  5
53
  8
TEAM-NET
 10
43.715576
 20
0.0
 30
0.0
 70
    64
  0
VERTEX
  5
54
  8
TEAM-NET
 10
61.201807
 20
0.0
 30
0.0
 70
    64
  0
VERTEX
  5
55
  8
TEAM-NET
 10
78.688037
 20
0.0
 30
0.0
 70
    64
  0
VERTEX
  5
56
  8
TEAM-NET
 10
96.174268
 20
0.0
 30
0.0
 70
    64
  0
VERTEX
  5
57
  8
TEAM-NET
 10
113.660498
 20
0.0
 30
0.0
 70
    64
  0
VERTEX
  5
58
  8
TEAM-NET
 10
130.451735
 20
-0.694994
 30
0.0
 70
    64
  0
VERTEX
  5
59
  8
TEAM-NET
 10
130.451735
 20
-18.181225
 30
0.0
 70
    64
  0
VERTEX
  5
5A
  8
TEAM-NET
 10
130.451735
 20
-35.667455
 30
0.0
 70
    64
  0
VERTEX
  5
5B
  8
TEAM-NET
 10
130.451735
 20
-53.153685
 30
0.0
 70
    64
  0
VERTEX
  5
5C
  8
TEAM-NET
 10
130.451735
 20
-70.639916
 30
0.0
 70
    64
  0
VERTEX
  5
5D
  8
TEAM-NET
 10
130.451735
 20
-88.126146
 30
0.0
 70
    64
  0
VERTEX
  5
5E
  8
TEAM-NET
 10
130.451735
 20
-105.612377
 30
0.0
 70
    64
  0
VERTEX
  5
5F
  8
TEAM-NET
 10
130.451735
 20
-123.098607
 30
0.0
 70
    64
  0
VERTEX
  5
60
  8
TEAM-NET
 10
130.451735
 20
-140.584838
 30
0.0
 70
    64
  0
VERTEX
  5
61
  8
TEAM-NET
 10
130.451735
 20
-158.071068
 30
0.0
 70
    64
  0
VERTEX
  5
62
  8
TEAM-NET
 10
130.451735
 20
-175.557299
 30
0.0
 70
    64
  0
VERTEX
  5
63
  8
TEAM-NET
 10
130.451735
 20
-193.043529
 30
0.0
 70
    64
  0
VERTEX
  5
64
  8
TEAM-NET
 10
130.451735
 20
-210.52976
 30
0.0
 70
    64
  0
VERTEX
  5
65
  8
TEAM-NET
 10
130.451735
 20
-228.01599
 30
0.0
 70
    64
  0
VERTEX
  5
66
  8
TEAM-NET
 10
130.451735
 20
-245.502221
 30
0.0
 70
    64
  0
VERTEX
  5
67
  8
TEAM-NET
 10
122.463283
 20
-255.0
 30
0.0
 70
    64
  0
VERTEX
  5
68
  8
TEAM-NET
 10
104.977053
 20
-255.0
 30
0.0
 70
    64
  0
VERTEX
  5
69
  8
TEAM-NET
 10
87.490822
 20
-255.0
 30
0.0
 70
    64
  0
VERTEX
  5
6A
  8
TEAM-NET
 10
70.004592
 20
-255.0
 30
0.0
 70
    64
  0
SEQEND
  5
6C
  8
TEAM-NET
  0
POLYLINE
  5
6D
  8
TEAM-NET
 66
     1
 10
0.0
 20
0.0
 30
0.0
 70
    16
 71
     2
 72
    37
  0
VERTEX
  5
6E
  8
TEAM-NET
 10
70.004592
 20
-255.0
 30
0.0
 70
    64
  0
VERTEX
  5
6F
  8
TEAM-NET
 10
59.213045
 20
-255.0
 30
0.0
 70
    64
  0
VERTEX
  5
70
  8
TEAM-NET
 10
48.421497
 20
-255.0
 30
0.0
 70
    64
  0
VERTEX
  5
71
  8
TEAM-NET
 10
37.62995
 20
-255.0
 30
0.0
 70
    64
  0
VERTEX
  5
72
  8
TEAM-NET
 10
26.838403
 20
-255.0
 30
0.0
 70
    64
  0
VERTEX
  5
73
  8
TEAM-NET
 10
16.046855
 20
-255.0
 30
0.0
 70
    64
  0
VERTEX
  5
74
  8
TEAM-NET
 10
5.255308
 20
-255.0
 30
0.0
 70
    64
  0
VERTEX
  5
75
  8
TEAM-NET
 10
-5.536239
 20
-255.0
 30
0.0
 70
    64
  0
VERTEX
  5
76
  8
TEAM-NET
 10
-16.327787
 20
-255.0
 30
0.0
 70
    64
  0
VERTEX
  5
77
  8
TEAM-NET
 10
-27.119334
 20
-255.0
 30
0.0
 70
    64
  0
VERTEX
  5
78
  8
TEAM-NET
 10
-37.910881
 20
-255.0
 30
0.0
 70
    64
  0
VERTEX
  5
79
  8
TEAM-NET
 10
-48.702428
 20
-255.0
 30
0.0
 70
    64
  0
VERTEX
  5
7A
  8
TEAM-NET
 10
-59.493976
 20
-255.0
 30
0.0
 70
    64
  0
VERTEX
  5
7B
  8
TEAM-NET
 10
-70.285523
 20
-255.0
 30
0.0
 70
    64
  0
VERTEX
  5
7C
  8
TEAM-NET
 10
-81.07707
 20
-255.0
 30
0.0
 70
    64
  0
VERTEX
  5
7D
  8
TEAM-NET
 10
-91.868618
 20
-255.0
 30
0.0
 70
    64
  0
VERTEX
  5
7E
  8
TEAM-NET
 10
-102.660165
 20
-255.0
 30
0.0
 70
    64
  0
VERTEX
  5
7F
  8
TEAM-NET
 10
-113.451712
 20
-255.0
 30
0.0
 70
    64
  0
VERTEX
  5
80
  8
TEAM-NET
 10
-123.548265
 20
-254.305006
 30
0.0
 70
    64
  0
VERTEX
  5
81
  8
TEAM-NET
 10
-123.548265
 20
-243.513459
 30
0.0
 70
    64
  0
VERTEX
  5
82
  8
TEAM-NET
 10
-123.548265
 20
-232.721911
 30
0.0
 70
    64
  0
VERTEX
  5
83
  8
TEAM-NET
 10
-123.548265
 20
-221.930364
 30
0.0
 70
    64
  0
VERTEX
  5
84
  8
TEAM-NET
 10
-123.548265
 20
-211.138817
 30
0.0
 70
    64
  0
VERTEX
  5
85
  8
TEAM-NET
 10
-123.548265
 20
-200.347269
 30
0.0
 70
    64
  0
VERTEX
  5
86
  8
TEAM-NET
 10
-123.548265
 20
-189.555722
 30
0.0
 70
    64
  0
VERTEX
  5
87
  8
TEAM-NET
 10
-123.548265
 20
-178.764175
 30
0.0
 70
    64
  0
VERTEX
  5
88
  8
TEAM-NET
 10
-123.548265
 20
-167.972628
 30
0.0
 70
    64
  0
VERTEX
  5
89
  8
TEAM-NET
 10
-123.548265
 20
-157.18108
 30
0.0
 70
    64
  0
VERTEX
  5
8A
  8
TEAM-NET
 10
-123.548265
 20
-146.389533
 30
0.0
 70
    64
  0
VERTEX
  5
8B
  8
TEAM-NET
 10
-123.548265
 20
-135.597986
 30
0.0
 70
    64
  0
VERTEX
  5
8C
  8
TEAM-NET
 10
-123.548265
 20
-124.806438
 30
0.0
 70
    64
  0
VERTEX
  5
8D
  8
TEAM-NET
 10
-123.548265
 20
-114.014891
 30
0.0
 70
    64
  0
VERTEX
  5
8E
  8
TEAM-NET
 10
-123.548265
 20
-103.223344
 30
0.0
 70
    64
  0
VERTEX
  5
8F
  8
TEAM-NET
 10
-123.548265
 20
-92.431796
 30
0.0
 70
    64
  0
VERTEX
  5
90
  8
TEAM-NET
 10
-123.548265
 20
-81.640249
 30
0.0
 70
    64
  0
VERTEX
  5
91
  8
TEAM-NET
 10
-123.548265
 20
-70.848702
 30
0.0
 70
    64
  0
VERTEX
  5
92
  8
TEAM-NET
 10
-123.548265
 20
-60.057155
 30
0.0
 70
    64
  0
VERTEX
  5
93
  8
TEAM-NET
 10
70.004592
 20
-255.0
 30
320.0
 70
    64
  0
VERTEX
  5
94
  8
TEAM-NET
 10
59.213045
 20
-255.0
 30
320.0
 70
    64
  0
VERTEX
  5
95
  8
TEAM-NET
 10
48.421497
 20
-255.0
 30
320.0
 70
    64
  0
VERTEX
  5
96
  8
TEAM-NET
 10
37.62995
 20
-255.0
 30
320.0
 70
    64
  0
VERTEX
  5
97
  8
TEAM-NET
 10
26.838403
 20
-255.0
 30
320.0
 70
    64
  0
VERTEX
  5
98
  8
TEAM-NET
 10
16.046855
 20
-255.0
 30
320.0
 70
    64
  0
VERTEX
  5
99
  8
TEAM-NET
 10
5.255308
 20
-255.0
 30
320.0
 70
    64
  0
VERTEX
  5
9A
  8
TEAM-NET
 10
-5.536239
 20
-255.0
 30
320.0
 70
    64
  0
VERTEX
  5
9B
  8
TEAM-NET
 10
-16.327787
 20
-255.0
 30
320.0
 70
    64
  0
VERTEX
  5
9C
  8
TEAM-NET
 10
-27.119334
 20
-255.0
 30
320.0
 70
    64
  0
VERTEX
  5
9D
  8
TEAM-NET
 10
-37.910881
 20
-255.0
 30
320.0
 70
    64
  0
VERTEX
  5
9E
  8
TEAM-NET
 10
-48.702428
 20
-255.0
 30
320.0
 70
    64
  0
VERTEX
  5
9F
  8
TEAM-NET
 10
-59.493976
 20
-255.0
 30
320.0
 70
    64
  0
VERTEX
  5
A0
  8
TEAM-NET
 10
-70.285523
 20
-255.0
 30
320.0
 70
    64
  0
VERTEX
  5
A1
  8
TEAM-NET
 10
-81.07707
 20
-255.0
 30
320.0
 70
    64
  0
VERTEX
  5
A2
  8
TEAM-NET
 10
-91.868618
 20
-255.0
 30
320.0
 70
    64
  0
VERTEX
  5
A3
  8
TEAM-NET
 10
-102.660165
 20
-255.0
 30
320.0
 70
    64
  0
VERTEX
  5
A4
  8
TEAM-NET
 10
-113.451712
 20
-255.0
 30
320.0
 70
    64
  0
VERTEX
  5
A5
  8
TEAM-NET
 10
-123.548265
 20
-254.305006
 30
320.0
 70
    64
  0
VERTEX
  5
A6
  8
TEAM-NET
 10
-123.548265
 20
-243.513459
 30
320.0
 70
    64
  0
VERTEX
  5
A7
  8
TEAM-NET
 10
-123.548265
 20
-232.721911
 30
320.0
 70
    64
  0
VERTEX
  5
A8
  8
TEAM-NET
 10
-123.548265
 20
-221.930364
 30
320.0
 70
    64
  0
VERTEX
  5
A9
  8
TEAM-NET
 10
-123.548265
 20
-211.138817
 30
320.0
 70
    64
  0
VERTEX
  5
AA
  8
TEAM-NET
 10
-123.548265
 20
-200.347269
 30
320.0
 70
    64
  0
VERTEX
  5
AB
  8
TEAM-NET
 10
-123.548265
 20
-189.555722
 30
320.0
 70
    64
  0
VERTEX
  5
AC
  8
TEAM-NET
 10
-123.548265
 20
-178.764175
 30
320.0
 70
    64
  0
VERTEX
  5
AD
  8
TEAM-NET
 10
-123.548265
 20
-167.972628
 30
320.0
 70
    64
  0
VERTEX
  5
AE
  8
TEAM-NET
 10
-123.548265
 20
-157.18108
 30
320.0
 70
    64
  0
VERTEX
  5
AF
  8
TEAM-NET
 10
-123.548265
 20
-146.389533
 30
320.0
 70
    64
  0
VERTEX
  5
B0
  8
TEAM-NET
 10
-123.548265
 20
-135.597986
 30
320.0
 70
    64
  0
VERTEX
  5
B1
  8
TEAM-NET
 10
-123.548265
 20
-124.806438
 30
320.0
 70
    64
  0
VERTEX
  5
B2
  8
TEAM-NET
 10
-123.548265
 20
-114.014891
 30
320.0
 70
    64
  0
VERTEX
  5
B3
  8
TEAM-NET
 10
-123.548265
 20
-103.223344
 30
320.0
 70
    64
  0
VERTEX
  5
B4
  8
TEAM-NET
 10
-123.548265
 20
-92.431796
 30
320.0
 70
    64
  0
VERTEX
  5
B5
  8
TEAM-NET
 10
-123.548265
 20
-81.640249
 30
320.0
 70
    64
  0
VERTEX
  5
B6
  8
TEAM-NET
 10
-123.548265
 20
-70.848702
 30
320.0
 70
    64
  0
VERTEX
  5
B7
  8
TEAM-NET
 10
-123.548265
 20
-60.057155
 30
320.0
 70
    64
  0
SEQEND
  5
B8
  8
TEAM-NET
  0
CIRCLE
  5
B9
  8
TEAM-INSP
 10
0.451735
 20
0.0
 30
-380.0
 40
10.0
  0
POLYLINE
  5
BB
  8
TEAM-NET
 66
     1
 10
0.0
 20
0.0
 30
0.0
 70
    16
 71
     2
 72
    37
  0
VERTEX
  5
BC
  8
TEAM-NET
 10
70.004592
 20
-255.0
 30
0.0
 70
    64
  0
VERTEX
  5
BD
  8
TEAM-NET
 10
59.213045
 20
-255.0
 30
0.0
 70
    64
  0
VERTEX
  5
BE
  8
TEAM-NET
 10
48.421497
 20
-255.0
 30
0.0
 70
    64
  0
VERTEX
  5
BF
  8
TEAM-NET
 10
37.62995
 20
-255.0
 30
0.0
 70
    64
  0
VERTEX
  5
C0
  8
TEAM-NET
 10
26.838403
 20
-255.0
 30
0.0
 70
    64
  0
VERTEX
  5
C1
  8
TEAM-NET
 10
16.046855
 20
-255.0
 30
0.0
 70
    64
  0
VERTEX
  5
C2
  8
TEAM-NET
 10
5.255308
 20
-255.0
 30
0.0
 70
    64
  0
VERTEX
  5
C3
  8
TEAM-NET
 10
-5.536239
 20
-255.0
 30
0.0
 70
    64
  0
VERTEX
  5
C4
  8
TEAM-NET
 10
-16.327787
 20
-255.0
 30
0.0
 70
    64
  0
VERTEX
  5
C5
  8
TEAM-NET
 10
-27.119334
 20
-255.0
 30
0.0
 70
    64
  0
VERTEX
  5
C6
  8
TEAM-NET
 10
-37.910881
 20
-255.0
 30
0.0
 70
    64
  0
VERTEX
  5
C7
  8
TEAM-NET
 10
-48.702428
 20
-255.0
 30
0.0
 70
    64
  0
VERTEX
  5
C8
  8
TEAM-NET
 10
-59.493976
 20
-255.0
 30
0.0
 70
    64
  0
VERTEX
  5
C9
  8
TEAM-NET
 10
-70.285523
 20
-255.0
 30
0.0
 70
    64
  0
VERTEX
  5
CA
  8
TEAM-NET
 10
-81.07707
 20
-255.0
 30
0.0
 70
    64
  0
VERTEX
  5
CB
  8
TEAM-NET
 10
-91.868618
 20
-255.0
 30
0.0
 70
    64
  0
VERTEX
  5
CC
  8
TEAM-NET
 10
-102.660165
 20
-255.0
 30
0.0
 70
    64
  0
VERTEX
  5
CD
  8
TEAM-NET
 10
-113.451712
 20
-255.0
 30
0.0
 70
    64
  0
VERTEX
  5
CE
  8
TEAM-NET
 10
-123.548265
 20
-254.305006
 30
0.0
 70
    64
  0
VERTEX
  5
CF
  8
TEAM-NET
 10
-123.548265
 20
-243.513459
 30
0.0
 70
    64
  0
VERTEX
  5
D0
  8
TEAM-NET
 10
-123.548265
 20
-232.721911
 30
0.0
 70
    64
  0
VERTEX
  5
D1
  8
TEAM-NET
 10
-123.548265
 20
-221.930364
 30
0.0
 70
    64
  0
VERTEX
  5
D2
  8
TEAM-NET
 10
-123.548265
 20
-211.138817
 30
0.0
 70
    64
  0
VERTEX
  5
D3
  8
TEAM-NET
 10
-123.548265
 20
-200.347269
 30
0.0
 70
    64
  0
VERTEX
  5
D4
  8
TEAM-NET
 10
-123.548265
 20
-189.555722
 30
0.0
 70
    64
  0
VERTEX
  5
D5
  8
TEAM-NET
 10
-123.548265
 20
-178.764175
 30
0.0
 70
    64
  0
VERTEX
  5
D6
  8
TEAM-NET
 10
-123.548265
 20
-167.972628
 30
0.0
 70
    64
  0
VERTEX
  5
D7
  8
TEAM-NET
 10
-123.548265
 20
-157.18108
 30
0.0
 70
    64
  0
VERTEX
  5
D8
  8
TEAM-NET
 10
-123.548265
 20
-146.389533
 30
0.0
 70
    64
  0
VERTEX
  5
D9
  8
TEAM-NET
 10
-123.548265
 20
-135.597986
 30
0.0
 70
    64
  0
VERTEX
  5
DA
  8
TEAM-NET
 10
-123.548265
 20
-124.806438
 30
0.0
 70
    64
  0
VERTEX
  5
DB
  8
TEAM-NET
 10
-123.548265
 20
-114.014891
 30
0.0
 70
    64
  0
VERTEX
  5
DC
  8
TEAM-NET
 10
-123.548265
 20
-103.223344
 30
0.0
 70
    64
  0
VERTEX
  5
DD
  8
TEAM-NET
 10
-123.548265
 20
-92.431796
 30
0.0
 70
    64
  0
VERTEX
  5
DE
  8
TEAM-NET
 10
-123.548265
 20
-81.640249
 30
0.0
 70
    64
  0
VERTEX
  5
DF
  8
TEAM-NET
 10
-123.548265
 20
-70.848702
 30
0.0
 70
    64
  0
VERTEX
  5
E0
  8
TEAM-NET
 10
-123.548265
 20
-60.057155
 30
0.0
 70
    64
  0
VERTEX
  5
E1
  8
TEAM-NET
 10
70.004592
 20
-255.0
 30
0.0
 70
    64
  0
VERTEX
  5
E2
  8
TEAM-NET
 10
87.490822
 20
-255.0
 30
0.0
 70
    64
  0
VERTEX
  5
E3
  8
TEAM-NET
 10
104.977053
 20
-255.0
 30
0.0
 70
    64
  0
VERTEX
  5
E4
  8
TEAM-NET
 10
122.463283
 20
-255.0
 30
0.0
 70
    64
  0
VERTEX
  5
E5
  8
TEAM-NET
 10
130.451735
 20
-245.502221
 30
0.0
 70
    64
  0
VERTEX
  5
E6
  8
TEAM-NET
 10
130.451735
 20
-228.01599
 30
0.0
 70
    64
  0
VERTEX
  5
E7
  8
TEAM-NET
 10
130.451735
 20
-210.52976
 30
0.0
 70
    64
  0
VERTEX
  5
E8
  8
TEAM-NET
 10
130.451735
 20
-193.043529
 30
0.0
 70
    64
  0
VERTEX
  5
E9
  8
TEAM-NET
 10
130.451735
 20
-175.557299
 30
0.0
 70
    64
  0
VERTEX
  5
EA
  8
TEAM-NET
 10
130.451735
 20
-158.071068
 30
0.0
 70
    64
  0
VERTEX
  5
EB
  8
TEAM-NET
 10
130.451735
 20
-140.584838
 30
0.0
 70
    64
  0
VERTEX
  5
EC
  8
TEAM-NET
 10
130.451735
 20
-123.098607
 30
0.0
 70
    64
  0
VERTEX
  5
ED
  8
TEAM-NET
 10
130.451735
 20
-105.612377
 30
0.0
 70
    64
  0
VERTEX
  5
EE
  8
TEAM-NET
 10
130.451735
 20
-88.126146
 30
0.0
 70
    64
  0
VERTEX
  5
EF
  8
TEAM-NET
 10
130.451735
 20
-70.639916
 30
0.0
 70
    64
  0
VERTEX
  5
F0
  8
TEAM-NET
 10
130.451735
 20
-53.153685
 30
0.0
 70
    64
  0
VERTEX
  5
F1
  8
TEAM-NET
 10
130.451735
 20
-35.667455
 30
0.0
 70
    64
  0
VERTEX
  5
F2
  8
TEAM-NET
 10
130.451735
 20
-18.181225
 30
0.0
 70
    64
  0
VERTEX
  5
F3
  8
TEAM-NET
 10
130.451735
 20
-0.694994
 30
0.0
 70
    64
  0
VERTEX
  5
F4
  8
TEAM-NET
 10
113.660498
 20
0.0
 30
0.0
 70
    64
  0
VERTEX
  5
F5
  8
TEAM-NET
 10
96.174268
 20
0.0
 30
0.0
 70
    64
  0
VERTEX
  5
F6
  8
TEAM-NET
 10
78.688037
 20
0.0
 30
0.0
 70
    64
  0
VERTEX
  5
F7
  8
TEAM-NET
 10
61.201807
 20
0.0
 30
0.0
 70
    64
  0
VERTEX
  5
F8
  8
TEAM-NET
 10
43.715576
 20
0.0
 30
0.0
 70
    64
  0
VERTEX
  5
F9
  8
TEAM-NET
 10
26.229346
 20
0.0
 30
0.0
 70
    64
  0
VERTEX
  5
FA
  8
TEAM-NET
 10
8.743115
 20
0.0
 30
0.0
 70
    64
  0
VERTEX
  5
FB
  8
TEAM-NET
 10
-8.743115
 20
0.0
 30
0.0
 70
    64
  0
VERTEX
  5
FC
  8
TEAM-NET
 10
-26.229346
 20
0.0
 30
0.0
 70
    64
  0
VERTEX
  5
FD
  8
TEAM-NET
 10
-43.715576
 20
0.0
 30
0.0
 70
    64
  0
VERTEX
  5
FE
  8
TEAM-NET
 10
-61.201807
 20
0.0
 30
0.0
 70
    64
  0
VERTEX
  5
FF
  8
TEAM-NET
 10
-78.688037
 20
0.0
 30
0.0
 70
    64
  0
VERTEX
  5
100
  8
TEAM-NET
 10
-96.174268
 20
0.0
 30
0.0
 70
    64
  0
VERTEX
  5
101
  8
TEAM-NET
 10
-113.660498
 20
0.0
 30
0.0
 70
    64
  0
VERTEX
  5
102
  8
TEAM-NET
 10
-123.548265
 20
-7.598463
 30
0.0
 70
    64
  0
VERTEX
  5
103
  8
TEAM-NET
 10
-123.548265
 20
-25.084694
 30
0.0
 70
    64
  0
VERTEX
  5
104
  8
TEAM-NET
 10
-123.548265
 20
-42.570924
 30
0.0
 70
    64
  0
VERTEX
  5
105
  8
TEAM-NET
 10
-123.548265
 20
-60.057155
 30
0.0
 70
    64
  0
SEQEND
  5
106
  8
TEAM-NET
  0
POLYLINE
  5
107
  8
TEAM-BODY
 66
     1
 10
0.0
 20
0.0
 30
0.0
  0
VERTEX
  5
71E
  8
TEAM-BODY
 10
70.004592
 20
-255.0
 30
0.0
  0
VERTEX
  5
71F
  8
TEAM-BODY
 10
130.451735
 20
-255.0
 30
0.0
  0
VERTEX
  5
720
  8
TEAM-BODY
 10
130.451735
 20
0.0
 30
0.0
  0
VERTEX
  5
721
  8
TEAM-BODY
 10
-123.548265
 20
0.0
 30
0.0
  0
VERTEX
  5
722
  8
TEAM-BODY
 10
-123.548265
 20
-60.057155
 30
0.0
  0
SEQEND
  5
723
  8
TEAM-BODY
  0
POLYLINE
  5
109
  8
TEAM-BODY
 66
     1
 10
0.0
 20
0.0
 30
0.0
  0
VERTEX
  5
724
  8
TEAM-BODY
 10
-123.548265
 20
-60.057155
 30
0.0
  0
VERTEX
  5
725
  8
TEAM-BODY
 10
-123.548265
 20
-255.0
 30
0.0
  0
VERTEX
  5
726
  8
TEAM-BODY
 10
70.004592
 20
-255.0
 30
0.0
  0
SEQEND
  5
727
  8
TEAM-BODY
  0
POLYLINE
  5
10A
  8
TEAM-NET
 66
     1
 10
0.0
 20
0.0
 30
0.0
 70
    16
 71
    37
 72
    37
  0
VERTEX
  5
10B
  8
TEAM-NET
 10
80.451735
 20
-200.0
 30
470.0
 70
    64
  0
VERTEX
  5
10C
  8
TEAM-NET
 10
79.880939
 20
-213.073361
 30
470.0
 70
    64
  0
VERTEX
  5
10D
  8
TEAM-NET
 10
78.172897
 20
-226.047227
 30
470.0
 70
    64
  0
VERTEX
  5
10E
  8
TEAM-NET
 10
75.340608
 20
-238.822857
 30
470.0
 70
    64
  0
VERTEX
  5
10F
  8
TEAM-NET
 10
71.405628
 20
-251.303021
 30
470.0
 70
    64
  0
VERTEX
  5
110
  8
TEAM-NET
 10
66.397903
 20
-263.392739
 30
470.0
 70
    64
  0
VERTEX
  5
111
  8
TEAM-NET
 10
60.355545
 20
-275.0
 30
470.0
 70
    64
  0
VERTEX
  5
112
  8
TEAM-NET
 10
53.324541
 20
-286.036465
 30
470.0
 70
    64
  0
VERTEX
  5
113
  8
TEAM-NET
 10
45.358401
 20
-296.418141
 30
470.0
 70
    64
  0
VERTEX
  5
114
  8
TEAM-NET
 10
36.517752
 20
-306.066017
 30
470.0
 70
    64
  0
VERTEX
  5
115
  8
TEAM-NET
 10
26.869876
 20
-314.906666
 30
470.0
 70
    64
  0
VERTEX
  5
116
  8
TEAM-NET
 10
16.4882
 20
-322.872807
 30
470.0
 70
    64
  0
VERTEX
  5
117
  8
TEAM-NET
 10
5.451735
 20
-329.903811
 30
470.0
 70
    64
  0
VERTEX
  5
118
  8
TEAM-NET
 10
-6.155526
 20
-335.946168
 30
470.0
 70
    64
  0
VERTEX
  5
119
  8
TEAM-NET
 10
-18.245244
 20
-340.953893
 30
470.0
 70
    64
  0
VERTEX
  5
11A
  8
TEAM-NET
 10
-30.725409
 20
-344.888874
 30
470.0
 70
    64
  0
VERTEX
  5
11B
  8
TEAM-NET
 10
-43.501039
 20
-347.721163
 30
470.0
 70
    64
  0
VERTEX
  5
11C
  8
TEAM-NET
 10
-56.474904
 20
-349.429205
 30
470.0
 70
    64
  0
VERTEX
  5
11D
  8
TEAM-NET
 10
-69.548265
 20
-350.0
 30
470.0
 70
    64
  0
VERTEX
  5
11E
  8
TEAM-NET
 10
-82.621627
 20
-349.429205
 30
470.0
 70
    64
  0
VERTEX
  5
11F
  8
TEAM-NET
 10
-95.595492
 20
-347.721163
 30
470.0
 70
    64
  0
VERTEX
  5
120
  8
TEAM-NET
 10
-108.371122
 20
-344.888874
 30
470.0
 70
    64
  0
VERTEX
  5
121
  8
TEAM-NET
 10
-120.851287
 20
-340.953893
 30
470.0
 70
    64
  0
VERTEX
  5
122
  8
TEAM-NET
 10
-132.941005
 20
-335.946168
 30
470.0
 70
    64
  0
VERTEX
  5
123
  8
TEAM-NET
 10
-144.548265
 20
-329.903811
 30
470.0
 70
    64
  0
VERTEX
  5
124
  8
TEAM-NET
 10
-155.584731
 20
-322.872807
 30
470.0
 70
    64
  0
VERTEX
  5
125
  8
TEAM-NET
 10
-165.966407
 20
-314.906666
 30
470.0
 70
    64
  0
VERTEX
  5
126
  8
TEAM-NET
 10
-175.614283
 20
-306.066017
 30
470.0
 70
    64
  0
VERTEX
  5
127
  8
TEAM-NET
 10
-184.454932
 20
-296.418141
 30
470.0
 70
    64
  0
VERTEX
  5
128
  8
TEAM-NET
 10
-192.421072
 20
-286.036465
 30
470.0
 70
    64
  0
VERTEX
  5
129
  8
TEAM-NET
 10
-199.452076
 20
-275.0
 30
470.0
 70
    64
  0
VERTEX
  5
12A
  8
TEAM-NET
 10
-205.494434
 20
-263.392739
 30
470.0
 70
    64
  0
VERTEX
  5
12B
  8
TEAM-NET
 10
-210.502159
 20
-251.303021
 30
470.0
 70
    64
  0
VERTEX
  5
12C
  8
TEAM-NET
 10
-214.437139
 20
-238.822857
 30
470.0
 70
    64
  0
VERTEX
  5
12D
  8
TEAM-NET
 10
-217.269428
 20
-226.047227
 30
470.0
 70
    64
  0
VERTEX
  5
12E
  8
TEAM-NET
 10
-218.97747
 20
-213.073361
 30
470.0
 70
    64
  0
VERTEX
  5
12F
  8
TEAM-NET
 10
-219.548265
 20
-200.0
 30
470.0
 70
    64
  0
VERTEX
  5
130
  8
TEAM-NET
 10
80.451735
 20
-200.0
 30
470.0
 70
    64
  0
VERTEX
  5
131
  8
TEAM-NET
 10
79.880939
 20
-213.023613
 30
468.860581
 70
    64
  0
VERTEX
  5
132
  8
TEAM-NET
 10
78.172897
 20
-225.948109
 30
467.729835
 70
    64
  0
VERTEX
  5
133
  8
TEAM-NET
 10
75.340608
 20
-238.675124
 30
466.616365
 70
    64
  0
VERTEX
  5
134
  8
TEAM-NET
 10
71.405628
 20
-251.107798
 30
465.528647
 70
    64
  0
VERTEX
  5
135
  8
TEAM-NET
 10
66.397903
 20
-263.151511
 30
464.474959
 70
    64
  0
VERTEX
  5
136
  8
TEAM-NET
 10
60.355545
 20
-274.714602
 30
463.463319
 70
    64
  0
VERTEX
  5
137
  8
TEAM-NET
 10
53.324541
 20
-285.709071
 30
462.501428
 70
    64
  0
VERTEX
  5
138
  8
TEAM-NET
 10
45.358401
 20
-296.051241
 30
461.596605
 70
    64
  0
VERTEX
  5
139
  8
TEAM-NET
 10
36.517752
 20
-305.662404
 30
460.755737
 70
    64
  0
VERTEX
  5
13A
  8
TEAM-NET
 10
26.869876
 20
-314.469412
 30
459.985224
 70
    64
  0
VERTEX
  5
13B
  8
TEAM-NET
 10
16.4882
 20
-322.405239
 30
459.290929
 70
    64
  0
VERTEX
  5
13C
  8
TEAM-NET
 10
5.451735
 20
-329.409487
 30
458.678137
 70
    64
  0
VERTEX
  5
13D
  8
TEAM-NET
 10
-6.155526
 20
-335.428852
 30
458.151511
 70
    64
  0
VERTEX
  5
13E
  8
TEAM-NET
 10
-18.245244
 20
-340.417521
 30
457.715059
 70
    64
  0
VERTEX
  5
13F
  8
TEAM-NET
 10
-30.725409
 20
-344.337528
 30
457.372103
 70
    64
  0
VERTEX
  5
140
  8
TEAM-NET
 10
-43.501039
 20
-347.159039
 30
457.125252
 70
    64
  0
VERTEX
  5
141
  8
TEAM-NET
 10
-56.474904
 20
-348.860581
 30
456.976387
 70
    64
  0
VERTEX
  5
142
  8
TEAM-NET
 10
-69.548265
 20
-349.429205
 30
456.926639
 70
    64
  0
VERTEX
  5
143
  8
TEAM-NET
 10
-82.621627
 20
-348.860581
 30
456.976387
 70
    64
  0
VERTEX
  5
144
  8
TEAM-NET
 10
-95.595492
 20
-347.159039
 30
457.125252
 70
    64
  0
VERTEX
  5
145
  8
TEAM-NET
 10
-108.371122
 20
-344.337528
 30
457.372103
 70
    64
  0
VERTEX
  5
146
  8
TEAM-NET
 10
-120.851287
 20
-340.417521
 30
457.715059
 70
    64
  0
VERTEX
  5
147
  8
TEAM-NET
 10
-132.941005
 20
-335.428852
 30
458.151511
 70
    64
  0
VERTEX
  5
148
  8
TEAM-NET
 10
-144.548265
 20
-329.409487
 30
458.678137
 70
    64
  0
VERTEX
  5
149
  8
TEAM-NET
 10
-155.584731
 20
-322.405239
 30
459.290929
 70
    64
  0
VERTEX
  5
14A
  8
TEAM-NET
 10
-165.966407
 20
-314.469412
 30
459.985224
 70
    64
  0
VERTEX
  5
14B
  8
TEAM-NET
 10
-175.614283
 20
-305.662404
 30
460.755737
 70
    64
  0
VERTEX
  5
14C
  8
TEAM-NET
 10
-184.454932
 20
-296.051241
 30
461.596605
 70
    64
  0
VERTEX
  5
14D
  8
TEAM-NET
 10
-192.421072
 20
-285.709071
 30
462.501428
 70
    64
  0
VERTEX
  5
14E
  8
TEAM-NET
 10
-199.452076
 20
-274.714602
 30
463.463319
 70
    64
  0
VERTEX
  5
14F
  8
TEAM-NET
 10
-205.494434
 20
-263.151511
 30
464.474959
 70
    64
  0
VERTEX
  5
150
  8
TEAM-NET
 10
-210.502159
 20
-251.107798
 30
465.528647
 70
    64
  0
VERTEX
  5
151
  8
TEAM-NET
 10
-214.437139
 20
-238.675124
 30
466.616365
 70
    64
  0
VERTEX
  5
152
  8
TEAM-NET
 10
-217.269428
 20
-225.948109
 30
467.729835
 70
    64
  0
VERTEX
  5
153
  8
TEAM-NET
 10
-218.97747
 20
-213.023613
 30
468.860581
 70
    64
  0
VERTEX
  5
154
  8
TEAM-NET
 10
-219.548265
 20
-200.0
 30
470.0
 70
    64
  0
VERTEX
  5
155
  8
TEAM-NET
 10
80.451735
 20
-200.0
 30
470.0
 70
    64
  0
VERTEX
  5
156
  8
TEAM-NET
 10
79.880939
 20
-212.874748
 30
467.729835
 70
    64
  0
VERTEX
  5
157
  8
TEAM-NET
 10
78.172897
 20
-225.651511
 30
465.476947
 70
    64
  0
VERTEX
  5
158
  8
TEAM-NET
 10
75.340608
 20
-238.23305
 30
463.258482
 70
    64
  0
VERTEX
  5
159
  8
TEAM-NET
 10
71.405628
 20
-250.523613
 30
461.091324
 70
    64
  0
VERTEX
  5
15A
  8
TEAM-NET
 10
66.397903
 20
-262.429661
 30
458.991966
 70
    64
  0
VERTEX
  5
15B
  8
TEAM-NET
 10
60.355545
 20
-273.860581
 30
456.976387
 70
    64
  0
VERTEX
  5
15C
  8
TEAM-NET
 10
53.324541
 20
-284.729378
 30
455.059925
 70
    64
  0
VERTEX
  5
15D
  8
TEAM-NET
 10
45.358401
 20
-294.953333
 30
453.257165
 70
    64
  0
VERTEX
  5
15E
  8
TEAM-NET
 10
36.517752
 20
-304.454636
 30
451.581829
 70
    64
  0
VERTEX
  5
15F
  8
TEAM-NET
 10
26.869876
 20
-313.160976
 30
450.046667
 70
    64
  0
VERTEX
  5
160
  8
TEAM-NET
 10
16.4882
 20
-321.006093
 30
448.663361
 70
    64
  0
VERTEX
  5
161
  8
TEAM-NET
 10
5.451735
 20
-327.93028
 30
447.44244
 70
    64
  0
VERTEX
  5
162
  8
TEAM-NET
 10
-6.155526
 20
-333.88084
 30
446.393196
 70
    64
  0
VERTEX
  5
163
  8
TEAM-NET
 10
-18.245244
 20
-338.812487
 30
445.523613
 70
    64
  0
VERTEX
  5
164
  8
TEAM-NET
 10
-30.725409
 20
-342.687686
 30
444.840311
 70
    64
  0
VERTEX
  5
165
  8
TEAM-NET
 10
-43.501039
 20
-345.476947
 30
444.348489
 70
    64
  0
VERTEX
  5
166
  8
TEAM-NET
 10
-56.474904
 20
-347.159039
 30
444.051891
 70
    64
  0
VERTEX
  5
167
  8
TEAM-NET
 10
-69.548265
 20
-347.721163
 30
443.952773
 70
    64
  0
VERTEX
  5
168
  8
TEAM-NET
 10
-82.621627
 20
-347.159039
 30
444.051891
 70
    64
  0
VERTEX
  5
169
  8
TEAM-NET
 10
-95.595492
 20
-345.476947
 30
444.348489
 70
    64
  0
VERTEX
  5
16A
  8
TEAM-NET
 10
-108.371122
 20
-342.687686
 30
444.840311
 70
    64
  0
VERTEX
  5
16B
  8
TEAM-NET
 10
-120.851287
 20
-338.812487
 30
445.523613
 70
    64
  0
VERTEX
  5
16C
  8
TEAM-NET
 10
-132.941005
 20
-333.88084
 30
446.393196
 70
    64
  0
VERTEX
  5
16D
  8
TEAM-NET
 10
-144.548265
 20
-327.93028
 30
447.44244
 70
    64
  0
VERTEX
  5
16E
  8
TEAM-NET
 10
-155.584731
 20
-321.006093
 30
448.663361
 70
    64
  0
VERTEX
  5
16F
  8
TEAM-NET
 10
-165.966407
 20
-313.160976
 30
450.046667
 70
    64
  0
VERTEX
  5
170
  8
TEAM-NET
 10
-175.614283
 20
-304.454636
 30
451.581829
 70
    64
  0
VERTEX
  5
171
  8
TEAM-NET
 10
-184.454932
 20
-294.953333
 30
453.257165
 70
    64
  0
VERTEX
  5
172
  8
TEAM-NET
 10
-192.421072
 20
-284.729378
 30
455.059925
 70
    64
  0
VERTEX
  5
173
  8
TEAM-NET
 10
-199.452076
 20
-273.860581
 30
456.976387
 70
    64
  0
VERTEX
  5
174
  8
TEAM-NET
 10
-205.494434
 20
-262.429661
 30
458.991966
 70
    64
  0
VERTEX
  5
175
  8
TEAM-NET
 10
-210.502159
 20
-250.523613
 30
461.091324
 70
    64
  0
VERTEX
  5
176
  8
TEAM-NET
 10
-214.437139
 20
-238.23305
 30
463.258482
 70
    64
  0
VERTEX
  5
177
  8
TEAM-NET
 10
-217.269428
 20
-225.651511
 30
465.476947
 70
    64
  0
VERTEX
  5
178
  8
TEAM-NET
 10
-218.97747
 20
-212.874748
 30
467.729835
 70
    64
  0
VERTEX
  5
179
  8
TEAM-NET
 10
-219.548265
 20
-200.0
 30
470.0
 70
    64
  0
VERTEX
  5
17A
  8
TEAM-NET
 10
80.451735
 20
-200.0
 30
470.0
 70
    64
  0
VERTEX
  5
17B
  8
TEAM-NET
 10
79.880939
 20
-212.627897
 30
466.616365
 70
    64
  0
VERTEX
  5
17C
  8
TEAM-NET
 10
78.172897
 20
-225.159689
 30
463.258482
 70
    64
  0
VERTEX
  5
17D
  8
TEAM-NET
 10
75.340608
 20
-237.5
 30
459.951905
 70
    64
  0
VERTEX
  5
17E
  8
TEAM-NET
 10
71.405628
 20
-249.554913
 30
456.721801
 70
    64
  0
VERTEX
  5
17F
  8
TEAM-NET
 10
66.397903
 20
-261.232684
 30
453.592752
 70
    64
  0
VERTEX
  5
180
  8
TEAM-NET
 10
60.355545
 20
-272.444437
 30
450.588572
 70
    64
  0
VERTEX
  5
181
  8
TEAM-NET
 10
53.324541
 20
-283.104844
 30
447.732124
 70
    64
  0
VERTEX
  5
182
  8
TEAM-NET
 10
45.358401
 20
-293.132773
 30
445.045149
 70
    64
  0
VERTEX
  5
183
  8
TEAM-NET
 10
36.517752
 20
-302.451905
 30
442.548095
 70
    64
  0
VERTEX
  5
184
  8
TEAM-NET
 10
26.869876
 20
-310.991317
 30
440.259966
 70
    64
  0
VERTEX
  5
185
  8
TEAM-NET
 10
16.4882
 20
-318.686017
 30
438.198178
 70
    64
  0
VERTEX
  5
186
  8
TEAM-NET
 10
5.451735
 20
-325.477446
 30
436.37842
 70
    64
  0
VERTEX
  5
187
  8
TEAM-NET
 10
-6.155526
 20
-331.313915
 30
434.814543
 70
    64
  0
VERTEX
  5
188
  8
TEAM-NET
 10
-18.245244
 20
-336.151006
 30
433.518448
 70
    64
  0
VERTEX
  5
189
  8
TEAM-NET
 10
-30.725409
 20
-339.951905
 30
432.5
 70
    64
  0
VERTEX
  5
18A
  8
TEAM-NET
 10
-43.501039
 20
-342.687686
 30
431.76695
 70
    64
  0
VERTEX
  5
18B
  8
TEAM-NET
 10
-56.474904
 20
-344.337528
 30
431.324876
 70
    64
  0
VERTEX
  5
18C
  8
TEAM-NET
 10
-69.548265
 20
-344.888874
 30
431.177143
 70
    64
  0
VERTEX
  5
18D
  8
TEAM-NET
 10
-82.621627
 20
-344.337528
 30
431.324876
 70
    64
  0
VERTEX
  5
18E
  8
TEAM-NET
 10
-95.595492
 20
-342.687686
 30
431.76695
 70
    64
  0
VERTEX
  5
18F
  8
TEAM-NET
 10
-108.371122
 20
-339.951905
 30
432.5
 70
    64
  0
VERTEX
  5
190
  8
TEAM-NET
 10
-120.851287
 20
-336.151006
 30
433.518448
 70
    64
  0
VERTEX
  5
191
  8
TEAM-NET
 10
-132.941005
 20
-331.313915
 30
434.814543
 70
    64
  0
VERTEX
  5
192
  8
TEAM-NET
 10
-144.548265
 20
-325.477446
 30
436.37842
 70
    64
  0
VERTEX
  5
193
  8
TEAM-NET
 10
-155.584731
 20
-318.686017
 30
438.198178
 70
    64
  0
VERTEX
  5
194
  8
TEAM-NET
 10
-165.966407
 20
-310.991317
 30
440.259966
 70
    64
  0
VERTEX
  5
195
  8
TEAM-NET
 10
-175.614283
 20
-302.451905
 30
442.548095
 70
    64
  0
VERTEX
  5
196
  8
TEAM-NET
 10
-184.454932
 20
-293.132773
 30
445.045149
 70
    64
  0
VERTEX
  5
197
  8
TEAM-NET
 10
-192.421072
 20
-283.104844
 30
447.732124
 70
    64
  0
VERTEX
  5
198
  8
TEAM-NET
 10
-199.452076
 20
-272.444437
 30
450.588572
 70
    64
  0
VERTEX
  5
199
  8
TEAM-NET
 10
-205.494434
 20
-261.232684
 30
453.592752
 70
    64
  0
VERTEX
  5
19A
  8
TEAM-NET
 10
-210.502159
 20
-249.554913
 30
456.721801
 70
    64
  0
VERTEX
  5
19B
  8
TEAM-NET
 10
-214.437139
 20
-237.5
 30
459.951905
 70
    64
  0
VERTEX
  5
19C
  8
TEAM-NET
 10
-217.269428
 20
-225.159689
 30
463.258482
 70
    64
  0
VERTEX
  5
19D
  8
TEAM-NET
 10
-218.97747
 20
-212.627897
 30
466.616365
 70
    64
  0
VERTEX
  5
19E
  8
TEAM-NET
 10
-219.548265
 20
-200.0
 30
470.0
 70
    64
  0
VERTEX
  5
19F
  8
TEAM-NET
 10
80.451735
 20
-200.0
 30
470.0
 70
    64
  0
VERTEX
  5
1A0
  8
TEAM-NET
 10
79.880939
 20
-212.284941
 30
465.528647
 70
    64
  0
VERTEX
  5
1A1
  8
TEAM-NET
 10
78.172897
 20
-224.476387
 30
461.091324
 70
    64
  0
VERTEX
  5
1A2
  8
TEAM-NET
 10
75.340608
 20
-236.481552
 30
456.721801
 70
    64
  0
VERTEX
  5
1A3
  8
TEAM-NET
 10
71.405628
 20
-248.209071
 30
452.453333
 70
    64
  0
VERTEX
  5
1A4
  8
TEAM-NET
 10
66.397903
 20
-259.569689
 30
448.318406
 70
    64
  0
VERTEX
  5
1A5
  8
TEAM-NET
 10
60.355545
 20
-270.476947
 30
444.348489
 70
    64
  0
VERTEX
  5
1A6
  8
TEAM-NET
 10
53.324541
 20
-280.847832
 30
440.573796
 70
    64
  0
VERTEX
  5
1A7
  8
TEAM-NET
 10
45.358401
 20
-290.603416
 30
437.023053
 70
    64
  0
VERTEX
  5
1A8
  8
TEAM-NET
 10
36.517752
 20
-299.669454
 30
433.723286
 70
    64
  0
VERTEX
  5
1A9
  8
TEAM-NET
 10
26.869876
 20
-307.976947
 30
430.699605
 70
    64
  0
VERTEX
  5
1AA
  8
TEAM-NET
 10
16.4882
 20
-315.46267
 30
427.975025
 70
    64
  0
VERTEX
  5
1AB
  8
TEAM-NET
 10
5.451735
 20
-322.069652
 30
425.57028
 70
    64
  0
VERTEX
  5
1AC
  8
TEAM-NET
 10
-6.155526
 20
-327.747611
 30
423.503672
 70
    64
  0
VERTEX
  5
1AD
  8
TEAM-NET
 10
-18.245244
 20
-332.453333
 30
421.790929
 70
    64
  0
VERTEX
  5
1AE
  8
TEAM-NET
 10
-30.725409
 20
-336.151006
 30
420.445087
 70
    64
  0
VERTEX
  5
1AF
  8
TEAM-NET
 10
-43.501039
 20
-338.812487
 30
419.476387
 70
    64
  0
VERTEX
  5
1B0
  8
TEAM-NET
 10
-56.474904
 20
-340.417521
 30
418.892202
 70
    64
  0
VERTEX
  5
1B1
  8
TEAM-NET
 10
-69.548265
 20
-340.953893
 30
418.696979
 70
    64
  0
VERTEX
  5
1B2
  8
TEAM-NET
 10
-82.621627
 20
-340.417521
 30
418.892202
 70
    64
  0
VERTEX
  5
1B3
  8
TEAM-NET
 10
-95.595492
 20
-338.812487
 30
419.476387
 70
    64
  0
VERTEX
  5
1B4
  8
TEAM-NET
 10
-108.371122
 20
-336.151006
 30
420.445087
 70
    64
  0
VERTEX
  5
1B5
  8
TEAM-NET
 10
-120.851287
 20
-332.453333
 30
421.790929
 70
    64
  0
VERTEX
  5
1B6
  8
TEAM-NET
 10
-132.941005
 20
-327.747611
 30
423.503672
 70
    64
  0
VERTEX
  5
1B7
  8
TEAM-NET
 10
-144.548265
 20
-322.069652
 30
425.57028
 70
    64
  0
VERTEX
  5
1B8
  8
TEAM-NET
 10
-155.584731
 20
-315.46267
 30
427.975025
 70
    64
  0
VERTEX
  5
1B9
  8
TEAM-NET
 10
-165.966407
 20
-307.976947
 30
430.699605
 70
    64
  0
VERTEX
  5
1BA
  8
TEAM-NET
 10
-175.614283
 20
-299.669454
 30
433.723286
 70
    64
  0
VERTEX
  5
1BB
  8
TEAM-NET
 10
-184.454932
 20
-290.603416
 30
437.023053
 70
    64
  0
VERTEX
  5
1BC
  8
TEAM-NET
 10
-192.421072
 20
-280.847832
 30
440.573796
 70
    64
  0
VERTEX
  5
1BD
  8
TEAM-NET
 10
-199.452076
 20
-270.476947
 30
444.348489
 70
    64
  0
VERTEX
  5
1BE
  8
TEAM-NET
 10
-205.494434
 20
-259.569689
 30
448.318406
 70
    64
  0
VERTEX
  5
1BF
  8
TEAM-NET
 10
-210.502159
 20
-248.209071
 30
452.453333
 70
    64
  0
VERTEX
  5
1C0
  8
TEAM-NET
 10
-214.437139
 20
-236.481552
 30
456.721801
 70
    64
  0
VERTEX
  5
1C1
  8
TEAM-NET
 10
-217.269428
 20
-224.476387
 30
461.091324
 70
    64
  0
VERTEX
  5
1C2
  8
TEAM-NET
 10
-218.97747
 20
-212.284941
 30
465.528647
 70
    64
  0
VERTEX
  5
1C3
  8
TEAM-NET
 10
-219.548265
 20
-200.0
 30
470.0
 70
    64
  0
VERTEX
  5
1C4
  8
TEAM-NET
 10
80.451735
 20
-200.0
 30
470.0
 70
    64
  0
VERTEX
  5
1C5
  8
TEAM-NET
 10
79.880939
 20
-211.848489
 30
464.474959
 70
    64
  0
VERTEX
  5
1C6
  8
TEAM-NET
 10
78.172897
 20
-223.606804
 30
458.991966
 70
    64
  0
VERTEX
  5
1C7
  8
TEAM-NET
 10
75.340608
 20
-235.185457
 30
453.592752
 70
    64
  0
VERTEX
  5
1C8
  8
TEAM-NET
 10
71.405628
 20
-246.496328
 30
448.318406
 70
    64
  0
VERTEX
  5
1C9
  8
TEAM-NET
 10
66.397903
 20
-257.453333
 30
443.209071
 70
    64
  0
VERTEX
  5
1CA
  8
TEAM-NET
 10
60.355545
 20
-267.973084
 30
438.30363
 70
    64
  0
VERTEX
  5
1CB
  8
TEAM-NET
 10
53.324541
 20
-277.975519
 30
433.639419
 70
    64
  0
VERTEX
  5
1CC
  8
TEAM-NET
 10
45.358401
 20
-287.384512
 30
429.251933
 70
    64
  0
VERTEX
  5
1CD
  8
TEAM-NET
 10
36.517752
 20
-296.128457
 30
425.174564
 70
    64
  0
VERTEX
  5
1CE
  8
TEAM-NET
 10
26.869876
 20
-304.140807
 30
421.438344
 70
    64
  0
VERTEX
  5
1CF
  8
TEAM-NET
 10
16.4882
 20
-311.360581
 30
418.071708
 70
    64
  0
VERTEX
  5
1D0
  8
TEAM-NET
 10
5.451735
 20
-317.732835
 30
415.100277
 70
    64
  0
VERTEX
  5
1D1
  8
TEAM-NET
 10
-6.155526
 20
-323.209071
 30
412.546667
 70
    64
  0
VERTEX
  5
1D2
  8
TEAM-NET
 10
-18.245244
 20
-327.747611
 30
410.430311
 70
    64
  0
VERTEX
  5
1D3
  8
TEAM-NET
 10
-30.725409
 20
-331.313915
 30
408.767316
 70
    64
  0
VERTEX
  5
1D4
  8
TEAM-NET
 10
-43.501039
 20
-333.88084
 30
407.570339
 70
    64
  0
VERTEX
  5
1D5
  8
TEAM-NET
 10
-56.474904
 20
-335.428852
 30
406.848489
 70
    64
  0
VERTEX
  5
1D6
  8
TEAM-NET
 10
-69.548265
 20
-335.946168
 30
406.607261
 70
    64
  0
VERTEX
  5
1D7
  8
TEAM-NET
 10
-82.621627
 20
-335.428852
 30
406.848489
 70
    64
  0
VERTEX
  5
1D8
  8
TEAM-NET
 10
-95.595492
 20
-333.88084
 30
407.570339
 70
    64
  0
VERTEX
  5
1D9
  8
TEAM-NET
 10
-108.371122
 20
-331.313915
 30
408.767316
 70
    64
  0
VERTEX
  5
1DA
  8
TEAM-NET
 10
-120.851287
 20
-327.747611
 30
410.430311
 70
    64
  0
VERTEX
  5
1DB
  8
TEAM-NET
 10
-132.941005
 20
-323.209071
 30
412.546667
 70
    64
  0
VERTEX
  5
1DC
  8
TEAM-NET
 10
-144.548265
 20
-317.732835
 30
415.100277
 70
    64
  0
VERTEX
  5
1DD
  8
TEAM-NET
 10
-155.584731
 20
-311.360581
 30
418.071708
 70
    64
  0
VERTEX
  5
1DE
  8
TEAM-NET
 10
-165.966407
 20
-304.140807
 30
421.438344
 70
    64
  0
VERTEX
  5
1DF
  8
TEAM-NET
 10
-175.614283
 20
-296.128457
 30
425.174564
 70
    64
  0
VERTEX
  5
1E0
  8
TEAM-NET
 10
-184.454932
 20
-287.384512
 30
429.251933
 70
    64
  0
VERTEX
  5
1E1
  8
TEAM-NET
 10
-192.421072
 20
-277.975519
 30
433.639419
 70
    64
  0
VERTEX
  5
1E2
  8
TEAM-NET
 10
-199.452076
 20
-267.973084
 30
438.30363
 70
    64
  0
VERTEX
  5
1E3
  8
TEAM-NET
 10
-205.494434
 20
-257.453333
 30
443.209071
 70
    64
  0
VERTEX
  5
1E4
  8
TEAM-NET
 10
-210.502159
 20
-246.496328
 30
448.318406
 70
    64
  0
VERTEX
  5
1E5
  8
TEAM-NET
 10
-214.437139
 20
-235.185457
 30
453.592752
 70
    64
  0
VERTEX
  5
1E6
  8
TEAM-NET
 10
-217.269428
 20
-223.606804
 30
458.991966
 70
    64
  0
VERTEX
  5
1E7
  8
TEAM-NET
 10
-218.97747
 20
-211.848489
 30
464.474959
 70
    64
  0
VERTEX
  5
1E8
  8
TEAM-NET
 10
-219.548265
 20
-200.0
 30
470.0
 70
    64
  0
VERTEX
  5
1E9
  8
TEAM-NET
 10
80.451735
 20
-200.0
 30
470.0
 70
    64
  0
VERTEX
  5
1EA
  8
TEAM-NET
 10
79.880939
 20
-211.321863
 30
463.463319
 70
    64
  0
VERTEX
  5
1EB
  8
TEAM-NET
 10
78.172897
 20
-222.55756
 30
456.976387
 70
    64
  0
VERTEX
  5
1EC
  8
TEAM-NET
 10
75.340608
 20
-233.62158
 30
450.588572
 70
    64
  0
VERTEX
  5
1ED
  8
TEAM-NET
 10
71.405628
 20
-244.42972
 30
444.348489
 70
    64
  0
VERTEX
  5
1EE
  8
TEAM-NET
 10
66.397903
 20
-254.899723
 30
438.30363
 70
    64
  0
VERTEX
  5
1EF
  8
TEAM-NET
 10
60.355545
 20
-264.951905
 30
432.5
 70
    64
  0
VERTEX
  5
1F0
  8
TEAM-NET
 10
53.324541
 20
-274.509765
 30
426.981767
 70
    64
  0
VERTEX
  5
1F1
  8
TEAM-NET
 10
45.358401
 20
-283.50056
 30
421.790929
 70
    64
  0
VERTEX
  5
1F2
  8
TEAM-NET
 10
36.517752
 20
-291.855865
 30
416.966991
 70
    64
  0
VERTEX
  5
1F3
  8
TEAM-NET
 10
26.869876
 20
-299.512092
 30
412.546667
 70
    64
  0
VERTEX
  5
1F4
  8
TEAM-NET
 10
16.4882
 20
-306.410972
 30
408.563597
 70
    64
  0
VERTEX
  5
1F5
  8
TEAM-NET
 10
5.451735
 20
-312.5
 30
405.048095
 70
    64
  0
VERTEX
  5
1F6
  8
TEAM-NET
 10
-6.155526
 20
-317.732835
 30
402.026916
 70
    64
  0
VERTEX
  5
1F7
  8
TEAM-NET
 10
-18.245244
 20
-322.069652
 30
399.523053
 70
    64
  0
VERTEX
  5
1F8
  8
TEAM-NET
 10
-30.725409
 20
-325.477446
 30
397.555563
 70
    64
  0
VERTEX
  5
1F9
  8
TEAM-NET
 10
-43.501039
 20
-327.93028
 30
396.139419
 70
    64
  0
VERTEX
  5
1FA
  8
TEAM-NET
 10
-56.474904
 20
-329.409487
 30
395.285398
 70
    64
  0
VERTEX
  5
1FB
  8
TEAM-NET
 10
-69.548265
 20
-329.903811
 30
395.0
 70
    64
  0
VERTEX
  5
1FC
  8
TEAM-NET
 10
-82.621627
 20
-329.409487
 30
395.285398
 70
    64
  0
VERTEX
  5
1FD
  8
TEAM-NET
 10
-95.595492
 20
-327.93028
 30
396.139419
 70
    64
  0
VERTEX
  5
1FE
  8
TEAM-NET
 10
-108.371122
 20
-325.477446
 30
397.555563
 70
    64
  0
VERTEX
  5
1FF
  8
TEAM-NET
 10
-120.851287
 20
-322.069652
 30
399.523053
 70
    64
  0
VERTEX
  5
200
  8
TEAM-NET
 10
-132.941005
 20
-317.732835
 30
402.026916
 70
    64
  0
VERTEX
  5
201
  8
TEAM-NET
 10
-144.548265
 20
-312.5
 30
405.048095
 70
    64
  0
VERTEX
  5
202
  8
TEAM-NET
 10
-155.584731
 20
-306.410972
 30
408.563597
 70
    64
  0
VERTEX
  5
203
  8
TEAM-NET
 10
-165.966407
 20
-299.512092
 30
412.546667
 70
    64
  0
VERTEX
  5
204
  8
TEAM-NET
 10
-175.614283
 20
-291.855865
 30
416.966991
 70
    64
  0
VERTEX
  5
205
  8
TEAM-NET
 10
-184.454932
 20
-283.50056
 30
421.790929
 70
    64
  0
VERTEX
  5
206
  8
TEAM-NET
 10
-192.421072
 20
-274.509765
 30
426.981767
 70
    64
  0
VERTEX
  5
207
  8
TEAM-NET
 10
-199.452076
 20
-264.951905
 30
432.5
 70
    64
  0
VERTEX
  5
208
  8
TEAM-NET
 10
-205.494434
 20
-254.899723
 30
438.30363
 70
    64
  0
VERTEX
  5
209
  8
TEAM-NET
 10
-210.502159
 20
-244.42972
 30
444.348489
 70
    64
  0
VERTEX
  5
20A
  8
TEAM-NET
 10
-214.437139
 20
-233.62158
 30
450.588572
 70
    64
  0
VERTEX
  5
20B
  8
TEAM-NET
 10
-217.269428
 20
-222.55756
 30
456.976387
 70
    64
  0
VERTEX
  5
20C
  8
TEAM-NET
 10
-218.97747
 20
-211.321863
 30
463.463319
 70
    64
  0
VERTEX
  5
20D
  8
TEAM-NET
 10
-219.548265
 20
-200.0
 30
470.0
 70
    64
  0
VERTEX
  5
20E
  8
TEAM-NET
 10
80.451735
 20
-200.0
 30
470.0
 70
    64
  0
VERTEX
  5
20F
  8
TEAM-NET
 10
79.880939
 20
-210.709071
 30
462.501428
 70
    64
  0
VERTEX
  5
210
  8
TEAM-NET
 10
78.172897
 20
-221.336639
 30
455.059925
 70
    64
  0
VERTEX
  5
211
  8
TEAM-NET
 10
75.340608
 20
-231.801822
 30
447.732124
 70
    64
  0
VERTEX
  5
212
  8
TEAM-NET
 10
71.405628
 20
-242.024975
 30
440.573796
 70
    64
  0
VERTEX
  5
213
  8
TEAM-NET
 10
66.397903
 20
-251.928292
 30
433.639419
 70
    64
  0
VERTEX
  5
214
  8
TEAM-NET
 10
60.355545
 20
-261.436403
 30
426.981767
 70
    64
  0
VERTEX
  5
215
  8
TEAM-NET
 10
53.324541
 20
-270.476947
 30
420.651511
 70
    64
  0
VERTEX
  5
216
  8
TEAM-NET
 10
45.358401
 20
-278.981118
 30
414.696826
 70
    64
  0
VERTEX
  5
217
  8
TEAM-NET
 10
36.517752
 20
-286.884195
 30
409.163032
 70
    64
  0
VERTEX
  5
218
  8
TEAM-NET
 10
26.869876
 20
-294.126031
 30
404.092244
 70
    64
  0
VERTEX
  5
219
  8
TEAM-NET
 10
16.4882
 20
-300.651511
 30
399.523053
 70
    64
  0
VERTEX
  5
21A
  8
TEAM-NET
 10
5.451735
 20
-306.410972
 30
395.490235
 70
    64
  0
VERTEX
  5
21B
  8
TEAM-NET
 10
-6.155526
 20
-311.360581
 30
392.024481
 70
    64
  0
VERTEX
  5
21C
  8
TEAM-NET
 10
-18.245244
 20
-315.46267
 30
389.152168
 70
    64
  0
VERTEX
  5
21D
  8
TEAM-NET
 10
-30.725409
 20
-318.686017
 30
386.895156
 70
    64
  0
VERTEX
  5
21E
  8
TEAM-NET
 10
-43.501039
 20
-321.006093
 30
385.270622
 70
    64
  0
VERTEX
  5
21F
  8
TEAM-NET
 10
-56.474904
 20
-322.405239
 30
384.290929
 70
    64
  0
VERTEX
  5
220
  8
TEAM-NET
 10
-69.548265
 20
-322.872807
 30
383.963535
 70
    64
  0
VERTEX
  5
221
  8
TEAM-NET
 10
-82.621627
 20
-322.405239
 30
384.290929
 70
    64
  0
VERTEX
  5
222
  8
TEAM-NET
 10
-95.595492
 20
-321.006093
 30
385.270622
 70
    64
  0
VERTEX
  5
223
  8
TEAM-NET
 10
-108.371122
 20
-318.686017
 30
386.895156
 70
    64
  0
VERTEX
  5
224
  8
TEAM-NET
 10
-120.851287
 20
-315.46267
 30
389.152168
 70
    64
  0
VERTEX
  5
225
  8
TEAM-NET
 10
-132.941005
 20
-311.360581
 30
392.024481
 70
    64
  0
VERTEX
  5
226
  8
TEAM-NET
 10
-144.548265
 20
-306.410972
 30
395.490235
 70
    64
  0
VERTEX
  5
227
  8
TEAM-NET
 10
-155.584731
 20
-300.651511
 30
399.523053
 70
    64
  0
VERTEX
  5
228
  8
TEAM-NET
 10
-165.966407
 20
-294.126031
 30
404.092244
 70
    64
  0
VERTEX
  5
229
  8
TEAM-NET
 10
-175.614283
 20
-286.884195
 30
409.163032
 70
    64
  0
VERTEX
  5
22A
  8
TEAM-NET
 10
-184.454932
 20
-278.981118
 30
414.696826
 70
    64
  0
VERTEX
  5
22B
  8
TEAM-NET
 10
-192.421072
 20
-270.476947
 30
420.651511
 70
    64
  0
VERTEX
  5
22C
  8
TEAM-NET
 10
-199.452076
 20
-261.436403
 30
426.981767
 70
    64
  0
VERTEX
  5
22D
  8
TEAM-NET
 10
-205.494434
 20
-251.928292
 30
433.639419
 70
    64
  0
VERTEX
  5
22E
  8
TEAM-NET
 10
-210.502159
 20
-242.024975
 30
440.573796
 70
    64
  0
VERTEX
  5
22F
  8
TEAM-NET
 10
-214.437139
 20
-231.801822
 30
447.732124
 70
    64
  0
VERTEX
  5
230
  8
TEAM-NET
 10
-217.269428
 20
-221.336639
 30
455.059925
 70
    64
  0
VERTEX
  5
231
  8
TEAM-NET
 10
-218.97747
 20
-210.709071
 30
462.501428
 70
    64
  0
VERTEX
  5
232
  8
TEAM-NET
 10
-219.548265
 20
-200.0
 30
470.0
 70
    64
  0
VERTEX
  5
233
  8
TEAM-NET
 10
80.451735
 20
-200.0
 30
470.0
 70
    64
  0
VERTEX
  5
234
  8
TEAM-NET
 10
79.880939
 20
-210.014776
 30
461.596605
 70
    64
  0
VERTEX
  5
235
  8
TEAM-NET
 10
78.172897
 20
-219.953333
 30
453.257165
 70
    64
  0
VERTEX
  5
236
  8
TEAM-NET
 10
75.340608
 20
-229.740034
 30
445.045149
 70
    64
  0
VERTEX
  5
237
  8
TEAM-NET
 10
71.405628
 20
-239.300395
 30
437.023053
 70
    64
  0
VERTEX
  5
238
  8
TEAM-NET
 10
66.397903
 20
-248.561656
 30
429.251933
 70
    64
  0
VERTEX
  5
239
  8
TEAM-NET
 10
60.355545
 20
-257.453333
 30
421.790929
 70
    64
  0
VERTEX
  5
23A
  8
TEAM-NET
 10
53.324541
 20
-265.907756
 30
414.696826
 70
    64
  0
VERTEX
  5
23B
  8
TEAM-NET
 10
45.358401
 20
-273.860581
 30
408.023613
 70
    64
  0
VERTEX
  5
23C
  8
TEAM-NET
 10
36.517752
 20
-281.251283
 30
401.822078
 70
    64
  0
VERTEX
  5
23D
  8
TEAM-NET
 10
26.869876
 20
-288.023613
 30
396.139419
 70
    64
  0
VERTEX
  5
23E
  8
TEAM-NET
 10
16.4882
 20
-294.126031
 30
391.018882
 70
    64
  0
VERTEX
  5
23F
  8
TEAM-NET
 10
5.451735
 20
-299.512092
 30
386.49944
 70
    64
  0
VERTEX
  5
240
  8
TEAM-NET
 10
-6.155526
 20
-304.140807
 30
382.615488
 70
    64
  0
VERTEX
  5
241
  8
TEAM-NET
 10
-18.245244
 20
-307.976947
 30
379.396584
 70
    64
  0
VERTEX
  5
242
  8
TEAM-NET
 10
-30.725409
 20
-310.991317
 30
376.867227
 70
    64
  0
VERTEX
  5
243
  8
TEAM-NET
 10
-43.501039
 20
-313.160976
 30
375.046667
 70
    64
  0
VERTEX
  5
244
  8
TEAM-NET
 10
-56.474904
 20
-314.469412
 30
373.948759
 70
    64
  0
VERTEX
  5
245
  8
TEAM-NET
 10
-69.548265
 20
-314.906666
 30
373.581859
 70
    64
  0
VERTEX
  5
246
  8
TEAM-NET
 10
-82.621627
 20
-314.469412
 30
373.948759
 70
    64
  0
VERTEX
  5
247
  8
TEAM-NET
 10
-95.595492
 20
-313.160976
 30
375.046667
 70
    64
  0
VERTEX
  5
248
  8
TEAM-NET
 10
-108.371122
 20
-310.991317
 30
376.867227
 70
    64
  0
VERTEX
  5
249
  8
TEAM-NET
 10
-120.851287
 20
-307.976947
 30
379.396584
 70
    64
  0
VERTEX
  5
24A
  8
TEAM-NET
 10
-132.941005
 20
-304.140807
 30
382.615488
 70
    64
  0
VERTEX
  5
24B
  8
TEAM-NET
 10
-144.548265
 20
-299.512092
 30
386.49944
 70
    64
  0
VERTEX
  5
24C
  8
TEAM-NET
 10
-155.584731
 20
-294.126031
 30
391.018882
 70
    64
  0
VERTEX
  5
24D
  8
TEAM-NET
 10
-165.966407
 20
-288.023613
 30
396.139419
 70
    64
  0
VERTEX
  5
24E
  8
TEAM-NET
 10
-175.614283
 20
-281.251283
 30
401.822078
 70
    64
  0
VERTEX
  5
24F
  8
TEAM-NET
 10
-184.454932
 20
-273.860581
 30
408.023613
 70
    64
  0
VERTEX
  5
250
  8
TEAM-NET
 10
-192.421072
 20
-265.907756
 30
414.696826
 70
    64
  0
VERTEX
  5
251
  8
TEAM-NET
 10
-199.452076
 20
-257.453333
 30
421.790929
 70
    64
  0
VERTEX
  5
252
  8
TEAM-NET
 10
-205.494434
 20
-248.561656
 30
429.251933
 70
    64
  0
VERTEX
  5
253
  8
TEAM-NET
 10
-210.502159
 20
-239.300395
 30
437.023053
 70
    64
  0
VERTEX
  5
254
  8
TEAM-NET
 10
-214.437139
 20
-229.740034
 30
445.045149
 70
    64
  0
VERTEX
  5
255
  8
TEAM-NET
 10
-217.269428
 20
-219.953333
 30
453.257165
 70
    64
  0
VERTEX
  5
256
  8
TEAM-NET
 10
-218.97747
 20
-210.014776
 30
461.596605
 70
    64
  0
VERTEX
  5
257
  8
TEAM-NET
 10
-219.548265
 20
-200.0
 30
470.0
 70
    64
  0
VERTEX
  5
258
  8
TEAM-NET
 10
80.451735
 20
-200.0
 30
470.0
 70
    64
  0
VERTEX
  5
259
  8
TEAM-NET
 10
79.880939
 20
-209.244263
 30
460.755737
 70
    64
  0
VERTEX
  5
25A
  8
TEAM-NET
 10
78.172897
 20
-218.418171
 30
451.581829
 70
    64
  0
VERTEX
  5
25B
  8
TEAM-NET
 10
75.340608
 20
-227.451905
 30
442.548095
 70
    64
  0
VERTEX
  5
25C
  8
TEAM-NET
 10
71.405628
 20
-236.276714
 30
433.723286
 70
    64
  0
VERTEX
  5
25D
  8
TEAM-NET
 10
66.397903
 20
-244.825436
 30
425.174564
 70
    64
  0
VERTEX
  5
25E
  8
TEAM-NET
 10
60.355545
 20
-253.033009
 30
416.966991
 70
    64
  0
VERTEX
  5
25F
  8
TEAM-NET
 10
53.324541
 20
-260.836968
 30
409.163032
 70
    64
  0
VERTEX
  5
260
  8
TEAM-NET
 10
45.358401
 20
-268.177922
 30
401.822078
 70
    64
  0
VERTEX
  5
261
  8
TEAM-NET
 10
36.517752
 20
-275.0
 30
395.0
 70
    64
  0
VERTEX
  5
262
  8
TEAM-NET
 10
26.869876
 20
-281.251283
 30
388.748717
 70
    64
  0
VERTEX
  5
263
  8
TEAM-NET
 10
16.4882
 20
-286.884195
 30
383.115805
 70
    64
  0
VERTEX
  5
264
  8
TEAM-NET
 10
5.451735
 20
-291.855865
 30
378.144135
 70
    64
  0
VERTEX
  5
265
  8
TEAM-NET
 10
-6.155526
 20
-296.128457
 30
373.871543
 70
    64
  0
VERTEX
  5
266
  8
TEAM-NET
 10
-18.245244
 20
-299.669454
 30
370.330546
 70
    64
  0
VERTEX
  5
267
  8
TEAM-NET
 10
-30.725409
 20
-302.451905
 30
367.548095
 70
    64
  0
VERTEX
  5
268
  8
TEAM-NET
 10
-43.501039
 20
-304.454636
 30
365.545364
 70
    64
  0
VERTEX
  5
269
  8
TEAM-NET
 10
-56.474904
 20
-305.662404
 30
364.337596
 70
    64
  0
VERTEX
  5
26A
  8
TEAM-NET
 10
-69.548265
 20
-306.066017
 30
363.933983
 70
    64
  0
VERTEX
  5
26B
  8
TEAM-NET
 10
-82.621627
 20
-305.662404
 30
364.337596
 70
    64
  0
VERTEX
  5
26C
  8
TEAM-NET
 10
-95.595492
 20
-304.454636
 30
365.545364
 70
    64
  0
VERTEX
  5
26D
  8
TEAM-NET
 10
-108.371122
 20
-302.451905
 30
367.548095
 70
    64
  0
VERTEX
  5
26E
  8
TEAM-NET
 10
-120.851287
 20
-299.669454
 30
370.330546
 70
    64
  0
VERTEX
  5
26F
  8
TEAM-NET
 10
-132.941005
 20
-296.128457
 30
373.871543
 70
    64
  0
VERTEX
  5
270
  8
TEAM-NET
 10
-144.548265
 20
-291.855865
 30
378.144135
 70
    64
  0
VERTEX
  5
271
  8
TEAM-NET
 10
-155.584731
 20
-286.884195
 30
383.115805
 70
    64
  0
VERTEX
  5
272
  8
TEAM-NET
 10
-165.966407
 20
-281.251283
 30
388.748717
 70
    64
  0
VERTEX
  5
273
  8
TEAM-NET
 10
-175.614283
 20
-275.0
 30
395.0
 70
    64
  0
VERTEX
  5
274
  8
TEAM-NET
 10
-184.454932
 20
-268.177922
 30
401.822078
 70
    64
  0
VERTEX
  5
275
  8
TEAM-NET
 10
-192.421072
 20
-260.836968
 30
409.163032
 70
    64
  0
VERTEX
  5
276
  8
TEAM-NET
 10
-199.452076
 20
-253.033009
 30
416.966991
 70
    64
  0
VERTEX
  5
277
  8
TEAM-NET
 10
-205.494434
 20
-244.825436
 30
425.174564
 70
    64
  0
VERTEX
  5
278
  8
TEAM-NET
 10
-210.502159
 20
-236.276714
 30
433.723286
 70
    64
  0
VERTEX
  5
279
  8
TEAM-NET
 10
-214.437139
 20
-227.451905
 30
442.548095
 70
    64
  0
VERTEX
  5
27A
  8
TEAM-NET
 10
-217.269428
 20
-218.418171
 30
451.581829
 70
    64
  0
VERTEX
  5
27B
  8
TEAM-NET
 10
-218.97747
 20
-209.244263
 30
460.755737
 70
    64
  0
VERTEX
  5
27C
  8
TEAM-NET
 10
-219.548265
 20
-200.0
 30
470.0
 70
    64
  0
VERTEX
  5
27D
  8
TEAM-NET
 10
80.451735
 20
-200.0
 30
470.0
 70
    64
  0
VERTEX
  5
27E
  8
TEAM-NET
 10
79.880939
 20
-208.403395
 30
459.985224
 70
    64
  0
VERTEX
  5
27F
  8
TEAM-NET
 10
78.172897
 20
-216.742835
 30
450.046667
 70
    64
  0
VERTEX
  5
280
  8
TEAM-NET
 10
75.340608
 20
-224.954851
 30
440.259966
 70
    64
  0
VERTEX
  5
281
  8
TEAM-NET
 10
71.405628
 20
-232.976947
 30
430.699605
 70
    64
  0
VERTEX
  5
282
  8
TEAM-NET
 10
66.397903
 20
-240.748067
 30
421.438344
 70
    64
  0
VERTEX
  5
283
  8
TEAM-NET
 10
60.355545
 20
-248.209071
 30
412.546667
 70
    64
  0
VERTEX
  5
284
  8
TEAM-NET
 10
53.324541
 20
-255.303174
 30
404.092244
 70
    64
  0
VERTEX
  5
285
  8
TEAM-NET
 10
45.358401
 20
-261.976387
 30
396.139419
 70
    64
  0
VERTEX
  5
286
  8
TEAM-NET
 10
36.517752
 20
-268.177922
 30
388.748717
 70
    64
  0
VERTEX
  5
287
  8
TEAM-NET
 10
26.869876
 20
-273.860581
 30
381.976387
 70
    64
  0
VERTEX
  5
288
  8
TEAM-NET
 10
16.4882
 20
-278.981118
 30
375.873969
 70
    64
  0
VERTEX
  5
289
  8
TEAM-NET
 10
5.451735
 20
-283.50056
 30
370.487908
 70
    64
  0
VERTEX
  5
28A
  8
TEAM-NET
 10
-6.155526
 20
-287.384512
 30
365.859193
 70
    64
  0
VERTEX
  5
28B
  8
TEAM-NET
 10
-18.245244
 20
-290.603416
 30
362.023053
 70
    64
  0
VERTEX
  5
28C
  8
TEAM-NET
 10
-30.725409
 20
-293.132773
 30
359.008683
 70
    64
  0
VERTEX
  5
28D
  8
TEAM-NET
 10
-43.501039
 20
-294.953333
 30
356.839024
 70
    64
  0
VERTEX
  5
28E
  8
TEAM-NET
 10
-56.474904
 20
-296.051241
 30
355.530588
 70
    64
  0
VERTEX
  5
28F
  8
TEAM-NET
 10
-69.548265
 20
-296.418141
 30
355.093334
 70
    64
  0
VERTEX
  5
290
  8
TEAM-NET
 10
-82.621627
 20
-296.051241
 30
355.530588
 70
    64
  0
VERTEX
  5
291
  8
TEAM-NET
 10
-95.595492
 20
-294.953333
 30
356.839024
 70
    64
  0
VERTEX
  5
292
  8
TEAM-NET
 10
-108.371122
 20
-293.132773
 30
359.008683
 70
    64
  0
VERTEX
  5
293
  8
TEAM-NET
 10
-120.851287
 20
-290.603416
 30
362.023053
 70
    64
  0
VERTEX
  5
294
  8
TEAM-NET
 10
-132.941005
 20
-287.384512
 30
365.859193
 70
    64
  0
VERTEX
  5
295
  8
TEAM-NET
 10
-144.548265
 20
-283.50056
 30
370.487908
 70
    64
  0
VERTEX
  5
296
  8
TEAM-NET
 10
-155.584731
 20
-278.981118
 30
375.873969
 70
    64
  0
VERTEX
  5
297
  8
TEAM-NET
 10
-165.966407
 20
-273.860581
 30
381.976387
 70
    64
  0
VERTEX
  5
298
  8
TEAM-NET
 10
-175.614283
 20
-268.177922
 30
388.748717
 70
    64
  0
VERTEX
  5
299
  8
TEAM-NET
 10
-184.454932
 20
-261.976387
 30
396.139419
 70
    64
  0
VERTEX
  5
29A
  8
TEAM-NET
 10
-192.421072
 20
-255.303174
 30
404.092244
 70
    64
  0
VERTEX
  5
29B
  8
TEAM-NET
 10
-199.452076
 20
-248.209071
 30
412.546667
 70
    64
  0
VERTEX
  5
29C
  8
TEAM-NET
 10
-205.494434
 20
-240.748067
 30
421.438344
 70
    64
  0
VERTEX
  5
29D
  8
TEAM-NET
 10
-210.502159
 20
-232.976947
 30
430.699605
 70
    64
  0
VERTEX
  5
29E
  8
TEAM-NET
 10
-214.437139
 20
-224.954851
 30
440.259966
 70
    64
  0
VERTEX
  5
29F
  8
TEAM-NET
 10
-217.269428
 20
-216.742835
 30
450.046667
 70
    64
  0
VERTEX
  5
2A0
  8
TEAM-NET
 10
-218.97747
 20
-208.403395
 30
459.985224
 70
    64
  0
VERTEX
  5
2A1
  8
TEAM-NET
 10
-219.548265
 20
-200.0
 30
470.0
 70
    64
  0
VERTEX
  5
2A2
  8
TEAM-NET
 10
80.451735
 20
-200.0
 30
470.0
 70
    64
  0
VERTEX
  5
2A3
  8
TEAM-NET
 10
79.880939
 20
-207.498572
 30
459.290929
 70
    64
  0
VERTEX
  5
2A4
  8
TEAM-NET
 10
78.172897
 20
-214.940075
 30
448.663361
 70
    64
  0
VERTEX
  5
2A5
  8
TEAM-NET
 10
75.340608
 20
-222.267876
 30
438.198178
 70
    64
  0
VERTEX
  5
2A6
  8
TEAM-NET
 10
71.405628
 20
-229.426204
 30
427.975025
 70
    64
  0
VERTEX
  5
2A7
  8
TEAM-NET
 10
66.397903
 20
-236.360581
 30
418.071708
 70
    64
  0
VERTEX
  5
2A8
  8
TEAM-NET
 10
60.355545
 20
-243.018233
 30
408.563597
 70
    64
  0
VERTEX
  5
2A9
  8
TEAM-NET
 10
53.324541
 20
-249.348489
 30
399.523053
 70
    64
  0
VERTEX
  5
2AA
  8
TEAM-NET
 10
45.358401
 20
-255.303174
 30
391.018882
 70
    64
  0
VERTEX
  5
2AB
  8
TEAM-NET
 10
36.517752
 20
-260.836968
 30
383.115805
 70
    64
  0
VERTEX
  5
2AC
  8
TEAM-NET
 10
26.869876
 20
-265.907756
 30
375.873969
 70
    64
  0
VERTEX
  5
2AD
  8
TEAM-NET
 10
16.4882
 20
-270.476947
 30
369.348489
 70
    64
  0
VERTEX
  5
2AE
  8
TEAM-NET
 10
5.451735
 20
-274.509765
 30
363.589028
 70
    64
  0
VERTEX
  5
2AF
  8
TEAM-NET
 10
-6.155526
 20
-277.975519
 30
358.639419
 70
    64
  0
VERTEX
  5
2B0
  8
TEAM-NET
 10
-18.245244
 20
-280.847832
 30
354.53733
 70
    64
  0
VERTEX
  5
2B1
  8
TEAM-NET
 10
-30.725409
 20
-283.104844
 30
351.313983
 70
    64
  0
VERTEX
  5
2B2
  8
TEAM-NET
 10
-43.501039
 20
-284.729378
 30
348.993907
 70
    64
  0
VERTEX
  5
2B3
  8
TEAM-NET
 10
-56.474904
 20
-285.709071
 30
347.594761
 70
    64
  0
VERTEX
  5
2B4
  8
TEAM-NET
 10
-69.548265
 20
-286.036465
 30
347.127193
 70
    64
  0
VERTEX
  5
2B5
  8
TEAM-NET
 10
-82.621627
 20
-285.709071
 30
347.594761
 70
    64
  0
VERTEX
  5
2B6
  8
TEAM-NET
 10
-95.595492
 20
-284.729378
 30
348.993907
 70
    64
  0
VERTEX
  5
2B7
  8
TEAM-NET
 10
-108.371122
 20
-283.104844
 30
351.313983
 70
    64
  0
VERTEX
  5
2B8
  8
TEAM-NET
 10
-120.851287
 20
-280.847832
 30
354.53733
 70
    64
  0
VERTEX
  5
2B9
  8
TEAM-NET
 10
-132.941005
 20
-277.975519
 30
358.639419
 70
    64
  0
VERTEX
  5
2BA
  8
TEAM-NET
 10
-144.548265
 20
-274.509765
 30
363.589028
 70
    64
  0
VERTEX
  5
2BB
  8
TEAM-NET
 10
-155.584731
 20
-270.476947
 30
369.348489
 70
    64
  0
VERTEX
  5
2BC
  8
TEAM-NET
 10
-165.966407
 20
-265.907756
 30
375.873969
 70
    64
  0
VERTEX
  5
2BD
  8
TEAM-NET
 10
-175.614283
 20
-260.836968
 30
383.115805
 70
    64
  0
VERTEX
  5
2BE
  8
TEAM-NET
 10
-184.454932
 20
-255.303174
 30
391.018882
 70
    64
  0
VERTEX
  5
2BF
  8
TEAM-NET
 10
-192.421072
 20
-249.348489
 30
399.523053
 70
    64
  0
VERTEX
  5
2C0
  8
TEAM-NET
 10
-199.452076
 20
-243.018233
 30
408.563597
 70
    64
  0
VERTEX
  5
2C1
  8
TEAM-NET
 10
-205.494434
 20
-236.360581
 30
418.071708
 70
    64
  0
VERTEX
  5
2C2
  8
TEAM-NET
 10
-210.502159
 20
-229.426204
 30
427.975025
 70
    64
  0
VERTEX
  5
2C3
  8
TEAM-NET
 10
-214.437139
 20
-222.267876
 30
438.198178
 70
    64
  0
VERTEX
  5
2C4
  8
TEAM-NET
 10
-217.269428
 20
-214.940075
 30
448.663361
 70
    64
  0
VERTEX
  5
2C5
  8
TEAM-NET
 10
-218.97747
 20
-207.498572
 30
459.290929
 70
    64
  0
VERTEX
  5
2C6
  8
TEAM-NET
 10
-219.548265
 20
-200.0
 30
470.0
 70
    64
  0
VERTEX
  5
2C7
  8
TEAM-NET
 10
80.451735
 20
-200.0
 30
470.0
 70
    64
  0
VERTEX
  5
2C8
  8
TEAM-NET
 10
79.880939
 20
-206.536681
 30
458.678137
 70
    64
  0
VERTEX
  5
2C9
  8
TEAM-NET
 10
78.172897
 20
-213.023613
 30
447.44244
 70
    64
  0
VERTEX
  5
2CA
  8
TEAM-NET
 10
75.340608
 20
-219.411428
 30
436.37842
 70
    64
  0
VERTEX
  5
2CB
  8
TEAM-NET
 10
71.405628
 20
-225.651511
 30
425.57028
 70
    64
  0
VERTEX
  5
2CC
  8
TEAM-NET
 10
66.397903
 20
-231.69637
 30
415.100277
 70
    64
  0
VERTEX
  5
2CD
  8
TEAM-NET
 10
60.355545
 20
-237.5
 30
405.048095
 70
    64
  0
VERTEX
  5
2CE
  8
TEAM-NET
 10
53.324541
 20
-243.018233
 30
395.490235
 70
    64
  0
VERTEX
  5
2CF
  8
TEAM-NET
 10
45.358401
 20
-248.209071
 30
386.49944
 70
    64
  0
VERTEX
  5
2D0
  8
TEAM-NET
 10
36.517752
 20
-253.033009
 30
378.144135
 70
    64
  0
VERTEX
  5
2D1
  8
TEAM-NET
 10
26.869876
 20
-257.453333
 30
370.487908
 70
    64
  0
VERTEX
  5
2D2
  8
TEAM-NET
 10
16.4882
 20
-261.436403
 30
363.589028
 70
    64
  0
VERTEX
  5
2D3
  8
TEAM-NET
 10
5.451735
 20
-264.951905
 30
357.5
 70
    64
  0
VERTEX
  5
2D4
  8
TEAM-NET
 10
-6.155526
 20
-267.973084
 30
352.267165
 70
    64
  0
VERTEX
  5
2D5
  8
TEAM-NET
 10
-18.245244
 20
-270.476947
 30
347.930348
 70
    64
  0
VERTEX
  5
2D6
  8
TEAM-NET
 10
-30.725409
 20
-272.444437
 30
344.522554
 70
    64
  0
VERTEX
  5
2D7
  8
TEAM-NET
 10
-43.501039
 20
-273.860581
 30
342.06972
 70
    64
  0
VERTEX
  5
2D8
  8
TEAM-NET
 10
-56.474904
 20
-274.714602
 30
340.590513
 70
    64
  0
VERTEX
  5
2D9
  8
TEAM-NET
 10
-69.548265
 20
-275.0
 30
340.096189
 70
    64
  0
VERTEX
  5
2DA
  8
TEAM-NET
 10
-82.621627
 20
-274.714602
 30
340.590513
 70
    64
  0
VERTEX
  5
2DB
  8
TEAM-NET
 10
-95.595492
 20
-273.860581
 30
342.06972
 70
    64
  0
VERTEX
  5
2DC
  8
TEAM-NET
 10
-108.371122
 20
-272.444437
 30
344.522554
 70
    64
  0
VERTEX
  5
2DD
  8
TEAM-NET
 10
-120.851287
 20
-270.476947
 30
347.930348
 70
    64
  0
VERTEX
  5
2DE
  8
TEAM-NET
 10
-132.941005
 20
-267.973084
 30
352.267165
 70
    64
  0
VERTEX
  5
2DF
  8
TEAM-NET
 10
-144.548265
 20
-264.951905
 30
357.5
 70
    64
  0
VERTEX
  5
2E0
  8
TEAM-NET
 10
-155.584731
 20
-261.436403
 30
363.589028
 70
    64
  0
VERTEX
  5
2E1
  8
TEAM-NET
 10
-165.966407
 20
-257.453333
 30
370.487908
 70
    64
  0
VERTEX
  5
2E2
  8
TEAM-NET
 10
-175.614283
 20
-253.033009
 30
378.144135
 70
    64
  0
VERTEX
  5
2E3
  8
TEAM-NET
 10
-184.454932
 20
-248.209071
 30
386.49944
 70
    64
  0
VERTEX
  5
2E4
  8
TEAM-NET
 10
-192.421072
 20
-243.018233
 30
395.490235
 70
    64
  0
VERTEX
  5
2E5
  8
TEAM-NET
 10
-199.452076
 20
-237.5
 30
405.048095
 70
    64
  0
VERTEX
  5
2E6
  8
TEAM-NET
 10
-205.494434
 20
-231.69637
 30
415.100277
 70
    64
  0
VERTEX
  5
2E7
  8
TEAM-NET
 10
-210.502159
 20
-225.651511
 30
425.57028
 70
    64
  0
VERTEX
  5
2E8
  8
TEAM-NET
 10
-214.437139
 20
-219.411428
 30
436.37842
 70
    64
  0
VERTEX
  5
2E9
  8
TEAM-NET
 10
-217.269428
 20
-213.023613
 30
447.44244
 70
    64
  0
VERTEX
  5
2EA
  8
TEAM-NET
 10
-218.97747
 20
-206.536681
 30
458.678137
 70
    64
  0
VERTEX
  5
2EB
  8
TEAM-NET
 10
-219.548265
 20
-200.0
 30
470.0
 70
    64
  0
VERTEX
  5
2EC
  8
TEAM-NET
 10
80.451735
 20
-200.0
 30
470.0
 70
    64
  0
VERTEX
  5
2ED
  8
TEAM-NET
 10
79.880939
 20
-205.525041
 30
458.151511
 70
    64
  0
VERTEX
  5
2EE
  8
TEAM-NET
 10
78.172897
 20
-211.008034
 30
446.393196
 70
    64
  0
VERTEX
  5
2EF
  8
TEAM-NET
 10
75.340608
 20
-216.407248
 30
434.814543
 70
    64
  0
VERTEX
  5
2F0
  8
TEAM-NET
 10
71.405628
 20
-221.681594
 30
423.503672
 70
    64
  0
VERTEX
  5
2F1
  8
TEAM-NET
 10
66.397903
 20
-226.790929
 30
412.546667
 70
    64
  0
VERTEX
  5
2F2
  8
TEAM-NET
 10
60.355545
 20
-231.69637
 30
402.026916
 70
    64
  0
VERTEX
  5
2F3
  8
TEAM-NET
 10
53.324541
 20
-236.360581
 30
392.024481
 70
    64
  0
VERTEX
  5
2F4
  8
TEAM-NET
 10
45.358401
 20
-240.748067
 30
382.615488
 70
    64
  0
VERTEX
  5
2F5
  8
TEAM-NET
 10
36.517752
 20
-244.825436
 30
373.871543
 70
    64
  0
VERTEX
  5
2F6
  8
TEAM-NET
 10
26.869876
 20
-248.561656
 30
365.859193
 70
    64
  0
VERTEX
  5
2F7
  8
TEAM-NET
 10
16.4882
 20
-251.928292
 30
358.639419
 70
    64
  0
VERTEX
  5
2F8
  8
TEAM-NET
 10
5.451735
 20
-254.899723
 30
352.267165
 70
    64
  0
VERTEX
  5
2F9
  8
TEAM-NET
 10
-6.155526
 20
-257.453333
 30
346.790929
 70
    64
  0
VERTEX
  5
2FA
  8
TEAM-NET
 10
-18.245244
 20
-259.569689
 30
342.252389
 70
    64
  0
VERTEX
  5
2FB
  8
TEAM-NET
 10
-30.725409
 20
-261.232684
 30
338.686085
 70
    64
  0
VERTEX
  5
2FC
  8
TEAM-NET
 10
-43.501039
 20
-262.429661
 30
336.11916
 70
    64
  0
VERTEX
  5
2FD
  8
TEAM-NET
 10
-56.474904
 20
-263.151511
 30
334.571148
 70
    64
  0
VERTEX
  5
2FE
  8
TEAM-NET
 10
-69.548265
 20
-263.392739
 30
334.053832
 70
    64
  0
VERTEX
  5
2FF
  8
TEAM-NET
 10
-82.621627
 20
-263.151511
 30
334.571148
 70
    64
  0
VERTEX
  5
300
  8
TEAM-NET
 10
-95.595492
 20
-262.429661
 30
336.11916
 70
    64
  0
VERTEX
  5
301
  8
TEAM-NET
 10
-108.371122
 20
-261.232684
 30
338.686085
 70
    64
  0
VERTEX
  5
302
  8
TEAM-NET
 10
-120.851287
 20
-259.569689
 30
342.252389
 70
    64
  0
VERTEX
  5
303
  8
TEAM-NET
 10
-132.941005
 20
-257.453333
 30
346.790929
 70
    64
  0
VERTEX
  5
304
  8
TEAM-NET
 10
-144.548265
 20
-254.899723
 30
352.267165
 70
    64
  0
VERTEX
  5
305
  8
TEAM-NET
 10
-155.584731
 20
-251.928292
 30
358.639419
 70
    64
  0
VERTEX
  5
306
  8
TEAM-NET
 10
-165.966407
 20
-248.561656
 30
365.859193
 70
    64
  0
VERTEX
  5
307
  8
TEAM-NET
 10
-175.614283
 20
-244.825436
 30
373.871543
 70
    64
  0
VERTEX
  5
308
  8
TEAM-NET
 10
-184.454932
 20
-240.748067
 30
382.615488
 70
    64
  0
VERTEX
  5
309
  8
TEAM-NET
 10
-192.421072
 20
-236.360581
 30
392.024481
 70
    64
  0
VERTEX
  5
30A
  8
TEAM-NET
 10
-199.452076
 20
-231.69637
 30
402.026916
 70
    64
  0
VERTEX
  5
30B
  8
TEAM-NET
 10
-205.494434
 20
-226.790929
 30
412.546667
 70
    64
  0
VERTEX
  5
30C
  8
TEAM-NET
 10
-210.502159
 20
-221.681594
 30
423.503672
 70
    64
  0
VERTEX
  5
30D
  8
TEAM-NET
 10
-214.437139
 20
-216.407248
 30
434.814543
 70
    64
  0
VERTEX
  5
30E
  8
TEAM-NET
 10
-217.269428
 20
-211.008034
 30
446.393196
 70
    64
  0
VERTEX
  5
30F
  8
TEAM-NET
 10
-218.97747
 20
-205.525041
 30
458.151511
 70
    64
  0
VERTEX
  5
310
  8
TEAM-NET
 10
-219.548265
 20
-200.0
 30
470.0
 70
    64
  0
VERTEX
  5
311
  8
TEAM-NET
 10
80.451735
 20
-200.0
 30
470.0
 70
    64
  0
VERTEX
  5
312
  8
TEAM-NET
 10
79.880939
 20
-204.471353
 30
457.715059
 70
    64
  0
VERTEX
  5
313
  8
TEAM-NET
 10
78.172897
 20
-208.908676
 30
445.523613
 70
    64
  0
VERTEX
  5
314
  8
TEAM-NET
 10
75.340608
 20
-213.278199
 30
433.518448
 70
    64
  0
VERTEX
  5
315
  8
TEAM-NET
 10
71.405628
 20
-217.546667
 30
421.790929
 70
    64
  0
VERTEX
  5
316
  8
TEAM-NET
 10
66.397903
 20
-221.681594
 30
410.430311
 70
    64
  0
VERTEX
  5
317
  8
TEAM-NET
 10
60.355545
 20
-225.651511
 30
399.523053
 70
    64
  0
VERTEX
  5
318
  8
TEAM-NET
 10
53.324541
 20
-229.426204
 30
389.152168
 70
    64
  0
VERTEX
  5
319
  8
TEAM-NET
 10
45.358401
 20
-232.976947
 30
379.396584
 70
    64
  0
VERTEX
  5
31A
  8
TEAM-NET
 10
36.517752
 20
-236.276714
 30
370.330546
 70
    64
  0
VERTEX
  5
31B
  8
TEAM-NET
 10
26.869876
 20
-239.300395
 30
362.023053
 70
    64
  0
VERTEX
  5
31C
  8
TEAM-NET
 10
16.4882
 20
-242.024975
 30
354.53733
 70
    64
  0
VERTEX
  5
31D
  8
TEAM-NET
 10
5.451735
 20
-244.42972
 30
347.930348
 70
    64
  0
VERTEX
  5
31E
  8
TEAM-NET
 10
-6.155526
 20
-246.496328
 30
342.252389
 70
    64
  0
VERTEX
  5
31F
  8
TEAM-NET
 10
-18.245244
 20
-248.209071
 30
337.546667
 70
    64
  0
VERTEX
  5
320
  8
TEAM-NET
 10
-30.725409
 20
-249.554913
 30
333.848994
 70
    64
  0
VERTEX
  5
321
  8
TEAM-NET
 10
-43.501039
 20
-250.523613
 30
331.187513
 70
    64
  0
VERTEX
  5
322
  8
TEAM-NET
 10
-56.474904
 20
-251.107798
 30
329.582479
 70
    64
  0
VERTEX
  5
323
  8
TEAM-NET
 10
-69.548265
 20
-251.303021
 30
329.046107
 70
    64
  0
VERTEX
  5
324
  8
TEAM-NET
 10
-82.621627
 20
-251.107798
 30
329.582479
 70
    64
  0
VERTEX
  5
325
  8
TEAM-NET
 10
-95.595492
 20
-250.523613
 30
331.187513
 70
    64
  0
VERTEX
  5
326
  8
TEAM-NET
 10
-108.371122
 20
-249.554913
 30
333.848994
 70
    64
  0
VERTEX
  5
327
  8
TEAM-NET
 10
-120.851287
 20
-248.209071
 30
337.546667
 70
    64
  0
VERTEX
  5
328
  8
TEAM-NET
 10
-132.941005
 20
-246.496328
 30
342.252389
 70
    64
  0
VERTEX
  5
329
  8
TEAM-NET
 10
-144.548265
 20
-244.42972
 30
347.930348
 70
    64
  0
VERTEX
  5
32A
  8
TEAM-NET
 10
-155.584731
 20
-242.024975
 30
354.53733
 70
    64
  0
VERTEX
  5
32B
  8
TEAM-NET
 10
-165.966407
 20
-239.300395
 30
362.023053
 70
    64
  0
VERTEX
  5
32C
  8
TEAM-NET
 10
-175.614283
 20
-236.276714
 30
370.330546
 70
    64
  0
VERTEX
  5
32D
  8
TEAM-NET
 10
-184.454932
 20
-232.976947
 30
379.396584
 70
    64
  0
VERTEX
  5
32E
  8
TEAM-NET
 10
-192.421072
 20
-229.426204
 30
389.152168
 70
    64
  0
VERTEX
  5
32F
  8
TEAM-NET
 10
-199.452076
 20
-225.651511
 30
399.523053
 70
    64
  0
VERTEX
  5
330
  8
TEAM-NET
 10
-205.494434
 20
-221.681594
 30
410.430311
 70
    64
  0
VERTEX
  5
331
  8
TEAM-NET
 10
-210.502159
 20
-217.546667
 30
421.790929
 70
    64
  0
VERTEX
  5
332
  8
TEAM-NET
 10
-214.437139
 20
-213.278199
 30
433.518448
 70
    64
  0
VERTEX
  5
333
  8
TEAM-NET
 10
-217.269428
 20
-208.908676
 30
445.523613
 70
    64
  0
VERTEX
  5
334
  8
TEAM-NET
 10
-218.97747
 20
-204.471353
 30
457.715059
 70
    64
  0
VERTEX
  5
335
  8
TEAM-NET
 10
-219.548265
 20
-200.0
 30
470.0
 70
    64
  0
VERTEX
  5
336
  8
TEAM-NET
 10
80.451735
 20
-200.0
 30
470.0
 70
    64
  0
VERTEX
  5
337
  8
TEAM-NET
 10
79.880939
 20
-203.383635
 30
457.372103
 70
    64
  0
VERTEX
  5
338
  8
TEAM-NET
 10
78.172897
 20
-206.741518
 30
444.840311
 70
    64
  0
VERTEX
  5
339
  8
TEAM-NET
 10
75.340608
 20
-210.048095
 30
432.5
 70
    64
  0
VERTEX
  5
33A
  8
TEAM-NET
 10
71.405628
 20
-213.278199
 30
420.445087
 70
    64
  0
VERTEX
  5
33B
  8
TEAM-NET
 10
66.397903
 20
-216.407248
 30
408.767316
 70
    64
  0
VERTEX
  5
33C
  8
TEAM-NET
 10
60.355545
 20
-219.411428
 30
397.555563
 70
    64
  0
VERTEX
  5
33D
  8
TEAM-NET
 10
53.324541
 20
-222.267876
 30
386.895156
 70
    64
  0
VERTEX
  5
33E
  8
TEAM-NET
 10
45.358401
 20
-224.954851
 30
376.867227
 70
    64
  0
VERTEX
  5
33F
  8
TEAM-NET
 10
36.517752
 20
-227.451905
 30
367.548095
 70
    64
  0
VERTEX
  5
340
  8
TEAM-NET
 10
26.869876
 20
-229.740034
 30
359.008683
 70
    64
  0
VERTEX
  5
341
  8
TEAM-NET
 10
16.4882
 20
-231.801822
 30
351.313983
 70
    64
  0
VERTEX
  5
342
  8
TEAM-NET
 10
5.451735
 20
-233.62158
 30
344.522554
 70
    64
  0
VERTEX
  5
343
  8
TEAM-NET
 10
-6.155526
 20
-235.185457
 30
338.686085
 70
    64
  0
VERTEX
  5
344
  8
TEAM-NET
 10
-18.245244
 20
-236.481552
 30
333.848994
 70
    64
  0
VERTEX
  5
345
  8
TEAM-NET
 10
-30.725409
 20
-237.5
 30
330.048095
 70
    64
  0
VERTEX
  5
346
  8
TEAM-NET
 10
-43.501039
 20
-238.23305
 30
327.312314
 70
    64
  0
VERTEX
  5
347
  8
TEAM-NET
 10
-56.474904
 20
-238.675124
 30
325.662472
 70
    64
  0
VERTEX
  5
348
  8
TEAM-NET
 10
-69.548265
 20
-238.822857
 30
325.111126
 70
    64
  0
VERTEX
  5
349
  8
TEAM-NET
 10
-82.621627
 20
-238.675124
 30
325.662472
 70
    64
  0
VERTEX
  5
34A
  8
TEAM-NET
 10
-95.595492
 20
-238.23305
 30
327.312314
 70
    64
  0
VERTEX
  5
34B
  8
TEAM-NET
 10
-108.371122
 20
-237.5
 30
330.048095
 70
    64
  0
VERTEX
  5
34C
  8
TEAM-NET
 10
-120.851287
 20
-236.481552
 30
333.848994
 70
    64
  0
VERTEX
  5
34D
  8
TEAM-NET
 10
-132.941005
 20
-235.185457
 30
338.686085
 70
    64
  0
VERTEX
  5
34E
  8
TEAM-NET
 10
-144.548265
 20
-233.62158
 30
344.522554
 70
    64
  0
VERTEX
  5
34F
  8
TEAM-NET
 10
-155.584731
 20
-231.801822
 30
351.313983
 70
    64
  0
VERTEX
  5
350
  8
TEAM-NET
 10
-165.966407
 20
-229.740034
 30
359.008683
 70
    64
  0
VERTEX
  5
351
  8
TEAM-NET
 10
-175.614283
 20
-227.451905
 30
367.548095
 70
    64
  0
VERTEX
  5
352
  8
TEAM-NET
 10
-184.454932
 20
-224.954851
 30
376.867227
 70
    64
  0
VERTEX
  5
353
  8
TEAM-NET
 10
-192.421072
 20
-222.267876
 30
386.895156
 70
    64
  0
VERTEX
  5
354
  8
TEAM-NET
 10
-199.452076
 20
-219.411428
 30
397.555563
 70
    64
  0
VERTEX
  5
355
  8
TEAM-NET
 10
-205.494434
 20
-216.407248
 30
408.767316
 70
    64
  0
VERTEX
  5
356
  8
TEAM-NET
 10
-210.502159
 20
-213.278199
 30
420.445087
 70
    64
  0
VERTEX
  5
357
  8
TEAM-NET
 10
-214.437139
 20
-210.048095
 30
432.5
 70
    64
  0
VERTEX
  5
358
  8
TEAM-NET
 10
-217.269428
 20
-206.741518
 30
444.840311
 70
    64
  0
VERTEX
  5
359
  8
TEAM-NET
 10
-218.97747
 20
-203.383635
 30
457.372103
 70
    64
  0
VERTEX
  5
35A
  8
TEAM-NET
 10
-219.548265
 20
-200.0
 30
470.0
 70
    64
  0
VERTEX
  5
35B
  8
TEAM-NET
 10
80.451735
 20
-200.0
 30
470.0
 70
    64
  0
VERTEX
  5
35C
  8
TEAM-NET
 10
79.880939
 20
-202.270165
 30
457.125252
 70
    64
  0
VERTEX
  5
35D
  8
TEAM-NET
 10
78.172897
 20
-204.523053
 30
444.348489
 70
    64
  0
VERTEX
  5
35E
  8
TEAM-NET
 10
75.340608
 20
-206.741518
 30
431.76695
 70
    64
  0
VERTEX
  5
35F
  8
TEAM-NET
 10
71.405628
 20
-208.908676
 30
419.476387
 70
    64
  0
VERTEX
  5
360
  8
TEAM-NET
 10
66.397903
 20
-211.008034
 30
407.570339
 70
    64
  0
VERTEX
  5
361
  8
TEAM-NET
 10
60.355545
 20
-213.023613
 30
396.139419
 70
    64
  0
VERTEX
  5
362
  8
TEAM-NET
 10
53.324541
 20
-214.940075
 30
385.270622
 70
    64
  0
VERTEX
  5
363
  8
TEAM-NET
 10
45.358401
 20
-216.742835
 30
375.046667
 70
    64
  0
VERTEX
  5
364
  8
TEAM-NET
 10
36.517752
 20
-218.418171
 30
365.545364
 70
    64
  0
VERTEX
  5
365
  8
TEAM-NET
 10
26.869876
 20
-219.953333
 30
356.839024
 70
    64
  0
VERTEX
  5
366
  8
TEAM-NET
 10
16.4882
 20
-221.336639
 30
348.993907
 70
    64
  0
VERTEX
  5
367
  8
TEAM-NET
 10
5.451735
 20
-222.55756
 30
342.06972
 70
    64
  0
VERTEX
  5
368
  8
TEAM-NET
 10
-6.155526
 20
-223.606804
 30
336.11916
 70
    64
  0
VERTEX
  5
369
  8
TEAM-NET
 10
-18.245244
 20
-224.476387
 30
331.187513
 70
    64
  0
VERTEX
  5
36A
  8
TEAM-NET
 10
-30.725409
 20
-225.159689
 30
327.312314
 70
    64
  0
VERTEX
  5
36B
  8
TEAM-NET
 10
-43.501039
 20
-225.651511
 30
324.523053
 70
    64
  0
VERTEX
  5
36C
  8
TEAM-NET
 10
-56.474904
 20
-225.948109
 30
322.840961
 70
    64
  0
VERTEX
  5
36D
  8
TEAM-NET
 10
-69.548265
 20
-226.047227
 30
322.278837
 70
    64
  0
VERTEX
  5
36E
  8
TEAM-NET
 10
-82.621627
 20
-225.948109
 30
322.840961
 70
    64
  0
VERTEX
  5
36F
  8
TEAM-NET
 10
-95.595492
 20
-225.651511
 30
324.523053
 70
    64
  0
VERTEX
  5
370
  8
TEAM-NET
 10
-108.371122
 20
-225.159689
 30
327.312314
 70
    64
  0
VERTEX
  5
371
  8
TEAM-NET
 10
-120.851287
 20
-224.476387
 30
331.187513
 70
    64
  0
VERTEX
  5
372
  8
TEAM-NET
 10
-132.941005
 20
-223.606804
 30
336.11916
 70
    64
  0
VERTEX
  5
373
  8
TEAM-NET
 10
-144.548265
 20
-222.55756
 30
342.06972
 70
    64
  0
VERTEX
  5
374
  8
TEAM-NET
 10
-155.584731
 20
-221.336639
 30
348.993907
 70
    64
  0
VERTEX
  5
375
  8
TEAM-NET
 10
-165.966407
 20
-219.953333
 30
356.839024
 70
    64
  0
VERTEX
  5
376
  8
TEAM-NET
 10
-175.614283
 20
-218.418171
 30
365.545364
 70
    64
  0
VERTEX
  5
377
  8
TEAM-NET
 10
-184.454932
 20
-216.742835
 30
375.046667
 70
    64
  0
VERTEX
  5
378
  8
TEAM-NET
 10
-192.421072
 20
-214.940075
 30
385.270622
 70
    64
  0
VERTEX
  5
379
  8
TEAM-NET
 10
-199.452076
 20
-213.023613
 30
396.139419
 70
    64
  0
VERTEX
  5
37A
  8
TEAM-NET
 10
-205.494434
 20
-211.008034
 30
407.570339
 70
    64
  0
VERTEX
  5
37B
  8
TEAM-NET
 10
-210.502159
 20
-208.908676
 30
419.476387
 70
    64
  0
VERTEX
  5
37C
  8
TEAM-NET
 10
-214.437139
 20
-206.741518
 30
431.76695
 70
    64
  0
VERTEX
  5
37D
  8
TEAM-NET
 10
-217.269428
 20
-204.523053
 30
444.348489
 70
    64
  0
VERTEX
  5
37E
  8
TEAM-NET
 10
-218.97747
 20
-202.270165
 30
457.125252
 70
    64
  0
VERTEX
  5
37F
  8
TEAM-NET
 10
-219.548265
 20
-200.0
 30
470.0
 70
    64
  0
VERTEX
  5
380
  8
TEAM-NET
 10
80.451735
 20
-200.0
 30
470.0
 70
    64
  0
VERTEX
  5
381
  8
TEAM-NET
 10
79.880939
 20
-201.139419
 30
456.976387
 70
    64
  0
VERTEX
  5
382
  8
TEAM-NET
 10
78.172897
 20
-202.270165
 30
444.051891
 70
    64
  0
VERTEX
  5
383
  8
TEAM-NET
 10
75.340608
 20
-203.383635
 30
431.324876
 70
    64
  0
VERTEX
  5
384
  8
TEAM-NET
 10
71.405628
 20
-204.471353
 30
418.892202
 70
    64
  0
VERTEX
  5
385
  8
TEAM-NET
 10
66.397903
 20
-205.525041
 30
406.848489
 70
    64
  0
VERTEX
  5
386
  8
TEAM-NET
 10
60.355545
 20
-206.536681
 30
395.285398
 70
    64
  0
VERTEX
  5
387
  8
TEAM-NET
 10
53.324541
 20
-207.498572
 30
384.290929
 70
    64
  0
VERTEX
  5
388
  8
TEAM-NET
 10
45.358401
 20
-208.403395
 30
373.948759
 70
    64
  0
VERTEX
  5
389
  8
TEAM-NET
 10
36.517752
 20
-209.244263
 30
364.337596
 70
    64
  0
VERTEX
  5
38A
  8
TEAM-NET
 10
26.869876
 20
-210.014776
 30
355.530588
 70
    64
  0
VERTEX
  5
38B
  8
TEAM-NET
 10
16.4882
 20
-210.709071
 30
347.594761
 70
    64
  0
VERTEX
  5
38C
  8
TEAM-NET
 10
5.451735
 20
-211.321863
 30
340.590513
 70
    64
  0
VERTEX
  5
38D
  8
TEAM-NET
 10
-6.155526
 20
-211.848489
 30
334.571148
 70
    64
  0
VERTEX
  5
38E
  8
TEAM-NET
 10
-18.245244
 20
-212.284941
 30
329.582479
 70
    64
  0
VERTEX
  5
38F
  8
TEAM-NET
 10
-30.725409
 20
-212.627897
 30
325.662472
 70
    64
  0
VERTEX
  5
390
  8
TEAM-NET
 10
-43.501039
 20
-212.874748
 30
322.840961
 70
    64
  0
VERTEX
  5
391
  8
TEAM-NET
 10
-56.474904
 20
-213.023613
 30
321.139419
 70
    64
  0
VERTEX
  5
392
  8
TEAM-NET
 10
-69.548265
 20
-213.073361
 30
320.570795
 70
    64
  0
VERTEX
  5
393
  8
TEAM-NET
 10
-82.621627
 20
-213.023613
 30
321.139419
 70
    64
  0
VERTEX
  5
394
  8
TEAM-NET
 10
-95.595492
 20
-212.874748
 30
322.840961
 70
    64
  0
VERTEX
  5
395
  8
TEAM-NET
 10
-108.371122
 20
-212.627897
 30
325.662472
 70
    64
  0
VERTEX
  5
396
  8
TEAM-NET
 10
-120.851287
 20
-212.284941
 30
329.582479
 70
    64
  0
VERTEX
  5
397
  8
TEAM-NET
 10
-132.941005
 20
-211.848489
 30
334.571148
 70
    64
  0
VERTEX
  5
398
  8
TEAM-NET
 10
-144.548265
 20
-211.321863
 30
340.590513
 70
    64
  0
VERTEX
  5
399
  8
TEAM-NET
 10
-155.584731
 20
-210.709071
 30
347.594761
 70
    64
  0
VERTEX
  5
39A
  8
TEAM-NET
 10
-165.966407
 20
-210.014776
 30
355.530588
 70
    64
  0
VERTEX
  5
39B
  8
TEAM-NET
 10
-175.614283
 20
-209.244263
 30
364.337596
 70
    64
  0
VERTEX
  5
39C
  8
TEAM-NET
 10
-184.454932
 20
-208.403395
 30
373.948759
 70
    64
  0
VERTEX
  5
39D
  8
TEAM-NET
 10
-192.421072
 20
-207.498572
 30
384.290929
 70
    64
  0
VERTEX
  5
39E
  8
TEAM-NET
 10
-199.452076
 20
-206.536681
 30
395.285398
 70
    64
  0
VERTEX
  5
39F
  8
TEAM-NET
 10
-205.494434
 20
-205.525041
 30
406.848489
 70
    64
  0
VERTEX
  5
3A0
  8
TEAM-NET
 10
-210.502159
 20
-204.471353
 30
418.892202
 70
    64
  0
VERTEX
  5
3A1
  8
TEAM-NET
 10
-214.437139
 20
-203.383635
 30
431.324876
 70
    64
  0
VERTEX
  5
3A2
  8
TEAM-NET
 10
-217.269428
 20
-202.270165
 30
444.051891
 70
    64
  0
VERTEX
  5
3A3
  8
TEAM-NET
 10
-218.97747
 20
-201.139419
 30
456.976387
 70
    64
  0
VERTEX
  5
3A4
  8
TEAM-NET
 10
-219.548265
 20
-200.0
 30
470.0
 70
    64
  0
VERTEX
  5
3A5
  8
TEAM-NET
 10
80.451735
 20
-200.0
 30
470.0
 70
    64
  0
VERTEX
  5
3A6
  8
TEAM-NET
 10
79.880939
 20
-200.0
 30
456.926639
 70
    64
  0
VERTEX
  5
3A7
  8
TEAM-NET
 10
78.172897
 20
-200.0
 30
443.952773
 70
    64
  0
VERTEX
  5
3A8
  8
TEAM-NET
 10
75.340608
 20
-200.0
 30
431.177143
 70
    64
  0
VERTEX
  5
3A9
  8
TEAM-NET
 10
71.405628
 20
-200.0
 30
418.696979
 70
    64
  0
VERTEX
  5
3AA
  8
TEAM-NET
 10
66.397903
 20
-200.0
 30
406.607261
 70
    64
  0
VERTEX
  5
3AB
  8
TEAM-NET
 10
60.355545
 20
-200.0
 30
395.0
 70
    64
  0
VERTEX
  5
3AC
  8
TEAM-NET
 10
53.324541
 20
-200.0
 30
383.963535
 70
    64
  0
VERTEX
  5
3AD
  8
TEAM-NET
 10
45.358401
 20
-200.0
 30
373.581859
 70
    64
  0
VERTEX
  5
3AE
  8
TEAM-NET
 10
36.517752
 20
-200.0
 30
363.933983
 70
    64
  0
VERTEX
  5
3AF
  8
TEAM-NET
 10
26.869876
 20
-200.0
 30
355.093334
 70
    64
  0
VERTEX
  5
3B0
  8
TEAM-NET
 10
16.4882
 20
-200.0
 30
347.127193
 70
    64
  0
VERTEX
  5
3B1
  8
TEAM-NET
 10
5.451735
 20
-200.0
 30
340.096189
 70
    64
  0
VERTEX
  5
3B2
  8
TEAM-NET
 10
-6.155526
 20
-200.0
 30
334.053832
 70
    64
  0
VERTEX
  5
3B3
  8
TEAM-NET
 10
-18.245244
 20
-200.0
 30
329.046107
 70
    64
  0
VERTEX
  5
3B4
  8
TEAM-NET
 10
-30.725409
 20
-200.0
 30
325.111126
 70
    64
  0
VERTEX
  5
3B5
  8
TEAM-NET
 10
-43.501039
 20
-200.0
 30
322.278837
 70
    64
  0
VERTEX
  5
3B6
  8
TEAM-NET
 10
-56.474904
 20
-200.0
 30
320.570795
 70
    64
  0
VERTEX
  5
3B7
  8
TEAM-NET
 10
-69.548265
 20
-200.0
 30
320.0
 70
    64
  0
VERTEX
  5
3B8
  8
TEAM-NET
 10
-82.621627
 20
-200.0
 30
320.570795
 70
    64
  0
VERTEX
  5
3B9
  8
TEAM-NET
 10
-95.595492
 20
-200.0
 30
322.278837
 70
    64
  0
VERTEX
  5
3BA
  8
TEAM-NET
 10
-108.371122
 20
-200.0
 30
325.111126
 70
    64
  0
VERTEX
  5
3BB
  8
TEAM-NET
 10
-120.851287
 20
-200.0
 30
329.046107
 70
    64
  0
VERTEX
  5
3BC
  8
TEAM-NET
 10
-132.941005
 20
-200.0
 30
334.053832
 70
    64
  0
VERTEX
  5
3BD
  8
TEAM-NET
 10
-144.548265
 20
-200.0
 30
340.096189
 70
    64
  0
VERTEX
  5
3BE
  8
TEAM-NET
 10
-155.584731
 20
-200.0
 30
347.127193
 70
    64
  0
VERTEX
  5
3BF
  8
TEAM-NET
 10
-165.966407
 20
-200.0
 30
355.093334
 70
    64
  0
VERTEX
  5
3C0
  8
TEAM-NET
 10
-175.614283
 20
-200.0
 30
363.933983
 70
    64
  0
VERTEX
  5
3C1
  8
TEAM-NET
 10
-184.454932
 20
-200.0
 30
373.581859
 70
    64
  0
VERTEX
  5
3C2
  8
TEAM-NET
 10
-192.421072
 20
-200.0
 30
383.963535
 70
    64
  0
VERTEX
  5
3C3
  8
TEAM-NET
 10
-199.452076
 20
-200.0
 30
395.0
 70
    64
  0
VERTEX
  5
3C4
  8
TEAM-NET
 10
-205.494434
 20
-200.0
 30
406.607261
 70
    64
  0
VERTEX
  5
3C5
  8
TEAM-NET
 10
-210.502159
 20
-200.0
 30
418.696979
 70
    64
  0
VERTEX
  5
3C6
  8
TEAM-NET
 10
-214.437139
 20
-200.0
 30
431.177143
 70
    64
  0
VERTEX
  5
3C7
  8
TEAM-NET
 10
-217.269428
 20
-200.0
 30
443.952773
 70
    64
  0
VERTEX
  5
3C8
  8
TEAM-NET
 10
-218.97747
 20
-200.0
 30
456.926639
 70
    64
  0
VERTEX
  5
3C9
  8
TEAM-NET
 10
-219.548265
 20
-200.0
 30
470.0
 70
    64
  0
VERTEX
  5
3CA
  8
TEAM-NET
 10
80.451735
 20
-200.0
 30
470.0
 70
    64
  0
VERTEX
  5
3CB
  8
TEAM-NET
 10
79.880939
 20
-198.860581
 30
456.976387
 70
    64
  0
VERTEX
  5
3CC
  8
TEAM-NET
 10
78.172897
 20
-197.729835
 30
444.051891
 70
    64
  0
VERTEX
  5
3CD
  8
TEAM-NET
 10
75.340608
 20
-196.616365
 30
431.324876
 70
    64
  0
VERTEX
  5
3CE
  8
TEAM-NET
 10
71.405628
 20
-195.528647
 30
418.892202
 70
    64
  0
VERTEX
  5
3CF
  8
TEAM-NET
 10
66.397903
 20
-194.474959
 30
406.848489
 70
    64
  0
VERTEX
  5
3D0
  8
TEAM-NET
 10
60.355545
 20
-193.463319
 30
395.285398
 70
    64
  0
VERTEX
  5
3D1
  8
TEAM-NET
 10
53.324541
 20
-192.501428
 30
384.290929
 70
    64
  0
VERTEX
  5
3D2
  8
TEAM-NET
 10
45.358401
 20
-191.596605
 30
373.948759
 70
    64
  0
VERTEX
  5
3D3
  8
TEAM-NET
 10
36.517752
 20
-190.755737
 30
364.337596
 70
    64
  0
VERTEX
  5
3D4
  8
TEAM-NET
 10
26.869876
 20
-189.985224
 30
355.530588
 70
    64
  0
VERTEX
  5
3D5
  8
TEAM-NET
 10
16.4882
 20
-189.290929
 30
347.594761
 70
    64
  0
VERTEX
  5
3D6
  8
TEAM-NET
 10
5.451735
 20
-188.678137
 30
340.590513
 70
    64
  0
VERTEX
  5
3D7
  8
TEAM-NET
 10
-6.155526
 20
-188.151511
 30
334.571148
 70
    64
  0
VERTEX
  5
3D8
  8
TEAM-NET
 10
-18.245244
 20
-187.715059
 30
329.582479
 70
    64
  0
VERTEX
  5
3D9
  8
TEAM-NET
 10
-30.725409
 20
-187.372103
 30
325.662472
 70
    64
  0
VERTEX
  5
3DA
  8
TEAM-NET
 10
-43.501039
 20
-187.125252
 30
322.840961
 70
    64
  0
VERTEX
  5
3DB
  8
TEAM-NET
 10
-56.474904
 20
-186.976387
 30
321.139419
 70
    64
  0
VERTEX
  5
3DC
  8
TEAM-NET
 10
-69.548265
 20
-186.926639
 30
320.570795
 70
    64
  0
VERTEX
  5
3DD
  8
TEAM-NET
 10
-82.621627
 20
-186.976387
 30
321.139419
 70
    64
  0
VERTEX
  5
3DE
  8
TEAM-NET
 10
-95.595492
 20
-187.125252
 30
322.840961
 70
    64
  0
VERTEX
  5
3DF
  8
TEAM-NET
 10
-108.371122
 20
-187.372103
 30
325.662472
 70
    64
  0
VERTEX
  5
3E0
  8
TEAM-NET
 10
-120.851287
 20
-187.715059
 30
329.582479
 70
    64
  0
VERTEX
  5
3E1
  8
TEAM-NET
 10
-132.941005
 20
-188.151511
 30
334.571148
 70
    64
  0
VERTEX
  5
3E2
  8
TEAM-NET
 10
-144.548265
 20
-188.678137
 30
340.590513
 70
    64
  0
VERTEX
  5
3E3
  8
TEAM-NET
 10
-155.584731
 20
-189.290929
 30
347.594761
 70
    64
  0
VERTEX
  5
3E4
  8
TEAM-NET
 10
-165.966407
 20
-189.985224
 30
355.530588
 70
    64
  0
VERTEX
  5
3E5
  8
TEAM-NET
 10
-175.614283
 20
-190.755737
 30
364.337596
 70
    64
  0
VERTEX
  5
3E6
  8
TEAM-NET
 10
-184.454932
 20
-191.596605
 30
373.948759
 70
    64
  0
VERTEX
  5
3E7
  8
TEAM-NET
 10
-192.421072
 20
-192.501428
 30
384.290929
 70
    64
  0
VERTEX
  5
3E8
  8
TEAM-NET
 10
-199.452076
 20
-193.463319
 30
395.285398
 70
    64
  0
VERTEX
  5
3E9
  8
TEAM-NET
 10
-205.494434
 20
-194.474959
 30
406.848489
 70
    64
  0
VERTEX
  5
3EA
  8
TEAM-NET
 10
-210.502159
 20
-195.528647
 30
418.892202
 70
    64
  0
VERTEX
  5
3EB
  8
TEAM-NET
 10
-214.437139
 20
-196.616365
 30
431.324876
 70
    64
  0
VERTEX
  5
3EC
  8
TEAM-NET
 10
-217.269428
 20
-197.729835
 30
444.051891
 70
    64
  0
VERTEX
  5
3ED
  8
TEAM-NET
 10
-218.97747
 20
-198.860581
 30
456.976387
 70
    64
  0
VERTEX
  5
3EE
  8
TEAM-NET
 10
-219.548265
 20
-200.0
 30
470.0
 70
    64
  0
VERTEX
  5
3EF
  8
TEAM-NET
 10
80.451735
 20
-200.0
 30
470.0
 70
    64
  0
VERTEX
  5
3F0
  8
TEAM-NET
 10
79.880939
 20
-197.729835
 30
457.125252
 70
    64
  0
VERTEX
  5
3F1
  8
TEAM-NET
 10
78.172897
 20
-195.476947
 30
444.348489
 70
    64
  0
VERTEX
  5
3F2
  8
TEAM-NET
 10
75.340608
 20
-193.258482
 30
431.76695
 70
    64
  0
VERTEX
  5
3F3
  8
TEAM-NET
 10
71.405628
 20
-191.091324
 30
419.476387
 70
    64
  0
VERTEX
  5
3F4
  8
TEAM-NET
 10
66.397903
 20
-188.991966
 30
407.570339
 70
    64
  0
VERTEX
  5
3F5
  8
TEAM-NET
 10
60.355545
 20
-186.976387
 30
396.139419
 70
    64
  0
VERTEX
  5
3F6
  8
TEAM-NET
 10
53.324541
 20
-185.059925
 30
385.270622
 70
    64
  0
VERTEX
  5
3F7
  8
TEAM-NET
 10
45.358401
 20
-183.257165
 30
375.046667
 70
    64
  0
VERTEX
  5
3F8
  8
TEAM-NET
 10
36.517752
 20
-181.581829
 30
365.545364
 70
    64
  0
VERTEX
  5
3F9
  8
TEAM-NET
 10
26.869876
 20
-180.046667
 30
356.839024
 70
    64
  0
VERTEX
  5
3FA
  8
TEAM-NET
 10
16.4882
 20
-178.663361
 30
348.993907
 70
    64
  0
VERTEX
  5
3FB
  8
TEAM-NET
 10
5.451735
 20
-177.44244
 30
342.06972
 70
    64
  0
VERTEX
  5
3FC
  8
TEAM-NET
 10
-6.155526
 20
-176.393196
 30
336.11916
 70
    64
  0
VERTEX
  5
3FD
  8
TEAM-NET
 10
-18.245244
 20
-175.523613
 30
331.187513
 70
    64
  0
VERTEX
  5
3FE
  8
TEAM-NET
 10
-30.725409
 20
-174.840311
 30
327.312314
 70
    64
  0
VERTEX
  5
3FF
  8
TEAM-NET
 10
-43.501039
 20
-174.348489
 30
324.523053
 70
    64
  0
VERTEX
  5
400
  8
TEAM-NET
 10
-56.474904
 20
-174.051891
 30
322.840961
 70
    64
  0
VERTEX
  5
401
  8
TEAM-NET
 10
-69.548265
 20
-173.952773
 30
322.278837
 70
    64
  0
VERTEX
  5
402
  8
TEAM-NET
 10
-82.621627
 20
-174.051891
 30
322.840961
 70
    64
  0
VERTEX
  5
403
  8
TEAM-NET
 10
-95.595492
 20
-174.348489
 30
324.523053
 70
    64
  0
VERTEX
  5
404
  8
TEAM-NET
 10
-108.371122
 20
-174.840311
 30
327.312314
 70
    64
  0
VERTEX
  5
405
  8
TEAM-NET
 10
-120.851287
 20
-175.523613
 30
331.187513
 70
    64
  0
VERTEX
  5
406
  8
TEAM-NET
 10
-132.941005
 20
-176.393196
 30
336.11916
 70
    64
  0
VERTEX
  5
407
  8
TEAM-NET
 10
-144.548265
 20
-177.44244
 30
342.06972
 70
    64
  0
VERTEX
  5
408
  8
TEAM-NET
 10
-155.584731
 20
-178.663361
 30
348.993907
 70
    64
  0
VERTEX
  5
409
  8
TEAM-NET
 10
-165.966407
 20
-180.046667
 30
356.839024
 70
    64
  0
VERTEX
  5
40A
  8
TEAM-NET
 10
-175.614283
 20
-181.581829
 30
365.545364
 70
    64
  0
VERTEX
  5
40B
  8
TEAM-NET
 10
-184.454932
 20
-183.257165
 30
375.046667
 70
    64
  0
VERTEX
  5
40C
  8
TEAM-NET
 10
-192.421072
 20
-185.059925
 30
385.270622
 70
    64
  0
VERTEX
  5
40D
  8
TEAM-NET
 10
-199.452076
 20
-186.976387
 30
396.139419
 70
    64
  0
VERTEX
  5
40E
  8
TEAM-NET
 10
-205.494434
 20
-188.991966
 30
407.570339
 70
    64
  0
VERTEX
  5
40F
  8
TEAM-NET
 10
-210.502159
 20
-191.091324
 30
419.476387
 70
    64
  0
VERTEX
  5
410
  8
TEAM-NET
 10
-214.437139
 20
-193.258482
 30
431.76695
 70
    64
  0
VERTEX
  5
411
  8
TEAM-NET
 10
-217.269428
 20
-195.476947
 30
444.348489
 70
    64
  0
VERTEX
  5
412
  8
TEAM-NET
 10
-218.97747
 20
-197.729835
 30
457.125252
 70
    64
  0
VERTEX
  5
413
  8
TEAM-NET
 10
-219.548265
 20
-200.0
 30
470.0
 70
    64
  0
VERTEX
  5
414
  8
TEAM-NET
 10
80.451735
 20
-200.0
 30
470.0
 70
    64
  0
VERTEX
  5
415
  8
TEAM-NET
 10
79.880939
 20
-196.616365
 30
457.372103
 70
    64
  0
VERTEX
  5
416
  8
TEAM-NET
 10
78.172897
 20
-193.258482
 30
444.840311
 70
    64
  0
VERTEX
  5
417
  8
TEAM-NET
 10
75.340608
 20
-189.951905
 30
432.5
 70
    64
  0
VERTEX
  5
418
  8
TEAM-NET
 10
71.405628
 20
-186.721801
 30
420.445087
 70
    64
  0
VERTEX
  5
419
  8
TEAM-NET
 10
66.397903
 20
-183.592752
 30
408.767316
 70
    64
  0
VERTEX
  5
41A
  8
TEAM-NET
 10
60.355545
 20
-180.588572
 30
397.555563
 70
    64
  0
VERTEX
  5
41B
  8
TEAM-NET
 10
53.324541
 20
-177.732124
 30
386.895156
 70
    64
  0
VERTEX
  5
41C
  8
TEAM-NET
 10
45.358401
 20
-175.045149
 30
376.867227
 70
    64
  0
VERTEX
  5
41D
  8
TEAM-NET
 10
36.517752
 20
-172.548095
 30
367.548095
 70
    64
  0
VERTEX
  5
41E
  8
TEAM-NET
 10
26.869876
 20
-170.259966
 30
359.008683
 70
    64
  0
VERTEX
  5
41F
  8
TEAM-NET
 10
16.4882
 20
-168.198178
 30
351.313983
 70
    64
  0
VERTEX
  5
420
  8
TEAM-NET
 10
5.451735
 20
-166.37842
 30
344.522554
 70
    64
  0
VERTEX
  5
421
  8
TEAM-NET
 10
-6.155526
 20
-164.814543
 30
338.686085
 70
    64
  0
VERTEX
  5
422
  8
TEAM-NET
 10
-18.245244
 20
-163.518448
 30
333.848994
 70
    64
  0
VERTEX
  5
423
  8
TEAM-NET
 10
-30.725409
 20
-162.5
 30
330.048095
 70
    64
  0
VERTEX
  5
424
  8
TEAM-NET
 10
-43.501039
 20
-161.76695
 30
327.312314
 70
    64
  0
VERTEX
  5
425
  8
TEAM-NET
 10
-56.474904
 20
-161.324876
 30
325.662472
 70
    64
  0
VERTEX
  5
426
  8
TEAM-NET
 10
-69.548265
 20
-161.177143
 30
325.111126
 70
    64
  0
VERTEX
  5
427
  8
TEAM-NET
 10
-82.621627
 20
-161.324876
 30
325.662472
 70
    64
  0
VERTEX
  5
428
  8
TEAM-NET
 10
-95.595492
 20
-161.76695
 30
327.312314
 70
    64
  0
VERTEX
  5
429
  8
TEAM-NET
 10
-108.371122
 20
-162.5
 30
330.048095
 70
    64
  0
VERTEX
  5
42A
  8
TEAM-NET
 10
-120.851287
 20
-163.518448
 30
333.848994
 70
    64
  0
VERTEX
  5
42B
  8
TEAM-NET
 10
-132.941005
 20
-164.814543
 30
338.686085
 70
    64
  0
VERTEX
  5
42C
  8
TEAM-NET
 10
-144.548265
 20
-166.37842
 30
344.522554
 70
    64
  0
VERTEX
  5
42D
  8
TEAM-NET
 10
-155.584731
 20
-168.198178
 30
351.313983
 70
    64
  0
VERTEX
  5
42E
  8
TEAM-NET
 10
-165.966407
 20
-170.259966
 30
359.008683
 70
    64
  0
VERTEX
  5
42F
  8
TEAM-NET
 10
-175.614283
 20
-172.548095
 30
367.548095
 70
    64
  0
VERTEX
  5
430
  8
TEAM-NET
 10
-184.454932
 20
-175.045149
 30
376.867227
 70
    64
  0
VERTEX
  5
431
  8
TEAM-NET
 10
-192.421072
 20
-177.732124
 30
386.895156
 70
    64
  0
VERTEX
  5
432
  8
TEAM-NET
 10
-199.452076
 20
-180.588572
 30
397.555563
 70
    64
  0
VERTEX
  5
433
  8
TEAM-NET
 10
-205.494434
 20
-183.592752
 30
408.767316
 70
    64
  0
VERTEX
  5
434
  8
TEAM-NET
 10
-210.502159
 20
-186.721801
 30
420.445087
 70
    64
  0
VERTEX
  5
435
  8
TEAM-NET
 10
-214.437139
 20
-189.951905
 30
432.5
 70
    64
  0
VERTEX
  5
436
  8
TEAM-NET
 10
-217.269428
 20
-193.258482
 30
444.840311
 70
    64
  0
VERTEX
  5
437
  8
TEAM-NET
 10
-218.97747
 20
-196.616365
 30
457.372103
 70
    64
  0
VERTEX
  5
438
  8
TEAM-NET
 10
-219.548265
 20
-200.0
 30
470.0
 70
    64
  0
VERTEX
  5
439
  8
TEAM-NET
 10
80.451735
 20
-200.0
 30
470.0
 70
    64
  0
VERTEX
  5
43A
  8
TEAM-NET
 10
79.880939
 20
-195.528647
 30
457.715059
 70
    64
  0
VERTEX
  5
43B
  8
TEAM-NET
 10
78.172897
 20
-191.091324
 30
445.523613
 70
    64
  0
VERTEX
  5
43C
  8
TEAM-NET
 10
75.340608
 20
-186.721801
 30
433.518448
 70
    64
  0
VERTEX
  5
43D
  8
TEAM-NET
 10
71.405628
 20
-182.453333
 30
421.790929
 70
    64
  0
VERTEX
  5
43E
  8
TEAM-NET
 10
66.397903
 20
-178.318406
 30
410.430311
 70
    64
  0
VERTEX
  5
43F
  8
TEAM-NET
 10
60.355545
 20
-174.348489
 30
399.523053
 70
    64
  0
VERTEX
  5
440
  8
TEAM-NET
 10
53.324541
 20
-170.573796
 30
389.152168
 70
    64
  0
VERTEX
  5
441
  8
TEAM-NET
 10
45.358401
 20
-167.023053
 30
379.396584
 70
    64
  0
VERTEX
  5
442
  8
TEAM-NET
 10
36.517752
 20
-163.723286
 30
370.330546
 70
    64
  0
VERTEX
  5
443
  8
TEAM-NET
 10
26.869876
 20
-160.699605
 30
362.023053
 70
    64
  0
VERTEX
  5
444
  8
TEAM-NET
 10
16.4882
 20
-157.975025
 30
354.53733
 70
    64
  0
VERTEX
  5
445
  8
TEAM-NET
 10
5.451735
 20
-155.57028
 30
347.930348
 70
    64
  0
VERTEX
  5
446
  8
TEAM-NET
 10
-6.155526
 20
-153.503672
 30
342.252389
 70
    64
  0
VERTEX
  5
447
  8
TEAM-NET
 10
-18.245244
 20
-151.790929
 30
337.546667
 70
    64
  0
VERTEX
  5
448
  8
TEAM-NET
 10
-30.725409
 20
-150.445087
 30
333.848994
 70
    64
  0
VERTEX
  5
449
  8
TEAM-NET
 10
-43.501039
 20
-149.476387
 30
331.187513
 70
    64
  0
VERTEX
  5
44A
  8
TEAM-NET
 10
-56.474904
 20
-148.892202
 30
329.582479
 70
    64
  0
VERTEX
  5
44B
  8
TEAM-NET
 10
-69.548265
 20
-148.696979
 30
329.046107
 70
    64
  0
VERTEX
  5
44C
  8
TEAM-NET
 10
-82.621627
 20
-148.892202
 30
329.582479
 70
    64
  0
VERTEX
  5
44D
  8
TEAM-NET
 10
-95.595492
 20
-149.476387
 30
331.187513
 70
    64
  0
VERTEX
  5
44E
  8
TEAM-NET
 10
-108.371122
 20
-150.445087
 30
333.848994
 70
    64
  0
VERTEX
  5
44F
  8
TEAM-NET
 10
-120.851287
 20
-151.790929
 30
337.546667
 70
    64
  0
VERTEX
  5
450
  8
TEAM-NET
 10
-132.941005
 20
-153.503672
 30
342.252389
 70
    64
  0
VERTEX
  5
451
  8
TEAM-NET
 10
-144.548265
 20
-155.57028
 30
347.930348
 70
    64
  0
VERTEX
  5
452
  8
TEAM-NET
 10
-155.584731
 20
-157.975025
 30
354.53733
 70
    64
  0
VERTEX
  5
453
  8
TEAM-NET
 10
-165.966407
 20
-160.699605
 30
362.023053
 70
    64
  0
VERTEX
  5
454
  8
TEAM-NET
 10
-175.614283
 20
-163.723286
 30
370.330546
 70
    64
  0
VERTEX
  5
455
  8
TEAM-NET
 10
-184.454932
 20
-167.023053
 30
379.396584
 70
    64
  0
VERTEX
  5
456
  8
TEAM-NET
 10
-192.421072
 20
-170.573796
 30
389.152168
 70
    64
  0
VERTEX
  5
457
  8
TEAM-NET
 10
-199.452076
 20
-174.348489
 30
399.523053
 70
    64
  0
VERTEX
  5
458
  8
TEAM-NET
 10
-205.494434
 20
-178.318406
 30
410.430311
 70
    64
  0
VERTEX
  5
459
  8
TEAM-NET
 10
-210.502159
 20
-182.453333
 30
421.790929
 70
    64
  0
VERTEX
  5
45A
  8
TEAM-NET
 10
-214.437139
 20
-186.721801
 30
433.518448
 70
    64
  0
VERTEX
  5
45B
  8
TEAM-NET
 10
-217.269428
 20
-191.091324
 30
445.523613
 70
    64
  0
VERTEX
  5
45C
  8
TEAM-NET
 10
-218.97747
 20
-195.528647
 30
457.715059
 70
    64
  0
VERTEX
  5
45D
  8
TEAM-NET
 10
-219.548265
 20
-200.0
 30
470.0
 70
    64
  0
VERTEX
  5
45E
  8
TEAM-NET
 10
80.451735
 20
-200.0
 30
470.0
 70
    64
  0
VERTEX
  5
45F
  8
TEAM-NET
 10
79.880939
 20
-194.474959
 30
458.151511
 70
    64
  0
VERTEX
  5
460
  8
TEAM-NET
 10
78.172897
 20
-188.991966
 30
446.393196
 70
    64
  0
VERTEX
  5
461
  8
TEAM-NET
 10
75.340608
 20
-183.592752
 30
434.814543
 70
    64
  0
VERTEX
  5
462
  8
TEAM-NET
 10
71.405628
 20
-178.318406
 30
423.503672
 70
    64
  0
VERTEX
  5
463
  8
TEAM-NET
 10
66.397903
 20
-173.209071
 30
412.546667
 70
    64
  0
VERTEX
  5
464
  8
TEAM-NET
 10
60.355545
 20
-168.30363
 30
402.026916
 70
    64
  0
VERTEX
  5
465
  8
TEAM-NET
 10
53.324541
 20
-163.639419
 30
392.024481
 70
    64
  0
VERTEX
  5
466
  8
TEAM-NET
 10
45.358401
 20
-159.251933
 30
382.615488
 70
    64
  0
VERTEX
  5
467
  8
TEAM-NET
 10
36.517752
 20
-155.174564
 30
373.871543
 70
    64
  0
VERTEX
  5
468
  8
TEAM-NET
 10
26.869876
 20
-151.438344
 30
365.859193
 70
    64
  0
VERTEX
  5
469
  8
TEAM-NET
 10
16.4882
 20
-148.071708
 30
358.639419
 70
    64
  0
VERTEX
  5
46A
  8
TEAM-NET
 10
5.451735
 20
-145.100277
 30
352.267165
 70
    64
  0
VERTEX
  5
46B
  8
TEAM-NET
 10
-6.155526
 20
-142.546667
 30
346.790929
 70
    64
  0
VERTEX
  5
46C
  8
TEAM-NET
 10
-18.245244
 20
-140.430311
 30
342.252389
 70
    64
  0
VERTEX
  5
46D
  8
TEAM-NET
 10
-30.725409
 20
-138.767316
 30
338.686085
 70
    64
  0
VERTEX
  5
46E
  8
TEAM-NET
 10
-43.501039
 20
-137.570339
 30
336.11916
 70
    64
  0
VERTEX
  5
46F
  8
TEAM-NET
 10
-56.474904
 20
-136.848489
 30
334.571148
 70
    64
  0
VERTEX
  5
470
  8
TEAM-NET
 10
-69.548265
 20
-136.607261
 30
334.053832
 70
    64
  0
VERTEX
  5
471
  8
TEAM-NET
 10
-82.621627
 20
-136.848489
 30
334.571148
 70
    64
  0
VERTEX
  5
472
  8
TEAM-NET
 10
-95.595492
 20
-137.570339
 30
336.11916
 70
    64
  0
VERTEX
  5
473
  8
TEAM-NET
 10
-108.371122
 20
-138.767316
 30
338.686085
 70
    64
  0
VERTEX
  5
474
  8
TEAM-NET
 10
-120.851287
 20
-140.430311
 30
342.252389
 70
    64
  0
VERTEX
  5
475
  8
TEAM-NET
 10
-132.941005
 20
-142.546667
 30
346.790929
 70
    64
  0
VERTEX
  5
476
  8
TEAM-NET
 10
-144.548265
 20
-145.100277
 30
352.267165
 70
    64
  0
VERTEX
  5
477
  8
TEAM-NET
 10
-155.584731
 20
-148.071708
 30
358.639419
 70
    64
  0
VERTEX
  5
478
  8
TEAM-NET
 10
-165.966407
 20
-151.438344
 30
365.859193
 70
    64
  0
VERTEX
  5
479
  8
TEAM-NET
 10
-175.614283
 20
-155.174564
 30
373.871543
 70
    64
  0
VERTEX
  5
47A
  8
TEAM-NET
 10
-184.454932
 20
-159.251933
 30
382.615488
 70
    64
  0
VERTEX
  5
47B
  8
TEAM-NET
 10
-192.421072
 20
-163.639419
 30
392.024481
 70
    64
  0
VERTEX
  5
47C
  8
TEAM-NET
 10
-199.452076
 20
-168.30363
 30
402.026916
 70
    64
  0
VERTEX
  5
47D
  8
TEAM-NET
 10
-205.494434
 20
-173.209071
 30
412.546667
 70
    64
  0
VERTEX
  5
47E
  8
TEAM-NET
 10
-210.502159
 20
-178.318406
 30
423.503672
 70
    64
  0
VERTEX
  5
47F
  8
TEAM-NET
 10
-214.437139
 20
-183.592752
 30
434.814543
 70
    64
  0
VERTEX
  5
480
  8
TEAM-NET
 10
-217.269428
 20
-188.991966
 30
446.393196
 70
    64
  0
VERTEX
  5
481
  8
TEAM-NET
 10
-218.97747
 20
-194.474959
 30
458.151511
 70
    64
  0
VERTEX
  5
482
  8
TEAM-NET
 10
-219.548265
 20
-200.0
 30
470.0
 70
    64
  0
VERTEX
  5
483
  8
TEAM-NET
 10
80.451735
 20
-200.0
 30
470.0
 70
    64
  0
VERTEX
  5
484
  8
TEAM-NET
 10
79.880939
 20
-193.463319
 30
458.678137
 70
    64
  0
VERTEX
  5
485
  8
TEAM-NET
 10
78.172897
 20
-186.976387
 30
447.44244
 70
    64
  0
VERTEX
  5
486
  8
TEAM-NET
 10
75.340608
 20
-180.588572
 30
436.37842
 70
    64
  0
VERTEX
  5
487
  8
TEAM-NET
 10
71.405628
 20
-174.348489
 30
425.57028
 70
    64
  0
VERTEX
  5
488
  8
TEAM-NET
 10
66.397903
 20
-168.30363
 30
415.100277
 70
    64
  0
VERTEX
  5
489
  8
TEAM-NET
 10
60.355545
 20
-162.5
 30
405.048095
 70
    64
  0
VERTEX
  5
48A
  8
TEAM-NET
 10
53.324541
 20
-156.981767
 30
395.490235
 70
    64
  0
VERTEX
  5
48B
  8
TEAM-NET
 10
45.358401
 20
-151.790929
 30
386.49944
 70
    64
  0
VERTEX
  5
48C
  8
TEAM-NET
 10
36.517752
 20
-146.966991
 30
378.144135
 70
    64
  0
VERTEX
  5
48D
  8
TEAM-NET
 10
26.869876
 20
-142.546667
 30
370.487908
 70
    64
  0
VERTEX
  5
48E
  8
TEAM-NET
 10
16.4882
 20
-138.563597
 30
363.589028
 70
    64
  0
VERTEX
  5
48F
  8
TEAM-NET
 10
5.451735
 20
-135.048095
 30
357.5
 70
    64
  0
VERTEX
  5
490
  8
TEAM-NET
 10
-6.155526
 20
-132.026916
 30
352.267165
 70
    64
  0
VERTEX
  5
491
  8
TEAM-NET
 10
-18.245244
 20
-129.523053
 30
347.930348
 70
    64
  0
VERTEX
  5
492
  8
TEAM-NET
 10
-30.725409
 20
-127.555563
 30
344.522554
 70
    64
  0
VERTEX
  5
493
  8
TEAM-NET
 10
-43.501039
 20
-126.139419
 30
342.06972
 70
    64
  0
VERTEX
  5
494
  8
TEAM-NET
 10
-56.474904
 20
-125.285398
 30
340.590513
 70
    64
  0
VERTEX
  5
495
  8
TEAM-NET
 10
-69.548265
 20
-125.0
 30
340.096189
 70
    64
  0
VERTEX
  5
496
  8
TEAM-NET
 10
-82.621627
 20
-125.285398
 30
340.590513
 70
    64
  0
VERTEX
  5
497
  8
TEAM-NET
 10
-95.595492
 20
-126.139419
 30
342.06972
 70
    64
  0
VERTEX
  5
498
  8
TEAM-NET
 10
-108.371122
 20
-127.555563
 30
344.522554
 70
    64
  0
VERTEX
  5
499
  8
TEAM-NET
 10
-120.851287
 20
-129.523053
 30
347.930348
 70
    64
  0
VERTEX
  5
49A
  8
TEAM-NET
 10
-132.941005
 20
-132.026916
 30
352.267165
 70
    64
  0
VERTEX
  5
49B
  8
TEAM-NET
 10
-144.548265
 20
-135.048095
 30
357.5
 70
    64
  0
VERTEX
  5
49C
  8
TEAM-NET
 10
-155.584731
 20
-138.563597
 30
363.589028
 70
    64
  0
VERTEX
  5
49D
  8
TEAM-NET
 10
-165.966407
 20
-142.546667
 30
370.487908
 70
    64
  0
VERTEX
  5
49E
  8
TEAM-NET
 10
-175.614283
 20
-146.966991
 30
378.144135
 70
    64
  0
VERTEX
  5
49F
  8
TEAM-NET
 10
-184.454932
 20
-151.790929
 30
386.49944
 70
    64
  0
VERTEX
  5
4A0
  8
TEAM-NET
 10
-192.421072
 20
-156.981767
 30
395.490235
 70
    64
  0
VERTEX
  5
4A1
  8
TEAM-NET
 10
-199.452076
 20
-162.5
 30
405.048095
 70
    64
  0
VERTEX
  5
4A2
  8
TEAM-NET
 10
-205.494434
 20
-168.30363
 30
415.100277
 70
    64
  0
VERTEX
  5
4A3
  8
TEAM-NET
 10
-210.502159
 20
-174.348489
 30
425.57028
 70
    64
  0
VERTEX
  5
4A4
  8
TEAM-NET
 10
-214.437139
 20
-180.588572
 30
436.37842
 70
    64
  0
VERTEX
  5
4A5
  8
TEAM-NET
 10
-217.269428
 20
-186.976387
 30
447.44244
 70
    64
  0
VERTEX
  5
4A6
  8
TEAM-NET
 10
-218.97747
 20
-193.463319
 30
458.678137
 70
    64
  0
VERTEX
  5
4A7
  8
TEAM-NET
 10
-219.548265
 20
-200.0
 30
470.0
 70
    64
  0
VERTEX
  5
4A8
  8
TEAM-NET
 10
80.451735
 20
-200.0
 30
470.0
 70
    64
  0
VERTEX
  5
4A9
  8
TEAM-NET
 10
79.880939
 20
-192.501428
 30
459.290929
 70
    64
  0
VERTEX
  5
4AA
  8
TEAM-NET
 10
78.172897
 20
-185.059925
 30
448.663361
 70
    64
  0
VERTEX
  5
4AB
  8
TEAM-NET
 10
75.340608
 20
-177.732124
 30
438.198178
 70
    64
  0
VERTEX
  5
4AC
  8
TEAM-NET
 10
71.405628
 20
-170.573796
 30
427.975025
 70
    64
  0
VERTEX
  5
4AD
  8
TEAM-NET
 10
66.397903
 20
-163.639419
 30
418.071708
 70
    64
  0
VERTEX
  5
4AE
  8
TEAM-NET
 10
60.355545
 20
-156.981767
 30
408.563597
 70
    64
  0
VERTEX
  5
4AF
  8
TEAM-NET
 10
53.324541
 20
-150.651511
 30
399.523053
 70
    64
  0
VERTEX
  5
4B0
  8
TEAM-NET
 10
45.358401
 20
-144.696826
 30
391.018882
 70
    64
  0
VERTEX
  5
4B1
  8
TEAM-NET
 10
36.517752
 20
-139.163032
 30
383.115805
 70
    64
  0
VERTEX
  5
4B2
  8
TEAM-NET
 10
26.869876
 20
-134.092244
 30
375.873969
 70
    64
  0
VERTEX
  5
4B3
  8
TEAM-NET
 10
16.4882
 20
-129.523053
 30
369.348489
 70
    64
  0
VERTEX
  5
4B4
  8
TEAM-NET
 10
5.451735
 20
-125.490235
 30
363.589028
 70
    64
  0
VERTEX
  5
4B5
  8
TEAM-NET
 10
-6.155526
 20
-122.024481
 30
358.639419
 70
    64
  0
VERTEX
  5
4B6
  8
TEAM-NET
 10
-18.245244
 20
-119.152168
 30
354.53733
 70
    64
  0
VERTEX
  5
4B7
  8
TEAM-NET
 10
-30.725409
 20
-116.895156
 30
351.313983
 70
    64
  0
VERTEX
  5
4B8
  8
TEAM-NET
 10
-43.501039
 20
-115.270622
 30
348.993907
 70
    64
  0
VERTEX
  5
4B9
  8
TEAM-NET
 10
-56.474904
 20
-114.290929
 30
347.594761
 70
    64
  0
VERTEX
  5
4BA
  8
TEAM-NET
 10
-69.548265
 20
-113.963535
 30
347.127193
 70
    64
  0
VERTEX
  5
4BB
  8
TEAM-NET
 10
-82.621627
 20
-114.290929
 30
347.594761
 70
    64
  0
VERTEX
  5
4BC
  8
TEAM-NET
 10
-95.595492
 20
-115.270622
 30
348.993907
 70
    64
  0
VERTEX
  5
4BD
  8
TEAM-NET
 10
-108.371122
 20
-116.895156
 30
351.313983
 70
    64
  0
VERTEX
  5
4BE
  8
TEAM-NET
 10
-120.851287
 20
-119.152168
 30
354.53733
 70
    64
  0
VERTEX
  5
4BF
  8
TEAM-NET
 10
-132.941005
 20
-122.024481
 30
358.639419
 70
    64
  0
VERTEX
  5
4C0
  8
TEAM-NET
 10
-144.548265
 20
-125.490235
 30
363.589028
 70
    64
  0
VERTEX
  5
4C1
  8
TEAM-NET
 10
-155.584731
 20
-129.523053
 30
369.348489
 70
    64
  0
VERTEX
  5
4C2
  8
TEAM-NET
 10
-165.966407
 20
-134.092244
 30
375.873969
 70
    64
  0
VERTEX
  5
4C3
  8
TEAM-NET
 10
-175.614283
 20
-139.163032
 30
383.115805
 70
    64
  0
VERTEX
  5
4C4
  8
TEAM-NET
 10
-184.454932
 20
-144.696826
 30
391.018882
 70
    64
  0
VERTEX
  5
4C5
  8
TEAM-NET
 10
-192.421072
 20
-150.651511
 30
399.523053
 70
    64
  0
VERTEX
  5
4C6
  8
TEAM-NET
 10
-199.452076
 20
-156.981767
 30
408.563597
 70
    64
  0
VERTEX
  5
4C7
  8
TEAM-NET
 10
-205.494434
 20
-163.639419
 30
418.071708
 70
    64
  0
VERTEX
  5
4C8
  8
TEAM-NET
 10
-210.502159
 20
-170.573796
 30
427.975025
 70
    64
  0
VERTEX
  5
4C9
  8
TEAM-NET
 10
-214.437139
 20
-177.732124
 30
438.198178
 70
    64
  0
VERTEX
  5
4CA
  8
TEAM-NET
 10
-217.269428
 20
-185.059925
 30
448.663361
 70
    64
  0
VERTEX
  5
4CB
  8
TEAM-NET
 10
-218.97747
 20
-192.501428
 30
459.290929
 70
    64
  0
VERTEX
  5
4CC
  8
TEAM-NET
 10
-219.548265
 20
-200.0
 30
470.0
 70
    64
  0
VERTEX
  5
4CD
  8
TEAM-NET
 10
80.451735
 20
-200.0
 30
470.0
 70
    64
  0
VERTEX
  5
4CE
  8
TEAM-NET
 10
79.880939
 20
-191.596605
 30
459.985224
 70
    64
  0
VERTEX
  5
4CF
  8
TEAM-NET
 10
78.172897
 20
-183.257165
 30
450.046667
 70
    64
  0
VERTEX
  5
4D0
  8
TEAM-NET
 10
75.340608
 20
-175.045149
 30
440.259966
 70
    64
  0
VERTEX
  5
4D1
  8
TEAM-NET
 10
71.405628
 20
-167.023053
 30
430.699605
 70
    64
  0
VERTEX
  5
4D2
  8
TEAM-NET
 10
66.397903
 20
-159.251933
 30
421.438344
 70
    64
  0
VERTEX
  5
4D3
  8
TEAM-NET
 10
60.355545
 20
-151.790929
 30
412.546667
 70
    64
  0
VERTEX
  5
4D4
  8
TEAM-NET
 10
53.324541
 20
-144.696826
 30
404.092244
 70
    64
  0
VERTEX
  5
4D5
  8
TEAM-NET
 10
45.358401
 20
-138.023613
 30
396.139419
 70
    64
  0
VERTEX
  5
4D6
  8
TEAM-NET
 10
36.517752
 20
-131.822078
 30
388.748717
 70
    64
  0
VERTEX
  5
4D7
  8
TEAM-NET
 10
26.869876
 20
-126.139419
 30
381.976387
 70
    64
  0
VERTEX
  5
4D8
  8
TEAM-NET
 10
16.4882
 20
-121.018882
 30
375.873969
 70
    64
  0
VERTEX
  5
4D9
  8
TEAM-NET
 10
5.451735
 20
-116.49944
 30
370.487908
 70
    64
  0
VERTEX
  5
4DA
  8
TEAM-NET
 10
-6.155526
 20
-112.615488
 30
365.859193
 70
    64
  0
VERTEX
  5
4DB
  8
TEAM-NET
 10
-18.245244
 20
-109.396584
 30
362.023053
 70
    64
  0
VERTEX
  5
4DC
  8
TEAM-NET
 10
-30.725409
 20
-106.867227
 30
359.008683
 70
    64
  0
VERTEX
  5
4DD
  8
TEAM-NET
 10
-43.501039
 20
-105.046667
 30
356.839024
 70
    64
  0
VERTEX
  5
4DE
  8
TEAM-NET
 10
-56.474904
 20
-103.948759
 30
355.530588
 70
    64
  0
VERTEX
  5
4DF
  8
TEAM-NET
 10
-69.548265
 20
-103.581859
 30
355.093334
 70
    64
  0
VERTEX
  5
4E0
  8
TEAM-NET
 10
-82.621627
 20
-103.948759
 30
355.530588
 70
    64
  0
VERTEX
  5
4E1
  8
TEAM-NET
 10
-95.595492
 20
-105.046667
 30
356.839024
 70
    64
  0
VERTEX
  5
4E2
  8
TEAM-NET
 10
-108.371122
 20
-106.867227
 30
359.008683
 70
    64
  0
VERTEX
  5
4E3
  8
TEAM-NET
 10
-120.851287
 20
-109.396584
 30
362.023053
 70
    64
  0
VERTEX
  5
4E4
  8
TEAM-NET
 10
-132.941005
 20
-112.615488
 30
365.859193
 70
    64
  0
VERTEX
  5
4E5
  8
TEAM-NET
 10
-144.548265
 20
-116.49944
 30
370.487908
 70
    64
  0
VERTEX
  5
4E6
  8
TEAM-NET
 10
-155.584731
 20
-121.018882
 30
375.873969
 70
    64
  0
VERTEX
  5
4E7
  8
TEAM-NET
 10
-165.966407
 20
-126.139419
 30
381.976387
 70
    64
  0
VERTEX
  5
4E8
  8
TEAM-NET
 10
-175.614283
 20
-131.822078
 30
388.748717
 70
    64
  0
VERTEX
  5
4E9
  8
TEAM-NET
 10
-184.454932
 20
-138.023613
 30
396.139419
 70
    64
  0
VERTEX
  5
4EA
  8
TEAM-NET
 10
-192.421072
 20
-144.696826
 30
404.092244
 70
    64
  0
VERTEX
  5
4EB
  8
TEAM-NET
 10
-199.452076
 20
-151.790929
 30
412.546667
 70
    64
  0
VERTEX
  5
4EC
  8
TEAM-NET
 10
-205.494434
 20
-159.251933
 30
421.438344
 70
    64
  0
VERTEX
  5
4ED
  8
TEAM-NET
 10
-210.502159
 20
-167.023053
 30
430.699605
 70
    64
  0
VERTEX
  5
4EE
  8
TEAM-NET
 10
-214.437139
 20
-175.045149
 30
440.259966
 70
    64
  0
VERTEX
  5
4EF
  8
TEAM-NET
 10
-217.269428
 20
-183.257165
 30
450.046667
 70
    64
  0
VERTEX
  5
4F0
  8
TEAM-NET
 10
-218.97747
 20
-191.596605
 30
459.985224
 70
    64
  0
VERTEX
  5
4F1
  8
TEAM-NET
 10
-219.548265
 20
-200.0
 30
470.0
 70
    64
  0
VERTEX
  5
4F2
  8
TEAM-NET
 10
80.451735
 20
-200.0
 30
470.0
 70
    64
  0
VERTEX
  5
4F3
  8
TEAM-NET
 10
79.880939
 20
-190.755737
 30
460.755737
 70
    64
  0
VERTEX
  5
4F4
  8
TEAM-NET
 10
78.172897
 20
-181.581829
 30
451.581829
 70
    64
  0
VERTEX
  5
4F5
  8
TEAM-NET
 10
75.340608
 20
-172.548095
 30
442.548095
 70
    64
  0
VERTEX
  5
4F6
  8
TEAM-NET
 10
71.405628
 20
-163.723286
 30
433.723286
 70
    64
  0
VERTEX
  5
4F7
  8
TEAM-NET
 10
66.397903
 20
-155.174564
 30
425.174564
 70
    64
  0
VERTEX
  5
4F8
  8
TEAM-NET
 10
60.355545
 20
-146.966991
 30
416.966991
 70
    64
  0
VERTEX
  5
4F9
  8
TEAM-NET
 10
53.324541
 20
-139.163032
 30
409.163032
 70
    64
  0
VERTEX
  5
4FA
  8
TEAM-NET
 10
45.358401
 20
-131.822078
 30
401.822078
 70
    64
  0
VERTEX
  5
4FB
  8
TEAM-NET
 10
36.517752
 20
-125.0
 30
395.0
 70
    64
  0
VERTEX
  5
4FC
  8
TEAM-NET
 10
26.869876
 20
-118.748717
 30
388.748717
 70
    64
  0
VERTEX
  5
4FD
  8
TEAM-NET
 10
16.4882
 20
-113.115805
 30
383.115805
 70
    64
  0
VERTEX
  5
4FE
  8
TEAM-NET
 10
5.451735
 20
-108.144135
 30
378.144135
 70
    64
  0
VERTEX
  5
4FF
  8
TEAM-NET
 10
-6.155526
 20
-103.871543
 30
373.871543
 70
    64
  0
VERTEX
  5
500
  8
TEAM-NET
 10
-18.245244
 20
-100.330546
 30
370.330546
 70
    64
  0
VERTEX
  5
501
  8
TEAM-NET
 10
-30.725409
 20
-97.548095
 30
367.548095
 70
    64
  0
VERTEX
  5
502
  8
TEAM-NET
 10
-43.501039
 20
-95.545364
 30
365.545364
 70
    64
  0
VERTEX
  5
503
  8
TEAM-NET
 10
-56.474904
 20
-94.337596
 30
364.337596
 70
    64
  0
VERTEX
  5
504
  8
TEAM-NET
 10
-69.548265
 20
-93.933983
 30
363.933983
 70
    64
  0
VERTEX
  5
505
  8
TEAM-NET
 10
-82.621627
 20
-94.337596
 30
364.337596
 70
    64
  0
VERTEX
  5
506
  8
TEAM-NET
 10
-95.595492
 20
-95.545364
 30
365.545364
 70
    64
  0
VERTEX
  5
507
  8
TEAM-NET
 10
-108.371122
 20
-97.548095
 30
367.548095
 70
    64
  0
VERTEX
  5
508
  8
TEAM-NET
 10
-120.851287
 20
-100.330546
 30
370.330546
 70
    64
  0
VERTEX
  5
509
  8
TEAM-NET
 10
-132.941005
 20
-103.871543
 30
373.871543
 70
    64
  0
VERTEX
  5
50A
  8
TEAM-NET
 10
-144.548265
 20
-108.144135
 30
378.144135
 70
    64
  0
VERTEX
  5
50B
  8
TEAM-NET
 10
-155.584731
 20
-113.115805
 30
383.115805
 70
    64
  0
VERTEX
  5
50C
  8
TEAM-NET
 10
-165.966407
 20
-118.748717
 30
388.748717
 70
    64
  0
VERTEX
  5
50D
  8
TEAM-NET
 10
-175.614283
 20
-125.0
 30
395.0
 70
    64
  0
VERTEX
  5
50E
  8
TEAM-NET
 10
-184.454932
 20
-131.822078
 30
401.822078
 70
    64
  0
VERTEX
  5
50F
  8
TEAM-NET
 10
-192.421072
 20
-139.163032
 30
409.163032
 70
    64
  0
VERTEX
  5
510
  8
TEAM-NET
 10
-199.452076
 20
-146.966991
 30
416.966991
 70
    64
  0
VERTEX
  5
511
  8
TEAM-NET
 10
-205.494434
 20
-155.174564
 30
425.174564
 70
    64
  0
VERTEX
  5
512
  8
TEAM-NET
 10
-210.502159
 20
-163.723286
 30
433.723286
 70
    64
  0
VERTEX
  5
513
  8
TEAM-NET
 10
-214.437139
 20
-172.548095
 30
442.548095
 70
    64
  0
VERTEX
  5
514
  8
TEAM-NET
 10
-217.269428
 20
-181.581829
 30
451.581829
 70
    64
  0
VERTEX
  5
515
  8
TEAM-NET
 10
-218.97747
 20
-190.755737
 30
460.755737
 70
    64
  0
VERTEX
  5
516
  8
TEAM-NET
 10
-219.548265
 20
-200.0
 30
470.0
 70
    64
  0
VERTEX
  5
517
  8
TEAM-NET
 10
80.451735
 20
-200.0
 30
470.0
 70
    64
  0
VERTEX
  5
518
  8
TEAM-NET
 10
79.880939
 20
-189.985224
 30
461.596605
 70
    64
  0
VERTEX
  5
519
  8
TEAM-NET
 10
78.172897
 20
-180.046667
 30
453.257165
 70
    64
  0
VERTEX
  5
51A
  8
TEAM-NET
 10
75.340608
 20
-170.259966
 30
445.045149
 70
    64
  0
VERTEX
  5
51B
  8
TEAM-NET
 10
71.405628
 20
-160.699605
 30
437.023053
 70
    64
  0
VERTEX
  5
51C
  8
TEAM-NET
 10
66.397903
 20
-151.438344
 30
429.251933
 70
    64
  0
VERTEX
  5
51D
  8
TEAM-NET
 10
60.355545
 20
-142.546667
 30
421.790929
 70
    64
  0
VERTEX
  5
51E
  8
TEAM-NET
 10
53.324541
 20
-134.092244
 30
414.696826
 70
    64
  0
VERTEX
  5
51F
  8
TEAM-NET
 10
45.358401
 20
-126.139419
 30
408.023613
 70
    64
  0
VERTEX
  5
520
  8
TEAM-NET
 10
36.517752
 20
-118.748717
 30
401.822078
 70
    64
  0
VERTEX
  5
521
  8
TEAM-NET
 10
26.869876
 20
-111.976387
 30
396.139419
 70
    64
  0
VERTEX
  5
522
  8
TEAM-NET
 10
16.4882
 20
-105.873969
 30
391.018882
 70
    64
  0
VERTEX
  5
523
  8
TEAM-NET
 10
5.451735
 20
-100.487908
 30
386.49944
 70
    64
  0
VERTEX
  5
524
  8
TEAM-NET
 10
-6.155526
 20
-95.859193
 30
382.615488
 70
    64
  0
VERTEX
  5
525
  8
TEAM-NET
 10
-18.245244
 20
-92.023053
 30
379.396584
 70
    64
  0
VERTEX
  5
526
  8
TEAM-NET
 10
-30.725409
 20
-89.008683
 30
376.867227
 70
    64
  0
VERTEX
  5
527
  8
TEAM-NET
 10
-43.501039
 20
-86.839024
 30
375.046667
 70
    64
  0
VERTEX
  5
528
  8
TEAM-NET
 10
-56.474904
 20
-85.530588
 30
373.948759
 70
    64
  0
VERTEX
  5
529
  8
TEAM-NET
 10
-69.548265
 20
-85.093334
 30
373.581859
 70
    64
  0
VERTEX
  5
52A
  8
TEAM-NET
 10
-82.621627
 20
-85.530588
 30
373.948759
 70
    64
  0
VERTEX
  5
52B
  8
TEAM-NET
 10
-95.595492
 20
-86.839024
 30
375.046667
 70
    64
  0
VERTEX
  5
52C
  8
TEAM-NET
 10
-108.371122
 20
-89.008683
 30
376.867227
 70
    64
  0
VERTEX
  5
52D
  8
TEAM-NET
 10
-120.851287
 20
-92.023053
 30
379.396584
 70
    64
  0
VERTEX
  5
52E
  8
TEAM-NET
 10
-132.941005
 20
-95.859193
 30
382.615488
 70
    64
  0
VERTEX
  5
52F
  8
TEAM-NET
 10
-144.548265
 20
-100.487908
 30
386.49944
 70
    64
  0
VERTEX
  5
530
  8
TEAM-NET
 10
-155.584731
 20
-105.873969
 30
391.018882
 70
    64
  0
VERTEX
  5
531
  8
TEAM-NET
 10
-165.966407
 20
-111.976387
 30
396.139419
 70
    64
  0
VERTEX
  5
532
  8
TEAM-NET
 10
-175.614283
 20
-118.748717
 30
401.822078
 70
    64
  0
VERTEX
  5
533
  8
TEAM-NET
 10
-184.454932
 20
-126.139419
 30
408.023613
 70
    64
  0
VERTEX
  5
534
  8
TEAM-NET
 10
-192.421072
 20
-134.092244
 30
414.696826
 70
    64
  0
VERTEX
  5
535
  8
TEAM-NET
 10
-199.452076
 20
-142.546667
 30
421.790929
 70
    64
  0
VERTEX
  5
536
  8
TEAM-NET
 10
-205.494434
 20
-151.438344
 30
429.251933
 70
    64
  0
VERTEX
  5
537
  8
TEAM-NET
 10
-210.502159
 20
-160.699605
 30
437.023053
 70
    64
  0
VERTEX
  5
538
  8
TEAM-NET
 10
-214.437139
 20
-170.259966
 30
445.045149
 70
    64
  0
VERTEX
  5
539
  8
TEAM-NET
 10
-217.269428
 20
-180.046667
 30
453.257165
 70
    64
  0
VERTEX
  5
53A
  8
TEAM-NET
 10
-218.97747
 20
-189.985224
 30
461.596605
 70
    64
  0
VERTEX
  5
53B
  8
TEAM-NET
 10
-219.548265
 20
-200.0
 30
470.0
 70
    64
  0
VERTEX
  5
53C
  8
TEAM-NET
 10
80.451735
 20
-200.0
 30
470.0
 70
    64
  0
VERTEX
  5
53D
  8
TEAM-NET
 10
79.880939
 20
-189.290929
 30
462.501428
 70
    64
  0
VERTEX
  5
53E
  8
TEAM-NET
 10
78.172897
 20
-178.663361
 30
455.059925
 70
    64
  0
VERTEX
  5
53F
  8
TEAM-NET
 10
75.340608
 20
-168.198178
 30
447.732124
 70
    64
  0
VERTEX
  5
540
  8
TEAM-NET
 10
71.405628
 20
-157.975025
 30
440.573796
 70
    64
  0
VERTEX
  5
541
  8
TEAM-NET
 10
66.397903
 20
-148.071708
 30
433.639419
 70
    64
  0
VERTEX
  5
542
  8
TEAM-NET
 10
60.355545
 20
-138.563597
 30
426.981767
 70
    64
  0
VERTEX
  5
543
  8
TEAM-NET
 10
53.324541
 20
-129.523053
 30
420.651511
 70
    64
  0
VERTEX
  5
544
  8
TEAM-NET
 10
45.358401
 20
-121.018882
 30
414.696826
 70
    64
  0
VERTEX
  5
545
  8
TEAM-NET
 10
36.517752
 20
-113.115805
 30
409.163032
 70
    64
  0
VERTEX
  5
546
  8
TEAM-NET
 10
26.869876
 20
-105.873969
 30
404.092244
 70
    64
  0
VERTEX
  5
547
  8
TEAM-NET
 10
16.4882
 20
-99.348489
 30
399.523053
 70
    64
  0
VERTEX
  5
548
  8
TEAM-NET
 10
5.451735
 20
-93.589028
 30
395.490235
 70
    64
  0
VERTEX
  5
549
  8
TEAM-NET
 10
-6.155526
 20
-88.639419
 30
392.024481
 70
    64
  0
VERTEX
  5
54A
  8
TEAM-NET
 10
-18.245244
 20
-84.53733
 30
389.152168
 70
    64
  0
VERTEX
  5
54B
  8
TEAM-NET
 10
-30.725409
 20
-81.313983
 30
386.895156
 70
    64
  0
VERTEX
  5
54C
  8
TEAM-NET
 10
-43.501039
 20
-78.993907
 30
385.270622
 70
    64
  0
VERTEX
  5
54D
  8
TEAM-NET
 10
-56.474904
 20
-77.594761
 30
384.290929
 70
    64
  0
VERTEX
  5
54E
  8
TEAM-NET
 10
-69.548265
 20
-77.127193
 30
383.963535
 70
    64
  0
VERTEX
  5
54F
  8
TEAM-NET
 10
-82.621627
 20
-77.594761
 30
384.290929
 70
    64
  0
VERTEX
  5
550
  8
TEAM-NET
 10
-95.595492
 20
-78.993907
 30
385.270622
 70
    64
  0
VERTEX
  5
551
  8
TEAM-NET
 10
-108.371122
 20
-81.313983
 30
386.895156
 70
    64
  0
VERTEX
  5
552
  8
TEAM-NET
 10
-120.851287
 20
-84.53733
 30
389.152168
 70
    64
  0
VERTEX
  5
553
  8
TEAM-NET
 10
-132.941005
 20
-88.639419
 30
392.024481
 70
    64
  0
VERTEX
  5
554
  8
TEAM-NET
 10
-144.548265
 20
-93.589028
 30
395.490235
 70
    64
  0
VERTEX
  5
555
  8
TEAM-NET
 10
-155.584731
 20
-99.348489
 30
399.523053
 70
    64
  0
VERTEX
  5
556
  8
TEAM-NET
 10
-165.966407
 20
-105.873969
 30
404.092244
 70
    64
  0
VERTEX
  5
557
  8
TEAM-NET
 10
-175.614283
 20
-113.115805
 30
409.163032
 70
    64
  0
VERTEX
  5
558
  8
TEAM-NET
 10
-184.454932
 20
-121.018882
 30
414.696826
 70
    64
  0
VERTEX
  5
559
  8
TEAM-NET
 10
-192.421072
 20
-129.523053
 30
420.651511
 70
    64
  0
VERTEX
  5
55A
  8
TEAM-NET
 10
-199.452076
 20
-138.563597
 30
426.981767
 70
    64
  0
VERTEX
  5
55B
  8
TEAM-NET
 10
-205.494434
 20
-148.071708
 30
433.639419
 70
    64
  0
VERTEX
  5
55C
  8
TEAM-NET
 10
-210.502159
 20
-157.975025
 30
440.573796
 70
    64
  0
VERTEX
  5
55D
  8
TEAM-NET
 10
-214.437139
 20
-168.198178
 30
447.732124
 70
    64
  0
VERTEX
  5
55E
  8
TEAM-NET
 10
-217.269428
 20
-178.663361
 30
455.059925
 70
    64
  0
VERTEX
  5
55F
  8
TEAM-NET
 10
-218.97747
 20
-189.290929
 30
462.501428
 70
    64
  0
VERTEX
  5
560
  8
TEAM-NET
 10
-219.548265
 20
-200.0
 30
470.0
 70
    64
  0
VERTEX
  5
561
  8
TEAM-NET
 10
80.451735
 20
-200.0
 30
470.0
 70
    64
  0
VERTEX
  5
562
  8
TEAM-NET
 10
79.880939
 20
-188.678137
 30
463.463319
 70
    64
  0
VERTEX
  5
563
  8
TEAM-NET
 10
78.172897
 20
-177.44244
 30
456.976387
 70
    64
  0
VERTEX
  5
564
  8
TEAM-NET
 10
75.340608
 20
-166.37842
 30
450.588572
 70
    64
  0
VERTEX
  5
565
  8
TEAM-NET
 10
71.405628
 20
-155.57028
 30
444.348489
 70
    64
  0
VERTEX
  5
566
  8
TEAM-NET
 10
66.397903
 20
-145.100277
 30
438.30363
 70
    64
  0
VERTEX
  5
567
  8
TEAM-NET
 10
60.355545
 20
-135.048095
 30
432.5
 70
    64
  0
VERTEX
  5
568
  8
TEAM-NET
 10
53.324541
 20
-125.490235
 30
426.981767
 70
    64
  0
VERTEX
  5
569
  8
TEAM-NET
 10
45.358401
 20
-116.49944
 30
421.790929
 70
    64
  0
VERTEX
  5
56A
  8
TEAM-NET
 10
36.517752
 20
-108.144135
 30
416.966991
 70
    64
  0
VERTEX
  5
56B
  8
TEAM-NET
 10
26.869876
 20
-100.487908
 30
412.546667
 70
    64
  0
VERTEX
  5
56C
  8
TEAM-NET
 10
16.4882
 20
-93.589028
 30
408.563597
 70
    64
  0
VERTEX
  5
56D
  8
TEAM-NET
 10
5.451735
 20
-87.5
 30
405.048095
 70
    64
  0
VERTEX
  5
56E
  8
TEAM-NET
 10
-6.155526
 20
-82.267165
 30
402.026916
 70
    64
  0
VERTEX
  5
56F
  8
TEAM-NET
 10
-18.245244
 20
-77.930348
 30
399.523053
 70
    64
  0
VERTEX
  5
570
  8
TEAM-NET
 10
-30.725409
 20
-74.522554
 30
397.555563
 70
    64
  0
VERTEX
  5
571
  8
TEAM-NET
 10
-43.501039
 20
-72.06972
 30
396.139419
 70
    64
  0
VERTEX
  5
572
  8
TEAM-NET
 10
-56.474904
 20
-70.590513
 30
395.285398
 70
    64
  0
VERTEX
  5
573
  8
TEAM-NET
 10
-69.548265
 20
-70.096189
 30
395.0
 70
    64
  0
VERTEX
  5
574
  8
TEAM-NET
 10
-82.621627
 20
-70.590513
 30
395.285398
 70
    64
  0
VERTEX
  5
575
  8
TEAM-NET
 10
-95.595492
 20
-72.06972
 30
396.139419
 70
    64
  0
VERTEX
  5
576
  8
TEAM-NET
 10
-108.371122
 20
-74.522554
 30
397.555563
 70
    64
  0
VERTEX
  5
577
  8
TEAM-NET
 10
-120.851287
 20
-77.930348
 30
399.523053
 70
    64
  0
VERTEX
  5
578
  8
TEAM-NET
 10
-132.941005
 20
-82.267165
 30
402.026916
 70
    64
  0
VERTEX
  5
579
  8
TEAM-NET
 10
-144.548265
 20
-87.5
 30
405.048095
 70
    64
  0
VERTEX
  5
57A
  8
TEAM-NET
 10
-155.584731
 20
-93.589028
 30
408.563597
 70
    64
  0
VERTEX
  5
57B
  8
TEAM-NET
 10
-165.966407
 20
-100.487908
 30
412.546667
 70
    64
  0
VERTEX
  5
57C
  8
TEAM-NET
 10
-175.614283
 20
-108.144135
 30
416.966991
 70
    64
  0
VERTEX
  5
57D
  8
TEAM-NET
 10
-184.454932
 20
-116.49944
 30
421.790929
 70
    64
  0
VERTEX
  5
57E
  8
TEAM-NET
 10
-192.421072
 20
-125.490235
 30
426.981767
 70
    64
  0
VERTEX
  5
57F
  8
TEAM-NET
 10
-199.452076
 20
-135.048095
 30
432.5
 70
    64
  0
VERTEX
  5
580
  8
TEAM-NET
 10
-205.494434
 20
-145.100277
 30
438.30363
 70
    64
  0
VERTEX
  5
581
  8
TEAM-NET
 10
-210.502159
 20
-155.57028
 30
444.348489
 70
    64
  0
VERTEX
  5
582
  8
TEAM-NET
 10
-214.437139
 20
-166.37842
 30
450.588572
 70
    64
  0
VERTEX
  5
583
  8
TEAM-NET
 10
-217.269428
 20
-177.44244
 30
456.976387
 70
    64
  0
VERTEX
  5
584
  8
TEAM-NET
 10
-218.97747
 20
-188.678137
 30
463.463319
 70
    64
  0
VERTEX
  5
585
  8
TEAM-NET
 10
-219.548265
 20
-200.0
 30
470.0
 70
    64
  0
VERTEX
  5
586
  8
TEAM-NET
 10
80.451735
 20
-200.0
 30
470.0
 70
    64
  0
VERTEX
  5
587
  8
TEAM-NET
 10
79.880939
 20
-188.151511
 30
464.474959
 70
    64
  0
VERTEX
  5
588
  8
TEAM-NET
 10
78.172897
 20
-176.393196
 30
458.991966
 70
    64
  0
VERTEX
  5
589
  8
TEAM-NET
 10
75.340608
 20
-164.814543
 30
453.592752
 70
    64
  0
VERTEX
  5
58A
  8
TEAM-NET
 10
71.405628
 20
-153.503672
 30
448.318406
 70
    64
  0
VERTEX
  5
58B
  8
TEAM-NET
 10
66.397903
 20
-142.546667
 30
443.209071
 70
    64
  0
VERTEX
  5
58C
  8
TEAM-NET
 10
60.355545
 20
-132.026916
 30
438.30363
 70
    64
  0
VERTEX
  5
58D
  8
TEAM-NET
 10
53.324541
 20
-122.024481
 30
433.639419
 70
    64
  0
VERTEX
  5
58E
  8
TEAM-NET
 10
45.358401
 20
-112.615488
 30
429.251933
 70
    64
  0
VERTEX
  5
58F
  8
TEAM-NET
 10
36.517752
 20
-103.871543
 30
425.174564
 70
    64
  0
VERTEX
  5
590
  8
TEAM-NET
 10
26.869876
 20
-95.859193
 30
421.438344
 70
    64
  0
VERTEX
  5
591
  8
TEAM-NET
 10
16.4882
 20
-88.639419
 30
418.071708
 70
    64
  0
VERTEX
  5
592
  8
TEAM-NET
 10
5.451735
 20
-82.267165
 30
415.100277
 70
    64
  0
VERTEX
  5
593
  8
TEAM-NET
 10
-6.155526
 20
-76.790929
 30
412.546667
 70
    64
  0
VERTEX
  5
594
  8
TEAM-NET
 10
-18.245244
 20
-72.252389
 30
410.430311
 70
    64
  0
VERTEX
  5
595
  8
TEAM-NET
 10
-30.725409
 20
-68.686085
 30
408.767316
 70
    64
  0
VERTEX
  5
596
  8
TEAM-NET
 10
-43.501039
 20
-66.11916
 30
407.570339
 70
    64
  0
VERTEX
  5
597
  8
TEAM-NET
 10
-56.474904
 20
-64.571148
 30
406.848489
 70
    64
  0
VERTEX
  5
598
  8
TEAM-NET
 10
-69.548265
 20
-64.053832
 30
406.607261
 70
    64
  0
VERTEX
  5
599
  8
TEAM-NET
 10
-82.621627
 20
-64.571148
 30
406.848489
 70
    64
  0
VERTEX
  5
59A
  8
TEAM-NET
 10
-95.595492
 20
-66.11916
 30
407.570339
 70
    64
  0
VERTEX
  5
59B
  8
TEAM-NET
 10
-108.371122
 20
-68.686085
 30
408.767316
 70
    64
  0
VERTEX
  5
59C
  8
TEAM-NET
 10
-120.851287
 20
-72.252389
 30
410.430311
 70
    64
  0
VERTEX
  5
59D
  8
TEAM-NET
 10
-132.941005
 20
-76.790929
 30
412.546667
 70
    64
  0
VERTEX
  5
59E
  8
TEAM-NET
 10
-144.548265
 20
-82.267165
 30
415.100277
 70
    64
  0
VERTEX
  5
59F
  8
TEAM-NET
 10
-155.584731
 20
-88.639419
 30
418.071708
 70
    64
  0
VERTEX
  5
5A0
  8
TEAM-NET
 10
-165.966407
 20
-95.859193
 30
421.438344
 70
    64
  0
VERTEX
  5
5A1
  8
TEAM-NET
 10
-175.614283
 20
-103.871543
 30
425.174564
 70
    64
  0
VERTEX
  5
5A2
  8
TEAM-NET
 10
-184.454932
 20
-112.615488
 30
429.251933
 70
    64
  0
VERTEX
  5
5A3
  8
TEAM-NET
 10
-192.421072
 20
-122.024481
 30
433.639419
 70
    64
  0
VERTEX
  5
5A4
  8
TEAM-NET
 10
-199.452076
 20
-132.026916
 30
438.30363
 70
    64
  0
VERTEX
  5
5A5
  8
TEAM-NET
 10
-205.494434
 20
-142.546667
 30
443.209071
 70
    64
  0
VERTEX
  5
5A6
  8
TEAM-NET
 10
-210.502159
 20
-153.503672
 30
448.318406
 70
    64
  0
VERTEX
  5
5A7
  8
TEAM-NET
 10
-214.437139
 20
-164.814543
 30
453.592752
 70
    64
  0
VERTEX
  5
5A8
  8
TEAM-NET
 10
-217.269428
 20
-176.393196
 30
458.991966
 70
    64
  0
VERTEX
  5
5A9
  8
TEAM-NET
 10
-218.97747
 20
-188.151511
 30
464.474959
 70
    64
  0
VERTEX
  5
5AA
  8
TEAM-NET
 10
-219.548265
 20
-200.0
 30
470.0
 70
    64
  0
VERTEX
  5
5AB
  8
TEAM-NET
 10
80.451735
 20
-200.0
 30
470.0
 70
    64
  0
VERTEX
  5
5AC
  8
TEAM-NET
 10
79.880939
 20
-187.715059
 30
465.528647
 70
    64
  0
VERTEX
  5
5AD
  8
TEAM-NET
 10
78.172897
 20
-175.523613
 30
461.091324
 70
    64
  0
VERTEX
  5
5AE
  8
TEAM-NET
 10
75.340608
 20
-163.518448
 30
456.721801
 70
    64
  0
VERTEX
  5
5AF
  8
TEAM-NET
 10
71.405628
 20
-151.790929
 30
452.453333
 70
    64
  0
VERTEX
  5
5B0
  8
TEAM-NET
 10
66.397903
 20
-140.430311
 30
448.318406
 70
    64
  0
VERTEX
  5
5B1
  8
TEAM-NET
 10
60.355545
 20
-129.523053
 30
444.348489
 70
    64
  0
VERTEX
  5
5B2
  8
TEAM-NET
 10
53.324541
 20
-119.152168
 30
440.573796
 70
    64
  0
VERTEX
  5
5B3
  8
TEAM-NET
 10
45.358401
 20
-109.396584
 30
437.023053
 70
    64
  0
VERTEX
  5
5B4
  8
TEAM-NET
 10
36.517752
 20
-100.330546
 30
433.723286
 70
    64
  0
VERTEX
  5
5B5
  8
TEAM-NET
 10
26.869876
 20
-92.023053
 30
430.699605
 70
    64
  0
VERTEX
  5
5B6
  8
TEAM-NET
 10
16.4882
 20
-84.53733
 30
427.975025
 70
    64
  0
VERTEX
  5
5B7
  8
TEAM-NET
 10
5.451735
 20
-77.930348
 30
425.57028
 70
    64
  0
VERTEX
  5
5B8
  8
TEAM-NET
 10
-6.155526
 20
-72.252389
 30
423.503672
 70
    64
  0
VERTEX
  5
5B9
  8
TEAM-NET
 10
-18.245244
 20
-67.546667
 30
421.790929
 70
    64
  0
VERTEX
  5
5BA
  8
TEAM-NET
 10
-30.725409
 20
-63.848994
 30
420.445087
 70
    64
  0
VERTEX
  5
5BB
  8
TEAM-NET
 10
-43.501039
 20
-61.187513
 30
419.476387
 70
    64
  0
VERTEX
  5
5BC
  8
TEAM-NET
 10
-56.474904
 20
-59.582479
 30
418.892202
 70
    64
  0
VERTEX
  5
5BD
  8
TEAM-NET
 10
-69.548265
 20
-59.046107
 30
418.696979
 70
    64
  0
VERTEX
  5
5BE
  8
TEAM-NET
 10
-82.621627
 20
-59.582479
 30
418.892202
 70
    64
  0
VERTEX
  5
5BF
  8
TEAM-NET
 10
-95.595492
 20
-61.187513
 30
419.476387
 70
    64
  0
VERTEX
  5
5C0
  8
TEAM-NET
 10
-108.371122
 20
-63.848994
 30
420.445087
 70
    64
  0
VERTEX
  5
5C1
  8
TEAM-NET
 10
-120.851287
 20
-67.546667
 30
421.790929
 70
    64
  0
VERTEX
  5
5C2
  8
TEAM-NET
 10
-132.941005
 20
-72.252389
 30
423.503672
 70
    64
  0
VERTEX
  5
5C3
  8
TEAM-NET
 10
-144.548265
 20
-77.930348
 30
425.57028
 70
    64
  0
VERTEX
  5
5C4
  8
TEAM-NET
 10
-155.584731
 20
-84.53733
 30
427.975025
 70
    64
  0
VERTEX
  5
5C5
  8
TEAM-NET
 10
-165.966407
 20
-92.023053
 30
430.699605
 70
    64
  0
VERTEX
  5
5C6
  8
TEAM-NET
 10
-175.614283
 20
-100.330546
 30
433.723286
 70
    64
  0
VERTEX
  5
5C7
  8
TEAM-NET
 10
-184.454932
 20
-109.396584
 30
437.023053
 70
    64
  0
VERTEX
  5
5C8
  8
TEAM-NET
 10
-192.421072
 20
-119.152168
 30
440.573796
 70
    64
  0
VERTEX
  5
5C9
  8
TEAM-NET
 10
-199.452076
 20
-129.523053
 30
444.348489
 70
    64
  0
VERTEX
  5
5CA
  8
TEAM-NET
 10
-205.494434
 20
-140.430311
 30
448.318406
 70
    64
  0
VERTEX
  5
5CB
  8
TEAM-NET
 10
-210.502159
 20
-151.790929
 30
452.453333
 70
    64
  0
VERTEX
  5
5CC
  8
TEAM-NET
 10
-214.437139
 20
-163.518448
 30
456.721801
 70
    64
  0
VERTEX
  5
5CD
  8
TEAM-NET
 10
-217.269428
 20
-175.523613
 30
461.091324
 70
    64
  0
VERTEX
  5
5CE
  8
TEAM-NET
 10
-218.97747
 20
-187.715059
 30
465.528647
 70
    64
  0
VERTEX
  5
5CF
  8
TEAM-NET
 10
-219.548265
 20
-200.0
 30
470.0
 70
    64
  0
VERTEX
  5
5D0
  8
TEAM-NET
 10
80.451735
 20
-200.0
 30
470.0
 70
    64
  0
VERTEX
  5
5D1
  8
TEAM-NET
 10
79.880939
 20
-187.372103
 30
466.616365
 70
    64
  0
VERTEX
  5
5D2
  8
TEAM-NET
 10
78.172897
 20
-174.840311
 30
463.258482
 70
    64
  0
VERTEX
  5
5D3
  8
TEAM-NET
 10
75.340608
 20
-162.5
 30
459.951905
 70
    64
  0
VERTEX
  5
5D4
  8
TEAM-NET
 10
71.405628
 20
-150.445087
 30
456.721801
 70
    64
  0
VERTEX
  5
5D5
  8
TEAM-NET
 10
66.397903
 20
-138.767316
 30
453.592752
 70
    64
  0
VERTEX
  5
5D6
  8
TEAM-NET
 10
60.355545
 20
-127.555563
 30
450.588572
 70
    64
  0
VERTEX
  5
5D7
  8
TEAM-NET
 10
53.324541
 20
-116.895156
 30
447.732124
 70
    64
  0
VERTEX
  5
5D8
  8
TEAM-NET
 10
45.358401
 20
-106.867227
 30
445.045149
 70
    64
  0
VERTEX
  5
5D9
  8
TEAM-NET
 10
36.517752
 20
-97.548095
 30
442.548095
 70
    64
  0
VERTEX
  5
5DA
  8
TEAM-NET
 10
26.869876
 20
-89.008683
 30
440.259966
 70
    64
  0
VERTEX
  5
5DB
  8
TEAM-NET
 10
16.4882
 20
-81.313983
 30
438.198178
 70
    64
  0
VERTEX
  5
5DC
  8
TEAM-NET
 10
5.451735
 20
-74.522554
 30
436.37842
 70
    64
  0
VERTEX
  5
5DD
  8
TEAM-NET
 10
-6.155526
 20
-68.686085
 30
434.814543
 70
    64
  0
VERTEX
  5
5DE
  8
TEAM-NET
 10
-18.245244
 20
-63.848994
 30
433.518448
 70
    64
  0
VERTEX
  5
5DF
  8
TEAM-NET
 10
-30.725409
 20
-60.048095
 30
432.5
 70
    64
  0
VERTEX
  5
5E0
  8
TEAM-NET
 10
-43.501039
 20
-57.312314
 30
431.76695
 70
    64
  0
VERTEX
  5
5E1
  8
TEAM-NET
 10
-56.474904
 20
-55.662472
 30
431.324876
 70
    64
  0
VERTEX
  5
5E2
  8
TEAM-NET
 10
-69.548265
 20
-55.111126
 30
431.177143
 70
    64
  0
VERTEX
  5
5E3
  8
TEAM-NET
 10
-82.621627
 20
-55.662472
 30
431.324876
 70
    64
  0
VERTEX
  5
5E4
  8
TEAM-NET
 10
-95.595492
 20
-57.312314
 30
431.76695
 70
    64
  0
VERTEX
  5
5E5
  8
TEAM-NET
 10
-108.371122
 20
-60.048095
 30
432.5
 70
    64
  0
VERTEX
  5
5E6
  8
TEAM-NET
 10
-120.851287
 20
-63.848994
 30
433.518448
 70
    64
  0
VERTEX
  5
5E7
  8
TEAM-NET
 10
-132.941005
 20
-68.686085
 30
434.814543
 70
    64
  0
VERTEX
  5
5E8
  8
TEAM-NET
 10
-144.548265
 20
-74.522554
 30
436.37842
 70
    64
  0
VERTEX
  5
5E9
  8
TEAM-NET
 10
-155.584731
 20
-81.313983
 30
438.198178
 70
    64
  0
VERTEX
  5
5EA
  8
TEAM-NET
 10
-165.966407
 20
-89.008683
 30
440.259966
 70
    64
  0
VERTEX
  5
5EB
  8
TEAM-NET
 10
-175.614283
 20
-97.548095
 30
442.548095
 70
    64
  0
VERTEX
  5
5EC
  8
TEAM-NET
 10
-184.454932
 20
-106.867227
 30
445.045149
 70
    64
  0
VERTEX
  5
5ED
  8
TEAM-NET
 10
-192.421072
 20
-116.895156
 30
447.732124
 70
    64
  0
VERTEX
  5
5EE
  8
TEAM-NET
 10
-199.452076
 20
-127.555563
 30
450.588572
 70
    64
  0
VERTEX
  5
5EF
  8
TEAM-NET
 10
-205.494434
 20
-138.767316
 30
453.592752
 70
    64
  0
VERTEX
  5
5F0
  8
TEAM-NET
 10
-210.502159
 20
-150.445087
 30
456.721801
 70
    64
  0
VERTEX
  5
5F1
  8
TEAM-NET
 10
-214.437139
 20
-162.5
 30
459.951905
 70
    64
  0
VERTEX
  5
5F2
  8
TEAM-NET
 10
-217.269428
 20
-174.840311
 30
463.258482
 70
    64
  0
VERTEX
  5
5F3
  8
TEAM-NET
 10
-218.97747
 20
-187.372103
 30
466.616365
 70
    64
  0
VERTEX
  5
5F4
  8
TEAM-NET
 10
-219.548265
 20
-200.0
 30
470.0
 70
    64
  0
VERTEX
  5
5F5
  8
TEAM-NET
 10
80.451735
 20
-200.0
 30
470.0
 70
    64
  0
VERTEX
  5
5F6
  8
TEAM-NET
 10
79.880939
 20
-187.125252
 30
467.729835
 70
    64
  0
VERTEX
  5
5F7
  8
TEAM-NET
 10
78.172897
 20
-174.348489
 30
465.476947
 70
    64
  0
VERTEX
  5
5F8
  8
TEAM-NET
 10
75.340608
 20
-161.76695
 30
463.258482
 70
    64
  0
VERTEX
  5
5F9
  8
TEAM-NET
 10
71.405628
 20
-149.476387
 30
461.091324
 70
    64
  0
VERTEX
  5
5FA
  8
TEAM-NET
 10
66.397903
 20
-137.570339
 30
458.991966
 70
    64
  0
VERTEX
  5
5FB
  8
TEAM-NET
 10
60.355545
 20
-126.139419
 30
456.976387
 70
    64
  0
VERTEX
  5
5FC
  8
TEAM-NET
 10
53.324541
 20
-115.270622
 30
455.059925
 70
    64
  0
VERTEX
  5
5FD
  8
TEAM-NET
 10
45.358401
 20
-105.046667
 30
453.257165
 70
    64
  0
VERTEX
  5
5FE
  8
TEAM-NET
 10
36.517752
 20
-95.545364
 30
451.581829
 70
    64
  0
VERTEX
  5
5FF
  8
TEAM-NET
 10
26.869876
 20
-86.839024
 30
450.046667
 70
    64
  0
VERTEX
  5
600
  8
TEAM-NET
 10
16.4882
 20
-78.993907
 30
448.663361
 70
    64
  0
VERTEX
  5
601
  8
TEAM-NET
 10
5.451735
 20
-72.06972
 30
447.44244
 70
    64
  0
VERTEX
  5
602
  8
TEAM-NET
 10
-6.155526
 20
-66.11916
 30
446.393196
 70
    64
  0
VERTEX
  5
603
  8
TEAM-NET
 10
-18.245244
 20
-61.187513
 30
445.523613
 70
    64
  0
VERTEX
  5
604
  8
TEAM-NET
 10
-30.725409
 20
-57.312314
 30
444.840311
 70
    64
  0
VERTEX
  5
605
  8
TEAM-NET
 10
-43.501039
 20
-54.523053
 30
444.348489
 70
    64
  0
VERTEX
  5
606
  8
TEAM-NET
 10
-56.474904
 20
-52.840961
 30
444.051891
 70
    64
  0
VERTEX
  5
607
  8
TEAM-NET
 10
-69.548265
 20
-52.278837
 30
443.952773
 70
    64
  0
VERTEX
  5
608
  8
TEAM-NET
 10
-82.621627
 20
-52.840961
 30
444.051891
 70
    64
  0
VERTEX
  5
609
  8
TEAM-NET
 10
-95.595492
 20
-54.523053
 30
444.348489
 70
    64
  0
VERTEX
  5
60A
  8
TEAM-NET
 10
-108.371122
 20
-57.312314
 30
444.840311
 70
    64
  0
VERTEX
  5
60B
  8
TEAM-NET
 10
-120.851287
 20
-61.187513
 30
445.523613
 70
    64
  0
VERTEX
  5
60C
  8
TEAM-NET
 10
-132.941005
 20
-66.11916
 30
446.393196
 70
    64
  0
VERTEX
  5
60D
  8
TEAM-NET
 10
-144.548265
 20
-72.06972
 30
447.44244
 70
    64
  0
VERTEX
  5
60E
  8
TEAM-NET
 10
-155.584731
 20
-78.993907
 30
448.663361
 70
    64
  0
VERTEX
  5
60F
  8
TEAM-NET
 10
-165.966407
 20
-86.839024
 30
450.046667
 70
    64
  0
VERTEX
  5
610
  8
TEAM-NET
 10
-175.614283
 20
-95.545364
 30
451.581829
 70
    64
  0
VERTEX
  5
611
  8
TEAM-NET
 10
-184.454932
 20
-105.046667
 30
453.257165
 70
    64
  0
VERTEX
  5
612
  8
TEAM-NET
 10
-192.421072
 20
-115.270622
 30
455.059925
 70
    64
  0
VERTEX
  5
613
  8
TEAM-NET
 10
-199.452076
 20
-126.139419
 30
456.976387
 70
    64
  0
VERTEX
  5
614
  8
TEAM-NET
 10
-205.494434
 20
-137.570339
 30
458.991966
 70
    64
  0
VERTEX
  5
615
  8
TEAM-NET
 10
-210.502159
 20
-149.476387
 30
461.091324
 70
    64
  0
VERTEX
  5
616
  8
TEAM-NET
 10
-214.437139
 20
-161.76695
 30
463.258482
 70
    64
  0
VERTEX
  5
617
  8
TEAM-NET
 10
-217.269428
 20
-174.348489
 30
465.476947
 70
    64
  0
VERTEX
  5
618
  8
TEAM-NET
 10
-218.97747
 20
-187.125252
 30
467.729835
 70
    64
  0
VERTEX
  5
619
  8
TEAM-NET
 10
-219.548265
 20
-200.0
 30
470.0
 70
    64
  0
VERTEX
  5
61A
  8
TEAM-NET
 10
80.451735
 20
-200.0
 30
470.0
 70
    64
  0
VERTEX
  5
61B
  8
TEAM-NET
 10
79.880939
 20
-186.976387
 30
468.860581
 70
    64
  0
VERTEX
  5
61C
  8
TEAM-NET
 10
78.172897
 20
-174.051891
 30
467.729835
 70
    64
  0
VERTEX
  5
61D
  8
TEAM-NET
 10
75.340608
 20
-161.324876
 30
466.616365
 70
    64
  0
VERTEX
  5
61E
  8
TEAM-NET
 10
71.405628
 20
-148.892202
 30
465.528647
 70
    64
  0
VERTEX
  5
61F
  8
TEAM-NET
 10
66.397903
 20
-136.848489
 30
464.474959
 70
    64
  0
VERTEX
  5
620
  8
TEAM-NET
 10
60.355545
 20
-125.285398
 30
463.463319
 70
    64
  0
VERTEX
  5
621
  8
TEAM-NET
 10
53.324541
 20
-114.290929
 30
462.501428
 70
    64
  0
VERTEX
  5
622
  8
TEAM-NET
 10
45.358401
 20
-103.948759
 30
461.596605
 70
    64
  0
VERTEX
  5
623
  8
TEAM-NET
 10
36.517752
 20
-94.337596
 30
460.755737
 70
    64
  0
VERTEX
  5
624
  8
TEAM-NET
 10
26.869876
 20
-85.530588
 30
459.985224
 70
    64
  0
VERTEX
  5
625
  8
TEAM-NET
 10
16.4882
 20
-77.594761
 30
459.290929
 70
    64
  0
VERTEX
  5
626
  8
TEAM-NET
 10
5.451735
 20
-70.590513
 30
458.678137
 70
    64
  0
VERTEX
  5
627
  8
TEAM-NET
 10
-6.155526
 20
-64.571148
 30
458.151511
 70
    64
  0
VERTEX
  5
628
  8
TEAM-NET
 10
-18.245244
 20
-59.582479
 30
457.715059
 70
    64
  0
VERTEX
  5
629
  8
TEAM-NET
 10
-30.725409
 20
-55.662472
 30
457.372103
 70
    64
  0
VERTEX
  5
62A
  8
TEAM-NET
 10
-43.501039
 20
-52.840961
 30
457.125252
 70
    64
  0
VERTEX
  5
62B
  8
TEAM-NET
 10
-56.474904
 20
-51.139419
 30
456.976387
 70
    64
  0
VERTEX
  5
62C
  8
TEAM-NET
 10
-69.548265
 20
-50.570795
 30
456.926639
 70
    64
  0
VERTEX
  5
62D
  8
TEAM-NET
 10
-82.621627
 20
-51.139419
 30
456.976387
 70
    64
  0
VERTEX
  5
62E
  8
TEAM-NET
 10
-95.595492
 20
-52.840961
 30
457.125252
 70
    64
  0
VERTEX
  5
62F
  8
TEAM-NET
 10
-108.371122
 20
-55.662472
 30
457.372103
 70
    64
  0
VERTEX
  5
630
  8
TEAM-NET
 10
-120.851287
 20
-59.582479
 30
457.715059
 70
    64
  0
VERTEX
  5
631
  8
TEAM-NET
 10
-132.941005
 20
-64.571148
 30
458.151511
 70
    64
  0
VERTEX
  5
632
  8
TEAM-NET
 10
-144.548265
 20
-70.590513
 30
458.678137
 70
    64
  0
VERTEX
  5
633
  8
TEAM-NET
 10
-155.584731
 20
-77.594761
 30
459.290929
 70
    64
  0
VERTEX
  5
634
  8
TEAM-NET
 10
-165.966407
 20
-85.530588
 30
459.985224
 70
    64
  0
VERTEX
  5
635
  8
TEAM-NET
 10
-175.614283
 20
-94.337596
 30
460.755737
 70
    64
  0
VERTEX
  5
636
  8
TEAM-NET
 10
-184.454932
 20
-103.948759
 30
461.596605
 70
    64
  0
VERTEX
  5
637
  8
TEAM-NET
 10
-192.421072
 20
-114.290929
 30
462.501428
 70
    64
  0
VERTEX
  5
638
  8
TEAM-NET
 10
-199.452076
 20
-125.285398
 30
463.463319
 70
    64
  0
VERTEX
  5
639
  8
TEAM-NET
 10
-205.494434
 20
-136.848489
 30
464.474959
 70
    64
  0
VERTEX
  5
63A
  8
TEAM-NET
 10
-210.502159
 20
-148.892202
 30
465.528647
 70
    64
  0
VERTEX
  5
63B
  8
TEAM-NET
 10
-214.437139
 20
-161.324876
 30
466.616365
 70
    64
  0
VERTEX
  5
63C
  8
TEAM-NET
 10
-217.269428
 20
-174.051891
 30
467.729835
 70
    64
  0
VERTEX
  5
63D
  8
TEAM-NET
 10
-218.97747
 20
-186.976387
 30
468.860581
 70
    64
  0
VERTEX
  5
63E
  8
TEAM-NET
 10
-219.548265
 20
-200.0
 30
470.0
 70
    64
  0
VERTEX
  5
63F
  8
TEAM-NET
 10
80.451735
 20
-200.0
 30
470.0
 70
    64
  0
VERTEX
  5
640
  8
TEAM-NET
 10
79.880939
 20
-186.926639
 30
470.0
 70
    64
  0
VERTEX
  5
641
  8
TEAM-NET
 10
78.172897
 20
-173.952773
 30
470.0
 70
    64
  0
VERTEX
  5
642
  8
TEAM-NET
 10
75.340608
 20
-161.177143
 30
470.0
 70
    64
  0
VERTEX
  5
643
  8
TEAM-NET
 10
71.405628
 20
-148.696979
 30
470.0
 70
    64
  0
VERTEX
  5
644
  8
TEAM-NET
 10
66.397903
 20
-136.607261
 30
470.0
 70
    64
  0
VERTEX
  5
645
  8
TEAM-NET
 10
60.355545
 20
-125.0
 30
470.0
 70
    64
  0
VERTEX
  5
646
  8
TEAM-NET
 10
53.324541
 20
-113.963535
 30
470.0
 70
    64
  0
VERTEX
  5
647
  8
TEAM-NET
 10
45.358401
 20
-103.581859
 30
470.0
 70
    64
  0
VERTEX
  5
648
  8
TEAM-NET
 10
36.517752
 20
-93.933983
 30
470.0
 70
    64
  0
VERTEX
  5
649
  8
TEAM-NET
 10
26.869876
 20
-85.093334
 30
470.0
 70
    64
  0
VERTEX
  5
64A
  8
TEAM-NET
 10
16.4882
 20
-77.127193
 30
470.0
 70
    64
  0
VERTEX
  5
64B
  8
TEAM-NET
 10
5.451735
 20
-70.096189
 30
470.0
 70
    64
  0
VERTEX
  5
64C
  8
TEAM-NET
 10
-6.155526
 20
-64.053832
 30
470.0
 70
    64
  0
VERTEX
  5
64D
  8
TEAM-NET
 10
-18.245244
 20
-59.046107
 30
470.0
 70
    64
  0
VERTEX
  5
64E
  8
TEAM-NET
 10
-30.725409
 20
-55.111126
 30
470.0
 70
    64
  0
VERTEX
  5
64F
  8
TEAM-NET
 10
-43.501039
 20
-52.278837
 30
470.0
 70
    64
  0
VERTEX
  5
650
  8
TEAM-NET
 10
-56.474904
 20
-50.570795
 30
470.0
 70
    64
  0
VERTEX
  5
651
  8
TEAM-NET
 10
-69.548265
 20
-50.0
 30
470.0
 70
    64
  0
VERTEX
  5
652
  8
TEAM-NET
 10
-82.621627
 20
-50.570795
 30
470.0
 70
    64
  0
VERTEX
  5
653
  8
TEAM-NET
 10
-95.595492
 20
-52.278837
 30
470.0
 70
    64
  0
VERTEX
  5
654
  8
TEAM-NET
 10
-108.371122
 20
-55.111126
 30
470.0
 70
    64
  0
VERTEX
  5
655
  8
TEAM-NET
 10
-120.851287
 20
-59.046107
 30
470.0
 70
    64
  0
VERTEX
  5
656
  8
TEAM-NET
 10
-132.941005
 20
-64.053832
 30
470.0
 70
    64
  0
VERTEX
  5
657
  8
TEAM-NET
 10
-144.548265
 20
-70.096189
 30
470.0
 70
    64
  0
VERTEX
  5
658
  8
TEAM-NET
 10
-155.584731
 20
-77.127193
 30
470.0
 70
    64
  0
VERTEX
  5
659
  8
TEAM-NET
 10
-165.966407
 20
-85.093334
 30
470.0
 70
    64
  0
VERTEX
  5
65A
  8
TEAM-NET
 10
-175.614283
 20
-93.933983
 30
470.0
 70
    64
  0
VERTEX
  5
65B
  8
TEAM-NET
 10
-184.454932
 20
-103.581859
 30
470.0
 70
    64
  0
VERTEX
  5
65C
  8
TEAM-NET
 10
-192.421072
 20
-113.963535
 30
470.0
 70
    64
  0
VERTEX
  5
65D
  8
TEAM-NET
 10
-199.452076
 20
-125.0
 30
470.0
 70
    64
  0
VERTEX
  5
65E
  8
TEAM-NET
 10
-205.494434
 20
-136.607261
 30
470.0
 70
    64
  0
VERTEX
  5
65F
  8
TEAM-NET
 10
-210.502159
 20
-148.696979
 30
470.0
 70
    64
  0
VERTEX
  5
660
  8
TEAM-NET
 10
-214.437139
 20
-161.177143
 30
470.0
 70
    64
  0
VERTEX
  5
661
  8
TEAM-NET
 10
-217.269428
 20
-173.952773
 30
470.0
 70
    64
  0
VERTEX
  5
662
  8
TEAM-NET
 10
-218.97747
 20
-186.926639
 30
470.0
 70
    64
  0
VERTEX
  5
663
  8
TEAM-NET
 10
-219.548265
 20
-200.0
 30
470.0
 70
    64
  0
SEQEND
  5
664
  8
TEAM-NET
  0
POLYLINE
  5
665
  8
TEAM-BODY
 66
     1
 10
0.0
 20
0.0
 30
320.0
  0
VERTEX
  5
728
  8
TEAM-BODY
 10
-123.548265
 20
-60.057155
 30
320.0
  0
VERTEX
  5
729
  8
TEAM-BODY
 10
-123.548265
 20
-255.0
 30
320.0
  0
VERTEX
  5
72A
  8
TEAM-BODY
 10
70.004592
 20
-255.0
 30
320.0
  0
SEQEND
  5
72B
  8
TEAM-BODY
  0
CIRCLE
  5
666
  8
TEAM-DET1
 10
-69.548265
 20
-200.0
 30
320.0
 40
30.0
  0
LINE
  5
668
  8
TEAM-AXE
 10
-109.548265
 20
-200.0
 30
320.0
 11
-29.548265
 21
-200.0
 31
320.0
  0
LINE
  5
66B
  8
TEAM-AXE
 10
-69.548265
 20
-240.0
 30
320.0
 11
-69.548265
 21
-160.0
 31
320.0
  0
CIRCLE
  5
66C
  8
TEAM-BODY
 10
-69.548265
 20
-200.0
 30
320.0
 40
20.0
  0
POLYLINE
  5
66D
  8
TEAM-NET
 66
     1
 10
0.0
 20
0.0
 30
0.0
 70
    16
 71
     2
 72
    37
  0
VERTEX
  5
66E
  8
TEAM-NET
 10
71.078901
 20
-255.0
 30
450.0
 70
    64
  0
VERTEX
  5
66F
  8
TEAM-NET
 10
74.315379
 20
-245.872124
 30
450.0
 70
    64
  0
VERTEX
  5
670
  8
TEAM-NET
 10
76.960068
 20
-236.55555
 30
450.0
 70
    64
  0
VERTEX
  5
671
  8
TEAM-NET
 10
79.002088
 20
-227.088604
 30
450.0
 70
    64
  0
VERTEX
  5
672
  8
TEAM-NET
 10
80.43304
 20
-217.510227
 30
450.0
 70
    64
  0
VERTEX
  5
673
  8
TEAM-NET
 10
81.247037
 20
-207.859822
 30
450.0
 70
    64
  0
VERTEX
  5
674
  8
TEAM-NET
 10
81.440731
 20
-198.177084
 30
450.0
 70
    64
  0
VERTEX
  5
675
  8
TEAM-NET
 10
81.013325
 20
-188.501846
 30
450.0
 70
    64
  0
VERTEX
  5
676
  8
TEAM-NET
 10
79.966577
 20
-178.873905
 30
450.0
 70
    64
  0
VERTEX
  5
677
  8
TEAM-NET
 10
78.304793
 20
-169.332868
 30
450.0
 70
    64
  0
VERTEX
  5
678
  8
TEAM-NET
 10
76.03481
 20
-159.917981
 30
450.0
 70
    64
  0
VERTEX
  5
679
  8
TEAM-NET
 10
73.165963
 20
-150.667973
 30
450.0
 70
    64
  0
VERTEX
  5
67A
  8
TEAM-NET
 10
69.710056
 20
-141.620895
 30
450.0
 70
    64
  0
VERTEX
  5
67B
  8
TEAM-NET
 10
65.681303
 20
-132.813962
 30
450.0
 70
    64
  0
VERTEX
  5
67C
  8
TEAM-NET
 10
61.096278
 20
-124.283401
 30
450.0
 70
    64
  0
VERTEX
  5
67D
  8
TEAM-NET
 10
55.97384
 20
-116.064305
 30
450.0
 70
    64
  0
VERTEX
  5
67E
  8
TEAM-NET
 10
50.335062
 20
-108.190481
 30
450.0
 70
    64
  0
VERTEX
  5
67F
  8
TEAM-NET
 10
44.203138
 20
-100.69432
 30
450.0
 70
    64
  0
VERTEX
  5
680
  8
TEAM-NET
 10
37.603293
 20
-93.606657
 30
450.0
 70
    64
  0
VERTEX
  5
681
  8
TEAM-NET
 10
30.562676
 20
-86.956648
 30
450.0
 70
    64
  0
VERTEX
  5
682
  8
TEAM-NET
 10
23.110247
 20
-80.771647
 30
450.0
 70
    64
  0
VERTEX
  5
683
  8
TEAM-NET
 10
15.276664
 20
-75.077098
 30
450.0
 70
    64
  0
VERTEX
  5
684
  8
TEAM-NET
 10
7.094149
 20
-69.896425
 30
450.0
 70
    64
  0
VERTEX
  5
685
  8
TEAM-NET
 10
-1.403637
 20
-65.250938
 30
450.0
 70
    64
  0
VERTEX
  5
686
  8
TEAM-NET
 10
-10.18174
 20
-61.159748
 30
450.0
 70
    64
  0
VERTEX
  5
687
  8
TEAM-NET
 10
-19.204049
 20
-57.639683
 30
450.0
 70
    64
  0
VERTEX
  5
688
  8
TEAM-NET
 10
-28.433451
 20
-54.705224
 30
450.0
 70
    64
  0
VERTEX
  5
689
  8
TEAM-NET
 10
-37.831981
 20
-52.368441
 30
450.0
 70
    64
  0
VERTEX
  5
68A
  8
TEAM-NET
 10
-47.360977
 20
-50.638947
 30
450.0
 70
    64
  0
VERTEX
  5
68B
  8
TEAM-NET
 10
-56.981242
 20
-49.523856
 30
450.0
 70
    64
  0
VERTEX
  5
68C
  8
TEAM-NET
 10
-66.653202
 20
-49.027756
 30
450.0
 70
    64
  0
VERTEX
  5
68D
  8
TEAM-NET
 10
-76.33707
 20
-49.152686
 30
450.0
 70
    64
  0
VERTEX
  5
68E
  8
TEAM-NET
 10
-85.993013
 20
-49.898134
 30
450.0
 70
    64
  0
VERTEX
  5
68F
  8
TEAM-NET
 10
-95.581309
 20
-51.261032
 30
450.0
 70
    64
  0
VERTEX
  5
690
  8
TEAM-NET
 10
-105.062518
 20
-53.235774
 30
450.0
 70
    64
  0
VERTEX
  5
691
  8
TEAM-NET
 10
-114.397636
 20
-55.814238
 30
450.0
 70
    64
  0
VERTEX
  5
692
  8
TEAM-NET
 10
-123.548265
 20
-58.985816
 30
450.0
 70
    64
  0
VERTEX
  5
693
  8
TEAM-NET
 10
70.004592
 20
-255.0
 30
450.0
 70
    64
  0
VERTEX
  5
694
  8
TEAM-NET
 10
87.490822
 20
-255.0
 30
450.0
 70
    64
  0
VERTEX
  5
695
  8
TEAM-NET
 10
104.977053
 20
-255.0
 30
450.0
 70
    64
  0
VERTEX
  5
696
  8
TEAM-NET
 10
122.463283
 20
-255.0
 30
450.0
 70
    64
  0
VERTEX
  5
697
  8
TEAM-NET
 10
130.451735
 20
-245.502221
 30
450.0
 70
    64
  0
VERTEX
  5
698
  8
TEAM-NET
 10
130.451735
 20
-228.01599
 30
450.0
 70
    64
  0
VERTEX
  5
699
  8
TEAM-NET
 10
130.451735
 20
-210.52976
 30
450.0
 70
    64
  0
VERTEX
  5
69A
  8
TEAM-NET
 10
130.451735
 20
-193.043529
 30
450.0
 70
    64
  0
VERTEX
  5
69B
  8
TEAM-NET
 10
130.451735
 20
-175.557299
 30
450.0
 70
    64
  0
VERTEX
  5
69C
  8
TEAM-NET
 10
130.451735
 20
-158.071068
 30
450.0
 70
    64
  0
VERTEX
  5
69D
  8
TEAM-NET
 10
130.451735
 20
-140.584838
 30
450.0
 70
    64
  0
VERTEX
  5
69E
  8
TEAM-NET
 10
130.451735
 20
-123.098607
 30
450.0
 70
    64
  0
VERTEX
  5
69F
  8
TEAM-NET
 10
130.451735
 20
-105.612377
 30
450.0
 70
    64
  0
VERTEX
  5
6A0
  8
TEAM-NET
 10
130.451735
 20
-88.126146
 30
450.0
 70
    64
  0
VERTEX
  5
6A1
  8
TEAM-NET
 10
130.451735
 20
-70.639916
 30
450.0
 70
    64
  0
VERTEX
  5
6A2
  8
TEAM-NET
 10
130.451735
 20
-53.153685
 30
450.0
 70
    64
  0
VERTEX
  5
6A3
  8
TEAM-NET
 10
130.451735
 20
-35.667455
 30
450.0
 70
    64
  0
VERTEX
  5
6A4
  8
TEAM-NET
 10
130.451735
 20
-18.181225
 30
450.0
 70
    64
  0
VERTEX
  5
6A5
  8
TEAM-NET
 10
130.451735
 20
-0.694994
 30
450.0
 70
    64
  0
VERTEX
  5
6A6
  8
TEAM-NET
 10
113.660498
 20
0.0
 30
450.0
 70
    64
  0
VERTEX
  5
6A7
  8
TEAM-NET
 10
96.174268
 20
0.0
 30
450.0
 70
    64
  0
VERTEX
  5
6A8
  8
TEAM-NET
 10
78.688037
 20
0.0
 30
450.0
 70
    64
  0
VERTEX
  5
6A9
  8
TEAM-NET
 10
61.201807
 20
0.0
 30
450.0
 70
    64
  0
VERTEX
  5
6AA
  8
TEAM-NET
 10
43.715576
 20
0.0
 30
450.0
 70
    64
  0
VERTEX
  5
6AB
  8
TEAM-NET
 10
26.229346
 20
0.0
 30
450.0
 70
    64
  0
VERTEX
  5
6AC
  8
TEAM-NET
 10
8.743115
 20
0.0
 30
450.0
 70
    64
  0
VERTEX
  5
6AD
  8
TEAM-NET
 10
-8.743115
 20
0.0
 30
450.0
 70
    64
  0
VERTEX
  5
6AE
  8
TEAM-NET
 10
-26.229346
 20
0.0
 30
450.0
 70
    64
  0
VERTEX
  5
6AF
  8
TEAM-NET
 10
-43.715576
 20
0.0
 30
450.0
 70
    64
  0
VERTEX
  5
6B0
  8
TEAM-NET
 10
-61.201807
 20
0.0
 30
450.0
 70
    64
  0
VERTEX
  5
6B1
  8
TEAM-NET
 10
-78.688037
 20
0.0
 30
450.0
 70
    64
  0
VERTEX
  5
6B2
  8
TEAM-NET
 10
-96.174268
 20
0.0
 30
450.0
 70
    64
  0
VERTEX
  5
6B3
  8
TEAM-NET
 10
-113.660498
 20
0.0
 30
450.0
 70
    64
  0
VERTEX
  5
6B4
  8
TEAM-NET
 10
-123.548265
 20
-7.598463
 30
450.0
 70
    64
  0
VERTEX
  5
6B5
  8
TEAM-NET
 10
-123.548265
 20
-25.084694
 30
450.0
 70
    64
  0
VERTEX
  5
6B6
  8
TEAM-NET
 10
-123.548265
 20
-42.570924
 30
450.0
 70
    64
  0
VERTEX
  5
6B7
  8
TEAM-NET
 10
-123.548265
 20
-60.057155
 30
450.0
 70
    64
  0
SEQEND
  5
6B8
  8
TEAM-NET
  0
POLYLINE
  5
6B9
  8
TEAM-BODY
 66
     1
 10
0.0
 20
0.0
 30
450.0
  0
VERTEX
  5
72C
  8
TEAM-BODY
 10
70.004592
 20
-255.0
 30
450.0
  0
VERTEX
  5
72D
  8
TEAM-BODY
 10
130.451735
 20
-255.0
 30
450.0
  0
VERTEX
  5
72E
  8
TEAM-BODY
 10
130.451735
 20
0.0
 30
450.0
  0
VERTEX
  5
72F
  8
TEAM-BODY
 10
-123.548265
 20
0.0
 30
450.0
  0
VERTEX
  5
730
  8
TEAM-BODY
 10
-123.548265
 20
-60.057155
 30
450.0
  0
SEQEND
  5
731
  8
TEAM-BODY
  0
ARC
  5
6BA
  8
TEAM-DET3
 10
-69.548265
 20
-200.0
 30
450.0
 40
151.0
 50
338.639279
 51
110.953852
  0
TEXT
  5
6BC
  8
TEAM-TXT
 10
-20.717625
 20
-298.037745
 30
470.0
 40
30.0
  1
team 217032
 41
0.8
 51
15.0
  7
TEAM
  0
ARC
  5
6BF
  8
TEAM-BODY
 10
-69.548265
 20
-200.0
 30
470.0
 40
150.0
 50
0.0
 51
180.0
  0
ARC
  5
6C0
  8
TEAM-BODY
 10
-69.548265
 20
-200.0
 30
470.0
 40
150.0
 50
180.0
 51
0.0
  0
ENDSEC
  0
EOF
